  0
SECTION
  2
HEADER
  9
$ACADVER
  1
AC1009
  9
$INSBASE
 10
0.0
 20
0.0
 30
0.0
  9
$EXTMIN
 10
-84.179790792747426
 20
-97.8245197698526
 30
0.0
  9
$EXTMAX
 10
82.234075736774358
 20
108.1786759712333
 30
0.0
  9
$LIMMIN
 10
0.0
 20
0.0
  9
$LIMMAX
 10
790.0
 20
790.0
  9
$ORTHOMODE
 70
     1
  9
$REGENMODE
 70
     1
  9
$FILLMODE
 70
     1
  9
$QTEXTMODE
 70
     0
  9
$MIRRTEXT
 70
     1
  9
$DRAGMODE
 70
     2
  9
$LTSCALE
 40
4.0
  9
$OSMODE
 70
   167
  9
$ATTMODE
 70
     1
  9
$TEXTSIZE
 40
3.5
  9
$TRACEWID
 40
0.05
  9
$TEXTSTYLE
  7
ISO
  9
$CLAYER
  8
0
  9
$CELTYPE
  6
BYLAYER
  9
$CECOLOR
 62
   256
  9
$DIMSCALE
 40
0.0
  9
$DIMASZ
 40
3.0
  9
$DIMEXO
 40
1.5
  9
$DIMDLI
 40
10.0
  9
$DIMRND
 40
0.0
  9
$DIMDLE
 40
0.0
  9
$DIMEXE
 40
1.5
  9
$DIMTP
 40
0.0
  9
$DIMTM
 40
0.0
  9
$DIMTXT
 40
3.0
  9
$DIMCEN
 40
-5.0
  9
$DIMTSZ
 40
0.0
  9
$DIMTOL
 70
     0
  9
$DIMLIM
 70
     0
  9
$DIMTIH
 70
     0
  9
$DIMTOH
 70
     0
  9
$DIMSE1
 70
     0
  9
$DIMSE2
 70
     0
  9
$DIMTAD
 70
     1
  9
$DIMZIN
 70
     8
  9
$DIMBLK
  1

  9
$DIMASO
 70
     1
  9
$DIMSHO
 70
     1
  9
$DIMPOST
  1

  9
$DIMAPOST
  1

  9
$DIMALT
 70
     0
  9
$DIMALTD
 70
     0
  9
$DIMALTF
 40
25.399999999999999
  9
$DIMLFAC
 40
-1.0
  9
$DIMTOFL
 70
     1
  9
$DIMTVP
 40
0.0
  9
$DIMTIX
 70
     0
  9
$DIMSOXD
 70
     0
  9
$DIMSAH
 70
     0
  9
$DIMBLK1
  1

  9
$DIMBLK2
  1

  9
$DIMSTYLE
  2
MASKIN
  9
$DIMCLRD
 70
   256
  9
$DIMCLRE
 70
   256
  9
$DIMCLRT
 70
     2
  9
$DIMTFAC
 40
1.0
  9
$DIMGAP
 40
1.0
  9
$LUNITS
 70
     2
  9
$LUPREC
 70
     8
  9
$SKETCHINC
 40
0.1
  9
$FILLETRAD
 40
0.0
  9
$AUNITS
 70
     0
  9
$AUPREC
 70
     8
  9
$MENU
  1
ACAD
  9
$ELEVATION
 40
0.0
  9
$PELEVATION
 40
0.0
  9
$THICKNESS
 40
0.0
  9
$LIMCHECK
 70
     0
  9
$BLIPMODE
 70
     0
  9
$CHAMFERA
 40
0.0
  9
$CHAMFERB
 40
0.0
  9
$SKPOLY
 70
     0
  9
$TDCREATE
 40
2454993.554922685
  9
$TDUPDATE
 40
2455057.6243479052
  9
$TDINDWG
 40
0.0418118056
  9
$TDUSRTIMER
 40
0.0418116204
  9
$USRTIMER
 70
     1
  9
$ANGBASE
 50
0.0
  9
$ANGDIR
 70
     0
  9
$PDMODE
 70
     0
  9
$PDSIZE
 40
0.0
  9
$PLINEWID
 40
0.0
  9
$COORDS
 70
     1
  9
$SPLFRAME
 70
     0
  9
$SPLINETYPE
 70
     6
  9
$SPLINESEGS
 70
     8
  9
$ATTDIA
 70
     0
  9
$ATTREQ
 70
     1
  9
$HANDLING
 70
     1
  9
$HANDSEED
  5
22E8
  9
$SURFTAB1
 70
     6
  9
$SURFTAB2
 70
     6
  9
$SURFTYPE
 70
     6
  9
$SURFU
 70
     6
  9
$SURFV
 70
     6
  9
$UCSNAME
  2

  9
$UCSORG
 10
0.0
 20
0.0
 30
0.0
  9
$UCSXDIR
 10
1.0
 20
0.0
 30
0.0
  9
$UCSYDIR
 10
0.0
 20
1.0
 30
0.0
  9
$PUCSNAME
  2

  9
$PUCSORG
 10
0.0
 20
0.0
 30
0.0
  9
$PUCSXDIR
 10
1.0
 20
0.0
 30
0.0
  9
$PUCSYDIR
 10
0.0
 20
1.0
 30
0.0
  9
$USERI1
 70
     0
  9
$USERI2
 70
     0
  9
$USERI3
 70
     0
  9
$USERI4
 70
     0
  9
$USERI5
 70
     0
  9
$USERR1
 40
0.0
  9
$USERR2
 40
0.0
  9
$USERR3
 40
0.0
  9
$USERR4
 40
0.0
  9
$USERR5
 40
0.0
  9
$WORLDVIEW
 70
     1
  9
$SHADEDGE
 70
     3
  9
$SHADEDIF
 70
    70
  9
$TILEMODE
 70
     1
  9
$MAXACTVP
 70
    16
  9
$PLIMCHECK
 70
     0
  9
$PEXTMIN
 10
5.868009702067809
 20
-0.0038431578304881
 30
-0.0000000349181948
  9
$PEXTMAX
 10
185.8813063784483
 20
283.00827642046738
 30
0.0000000814935746
  9
$PLIMMIN
 10
-14.406514999948911
 20
-4.2536696474310238
  9
$PLIMMAX
 10
195.56681263676981
 20
292.67232522561591
  9
$UNITMODE
 70
     0
  9
$VISRETAIN
 70
     1
  9
$PLINEGEN
 70
     0
  9
$PSLTSCALE
 70
     1
  0
ENDSEC
  0
SECTION
  2
TABLES
  0
TABLE
  2
VPORT
 70
     1
  0
VPORT
  2
*ACTIVE
 70
     0
 10
0.0
 20
0.0
 11
1.0
 21
1.0
 12
72.847916172511219
 22
5.1742890264094958
 13
0.0
 23
0.0
 14
1.0
 24
1.0
 15
0.0
 25
0.0
 16
0.0
 26
0.0
 36
1.0
 17
0.0
 27
0.0
 37
0.0
 40
207.74537842113889
 41
2.362776025236593
 42
50.0
 43
0.0
 44
0.0
 50
0.0
 51
0.0
 71
     0
 72
  1000
 73
     1
 74
     1
 75
     0
 76
     0
 77
     0
 78
     0
  0
ENDTAB
  0
TABLE
  2
LTYPE
 70
    14
  0
LTYPE
  2
CONTINUOUS
 70
     0
  3
Solid line
 72
    65
 73
     0
 40
0.0
  0
LTYPE
  2
DASHED
 70
     0
  3
__ __ __ __ __ __ __ __ __ __ __ __ __ __ __
 72
    65
 73
     2
 40
0.75
 49
0.5
 49
-0.25
  0
LTYPE
  2
BYGG-01473402$0$NEWDOT
 70
     0
  3
____ . ____ . ____ . ____ . ____ . ____ . ____
 72
    65
 73
     4
 40
2.0
 49
1.0
 49
-0.5
 49
0.0
 49
-0.5
  0
LTYPE
  2
BYGG-014680$0$NEWDOT
 70
     0
  3
____ . ____ . ____ . ____ . ____ . ____ . ____
 72
    65
 73
     4
 40
2.0
 49
1.0
 49
-0.5
 49
0.0
 49
-0.5
  0
LTYPE
  2
BYGG-01458701$0$NEWDOT
 70
     0
  3
____ . ____ . ____ . ____ . ____ . ____ . ____
 72
    65
 73
     4
 40
2.0
 49
1.0
 49
-0.5
 49
0.0
 49
-0.5
  0
LTYPE
  2
BYGG-014252$0$NEWDOT
 70
     0
  3
____ . ____ . ____ . ____ . ____ . ____ . ____
 72
    65
 73
     4
 40
2.0
 49
1.0
 49
-0.5
 49
0.0
 49
-0.5
  0
LTYPE
  2
BYGG-01482101$0$DASHDOT
 70
     0
  3
__ . __ . __ . __ . __ . __ . __ . __ . __ . __
 72
    65
 73
     4
 40
1.0
 49
0.5
 49
-0.25
 49
0.0
 49
-0.25
  0
LTYPE
  2
BYGG-01482101$0$NEWDOT
 70
     0
  3
____ . ____ . ____ . ____ . ____ . ____ . ____
 72
    65
 73
     4
 40
2.0
 49
1.0
 49
-0.5
 49
0.0
 49
-0.5
  0
LTYPE
  2
BYGG-01482101$0$DASHED
 70
     0
  3
__ __ __ __ __ __ __ __ __ __ __ __ __ __ __
 72
    65
 73
     2
 40
0.75
 49
0.5
 49
-0.25
  0
LTYPE
  2
BYGG-014357$0$NEWDOT
 70
     0
  3
____ . ____ . ____ . ____ . ____ . ____ . ____
 72
    65
 73
     4
 40
2.0
 49
1.0
 49
-0.5
 49
0.0
 49
-0.5
  0
LTYPE
  2
BYGG-014357$0$DASHDOT
 70
     0
  3
__ . __ . __ . __ . __ . __ . __ . __ . __ . __
 72
    65
 73
     4
 40
1.0
 49
0.5
 49
-0.25
 49
0.0
 49
-0.25
  0
LTYPE
  2
BYGG-014357$0$DASHED
 70
     0
  3
__ __ __ __ __ __ __ __ __ __ __ __ __ __ __
 72
    65
 73
     2
 40
0.75
 49
0.5
 49
-0.25
  0
LTYPE
  2
BYGG-013688$0$NEWDOT
 70
     0
  3
____ . ____ . ____ . ____ . ____ . ____ . ____
 72
    65
 73
     4
 40
2.0
 49
1.0
 49
-0.5
 49
0.0
 49
-0.5
  0
LTYPE
  2
BYGG-014257$0$NEWDOT
 70
     0
  3
____ . ____ . ____ . ____ . ____ . ____ . ____
 72
    65
 73
     4
 40
2.0
 49
1.0
 49
-0.5
 49
0.0
 49
-0.5
  0
ENDTAB
  0
TABLE
  2
LAYER
 70
   115
  0
LAYER
  2
0
 70
     0
 62
     7
  6
CONTINUOUS
  0
LAYER
  2
SAPA_ANSLUTNING
 70
     0
 62
     6
  6
CONTINUOUS
  0
LAYER
  2
SAPA_ARTIKELNR
 70
     0
 62
     4
  6
CONTINUOUS
  0
LAYER
  2
SAPA_LIGHT
 70
     1
 62
     1
  6
CONTINUOUS
  0
LAYER
  2
SAPA_PROFIL
 70
     0
 62
     7
  6
CONTINUOUS
  0
LAYER
  2
SAPA_TEXT
 70
     0
 62
     2
  6
CONTINUOUS
  0
LAYER
  2
BYGG-013688$0$ARTIKELNUMME
 70
     0
 62
     4
  6
CONTINUOUS
  0
LAYER
  2
RAM_GRENS2
 70
     0
 62
     3
  6
CONTINUOUS
  0
LAYER
  2
3D-RAM
 70
     0
 62
     3
  6
CONTINUOUS
  0
LAYER
  2
SAPA_FOGBAND
 70
     0
 62
     2
  6
CONTINUOUS
  0
LAYER
  2
SAPA_ISOLATOR
 70
     0
 62
     4
  6
CONTINUOUS
  0
LAYER
  2
SAPA_MATT
 70
     0
 62
     1
  6
CONTINUOUS
  0
LAYER
  2
SAPA_GLAS
 70
     0
 62
     4
  6
CONTINUOUS
  0
ENDTAB
  0
TABLE
  2
STYLE
 70
    41
  0
STYLE
  2
STANDARD
 70
     0
 40
0.0
 41
1.0
 50
0.0
 71
     0
 42
0.2
  3
txt
  4

  0
STYLE
  2
ISO
 70
     0
 40
0.0
 41
1.0
 50
0.0
 71
     0
 42
3.5
  3
txt
  4

  0
STYLE
  2
BYGG-024109$0$STANDARD
 70
     0
 40
0.0
 41
1.0
 50
0.0
 71
     0
 42
0.2
  3
txt
  4

  0
STYLE
  2
BYGG-024109$0$ISO
 70
     0
 40
0.0
 41
1.0
 50
0.0
 71
     0
 42
3.5
  3
txt
  4

  0
STYLE
  2
BYGG-01473402$0$STANDARD
 70
     0
 40
0.0
 41
1.0
 50
0.0
 71
     0
 42
0.2
  3
txt
  4

  0
STYLE
  2
BYGG-01473402$0$ISO
 70
     0
 40
0.0
 41
1.0
 50
0.0
 71
     0
 42
2.5
  3
isocp3.shx
  4

  0
STYLE
  2
BYGG-024110$0$STANDARD
 70
     0
 40
0.0
 41
1.0
 50
0.0
 71
     0
 42
0.2
  3
txt
  4

  0
STYLE
  2
BYGG-024110$0$ISO
 70
     0
 40
0.0
 41
1.0
 50
0.0
 71
     0
 42
3.5
  3
txt
  4

  0
STYLE
  2
BYGG-014680$0$STANDARD
 70
     0
 40
0.0
 41
1.0
 50
0.0
 71
     0
 42
0.2
  3
txt
  4

  0
STYLE
  2
BYGG-014680$0$ISO
 70
     0
 40
0.0
 41
1.0
 50
0.0
 71
     0
 42
8.0
  3
iso
  4

  0
STYLE
  2
BYGG-024111$0$STANDARD
 70
     0
 40
0.0
 41
1.0
 50
0.0
 71
     0
 42
0.2
  3
txt
  4

  0
STYLE
  2
BYGG-024111$0$ISO
 70
     0
 40
0.0
 41
1.0
 50
0.0
 71
     0
 42
3.5
  3
txt
  4

  0
STYLE
  2
BYGG-01458701$0$STANDARD
 70
     0
 40
0.0
 41
1.0
 50
0.0
 71
     0
 42
0.2
  3
txt
  4

  0
STYLE
  2
BYGG-01458701$0$ISO
 70
     0
 40
0.0
 41
1.0
 50
0.0
 71
     0
 42
2.5
  3
isocp3.shx
  4

  0
STYLE
  2
BYGG-024082$0$STANDARD
 70
     0
 40
0.0
 41
1.0
 50
0.0
 71
     0
 42
0.2
  3
txt
  4

  0
STYLE
  2
BYGG-024082$0$ISO
 70
     0
 40
0.0
 41
1.0
 50
0.0
 71
     0
 42
3.5
  3
txt
  4

  0
STYLE
  2
BYGG-014252$0$STANDARD
 70
     0
 40
0.0
 41
1.0
 50
0.0
 71
     0
 42
0.2
  3
txt
  4

  0
STYLE
  2
BYGG-014252$0$ISO
 70
     0
 40
0.0
 41
1.0
 50
0.0
 71
     0
 42
2.5
  3
isocp3.shx
  4

  0
STYLE
  2
BYGG-014014$0$STANDARD
 70
     0
 40
0.0
 41
1.0
 50
0.0
 71
     0
 42
0.2
  3
txt
  4

  0
STYLE
  2
BYGG-024083$0$STANDARD
 70
     0
 40
0.0
 41
1.0
 50
0.0
 71
     0
 42
0.2
  3
txt
  4

  0
STYLE
  2
BYGG-024083$0$ISO
 70
     0
 40
0.0
 41
1.0
 50
0.0
 71
     0
 42
3.5
  3
txt
  4

  0
STYLE
  2
BYGG-021662$0$STANDARD
 70
     0
 40
0.0
 41
1.0
 50
0.0
 71
     0
 42
0.2
  3
txt
  4

  0
STYLE
  2
BYGG-021662$0$ISO
 70
     0
 40
0.0
 41
1.0
 50
0.0
 71
     0
 42
3.5
  3
isocp3.shx
  4

  0
STYLE
  2
BYGG-01482101$0$STANDARD
 70
     0
 40
0.0
 41
1.0
 50
0.0
 71
     0
 42
0.2
  3
txt
  4

  0
STYLE
  2
BYGG-01482101$0$ISO
 70
     0
 40
0.0
 41
1.0
 50
0.0
 71
     0
 42
3.5
  3
isocp3.shx
  4

  0
STYLE
  2
BYGG-021610$0$STANDARD
 70
     0
 40
0.0
 41
1.0
 50
0.0
 71
     0
 42
0.2
  3
txt
  4

  0
STYLE
  2
BYGG-021610$0$ISO
 70
     0
 40
0.0
 41
1.0
 50
0.0
 71
     0
 42
3.5
  3
isocp3.shx
  4

  0
STYLE
  2
BYGG-014357$0$STANDARD
 70
     0
 40
0.0
 41
1.0
 50
0.0
 71
     0
 42
0.2
  3
txt
  4

  0
STYLE
  2
BYGG-014357$0$ISO
 70
     0
 40
0.0
 41
1.0
 50
0.0
 71
     0
 42
3.5
  3
isocp3.shx
  4

  0
STYLE
  2
BYGG-014062$0$STANDARD
 70
     0
 40
0.0
 41
1.0
 50
0.0
 71
     0
 42
0.2
  3
txt
  4

  0
STYLE
  2
BYGG-014062$0$ISO
 70
     0
 40
0.0
 41
1.0
 50
0.0
 71
     0
 42
3.5
  3
isocp3.shx
  4

  0
STYLE
  2
BYGG-021806$0$STANDARD
 70
     0
 40
0.0
 41
1.0
 50
0.0
 71
     0
 42
0.2
  3
txt
  4

  0
STYLE
  2
BYGG-021806$0$ISO
 70
     0
 40
0.0
 41
1.0
 50
0.0
 71
     0
 42
3.5
  3
txt
  4

  0
STYLE
  2
BYGG-024123$0$STANDARD
 70
     0
 40
0.0
 41
1.0
 50
0.0
 71
     0
 42
0.2
  3
txt
  4

  0
STYLE
  2
BYGG-024123$0$ISO
 70
     0
 40
0.0
 41
1.0
 50
0.0
 71
     0
 42
3.5
  3
txt
  4

  0
STYLE
  2
BYGG-013688$0$STANDARD
 70
     0
 40
0.0
 41
1.0
 50
0.0
 71
     0
 42
0.2
  3
txt
  4

  0
STYLE
  2
BYGG-013688$0$ISO
 70
     0
 40
0.0
 41
1.0
 50
0.0
 71
     0
 42
8.0
  3
iso
  4

  0
STYLE
  2
BYGG-024103$0$STANDARD
 70
     0
 40
0.0
 41
1.0
 50
0.0
 71
     0
 42
0.2
  3
txt
  4

  0
STYLE
  2
BYGG-024103$0$ISO
 70
     0
 40
0.0
 41
1.0
 50
0.0
 71
     0
 42
3.5
  3
txt
  4

  0
STYLE
  2
BYGG-014257$0$STANDARD
 70
     0
 40
0.0
 41
1.0
 50
0.0
 71
     0
 42
0.2
  3
txt
  4

  0
STYLE
  2
BYGG-014257$0$ISO
 70
     0
 40
0.0
 41
1.0
 50
0.0
 71
     0
 42
2.5
  3
isocp3.shx
  4

  0
ENDTAB
  0
TABLE
  2
VIEW
 70
     0
  0
ENDTAB
  0
TABLE
  2
UCS
 70
     0
  0
ENDTAB
  0
TABLE
  2
APPID
 70
    18
  0
APPID
  2
ACAD
 70
     0
  0
APPID
  2
ACAD_DSTYLE_DIMTEXT_FILL
 70
     0
  0
APPID
  2
ACAD_DSTYLE_DIMEXT_LENGTH
 70
     0
  0
APPID
  2
ACAD_DSTYLE_DIMEXT_ENABLED
 70
     0
  0
APPID
  2
ACAD_DSTYLE_DIM_LINETYPE
 70
     0
  0
APPID
  2
ACAD_DSTYLE_DIM_EXT1_LINETYPE
 70
     0
  0
APPID
  2
ACAD_DSTYLE_DIM_EXT2_LINETYPE
 70
     0
  0
APPID
  2
ACAD_DSTYLE_DIMJOGGED_JOGA
 70
     0
  0
APPID
  2
ACAD_DSTYLE_DIMARC_LENGTH_
 70
     0
  0
APPID
  2
ACAD_PSEXT
 70
     0
  0
APPID
  2
ACAD_MLEADERVER
 70
     0
  0
APPID
  2
AME_SOL
 70
     0
  0
APPID
  2
AMG_ARCHIVE11
 70
     0
  0
APPID
  2
DCO15
 70
     0
  0
APPID
  2
ACAD_EXEMPT_FROM_CAD_STANDARDS
 70
     0
  0
APPID
  2
ACADANNOTATIVE
 70
     0
  0
APPID
  2
ACAECLAYERSTANDARD
 70
     0
  0
APPID
  2
CONTENTBLOCKICON
 70
     0
  0
ENDTAB
  0
TABLE
  2
DIMSTYLE
 70
    40
  0
DIMSTYLE
  2
MASKIN
 70
     0
  3

  4

  5

  6

  7

 40
0.0
 41
3.0
 42
1.5
 43
10.0
 44
1.5
 45
0.0
 46
0.0
 47
0.0
 48
0.0
140
3.0
141
-5.0
142
0.0
143
25.399999999999999
144
-1.0
145
0.0
146
1.0
147
1.0
 71
     0
 72
     0
 73
     0
 74
     0
 75
     0
 76
     0
 77
     1
 78
     8
170
     0
171
     0
172
     1
173
     0
174
     0
175
     0
176
   256
177
   256
178
     2
  0
DIMSTYLE
  2
BYGG-024109$0$STANDARD
 70
     0
  3

  4

  5

  6

  7

 40
1.0
 41
0.18
 42
0.0625
 43
0.38
 44
0.18
 45
0.0
 46
0.0
 47
0.0
 48
0.0
140
0.18
141
0.09
142
0.0
143
25.399999999999999
144
1.0
145
0.0
146
1.0
147
0.09
 71
     0
 72
     0
 73
     1
 74
     1
 75
     0
 76
     0
 77
     0
 78
     0
170
     0
171
     2
172
     0
173
     0
174
     0
175
     0
176
     0
177
     0
178
     0
  0
DIMSTYLE
  2
BYGG-024109$0$MASKIN
 70
     0
  3

  4

  5

  6

  7

 40
0.0
 41
3.0
 42
1.5
 43
10.0
 44
1.5
 45
0.0
 46
0.0
 47
0.0
 48
0.0
140
3.0
141
-5.0
142
0.0
143
25.399999999999999
144
-1.0
145
0.0
146
1.0
147
1.0
 71
     0
 72
     0
 73
     0
 74
     0
 75
     0
 76
     0
 77
     1
 78
     8
170
     0
171
     0
172
     1
173
     0
174
     0
175
     0
176
   256
177
   256
178
     2
  0
DIMSTYLE
  2
BYGG-01473402$0$STANDARD
 70
     0
  3

  4

  5

  6

  7

 40
1.0
 41
0.18
 42
0.0625
 43
0.38
 44
0.18
 45
0.0
 46
0.0
 47
0.0
 48
0.0
140
0.18
141
0.09
142
0.0
143
25.399999999999999
144
1.0
145
0.0
146
1.0
147
0.09
 71
     0
 72
     0
 73
     1
 74
     1
 75
     0
 76
     0
 77
     0
 78
     0
170
     0
171
     2
172
     0
173
     0
174
     0
175
     0
176
     0
177
     0
178
     0
  0
DIMSTYLE
  2
BYGG-01473402$0$MASKIN
 70
     0
  3

  4

  5

  6

  7

 40
0.0
 41
3.0
 42
1.5
 43
10.0
 44
1.5
 45
0.0
 46
0.0
 47
0.0
 48
0.0
140
3.0
141
-5.0
142
0.0
143
25.399999999999999
144
-1.0
145
0.0
146
1.0
147
1.0
 71
     0
 72
     0
 73
     0
 74
     1
 75
     0
 76
     0
 77
     1
 78
     8
170
     0
171
     0
172
     1
173
     0
174
     0
175
     0
176
   256
177
   256
178
     2
  0
DIMSTYLE
  2
BYGG-024110$0$STANDARD
 70
     0
  3

  4

  5

  6

  7

 40
1.0
 41
0.18
 42
0.0625
 43
0.38
 44
0.18
 45
0.0
 46
0.0
 47
0.0
 48
0.0
140
0.18
141
0.09
142
0.0
143
25.399999999999999
144
1.0
145
0.0
146
1.0
147
0.09
 71
     0
 72
     0
 73
     1
 74
     1
 75
     0
 76
     0
 77
     0
 78
     0
170
     0
171
     2
172
     0
173
     0
174
     0
175
     0
176
     0
177
     0
178
     0
  0
DIMSTYLE
  2
BYGG-024110$0$MASKIN
 70
     0
  3

  4

  5

  6

  7

 40
0.0
 41
3.0
 42
1.5
 43
10.0
 44
1.5
 45
0.0
 46
0.0
 47
0.0
 48
0.0
140
3.0
141
-5.0
142
0.0
143
25.399999999999999
144
-1.0
145
0.0
146
1.0
147
1.0
 71
     0
 72
     0
 73
     0
 74
     0
 75
     0
 76
     0
 77
     1
 78
     8
170
     0
171
     0
172
     1
173
     0
174
     0
175
     0
176
   256
177
   256
178
     2
  0
DIMSTYLE
  2
BYGG-014680$0$MASKIN
 70
     0
  3

  4

  5

  6

  7

 40
0.0
 41
3.0
 42
1.5
 43
10.0
 44
1.5
 45
0.0
 46
0.0
 47
0.0
 48
0.0
140
3.0
141
-5.0
142
0.0
143
25.399999999999999
144
-1.0
145
0.0
146
1.0
147
1.0
 71
     0
 72
     0
 73
     0
 74
     1
 75
     0
 76
     0
 77
     1
 78
     8
170
     0
171
     0
172
     1
173
     0
174
     0
175
     0
176
   256
177
   256
178
     2
  0
DIMSTYLE
  2
BYGG-024111$0$STANDARD
 70
     0
  3

  4

  5

  6

  7

 40
1.0
 41
0.18
 42
0.0625
 43
0.38
 44
0.18
 45
0.0
 46
0.0
 47
0.0
 48
0.0
140
0.18
141
0.09
142
0.0
143
25.399999999999999
144
1.0
145
0.0
146
1.0
147
0.09
 71
     0
 72
     0
 73
     1
 74
     1
 75
     0
 76
     0
 77
     0
 78
     0
170
     0
171
     2
172
     0
173
     0
174
     0
175
     0
176
     0
177
     0
178
     0
  0
DIMSTYLE
  2
BYGG-024111$0$MASKIN
 70
     0
  3

  4

  5

  6

  7

 40
0.0
 41
3.0
 42
1.5
 43
10.0
 44
1.5
 45
0.0
 46
0.0
 47
0.0
 48
0.0
140
3.0
141
-5.0
142
0.0
143
25.399999999999999
144
-1.0
145
0.0
146
1.0
147
1.0
 71
     0
 72
     0
 73
     0
 74
     0
 75
     0
 76
     0
 77
     1
 78
     8
170
     0
171
     0
172
     1
173
     0
174
     0
175
     0
176
   256
177
   256
178
     2
  0
DIMSTYLE
  2
BYGG-01458701$0$STANDARD
 70
     0
  3

  4

  5

  6

  7

 40
1.0
 41
0.18
 42
0.0625
 43
0.38
 44
0.18
 45
0.0
 46
0.0
 47
0.0
 48
0.0
140
0.18
141
0.09
142
0.0
143
25.399999999999999
144
1.0
145
0.0
146
1.0
147
0.09
 71
     0
 72
     0
 73
     1
 74
     1
 75
     0
 76
     0
 77
     0
 78
     0
170
     0
171
     2
172
     0
173
     0
174
     0
175
     0
176
     0
177
     0
178
     0
  0
DIMSTYLE
  2
BYGG-01458701$0$MASKIN
 70
     0
  3

  4

  5

  6

  7

 40
0.0
 41
3.0
 42
1.5
 43
10.0
 44
1.5
 45
0.0
 46
0.0
 47
0.0
 48
0.0
140
3.0
141
-5.0
142
0.0
143
25.399999999999999
144
-1.0
145
0.0
146
1.0
147
1.0
 71
     0
 72
     0
 73
     0
 74
     1
 75
     0
 76
     0
 77
     1
 78
     8
170
     0
171
     0
172
     1
173
     0
174
     0
175
     0
176
   256
177
   256
178
     2
  0
DIMSTYLE
  2
BYGG-024082$0$STANDARD
 70
     0
  3

  4

  5

  6

  7

 40
1.0
 41
0.18
 42
0.0625
 43
0.38
 44
0.18
 45
0.0
 46
0.0
 47
0.0
 48
0.0
140
0.18
141
0.09
142
0.0
143
25.399999999999999
144
1.0
145
0.0
146
1.0
147
0.09
 71
     0
 72
     0
 73
     1
 74
     1
 75
     0
 76
     0
 77
     0
 78
     0
170
     0
171
     2
172
     0
173
     0
174
     0
175
     0
176
     0
177
     0
178
     0
  0
DIMSTYLE
  2
BYGG-024082$0$MASKIN
 70
     0
  3

  4

  5

  6

  7

 40
0.0
 41
3.0
 42
1.5
 43
10.0
 44
1.5
 45
0.0
 46
0.0
 47
0.0
 48
0.0
140
3.0
141
-5.0
142
0.0
143
25.399999999999999
144
-1.0
145
0.0
146
1.0
147
1.0
 71
     0
 72
     0
 73
     0
 74
     0
 75
     0
 76
     0
 77
     1
 78
     8
170
     0
171
     0
172
     1
173
     0
174
     0
175
     0
176
   256
177
   256
178
     2
  0
DIMSTYLE
  2
BYGG-014252$0$STANDARD
 70
     0
  3

  4

  5

  6

  7

 40
1.0
 41
0.18
 42
0.0625
 43
0.38
 44
0.18
 45
0.0
 46
0.0
 47
0.0
 48
0.0
140
0.18
141
0.09
142
0.0
143
25.399999999999999
144
1.0
145
0.0
146
1.0
147
0.09
 71
     0
 72
     0
 73
     1
 74
     1
 75
     0
 76
     0
 77
     0
 78
     0
170
     0
171
     2
172
     0
173
     0
174
     0
175
     0
176
     0
177
     0
178
     0
  0
DIMSTYLE
  2
BYGG-014252$0$MASKIN
 70
     0
  3

  4

  5

  6

  7

 40
0.0
 41
3.0
 42
1.5
 43
10.0
 44
1.5
 45
0.0
 46
0.0
 47
0.0
 48
0.0
140
3.0
141
-5.0
142
0.0
143
25.399999999999999
144
-1.0
145
0.0
146
1.0
147
1.0
 71
     0
 72
     0
 73
     0
 74
     1
 75
     0
 76
     0
 77
     1
 78
     8
170
     0
171
     0
172
     1
173
     0
174
     0
175
     0
176
   256
177
   256
178
     2
  0
DIMSTYLE
  2
BYGG-014014$0$STANDARD
 70
     0
  3

  4

  5

  6

  7

 40
1.0
 41
0.18
 42
0.0625
 43
0.38
 44
0.18
 45
0.0
 46
0.0
 47
0.0
 48
0.0
140
0.18
141
0.09
142
0.0
143
25.399999999999999
144
1.0
145
0.0
146
1.0
147
0.09
 71
     0
 72
     0
 73
     1
 74
     1
 75
     0
 76
     0
 77
     0
 78
     0
170
     0
171
     2
172
     0
173
     0
174
     0
175
     0
176
     0
177
     0
178
     0
  0
DIMSTYLE
  2
BYGG-024083$0$STANDARD
 70
     0
  3

  4

  5

  6

  7

 40
1.0
 41
0.18
 42
0.0625
 43
0.38
 44
0.18
 45
0.0
 46
0.0
 47
0.0
 48
0.0
140
0.18
141
0.09
142
0.0
143
25.399999999999999
144
1.0
145
0.0
146
1.0
147
0.09
 71
     0
 72
     0
 73
     1
 74
     1
 75
     0
 76
     0
 77
     0
 78
     0
170
     0
171
     2
172
     0
173
     0
174
     0
175
     0
176
     0
177
     0
178
     0
  0
DIMSTYLE
  2
BYGG-024083$0$MASKIN
 70
     0
  3

  4

  5

  6

  7

 40
0.0
 41
3.0
 42
1.5
 43
10.0
 44
1.5
 45
0.0
 46
0.0
 47
0.0
 48
0.0
140
3.0
141
-5.0
142
0.0
143
25.399999999999999
144
-1.0
145
0.0
146
1.0
147
1.0
 71
     0
 72
     0
 73
     0
 74
     0
 75
     0
 76
     0
 77
     1
 78
     8
170
     0
171
     0
172
     1
173
     0
174
     0
175
     0
176
   256
177
   256
178
     2
  0
DIMSTYLE
  2
BYGG-021662$0$MASKIN
 70
     0
  3

  4

  5

  6

  7

 40
0.0
 41
3.0
 42
1.5
 43
10.0
 44
1.5
 45
0.0
 46
0.0
 47
0.0
 48
0.0
140
3.0
141
-5.0
142
0.0
143
25.399999999999999
144
-1.0
145
0.0
146
1.0
147
1.0
 71
     0
 72
     0
 73
     0
 74
     0
 75
     0
 76
     0
 77
     1
 78
     8
170
     0
171
     0
172
     1
173
     0
174
     0
175
     0
176
   256
177
   256
178
   256
  0
DIMSTYLE
  2
BYGG-01482101$0$STANDARD
 70
     0
  3

  4

  5

  6

  7

 40
1.0
 41
0.18
 42
0.0625
 43
0.38
 44
0.18
 45
0.0
 46
0.0
 47
0.0
 48
0.0
140
0.18
141
0.09
142
0.0
143
25.399999999999999
144
1.0
145
0.0
146
1.0
147
0.09
 71
     0
 72
     0
 73
     1
 74
     1
 75
     0
 76
     0
 77
     0
 78
     0
170
     0
171
     2
172
     0
173
     0
174
     0
175
     0
176
     0
177
     0
178
     0
  0
DIMSTYLE
  2
BYGG-01482101$0$MASKIN
 70
     0
  3

  4

  5

  6

  7

 40
0.0
 41
3.0
 42
1.5
 43
10.0
 44
1.5
 45
0.0
 46
0.0
 47
0.0
 48
0.0
140
3.0
141
-5.0
142
0.0
143
25.399999999999999
144
-1.0
145
0.0
146
1.0
147
1.0
 71
     0
 72
     0
 73
     0
 74
     1
 75
     0
 76
     0
 77
     1
 78
     8
170
     0
171
     0
172
     1
173
     0
174
     0
175
     0
176
   256
177
   256
178
     2
  0
DIMSTYLE
  2
BYGG-021610$0$MASKIN
 70
     0
  3

  4

  5

  6

  7

 40
0.0
 41
3.0
 42
1.5
 43
10.0
 44
1.5
 45
0.0
 46
0.0
 47
0.0
 48
0.0
140
3.0
141
-5.0
142
0.0
143
25.399999999999999
144
-1.0
145
0.0
146
1.0
147
1.0
 71
     0
 72
     0
 73
     0
 74
     0
 75
     0
 76
     0
 77
     1
 78
     8
170
     0
171
     0
172
     1
173
     0
174
     0
175
     0
176
   256
177
   256
178
   256
  0
DIMSTYLE
  2
BYGG-014357$0$MASKIN
 70
     0
  3

  4

  5

  6

  7

 40
0.0
 41
3.0
 42
1.5
 43
10.0
 44
1.5
 45
0.0
 46
0.0
 47
0.0
 48
0.0
140
3.0
141
-5.0
142
0.0
143
25.399999999999999
144
-1.0
145
0.0
146
1.0
147
1.0
 71
     0
 72
     0
 73
     0
 74
     0
 75
     0
 76
     0
 77
     1
 78
     8
170
     0
171
     0
172
     1
173
     0
174
     0
175
     0
176
   256
177
   256
178
   256
  0
DIMSTYLE
  2
BYGG-014357$0$MASKIN1
 70
     0
  3

  4

  5

  6

  7

 40
1.0
 41
3.0
 42
1.5
 43
10.0
 44
1.5
 45
0.0
 46
0.0
 47
0.0
 48
0.0
140
3.0
141
-5.0
142
0.0
143
25.399999999999999
144
1.0
145
0.0
146
1.0
147
0.9
 71
     0
 72
     0
 73
     0
 74
     0
 75
     0
 76
     0
 77
     1
 78
     8
170
     0
171
     0
172
     1
173
     0
174
     0
175
     0
176
   256
177
   256
178
   256
  0
DIMSTYLE
  2
BYGG-014357$0$MASKIN2
 70
     0
  3

  4

  5

  6

  7

 40
1.0
 41
3.0
 42
1.5
 43
10.0
 44
1.5
 45
0.0
 46
0.0
 47
0.0
 48
0.0
140
3.0
141
-5.0
142
0.0
143
25.399999999999999
144
1.0
145
0.0
146
1.0
147
0.9
 71
     0
 72
     0
 73
     0
 74
     0
 75
     0
 76
     0
 77
     1
 78
     8
170
     0
171
     0
172
     1
173
     0
174
     0
175
     0
176
   256
177
   256
178
   256
  0
DIMSTYLE
  2
BYGG-014357$0$MASKIN3
 70
     0
  3

  4

  5

  6

  7

 40
1.0
 41
3.0
 42
1.5
 43
10.0
 44
1.5
 45
0.0
 46
0.0
 47
0.0
 48
0.0
140
3.0
141
-5.0
142
0.0
143
25.399999999999999
144
1.0
145
0.0
146
1.0
147
0.9
 71
     0
 72
     0
 73
     0
 74
     0
 75
     0
 76
     0
 77
     1
 78
     8
170
     0
171
     0
172
     1
173
     0
174
     0
175
     0
176
   256
177
   256
178
   256
  0
DIMSTYLE
  2
BYGG-014357$0$DMST_1
 70
     0
  3

  4

  5

  6

  7

 40
1.0
 41
0.7000000000000002
 42
0.0
 43
7.0
 44
0.4
 45
0.0
 46
0.0
 47
0.15
 48
0.15
140
0.7000000000000002
141
0.0
142
0.0
143
25.399999999999999
144
1.0
145
0.0
146
0.7
147
0.09
 71
     1
 72
     0
 73
     0
 74
     0
 75
     0
 76
     0
 77
     1
 78
     9
170
     0
171
     2
172
     0
173
     0
174
     0
175
     0
176
     1
177
     1
178
     2
  0
DIMSTYLE
  2
BYGG-014062$0$MASKIN
 70
     0
  3

  4

  5

  6

  7

 40
0.0
 41
3.0
 42
1.5
 43
10.0
 44
1.5
 45
0.0
 46
0.0
 47
0.0
 48
0.0
140
3.0
141
-5.0
142
0.0
143
25.399999999999999
144
-1.0
145
0.0
146
1.0
147
1.0
 71
     0
 72
     0
 73
     0
 74
     0
 75
     0
 76
     0
 77
     1
 78
     8
170
     0
171
     0
172
     1
173
     0
174
     0
175
     0
176
   256
177
   256
178
   256
  0
DIMSTYLE
  2
BYGG-014062$0$STANDARD
 70
     0
  3

  4

  5

  6

  7

 40
1.0
 41
0.18
 42
0.0625
 43
0.38
 44
0.18
 45
0.0
 46
0.0
 47
0.0
 48
0.0
140
0.18
141
0.09
142
0.0
143
25.399999999999999
144
1.0
145
0.0
146
1.0
147
0.09
 71
     0
 72
     0
 73
     1
 74
     1
 75
     0
 76
     0
 77
     0
 78
     0
170
     0
171
     2
172
     0
173
     0
174
     0
175
     0
176
     0
177
     0
178
     0
  0
DIMSTYLE
  2
BYGG-021806$0$STANDARD
 70
     0
  3

  4

  5

  6

  7

 40
1.0
 41
0.18
 42
0.0625
 43
0.38
 44
0.18
 45
0.0
 46
0.0
 47
0.0
 48
0.0
140
0.18
141
0.09
142
0.0
143
25.399999999999999
144
1.0
145
0.0
146
1.0
147
0.09
 71
     0
 72
     0
 73
     1
 74
     1
 75
     0
 76
     0
 77
     0
 78
     0
170
     0
171
     2
172
     0
173
     0
174
     0
175
     0
176
     0
177
     0
178
     0
  0
DIMSTYLE
  2
BYGG-021806$0$MASKIN
 70
     0
  3

  4

  5

  6

  7

 40
0.0
 41
3.0
 42
1.5
 43
10.0
 44
1.5
 45
0.0
 46
0.0
 47
0.0
 48
0.0
140
3.0
141
-5.0
142
0.0
143
25.399999999999999
144
-1.0
145
0.0
146
1.0
147
1.0
 71
     0
 72
     0
 73
     0
 74
     0
 75
     0
 76
     0
 77
     1
 78
     8
170
     0
171
     0
172
     1
173
     0
174
     0
175
     0
176
   256
177
   256
178
     2
  0
DIMSTYLE
  2
BYGG-024123$0$STANDARD
 70
     0
  3

  4

  5

  6

  7

 40
1.0
 41
0.18
 42
0.0625
 43
0.38
 44
0.18
 45
0.0
 46
0.0
 47
0.0
 48
0.0
140
0.18
141
0.09
142
0.0
143
25.399999999999999
144
1.0
145
0.0
146
1.0
147
0.09
 71
     0
 72
     0
 73
     1
 74
     1
 75
     0
 76
     0
 77
     0
 78
     0
170
     0
171
     2
172
     0
173
     0
174
     0
175
     0
176
     0
177
     0
178
     0
  0
DIMSTYLE
  2
BYGG-024123$0$MASKIN
 70
     0
  3

  4

  5

  6

  7

 40
0.0
 41
3.0
 42
1.5
 43
10.0
 44
1.5
 45
0.0
 46
0.0
 47
0.0
 48
0.0
140
3.0
141
-5.0
142
0.0
143
25.399999999999999
144
-1.0
145
0.0
146
1.0
147
1.0
 71
     0
 72
     0
 73
     0
 74
     0
 75
     0
 76
     0
 77
     1
 78
     8
170
     0
171
     0
172
     1
173
     0
174
     0
175
     0
176
   256
177
   256
178
     2
  0
DIMSTYLE
  2
BYGG-013688$0$STANDARD
 70
     0
  3

  4

  5

  6

  7

 40
1.0
 41
0.18
 42
0.0625
 43
0.38
 44
0.18
 45
0.0
 46
0.0
 47
0.0
 48
0.0
140
0.18
141
0.09
142
0.0
143
25.399999999999999
144
1.0
145
0.0
146
1.0
147
0.09
 71
     0
 72
     0
 73
     1
 74
     1
 75
     0
 76
     0
 77
     0
 78
     0
170
     0
171
     2
172
     0
173
     0
174
     0
175
     0
176
     0
177
     0
178
     0
  0
DIMSTYLE
  2
BYGG-013688$0$MASKIN
 70
     0
  3

  4

  5

  6

  7

 40
0.0
 41
3.0
 42
1.5
 43
10.0
 44
1.5
 45
0.0
 46
0.0
 47
0.0
 48
0.0
140
3.0
141
-5.0
142
0.0
143
25.399999999999999
144
-1.0
145
0.0
146
1.0
147
1.0
 71
     0
 72
     0
 73
     0
 74
     1
 75
     0
 76
     0
 77
     1
 78
     8
170
     0
171
     0
172
     1
173
     0
174
     0
175
     0
176
   256
177
   256
178
     2
  0
DIMSTYLE
  2
BYGG-024103$0$STANDARD
 70
     0
  3

  4

  5

  6

  7

 40
1.0
 41
0.18
 42
0.0625
 43
0.38
 44
0.18
 45
0.0
 46
0.0
 47
0.0
 48
0.0
140
0.18
141
0.09
142
0.0
143
25.399999999999999
144
1.0
145
0.0
146
1.0
147
0.09
 71
     0
 72
     0
 73
     1
 74
     1
 75
     0
 76
     0
 77
     0
 78
     0
170
     0
171
     2
172
     0
173
     0
174
     0
175
     0
176
     0
177
     0
178
     0
  0
DIMSTYLE
  2
BYGG-024103$0$MASKIN
 70
     0
  3

  4

  5

  6

  7

 40
0.0
 41
3.0
 42
1.5
 43
10.0
 44
1.5
 45
0.0
 46
0.0
 47
0.0
 48
0.0
140
3.0
141
-5.0
142
0.0
143
25.399999999999999
144
-1.0
145
0.0
146
1.0
147
1.0
 71
     0
 72
     0
 73
     0
 74
     0
 75
     0
 76
     0
 77
     1
 78
     8
170
     0
171
     0
172
     1
173
     0
174
     0
175
     0
176
   256
177
   256
178
     2
  0
DIMSTYLE
  2
BYGG-014257$0$STANDARD
 70
     0
  3

  4

  5

  6

  7

 40
1.0
 41
0.18
 42
0.0625
 43
0.38
 44
0.18
 45
0.0
 46
0.0
 47
0.0
 48
0.0
140
0.18
141
0.09
142
0.0
143
25.399999999999999
144
1.0
145
0.0
146
1.0
147
0.09
 71
     0
 72
     0
 73
     1
 74
     1
 75
     0
 76
     0
 77
     0
 78
     0
170
     0
171
     2
172
     0
173
     0
174
     0
175
     0
176
     0
177
     0
178
     0
  0
DIMSTYLE
  2
BYGG-014257$0$MASKIN
 70
     0
  3

  4

  5

  6

  7

 40
0.0
 41
3.0
 42
1.5
 43
10.0
 44
1.5
 45
0.0
 46
0.0
 47
0.0
 48
0.0
140
3.0
141
-5.0
142
0.0
143
25.399999999999999
144
-1.0
145
0.0
146
1.0
147
1.0
 71
     0
 72
     0
 73
     0
 74
     1
 75
     0
 76
     0
 77
     1
 78
     8
170
     0
171
     0
172
     1
173
     0
174
     0
175
     0
176
   256
177
   256
178
     2
  0
ENDTAB
  0
ENDSEC
  0
SECTION
  2
BLOCKS
  0
BLOCK
  8
0
  2
$MODEL_SPACE
 70
     0
 10
0.0
 20
0.0
 30
0.0
  3
$MODEL_SPACE
  1

  0
ENDBLK
  5
37
  8
0
  0
BLOCK
 67
     1
  8
0
  2
$PAPER_SPACE
 70
     0
 10
0.0
 20
0.0
 30
0.0
  3
$PAPER_SPACE
  1

  0
ENDBLK
  5
9C4
 67
     1
  8
0
  0
BLOCK
  8
0
  2
WEB
 70
     0
 10
0.0
 20
0.0
 30
0.0
  3
WEB
  1

  0
POLYLINE
  5
9B3
  8
RAM_GRENS2
 62
     3
 66
     1
 10
0.0
 20
0.0
 30
0.0
  0
VERTEX
  5
11DC
  8
RAM_GRENS2
 62
     3
 10
6.869999703752308
 20
282.99999982765303
 30
0.0
  0
VERTEX
  5
11DD
  8
RAM_GRENS2
 62
     3
 10
5.869999703752308
 20
282.99999982765303
 30
0.0
  0
VERTEX
  5
11DE
  8
RAM_GRENS2
 62
     3
 10
5.869999703752308
 20
281.99999982765303
 30
0.0
  0
SEQEND
  5
11DF
  8
RAM_GRENS2
 62
     3
  0
POLYLINE
  5
9B4
  8
RAM_GRENS2
 62
     3
 66
     1
 10
0.0
 20
0.0
 30
0.0
  0
VERTEX
  5
11E0
  8
RAM_GRENS2
 62
     3
 10
185.86836054690431
 20
281.99999982765303
 30
0.0
  0
VERTEX
  5
11E1
  8
RAM_GRENS2
 62
     3
 10
185.86836054690431
 20
282.99999982765303
 30
0.0
  0
VERTEX
  5
11E2
  8
RAM_GRENS2
 62
     3
 10
184.86836054690431
 20
282.99999982765303
 30
0.0
  0
SEQEND
  5
11E3
  8
RAM_GRENS2
 62
     3
  0
POLYLINE
  5
9B5
  8
RAM_GRENS2
 62
     3
 66
     1
 10
0.0
 20
0.0
 30
0.0
  0
VERTEX
  5
11E4
  8
RAM_GRENS2
 62
     3
 10
6.869999703752308
 20
-0.0000001723469722
 30
0.0
  0
VERTEX
  5
11E5
  8
RAM_GRENS2
 62
     3
 10
5.869999703752308
 20
-0.0000001723469722
 30
0.0
  0
VERTEX
  5
11E6
  8
RAM_GRENS2
 62
     3
 10
5.869999703752308
 20
0.9999998276530278
 30
0.0
  0
SEQEND
  5
11E7
  8
RAM_GRENS2
 62
     3
  0
POLYLINE
  5
9B6
  8
RAM_GRENS2
 62
     3
 66
     1
 10
0.0
 20
0.0
 30
0.0
  0
VERTEX
  5
11E8
  8
RAM_GRENS2
 62
     3
 10
185.86836054690431
 20
0.9999998276530278
 30
0.0
  0
VERTEX
  5
11E9
  8
RAM_GRENS2
 62
     3
 10
185.86836054690431
 20
-0.0000001723469722
 30
0.0
  0
VERTEX
  5
11EA
  8
RAM_GRENS2
 62
     3
 10
184.86836054690431
 20
-0.0000001723469722
 30
0.0
  0
SEQEND
  5
11EB
  8
RAM_GRENS2
 62
     3
  0
ENDBLK
  5
9B7
  8
0
  0
BLOCK
  8
0
  2
BYGG-013688$0$00509-TXT
 70
     0
 10
0.0
 20
0.0
 30
0.0
  3
BYGG-013688$0$00509-TXT
  1

  0
TEXT
  5
C13
  8
BYGG-013688$0$ARTIKELNUMME
 10
0.0
 20
0.0
 30
0.0
 40
3.5
  1
00509
  7
BYGG-013688$0$ISO
  0
ENDBLK
  5
C15
  8
0
  0
BLOCK
  8
0
  2
*U65
 70
     1
 10
0.0
 20
0.0
 30
0.0
  3
*U65
  1

  0
TEXT
  5
111D
  8
SAPA_ARTIKELNR
 10
-7.718729803941148
 20
19.020792428126299
 30
0.0
 40
3.5
  1
68290
 50
19.999999999999979
  7
ISO
  0
ENDBLK
  5
111F
  8
0
  0
BLOCK
  8
0
  2
*U66
 70
     1
 10
0.0
 20
0.0
 30
0.0
  3
*U66
  1

  0
TEXT
  5
1121
  8
SAPA_ARTIKELNR
 10
-30.574206688465448
 20
82.931531351757656
 30
0.0
 40
3.5
  1
42144
 50
19.999999999999979
  7
ISO
  0
ENDBLK
  5
1123
  8
0
  0
BLOCK
  8
0
  2
*U67
 70
     1
 10
0.0
 20
0.0
 30
0.0
  3
*U67
  1

  0
TEXT
  5
1125
  8
SAPA_ARTIKELNR
 10
19.33851486203675
 20
-20.839579227736071
 30
0.0
 40
3.5
  1
68174
  7
ISO
  0
ENDBLK
  5
1127
  8
0
  0
BLOCK
  8
0
  2
*U68
 70
     1
 10
0.0
 20
0.0
 30
0.0
  3
*U68
  1

  0
TEXT
  5
1129
  8
SAPA_ARTIKELNR
 10
16.496045157063602
 20
-3.5212818282539038
 30
0.0
 40
3.5
  1
68086
  7
ISO
  0
ENDBLK
  5
112B
  8
0
  0
BLOCK
  8
0
  2
*X69
 70
     1
 10
0.0
 20
0.0
 30
0.0
  3
*X69
  1

  0
LINE
  5
114E
  8
0
 62
     0
 10
40.0
 20
-28.77467984866357
 30
0.0
 11
39.22532015133644
 21
-28.0
 31
0.0
  0
LINE
  5
114F
  8
0
 62
     0
 10
39.602788136202811
 20
-29.500000000000011
 30
0.0
 11
38.10278813620279
 21
-28.0
 31
0.0
  0
LINE
  5
1150
  8
0
 62
     0
 10
38.480256121069161
 20
-29.500000000000021
 30
0.0
 11
36.980256121069147
 21
-28.0
 31
0.0
  0
LINE
  5
1151
  8
0
 62
     0
 10
37.357724105935517
 20
-29.500000000000011
 30
0.0
 11
35.85772410593551
 21
-28.0
 31
0.0
  0
LINE
  5
1152
  8
0
 62
     0
 10
36.235192090801867
 20
-29.500000000000011
 30
0.0
 11
34.73519209080186
 21
-28.0
 31
0.0
  0
LINE
  5
1153
  8
0
 62
     0
 10
35.112660075668231
 20
-29.500000000000011
 30
0.0
 11
33.612660075668209
 21
-28.0
 31
0.0
  0
LINE
  5
1154
  8
0
 62
     0
 10
33.99012806053458
 20
-29.500000000000011
 30
0.0
 11
32.490128060534573
 21
-28.000000000000011
 31
0.0
  0
LINE
  5
1155
  8
0
 62
     0
 10
32.86759604540093
 20
-29.500000000000011
 30
0.0
 11
31.36759604540093
 21
-28.000000000000011
 31
0.0
  0
LINE
  5
1156
  8
0
 62
     0
 10
31.74506403026729
 20
-29.500000000000011
 30
0.0
 11
30.24506403026729
 21
-28.000000000000011
 31
0.0
  0
LINE
  5
1157
  8
0
 62
     0
 10
30.62253201513364
 20
-29.5
 30
0.0
 11
29.12253201513364
 21
-28.0
 31
0.0
  0
LINE
  5
1158
  8
0
 62
     0
 10
29.5
 20
-29.500000000000011
 30
0.0
 11
27.999999999999989
 21
-28.0
 31
0.0
  0
LINE
  5
1159
  8
0
 62
     0
 10
28.37746798486636
 20
-29.500000000000011
 30
0.0
 11
26.87746798486636
 21
-28.0
 31
0.0
  0
LINE
  5
115A
  8
0
 62
     0
 10
27.25493596973271
 20
-29.500000000000011
 30
0.0
 11
25.75493596973271
 21
-28.0
 31
0.0
  0
LINE
  5
115B
  8
0
 62
     0
 10
26.13240395459907
 20
-29.5
 30
0.0
 11
24.63240395459907
 21
-28.0
 31
0.0
  0
LINE
  5
115C
  8
0
 62
     0
 10
25.00987193946542
 20
-29.5
 30
0.0
 11
23.50987193946542
 21
-28.0
 31
0.0
  0
LINE
  5
115D
  8
0
 62
     0
 10
23.887339924331769
 20
-29.5
 30
0.0
 11
22.387339924331769
 21
-27.999999999999989
 31
0.0
  0
LINE
  5
115E
  8
0
 62
     0
 10
22.764807909198129
 20
-29.499999999999989
 30
0.0
 11
21.264807909198129
 21
-28.0
 31
0.0
  0
LINE
  5
115F
  8
0
 62
     0
 10
21.642275894064479
 20
-29.5
 30
0.0
 11
20.14227589406449
 21
-28.000000000000011
 31
0.0
  0
LINE
  5
1160
  8
0
 62
     0
 10
20.519743878930839
 20
-29.5
 30
0.0
 11
19.019743878930839
 21
-28.0
 31
0.0
  0
LINE
  5
1161
  8
0
 62
     0
 10
19.3972118637972
 20
-29.5
 30
0.0
 11
17.897211863797189
 21
-28.0
 31
0.0
  0
LINE
  5
1162
  8
0
 62
     0
 10
18.274679848663549
 20
-29.5
 30
0.0
 11
16.774679848663549
 21
-28.0
 31
0.0
  0
LINE
  5
1163
  8
0
 62
     0
 10
17.152147833529909
 20
-29.5
 30
0.0
 11
15.652147833529909
 21
-28.0
 31
0.0
  0
LINE
  5
1164
  8
0
 62
     0
 10
16.029615818396259
 20
-29.5
 30
0.0
 11
14.529615818396261
 21
-27.999999999999989
 31
0.0
  0
LINE
  5
1165
  8
0
 62
     0
 10
14.907083803262619
 20
-29.5
 30
0.0
 11
13.407083803262619
 21
-27.999999999999989
 31
0.0
  0
LINE
  5
1166
  8
0
 62
     0
 10
13.784551788128971
 20
-29.5
 30
0.0
 11
12.284551788128971
 21
-27.999999999999989
 31
0.0
  0
LINE
  5
1167
  8
0
 62
     0
 10
12.662019772995331
 20
-29.5
 30
0.0
 11
11.162019772995331
 21
-27.999999999999989
 31
0.0
  0
LINE
  5
1168
  8
0
 62
     0
 10
11.539487757861689
 20
-29.5
 30
0.0
 11
10.03948775786168
 21
-27.999999999999989
 31
0.0
  0
LINE
  5
1169
  8
0
 62
     0
 10
10.416955742728041
 20
-29.5
 30
0.0
 11
8.9169557427280353
 21
-27.999999999999989
 31
0.0
  0
LINE
  5
116A
  8
0
 62
     0
 10
9.2944237275944026
 20
-29.5
 30
0.0
 11
7.7944237275943911
 21
-27.999999999999989
 31
0.0
  0
LINE
  5
116B
  8
0
 62
     0
 10
8.1718917124607575
 20
-29.5
 30
0.0
 11
6.671891712460746
 21
-27.999999999999989
 31
0.0
  0
LINE
  5
116C
  8
0
 62
     0
 10
7.0493596973271142
 20
-29.5
 30
0.0
 11
5.5493596973271027
 21
-27.999999999999989
 31
0.0
  0
LINE
  5
116D
  8
0
 62
     0
 10
5.92682768219347
 20
-29.5
 30
0.0
 11
4.4268276821934602
 21
-27.999999999999989
 31
0.0
  0
LINE
  5
116E
  8
0
 62
     0
 10
4.8042956670598249
 20
-29.5
 30
0.0
 11
3.3042956670598111
 21
-27.999999999999989
 31
0.0
  0
LINE
  5
116F
  8
0
 62
     0
 10
3.681763651926182
 20
-29.5
 30
0.0
 11
2.1817636519261661
 21
-27.999999999999979
 31
0.0
  0
LINE
  5
1170
  8
0
 62
     0
 10
2.5592316367925392
 20
-29.5
 30
0.0
 11
1.0592316367925241
 21
-27.999999999999989
 31
0.0
  0
LINE
  5
1171
  8
0
 62
     0
 10
1.4366996216588941
 20
-29.5
 30
0.0
 11
0.0
 21
-28.063300378341101
 31
0.0
  0
LINE
  5
1172
  8
0
 62
     0
 10
0.3141676065252508
 20
-29.5
 30
0.0
 11
0.0000000000000018
 21
-29.185832393474751
 31
0.0
  0
LINE
  5
1173
  8
0
 62
     0
 10
38.974452923152313
 20
-29.499999999999989
 30
0.0
 11
40.0
 21
-28.474452923152299
 31
0.0
  0
LINE
  5
1174
  8
0
 62
     0
 10
37.851920908018663
 20
-29.499999999999989
 30
0.0
 11
39.351920908018663
 21
-28.0
 31
0.0
  0
LINE
  5
1175
  8
0
 62
     0
 10
36.729388892885012
 20
-29.499999999999989
 30
0.0
 11
38.229388892885012
 21
-28.0
 31
0.0
  0
LINE
  5
1176
  8
0
 62
     0
 10
35.606856877751369
 20
-29.499999999999989
 30
0.0
 11
37.106856877751362
 21
-28.0
 31
0.0
  0
LINE
  5
1177
  8
0
 62
     0
 10
34.484324862617719
 20
-29.499999999999989
 30
0.0
 11
35.984324862617719
 21
-28.0
 31
0.0
  0
LINE
  5
1178
  8
0
 62
     0
 10
33.361792847484068
 20
-29.499999999999989
 30
0.0
 11
34.861792847484082
 21
-28.0
 31
0.0
  0
LINE
  5
1179
  8
0
 62
     0
 10
32.239260832350432
 20
-29.499999999999989
 30
0.0
 11
33.739260832350432
 21
-28.0
 31
0.0
  0
LINE
  5
117A
  8
0
 62
     0
 10
31.116728817216789
 20
-29.5
 30
0.0
 11
32.616728817216789
 21
-28.0
 31
0.0
  0
LINE
  5
117B
  8
0
 62
     0
 10
29.994196802083142
 20
-29.5
 30
0.0
 11
31.494196802083142
 21
-28.0
 31
0.0
  0
LINE
  5
117C
  8
0
 62
     0
 10
28.871664786949498
 20
-29.499999999999989
 30
0.0
 11
30.371664786949491
 21
-28.0
 31
0.0
  0
LINE
  5
117D
  8
0
 62
     0
 10
27.749132771815859
 20
-29.499999999999989
 30
0.0
 11
29.249132771815852
 21
-28.0
 31
0.0
  0
LINE
  5
117E
  8
0
 62
     0
 10
26.626600756682208
 20
-29.5
 30
0.0
 11
28.126600756682208
 21
-28.0
 31
0.0
  0
LINE
  5
117F
  8
0
 62
     0
 10
25.504068741548561
 20
-29.5
 30
0.0
 11
27.004068741548569
 21
-28.0
 31
0.0
  0
LINE
  5
1180
  8
0
 62
     0
 10
24.381536726414922
 20
-29.5
 30
0.0
 11
25.881536726414922
 21
-28.0
 31
0.0
  0
LINE
  5
1181
  8
0
 62
     0
 10
23.259004711281271
 20
-29.5
 30
0.0
 11
24.759004711281278
 21
-28.0
 31
0.0
  0
LINE
  5
1182
  8
0
 62
     0
 10
22.136472696147631
 20
-29.5
 30
0.0
 11
23.636472696147631
 21
-28.0
 31
0.0
  0
LINE
  5
1183
  8
0
 62
     0
 10
21.013940681013992
 20
-29.5
 30
0.0
 11
22.513940681013992
 21
-28.0
 31
0.0
  0
LINE
  5
1184
  8
0
 62
     0
 10
19.891408665880341
 20
-29.500000000000011
 30
0.0
 11
21.391408665880341
 21
-28.0
 31
0.0
  0
LINE
  5
1185
  8
0
 62
     0
 10
18.768876650746691
 20
-29.5
 30
0.0
 11
20.268876650746702
 21
-28.0
 31
0.0
  0
LINE
  5
1186
  8
0
 62
     0
 10
17.646344635613051
 20
-29.5
 30
0.0
 11
19.146344635613051
 21
-27.999999999999989
 31
0.0
  0
LINE
  5
1187
  8
0
 62
     0
 10
16.523812620479401
 20
-29.5
 30
0.0
 11
18.023812620479411
 21
-28.0
 31
0.0
  0
LINE
  5
1188
  8
0
 62
     0
 10
15.401280605345759
 20
-29.5
 30
0.0
 11
16.901280605345761
 21
-28.0
 31
0.0
  0
LINE
  5
1189
  8
0
 62
     0
 10
14.278748590212119
 20
-29.5
 30
0.0
 11
15.778748590212119
 21
-28.0
 31
0.0
  0
LINE
  5
118A
  8
0
 62
     0
 10
13.156216575078471
 20
-29.5
 30
0.0
 11
14.656216575078471
 21
-28.0
 31
0.0
  0
LINE
  5
118B
  8
0
 62
     0
 10
12.033684559944829
 20
-29.5
 30
0.0
 11
13.53368455994482
 21
-28.0
 31
0.0
  0
LINE
  5
118C
  8
0
 62
     0
 10
10.911152544811181
 20
-29.5
 30
0.0
 11
12.411152544811181
 21
-28.0
 31
0.0
  0
LINE
  5
118D
  8
0
 62
     0
 10
9.7886205296775426
 20
-29.5
 30
0.0
 11
11.288620529677541
 21
-28.0
 31
0.0
  0
LINE
  5
118E
  8
0
 62
     0
 10
8.6660885145438993
 20
-29.5
 30
0.0
 11
10.16608851454389
 21
-28.0
 31
0.0
  0
LINE
  5
118F
  8
0
 62
     0
 10
7.5435564994102551
 20
-29.5
 30
0.0
 11
9.0435564994102506
 21
-28.000000000000011
 31
0.0
  0
LINE
  5
1190
  8
0
 62
     0
 10
6.4210244842766118
 20
-29.5
 30
0.0
 11
7.9210244842766073
 21
-28.000000000000011
 31
0.0
  0
LINE
  5
1191
  8
0
 62
     0
 10
5.2984924691429649
 20
-29.5
 30
0.0
 11
6.7984924691429578
 21
-28.000000000000011
 31
0.0
  0
LINE
  5
1192
  8
0
 62
     0
 10
4.1759604540093216
 20
-29.5
 30
0.0
 11
5.6759604540093154
 21
-28.000000000000011
 31
0.0
  0
LINE
  5
1193
  8
0
 62
     0
 10
3.0534284388756792
 20
-29.5
 30
0.0
 11
4.5534284388756676
 21
-28.000000000000011
 31
0.0
  0
LINE
  5
1194
  8
0
 62
     0
 10
1.9308964237420321
 20
-29.5
 30
0.0
 11
3.430896423742023
 21
-28.000000000000011
 31
0.0
  0
LINE
  5
1195
  8
0
 62
     0
 10
0.8083644086083889
 20
-29.5
 30
0.0
 11
2.3083644086083801
 21
-28.000000000000011
 31
0.0
  0
LINE
  5
1196
  8
0
 62
     0
 10
0.0
 20
-29.185832393474751
 30
0.0
 11
1.185832393474733
 21
-28.000000000000011
 31
0.0
  0
LINE
  5
1197
  8
0
 62
     0
 10
0.0
 20
-28.063300378341101
 30
0.0
 11
0.0633003783410899
 21
-28.000000000000011
 31
0.0
  0
ENDBLK
  5
1199
  8
0
  0
BLOCK
  8
0
  2
*U70
 70
     1
 10
0.0
 20
0.0
 30
0.0
  3
*U70
  1

  0
TEXT
  5
11A0
  8
SAPA_ARTIKELNR
 10
68.780591826053183
 20
-58.809819894982269
 30
0.0
 40
3.5
  1
68625
 50
90.0
  7
ISO
  0
ENDBLK
  5
11A2
  8
0
  0
BLOCK
  8
0
  2
*U71
 70
     1
 10
0.0
 20
0.0
 30
0.0
  3
*U71
  1

  0
TEXT
  5
11A4
  8
SAPA_ARTIKELNR
 10
-49.024619439805633
 20
-58.809819894982269
 30
0.0
 40
3.5
  1
42657
 50
90.0
  7
ISO
  0
ENDBLK
  5
11A6
  8
0
  0
BLOCK
  8
0
  2
*U72
 70
     1
 10
0.0
 20
0.0
 30
0.0
  3
*U72
  1

  0
TEXT
  5
11A8
  8
SAPA_ARTIKELNR
 10
-60.904487264907971
 20
-58.809819894982269
 30
0.0
 40
3.5
  1
42149
 50
90.0
  7
ISO
  0
ENDBLK
  5
11AA
  8
0
  0
BLOCK
  8
0
  2
*U73
 70
     1
 10
0.0
 20
0.0
 30
0.0
  3
*U73
  1

  0
TEXT
  5
12AB
  8
0
 62
     2
 10
27.193025901410518
 20
49.229365049884841
 30
0.0
 40
3.0
  1
50
  7
BYGG-01473402$0$ISO
  0
ENDBLK
  5
12AD
  8
0
  0
BLOCK
  8
0
  2
*U74
 70
     1
 10
0.0
 20
0.0
 30
0.0
  3
*U74
  1

  0
TEXT
  5
12AF
  8
0
 62
     2
 10
63.040530869310679
 20
24.927474405712271
 30
0.0
 40
3.0
  1
25
 50
90.0
  7
BYGG-01473402$0$ISO
  0
ENDBLK
  5
12B1
  8
0
  0
BLOCK
  8
0
  2
*U75
 70
     1
 10
0.0
 20
0.0
 30
0.0
  3
*U75
  1

  0
TEXT
  5
12D5
  8
0
 62
     2
 10
284.82100775789411
 20
-326.41284250989833
 30
0.0
 40
3.0
  1
60
  7
BYGG-014680$0$ISO
  0
ENDBLK
  5
12D7
  8
0
  0
BLOCK
  8
0
  2
*U76
 70
     1
 10
0.0
 20
0.0
 30
0.0
  3
*U76
  1

  0
TEXT
  5
12D9
  8
0
 62
     2
 10
327.91011454206352
 20
-292.96547784569952
 30
0.0
 40
3.0
  1
39
 50
90.0
  7
BYGG-014680$0$ISO
  0
ENDBLK
  5
12DB
  8
0
  0
BLOCK
  8
0
  2
*U77
 70
     1
 10
0.0
 20
0.0
 30
0.0
  3
*U77
  1

  0
TEXT
  5
130D
  8
0
 62
     2
 10
130.33097964863219
 20
-266.28469737235088
 30
0.0
 40
3.0
  1
50
  7
BYGG-01458701$0$ISO
  0
ENDBLK
  5
130F
  8
0
  0
BLOCK
  8
0
  2
*U78
 70
     1
 10
0.0
 20
0.0
 30
0.0
  3
*U78
  1

  0
TEXT
  5
1311
  8
0
 62
     2
 10
95.674012818561607
 20
-298.58820846912988
 30
0.0
 40
3.0
  1
36
 50
90.0
  7
BYGG-01458701$0$ISO
  0
ENDBLK
  5
1313
  8
0
  0
BLOCK
  8
0
  2
*U79
 70
     1
 10
0.0
 20
0.0
 30
0.0
  3
*U79
  1

  0
TEXT
  5
1374
  8
0
 62
     2
 10
2.924893507843874
 20
11.80837843001756
 30
0.0
 40
3.0
  1
7
 50
90.0
  7
BYGG-014252$0$ISO
  0
ENDBLK
  5
1376
  8
0
  0
BLOCK
  8
0
  2
*U80
 70
     1
 10
0.0
 20
0.0
 30
0.0
  3
*U80
  1

  0
TEXT
  5
1378
  8
0
 62
     2
 10
29.55729736359487
 20
1.4710805811525349
 30
0.0
 40
3.0
  1
47.6
  7
BYGG-014252$0$ISO
  0
ENDBLK
  5
137A
  8
0
  0
BLOCK
  8
0
  2
*U81
 70
     1
 10
0.0
 20
0.0
 30
0.0
  3
*U81
  1

  0
TEXT
  5
1470
  8
0
 10
553.07022115798225
 20
440.5901921336424
 30
0.0
 40
3.5
  1
68652
  7
BYGG-01482101$0$STANDARD
  0
ENDBLK
  5
1472
  8
0
  0
BLOCK
  8
0
  2
*U82
 70
     1
 10
0.0
 20
0.0
 30
0.0
  3
*U82
  1

  0
TEXT
  5
157F
  8
0
 62
     2
 10
556.53618739060437
 20
455.84731427004709
 30
0.0
 40
6.0
  1
50
  7
BYGG-01482101$0$ISO
  0
ENDBLK
  5
1581
  8
0
  0
BLOCK
  8
0
  2
*U83
 70
     1
 10
0.0
 20
0.0
 30
0.0
  3
*U83
  1

  0
TEXT
  5
1583
  8
0
 62
     2
 10
599.56306936518126
 20
403.55707056770092
 30
0.0
 40
6.0
  1
60
 50
90.0
  7
BYGG-01482101$0$ISO
  0
ENDBLK
  5
1585
  8
0
  0
BLOCK
  8
0
  2
*U84
 70
     1
 10
0.0
 20
0.0
 30
0.0
  3
*U84
  1

  0
TEXT
  5
1676
  8
0
 10
641.15247639990275
 20
316.63306531357932
 30
0.0
 40
3.0
  1
47.6
  7
BYGG-014357$0$ISO
  0
ENDBLK
  5
1678
  8
0
  0
BLOCK
  8
0
  2
*U85
 70
     1
 10
0.0
 20
0.0
 30
0.0
  3
*U85
  1

  0
SOLID
  5
1748
  8
0
  6
CONTINUOUS
 10
9.4375787696808402
 20
24.826120052127731
 30
0.0
 11
9.2573012059076412
 21
24.751446640221289
 31
0.0
 12
9.6178563334540392
 22
24.751446640221289
 32
0.0
 13
9.6178563334540392
 23
24.751446640221289
 33
0.0
210
0.0
220
0.0
230
1.0
  0
SOLID
  5
1749
  8
0
  6
CONTINUOUS
 10
9.2573012059076412
 20
24.751446640221289
 30
0.0
 11
9.1826277940012009
 21
24.57116907644809
 31
0.0
 12
9.6925297453604795
 22
24.57116907644809
 32
0.0
 13
9.6925297453604795
 23
24.57116907644809
 33
0.0
210
0.0
220
0.0
230
1.0
  0
SOLID
  5
174A
  8
0
  6
CONTINUOUS
 10
-9.2573012059076412
 20
24.751446640221289
 30
0.0
 11
-9.6178563334540392
 21
24.751446640221289
 31
0.0
 12
-9.6925297453604795
 22
24.57116907644809
 32
0.0
 13
-9.6925297453604795
 23
24.57116907644809
 33
0.0
210
0.0
220
0.0
230
-1.0
  0
SOLID
  5
174B
  8
0
  6
CONTINUOUS
 10
9.1826277940012009
 20
24.57116907644809
 30
0.0
 11
9.2573012059076412
 21
24.390891512674891
 31
0.0
 12
9.6178563334540392
 22
24.390891512674891
 32
0.0
 13
9.6178563334540392
 23
24.390891512674891
 33
0.0
210
0.0
220
0.0
230
1.0
  0
SOLID
  5
174C
  8
0
  6
CONTINUOUS
 10
-9.1826277940012009
 20
24.57116907644809
 30
0.0
 11
-9.6925297453604795
 21
24.57116907644809
 31
0.0
 12
-9.6178563334540392
 22
24.390891512674891
 32
0.0
 13
-9.6178563334540392
 23
24.390891512674891
 33
0.0
210
0.0
220
0.0
230
-1.0
  0
SOLID
  5
174D
  8
0
  6
CONTINUOUS
 10
-9.2573012059076412
 20
24.390891512674891
 30
0.0
 11
-9.6178563334540392
 21
24.390891512674891
 31
0.0
 12
-9.4375787696808402
 22
24.316218100768442
 32
0.0
 13
-9.4375787696808402
 23
24.316218100768442
 33
0.0
210
0.0
220
0.0
230
-1.0
  0
LINE
  5
174E
  8
0
  6
CONTINUOUS
 10
9.4375787696808402
 20
24.826120052127731
 30
0.0
 11
9.2573012059076412
 21
24.751446640221289
 31
0.0
  0
LINE
  5
174F
  8
0
  6
CONTINUOUS
 10
9.6178563334540392
 20
24.751446640221289
 30
0.0
 11
9.4375787696808402
 21
24.826120052127731
 31
0.0
  0
LINE
  5
1750
  8
0
  6
CONTINUOUS
 10
9.2573012059076412
 20
24.751446640221289
 30
0.0
 11
9.1826277940012009
 21
24.57116907644809
 31
0.0
  0
LINE
  5
1751
  8
0
  6
CONTINUOUS
 10
9.6178563334540392
 20
24.751446640221289
 30
0.0
 11
9.6925297453604795
 21
24.57116907644809
 31
0.0
  0
LINE
  5
1752
  8
0
  6
CONTINUOUS
 10
9.1826277940012009
 20
24.57116907644809
 30
0.0
 11
9.2573012059076412
 21
24.390891512674891
 31
0.0
  0
LINE
  5
1753
  8
0
  6
CONTINUOUS
 10
9.6925297453604795
 20
24.57116907644809
 30
0.0
 11
9.6178563334540392
 21
24.390891512674891
 31
0.0
  0
LINE
  5
1754
  8
0
  6
CONTINUOUS
 10
9.6178563334540392
 20
24.390891512674891
 30
0.0
 11
9.4375787696808402
 21
24.316218100768442
 31
0.0
  0
LINE
  5
1755
  8
0
  6
CONTINUOUS
 10
9.4375787696808402
 20
24.316218100768442
 30
0.0
 11
9.2573012059076412
 21
24.390891512674891
 31
0.0
  0
ENDBLK
  5
1757
  8
0
  0
BLOCK
  8
0
  2
*U86
 70
     1
 10
0.0
 20
0.0
 30
0.0
  3
*U86
  1

  0
SOLID
  5
17A4
  8
0
  6
CONTINUOUS
 10
-75.02846685536008
 20
18.884307771293681
 30
0.0
 11
-75.208744419133282
 21
18.809634359387239
 31
0.0
 12
-74.848189291586877
 22
18.809634359387239
 32
0.0
 13
-74.848189291586877
 23
18.809634359387239
 33
0.0
210
0.0
220
0.0
230
1.0
  0
SOLID
  5
17A5
  8
0
  6
CONTINUOUS
 10
-75.208744419133282
 20
18.809634359387239
 30
0.0
 11
-75.283417831039714
 21
18.62935679561404
 31
0.0
 12
-74.773515879680446
 22
18.62935679561404
 32
0.0
 13
-74.773515879680446
 23
18.62935679561404
 33
0.0
210
0.0
220
0.0
230
1.0
  0
SOLID
  5
17A6
  8
0
  6
CONTINUOUS
 10
75.208744419133282
 20
18.809634359387239
 30
0.0
 11
74.848189291586877
 21
18.809634359387239
 31
0.0
 12
74.773515879680446
 22
18.62935679561404
 32
0.0
 13
74.773515879680446
 23
18.62935679561404
 33
0.0
210
0.0
220
0.0
230
-1.0
  0
SOLID
  5
17A7
  8
0
  6
CONTINUOUS
 10
-75.283417831039714
 20
18.62935679561404
 30
0.0
 11
-75.208744419133282
 21
18.449079231840841
 31
0.0
 12
-74.848189291586877
 22
18.449079231840841
 32
0.0
 13
-74.848189291586877
 23
18.449079231840841
 33
0.0
210
0.0
220
0.0
230
1.0
  0
SOLID
  5
17A8
  8
0
  6
CONTINUOUS
 10
75.283417831039714
 20
18.62935679561404
 30
0.0
 11
74.773515879680446
 21
18.62935679561404
 31
0.0
 12
74.848189291586877
 22
18.449079231840841
 32
0.0
 13
74.848189291586877
 23
18.449079231840841
 33
0.0
210
0.0
220
0.0
230
-1.0
  0
SOLID
  5
17A9
  8
0
  6
CONTINUOUS
 10
75.208744419133282
 20
18.449079231840841
 30
0.0
 11
74.848189291586877
 21
18.449079231840841
 31
0.0
 12
75.02846685536008
 22
18.374405819934399
 32
0.0
 13
75.02846685536008
 23
18.374405819934399
 33
0.0
210
0.0
220
0.0
230
-1.0
  0
LINE
  5
17AA
  8
0
  6
CONTINUOUS
 10
-75.02846685536008
 20
18.884307771293681
 30
0.0
 11
-75.208744419133282
 21
18.809634359387239
 31
0.0
  0
LINE
  5
17AB
  8
0
  6
CONTINUOUS
 10
-74.848189291586877
 20
18.809634359387239
 30
0.0
 11
-75.02846685536008
 21
18.884307771293681
 31
0.0
  0
LINE
  5
17AC
  8
0
  6
CONTINUOUS
 10
-75.208744419133282
 20
18.809634359387239
 30
0.0
 11
-75.283417831039714
 21
18.62935679561404
 31
0.0
  0
LINE
  5
17AD
  8
0
  6
CONTINUOUS
 10
-74.848189291586877
 20
18.809634359387239
 30
0.0
 11
-74.773515879680446
 21
18.62935679561404
 31
0.0
  0
LINE
  5
17AE
  8
0
  6
CONTINUOUS
 10
-75.283417831039714
 20
18.62935679561404
 30
0.0
 11
-75.208744419133282
 21
18.449079231840841
 31
0.0
  0
LINE
  5
17AF
  8
0
  6
CONTINUOUS
 10
-74.773515879680446
 20
18.62935679561404
 30
0.0
 11
-74.848189291586877
 21
18.449079231840841
 31
0.0
  0
LINE
  5
17B0
  8
0
  6
CONTINUOUS
 10
-74.848189291586877
 20
18.449079231840841
 30
0.0
 11
-75.02846685536008
 21
18.374405819934399
 31
0.0
  0
LINE
  5
17B1
  8
0
  6
CONTINUOUS
 10
-75.02846685536008
 20
18.374405819934399
 30
0.0
 11
-75.208744419133282
 21
18.449079231840841
 31
0.0
  0
ENDBLK
  5
17B3
  8
0
  0
BLOCK
  8
0
  2
*U87
 70
     1
 10
0.0
 20
0.0
 30
0.0
  3
*U87
  1

  0
TEXT
  5
17B6
  8
0
 62
     2
 10
353.11747260330043
 20
-286.43530053846018
 30
0.0
 40
3.0
  1
20
 50
90.0
  7
BYGG-013688$0$ISO
  0
ENDBLK
  5
17B8
  8
0
  0
BLOCK
  8
0
  2
*U88
 70
     1
 10
0.0
 20
0.0
 30
0.0
  3
*U88
  1

  0
TEXT
  5
17BA
  8
0
 62
     2
 10
377.27147623776273
 20
-319.18310043974998
 30
0.0
 40
3.0
  1
35
  7
BYGG-013688$0$ISO
  0
ENDBLK
  5
17BC
  8
0
  0
BLOCK
  8
0
  2
*U89
 70
     1
 10
0.0
 20
0.0
 30
0.0
  3
*U89
  1

  0
TEXT
  5
17BE
  8
0
 62
     2
 10
361.9580258219238
 20
-263.79888361470682
 30
0.0
 40
3.0
  1
2
  7
BYGG-013688$0$ISO
  0
ENDBLK
  5
17C0
  8
0
  0
BLOCK
  8
0
  2
*U90
 70
     1
 10
0.0
 20
0.0
 30
0.0
  3
*U90
  1

  0
TEXT
  5
1815
  8
0
 62
     2
 10
0.7689336711621581
 20
16.651818506144728
 30
0.0
 40
3.0
  1
18.5
 50
90.0
  7
BYGG-014257$0$ISO
  0
ENDBLK
  5
1817
  8
0
  0
BLOCK
  8
0
  2
*U91
 70
     1
 10
0.0
 20
0.0
 30
0.0
  3
*U91
  1

  0
TEXT
  5
1819
  8
0
 62
     2
 10
33.599176484588639
 20
1.41803148711125
 30
0.0
 40
3.0
  1
50
  7
BYGG-014257$0$ISO
  0
ENDBLK
  5
181B
  8
0
  0
BLOCK
  8
0
  2
*U92
 70
     1
 10
0.0
 20
0.0
 30
0.0
  3
*U92
  1

  0
TEXT
  5
181F
  8
0
 62
     2
 10
0.5328822921663806
 20
9.0502012347750629
 30
0.0
 40
3.0
  1
50
 50
20.000000000000028
  7
BYGG-01473402$0$ISO
  0
ENDBLK
  5
1821
  8
0
  0
BLOCK
  8
0
  2
*U93
 70
     1
 10
0.0
 20
0.0
 30
0.0
  3
*U93
  1

  0
TEXT
  5
1823
  8
0
 62
     2
 10
-36.831520680659793
 20
19.183847039255749
 30
0.0
 40
3.0
  1
25
 50
290.0
  7
BYGG-01473402$0$ISO
  0
ENDBLK
  5
1825
  8
0
  0
BLOCK
  8
0
  2
*U94
 70
     1
 10
0.0
 20
0.0
 30
0.0
  3
*U94
  1

  0
TEXT
  5
1827
  8
0
 62
     2
 10
21.83267716535433
 20
-46.940665028475003
 30
0.0
 40
3.0
  1
60
 50
180.0
  7
BYGG-014680$0$ISO
  0
ENDBLK
  5
1829
  8
0
  0
BLOCK
  8
0
  2
*U95
 70
     1
 10
0.0
 20
0.0
 30
0.0
  3
*U95
  1

  0
TEXT
  5
182B
  8
0
 62
     2
 10
-21.25642961881508
 20
-7.660242942810215
 30
0.0
 40
3.0
  1
39
 50
270.0
  7
BYGG-014680$0$ISO
  0
ENDBLK
  5
182D
  8
0
  0
BLOCK
  8
0
  2
*U96
 70
     1
 10
0.0
 20
0.0
 30
0.0
  3
*U96
  1

  0
TEXT
  5
182F
  8
0
 62
     2
 10
-30.69344665624881
 20
89.805452291151624
 30
0.0
 40
3.0
  1
47.6
 50
20.000000000000028
  7
BYGG-014252$0$ISO
  0
ENDBLK
  5
1831
  8
0
  0
BLOCK
  8
0
  2
*U97
 70
     1
 10
0.0
 20
0.0
 30
0.0
  3
*U97
  1

  0
TEXT
  5
1833
  8
0
 62
     2
 10
77.234075736774358
 20
-58.202362204724402
 30
0.0
 40
6.0
  1
50
 50
90.0
  7
BYGG-01482101$0$ISO
  0
ENDBLK
  5
1835
  8
0
  0
BLOCK
  8
0
  2
*U98
 70
     1
 10
0.0
 20
0.0
 30
0.0
  3
*U98
  1

  0
TEXT
  5
1837
  8
0
 62
     2
 10
28.943832034428091
 20
-92.8245197698526
 30
0.0
 40
6.0
  1
60
  7
BYGG-01482101$0$ISO
  0
ENDBLK
  5
1839
  8
0
  0
BLOCK
  8
0
  2
*U99
 70
     1
 10
0.0
 20
0.0
 30
0.0
  3
*U99
  1

  0
TEXT
  5
183B
  8
0
 10
-59.430111737495601
 20
-57.824409448819139
 30
0.0
 40
3.0
  1
47.6
 50
90.0
  7
BYGG-014357$0$ISO
  0
ENDBLK
  5
183D
  8
0
  0
BLOCK
  8
0
  2
*U100
 70
     1
 10
0.0
 20
0.0
 30
0.0
  3
*U100
  1

  0
TEXT
  5
183F
  8
0
 62
     2
 10
-75.575590518820832
 20
-16.830900056922559
 30
0.0
 40
3.0
  1
20
 50
90.0
  7
BYGG-013688$0$ISO
  0
ENDBLK
  5
1841
  8
0
  0
BLOCK
  8
0
  2
*U101
 70
     1
 10
0.0
 20
0.0
 30
0.0
  3
*U101
  1

  0
TEXT
  5
1843
  8
0
 62
     2
 10
-51.421586884358362
 20
-49.578699958212297
 30
0.0
 40
3.0
  1
35
  7
BYGG-013688$0$ISO
  0
ENDBLK
  5
1845
  8
0
  0
BLOCK
  8
0
  2
*U102
 70
     1
 10
0.0
 20
0.0
 30
0.0
  3
*U102
  1

  0
TEXT
  5
1847
  8
0
 62
     2
 10
-66.735037300197334
 20
5.805516866830942
 30
0.0
 40
3.0
  1
2
  7
BYGG-013688$0$ISO
  0
ENDBLK
  5
1849
  8
0
  0
BLOCK
  8
0
  2
*U103
 70
     1
 10
0.0
 20
0.0
 30
0.0
  3
*U103
  1

  0
TEXT
  5
184B
  8
0
 62
     2
 10
-45.422726212358789
 20
-88.731423915788923
 30
0.0
 40
3.0
  1
18.5
 50
180.0
  7
BYGG-014257$0$ISO
  0
ENDBLK
  5
184D
  8
0
  0
BLOCK
  8
0
  2
*U104
 70
     1
 10
0.0
 20
0.0
 30
0.0
  3
*U104
  1

  0
TEXT
  5
184F
  8
0
 62
     2
 10
-69.380777300104185
 20
-55.901181102362443
 30
0.0
 40
3.0
  1
50
 50
90.000000000000028
  7
BYGG-014257$0$ISO
  0
ENDBLK
  5
1851
  8
0
  0
BLOCK
  8
0
  2
*U105
 70
     1
 10
0.0
 20
0.0
 30
0.0
  3
*U105
  1

  0
TEXT
  5
1E6F
  8
0
 62
     2
 10
5.7399697751489178
 20
89.937053261628506
 30
0.0
 40
3.0
  1
7
 50
290.00000000000011
  7
BYGG-014252$0$ISO
  0
ENDBLK
  5
1E71
  8
0
  0
BLOCK
  8
0
  2
*U106
 70
     1
 10
0.0
 20
0.0
 30
0.0
  3
*U106
  1

  0
TEXT
  5
1E73
  8
0
 62
     2
 10
-6.23970341272795
 20
27.657727530293261
 30
0.0
 40
3.0
  1
50
 50
20.000000000000089
  7
BYGG-01458701$0$ISO
  0
ENDBLK
  5
1E75
  8
0
  0
BLOCK
  8
0
  2
*U107
 70
     1
 10
0.0
 20
0.0
 30
0.0
  3
*U107
  1

  0
TEXT
  5
1E77
  8
0
 62
     2
 10
-27.366146327620338
 20
-9.7804309213834788
 30
0.0
 40
3.0
  1
36
 50
290.00000000000011
  7
BYGG-01458701$0$ISO
  0
ENDBLK
  5
1E79
  8
0
  0
BLOCK
  8
0
  2
*U108
 70
     1
 10
0.0
 20
0.0
 30
0.0
  3
*U108
  1

  0
SOLID
  5
1F8D
  8
SAPA_FOGBAND
  6
CONTINUOUS
 10
-36.555732929052901
 20
-72.374478023404038
 30
0.0
 11
-36.604078696897773
 21
-72.377935780963199
 31
0.0
 12
-36.526813361949813
 22
-72.377935780963199
 32
0.0
 13
-36.526813361949813
 23
-72.377935780963199
 33
0.0
210
0.0
220
0.0
230
1.0
  0
SOLID
  5
1F8E
  8
SAPA_FOGBAND
  6
CONTINUOUS
 10
-36.604078696897773
 20
-72.377935780963199
 30
0.0
 11
-36.612649231366198
 21
-72.380232248752719
 31
0.0
 12
-36.507606447294052
 22
-72.380232248752719
 32
0.0
 13
-36.507606447294052
 23
-72.380232248752719
 33
0.0
210
0.0
220
0.0
230
1.0
  0
SOLID
  5
1F8F
  8
SAPA_FOGBAND
  6
CONTINUOUS
 10
36.604078696897773
 20
-72.377935780963199
 30
0.0
 11
36.526813361949813
 21
-72.377935780963199
 31
0.0
 12
36.507606447294052
 22
-72.380232248752719
 32
0.0
 13
36.507606447294052
 23
-72.380232248752719
 33
0.0
210
0.0
220
0.0
230
-1.0
  0
SOLID
  5
1F90
  8
SAPA_FOGBAND
  6
CONTINUOUS
 10
-36.612649231366198
 20
-72.380232248752719
 30
0.0
 11
-36.650896408815079
 21
-72.390480549062914
 31
0.0
 12
-36.475546973498631
 22
-72.390480549062914
 32
0.0
 13
-36.475546973498631
 23
-72.390480549062914
 33
0.0
210
0.0
220
0.0
230
1.0
  0
SOLID
  5
1F91
  8
SAPA_FOGBAND
  6
CONTINUOUS
 10
36.612649231366198
 20
-72.380232248752719
 30
0.0
 11
36.507606447294052
 21
-72.380232248752719
 31
0.0
 12
36.475546973498631
 22
-72.390480549062914
 32
0.0
 13
36.475546973498631
 23
-72.390480549062914
 33
0.0
210
0.0
220
0.0
230
-1.0
  0
SOLID
  5
1F92
  8
SAPA_FOGBAND
  6
CONTINUOUS
 10
-36.650896408815079
 20
-72.390480549062914
 30
0.0
 11
-36.660180504635669
 21
-72.394990484312672
 31
0.0
 12
-36.461438668064318
 22
-72.394990484312672
 32
0.0
 13
-36.461438668064318
 23
-72.394990484312672
 33
0.0
210
0.0
220
0.0
230
1.0
  0
SOLID
  5
1F93
  8
SAPA_FOGBAND
  6
CONTINUOUS
 10
36.650896408815079
 20
-72.390480549062914
 30
0.0
 11
36.475546973498631
 21
-72.390480549062914
 31
0.0
 12
36.461438668064318
 22
-72.394990484312672
 32
0.0
 13
36.461438668064318
 23
-72.394990484312672
 33
0.0
210
0.0
220
0.0
230
-1.0
  0
SOLID
  5
1F94
  8
SAPA_FOGBAND
  6
CONTINUOUS
 10
-36.660180504635669
 20
-72.394990484312672
 30
0.0
 11
-36.694493950713778
 21
-72.411658927098998
 31
0.0
 12
-36.430912694243297
 22
-72.411658927098998
 32
0.0
 13
-36.430912694243297
 23
-72.411658927098998
 33
0.0
210
0.0
220
0.0
230
1.0
  0
SOLID
  5
1F95
  8
SAPA_FOGBAND
  6
CONTINUOUS
 10
36.660180504635669
 20
-72.394990484312672
 30
0.0
 11
36.461438668064318
 21
-72.394990484312672
 31
0.0
 12
36.430912694243297
 22
-72.411658927098998
 32
0.0
 13
36.430912694243297
 23
-72.411658927098998
 33
0.0
210
0.0
220
0.0
230
-1.0
  0
SOLID
  5
1F96
  8
SAPA_FOGBAND
  6
CONTINUOUS
 10
-36.694493950713778
 20
-72.411658927098998
 30
0.0
 11
-36.703257621664811
 21
-72.418219328998518
 31
0.0
 12
-36.418898215194041
 22
-72.418219328998518
 32
0.0
 13
-36.418898215194041
 23
-72.418219328998518
 33
0.0
210
0.0
220
0.0
230
1.0
  0
SOLID
  5
1F97
  8
SAPA_FOGBAND
  6
CONTINUOUS
 10
36.694493950713778
 20
-72.411658927098998
 30
0.0
 11
36.430912694243297
 21
-72.411658927098998
 31
0.0
 12
36.418898215194041
 22
-72.418219328998518
 32
0.0
 13
36.418898215194041
 23
-72.418219328998518
 33
0.0
210
0.0
220
0.0
230
-1.0
  0
SOLID
  5
1F98
  8
SAPA_FOGBAND
  6
CONTINUOUS
 10
-36.703257621664811
 20
-72.418219328998518
 30
0.0
 11
-36.733295593837369
 21
-72.440705473309478
 31
0.0
 12
-36.391664389380381
 22
-72.440705473309478
 32
0.0
 13
-36.391664389380381
 23
-72.440705473309478
 33
0.0
210
0.0
220
0.0
230
1.0
  0
SOLID
  5
1F99
  8
SAPA_FOGBAND
  6
CONTINUOUS
 10
36.703257621664811
 20
-72.418219328998518
 30
0.0
 11
36.418898215194041
 21
-72.418219328998518
 31
0.0
 12
36.391664389380381
 22
-72.440705473309478
 32
0.0
 13
36.391664389380381
 23
-72.440705473309478
 33
0.0
210
0.0
220
0.0
230
-1.0
  0
SOLID
  5
1F9A
  8
SAPA_FOGBAND
  6
CONTINUOUS
 10
-36.733295593837369
 20
-72.440705473309478
 30
0.0
 11
-36.740907844877562
 21
-72.449079231841168
 31
0.0
 12
-36.381522611488009
 22
-72.449079231841168
 32
0.0
 13
-36.381522611488009
 23
-72.449079231841168
 33
0.0
  0
SOLID
  5
1F9B
  8
SAPA_FOGBAND
  6
CONTINUOUS
 10
36.733295593837369
 20
-72.440705473309478
 30
0.0
 11
36.391664389380381
 21
-72.440705473309478
 31
0.0
 12
36.381522611488009
 22
-72.449079231841168
 32
0.0
 13
36.381522611488009
 23
-72.449079231841168
 33
0.0
210
0.0
220
0.0
230
-1.0
  0
SOLID
  5
1F9C
  8
SAPA_FOGBAND
  6
CONTINUOUS
 10
-36.740907844877562
 20
-72.449079231841168
 30
0.0
 11
-36.76589894570666
 21
-72.476570369834292
 31
0.0
 12
-36.358824012311537
 22
-72.476570369834292
 32
0.0
 13
-36.358824012311537
 23
-72.476570369834292
 33
0.0
  0
SOLID
  5
1F9D
  8
SAPA_FOGBAND
  6
CONTINUOUS
 10
36.740907844877562
 20
-72.449079231841168
 30
0.0
 11
36.381522611488009
 21
-72.449079231841168
 31
0.0
 12
36.358824012311537
 22
-72.476570369834292
 32
0.0
 13
36.358824012311537
 23
-72.476570369834292
 33
0.0
210
0.0
220
0.0
230
-1.0
  0
SOLID
  5
1F9E
  8
SAPA_FOGBAND
  6
CONTINUOUS
 10
-36.76589894570666
 20
-72.476570369834292
 30
0.0
 11
-36.771923841966419
 21
-72.486454835547192
 31
0.0
 12
-36.350662708645359
 22
-72.486454835547192
 32
0.0
 13
-36.350662708645359
 23
-72.486454835547192
 33
0.0
210
0.0
220
0.0
230
1.0
  0
SOLID
  5
1F9F
  8
SAPA_FOGBAND
  6
CONTINUOUS
 10
36.76589894570666
 20
-72.476570369834292
 30
0.0
 11
36.358824012311537
 21
-72.476570369834292
 31
0.0
 12
36.350662708645359
 22
-72.486454835547192
 32
0.0
 13
36.350662708645359
 23
-72.486454835547192
 33
0.0
210
0.0
220
0.0
230
-1.0
  0
SOLID
  5
1FA0
  8
SAPA_FOGBAND
  6
CONTINUOUS
 10
-36.771923841966419
 20
-72.486454835547192
 30
0.0
 11
-36.791125636237886
 21
-72.517957365867943
 31
0.0
 12
-36.333461025666963
 22
-72.517957365867943
 32
0.0
 13
-36.333461025666963
 23
-72.517957365867943
 33
0.0
  0
SOLID
  5
1FA1
  8
SAPA_FOGBAND
  6
CONTINUOUS
 10
36.771923841966419
 20
-72.486454835547192
 30
0.0
 11
36.350662708645359
 21
-72.486454835547192
 31
0.0
 12
36.333461025666963
 22
-72.517957365867943
 32
0.0
 13
36.333461025666963
 23
-72.517957365867943
 33
0.0
210
0.0
220
0.0
230
-1.0
  0
SOLID
  5
1FA2
  8
SAPA_FOGBAND
  6
CONTINUOUS
 10
-36.791125636237886
 20
-72.517957365867943
 30
0.0
 11
-36.795242568497251
 21
-72.528995288417477
 31
0.0
 12
-36.327433863959513
 22
-72.528995288417477
 32
0.0
 13
-36.327433863959513
 23
-72.528995288417477
 33
0.0
210
0.0
220
0.0
230
1.0
  0
SOLID
  5
1FA3
  8
SAPA_FOGBAND
  6
CONTINUOUS
 10
36.791125636237886
 20
-72.517957365867943
 30
0.0
 11
36.333461025666963
 21
-72.517957365867943
 31
0.0
 12
36.327433863959513
 22
-72.528995288417477
 32
0.0
 13
36.327433863959513
 23
-72.528995288417477
 33
0.0
210
0.0
220
0.0
230
-1.0
  0
SOLID
  5
1FA4
  8
SAPA_FOGBAND
  6
CONTINUOUS
 10
-36.795242568497251
 20
-72.528995288417477
 30
0.0
 11
-36.808063907107773
 21
-72.563370627541019
 31
0.0
 12
-36.316445261936579
 22
-72.563370627541019
 32
0.0
 13
-36.316445261936579
 23
-72.563370627541019
 33
0.0
210
0.0
220
0.0
230
1.0
  0
SOLID
  5
1FA5
  8
SAPA_FOGBAND
  6
CONTINUOUS
 10
36.795242568497251
 20
-72.528995288417477
 30
0.0
 11
36.327433863959513
 21
-72.528995288417477
 31
0.0
 12
36.316445261936579
 22
-72.563370627541019
 32
0.0
 13
36.316445261936579
 23
-72.563370627541019
 33
0.0
210
0.0
220
0.0
230
-1.0
  0
SOLID
  5
1FA6
  8
SAPA_FOGBAND
  6
CONTINUOUS
 10
-36.808063907107773
 20
-72.563370627541019
 30
0.0
 11
-36.810046903377469
 21
-72.57516306764721
 31
0.0
 12
-36.312675628399568
 22
-72.57516306764721
 32
0.0
 13
-36.312675628399568
 23
-72.57516306764721
 33
0.0
210
0.0
220
0.0
230
1.0
  0
SOLID
  5
1FA7
  8
SAPA_FOGBAND
  6
CONTINUOUS
 10
36.808063907107773
 20
-72.563370627541019
 30
0.0
 11
36.316445261936579
 21
-72.563370627541019
 31
0.0
 12
36.312675628399568
 22
-72.57516306764721
 32
0.0
 13
36.312675628399568
 23
-72.57516306764721
 33
0.0
210
0.0
220
0.0
230
-1.0
  0
SOLID
  5
1FA8
  8
SAPA_FOGBAND
  6
CONTINUOUS
 10
-36.810046903377469
 20
-72.57516306764721
 30
0.0
 11
-36.81610156507481
 21
-72.611168801253541
 31
0.0
 12
-36.308370615910732
 22
-72.611168801253541
 32
0.0
 13
-36.308370615910732
 23
-72.611168801253541
 33
0.0
210
0.0
220
0.0
230
1.0
  0
SOLID
  5
1FA9
  8
SAPA_FOGBAND
  6
CONTINUOUS
 10
36.810046903377469
 20
-72.57516306764721
 30
0.0
 11
36.312675628399568
 21
-72.57516306764721
 31
0.0
 12
36.308370615910732
 22
-72.611168801253541
 32
0.0
 13
36.308370615910732
 23
-72.611168801253541
 33
0.0
210
0.0
220
0.0
230
-1.0
  0
SOLID
  5
1FAA
  8
SAPA_FOGBAND
  6
CONTINUOUS
 10
-36.81610156507481
 20
-72.611168801253541
 30
0.0
 11
-36.815813037463691
 21
-72.623289549406053
 31
0.0
 12
-36.306921403050879
 22
-72.623289549406053
 32
0.0
 13
-36.306921403050879
 23
-72.623289549406053
 33
0.0
210
0.0
220
0.0
230
1.0
  0
SOLID
  5
1FAB
  8
SAPA_FOGBAND
  6
CONTINUOUS
 10
36.81610156507481
 20
-72.611168801253541
 30
0.0
 11
36.308370615910732
 21
-72.611168801253541
 31
0.0
 12
36.306921403050879
 22
-72.623289549406053
 32
0.0
 13
36.306921403050879
 23
-72.623289549406053
 33
0.0
210
0.0
220
0.0
230
-1.0
  0
SOLID
  5
1FAC
  8
SAPA_FOGBAND
  6
CONTINUOUS
 10
-36.815813037463691
 20
-72.623289549406053
 30
0.0
 11
-36.814948108238191
 21
-72.659624336470628
 31
0.0
 12
-36.309520118310417
 22
-72.659624336470628
 32
0.0
 13
-36.309520118310417
 23
-72.659624336470628
 33
0.0
210
0.0
220
0.0
230
1.0
  0
SOLID
  5
1FAD
  8
SAPA_FOGBAND
  6
CONTINUOUS
 10
36.815813037463691
 20
-72.623289549406053
 30
0.0
 11
36.306921403050879
 21
-72.623289549406053
 31
0.0
 12
36.309520118310417
 22
-72.659624336470628
 32
0.0
 13
36.309520118310417
 23
-72.659624336470628
 33
0.0
210
0.0
220
0.0
230
-1.0
  0
SOLID
  5
1FAE
  8
SAPA_FOGBAND
  6
CONTINUOUS
 10
-36.814948108238191
 20
-72.659624336470628
 30
0.0
 11
-36.812335279300903
 21
-72.671635317250932
 31
0.0
 12
-36.31037916061004
 22
-72.671635317250932
 32
0.0
 13
-36.31037916061004
 23
-72.671635317250932
 33
0.0
210
0.0
220
0.0
230
1.0
  0
SOLID
  5
1FAF
  8
SAPA_FOGBAND
  6
CONTINUOUS
 10
36.814948108238191
 20
-72.659624336470628
 30
0.0
 11
36.309520118310417
 21
-72.659624336470628
 31
0.0
 12
36.31037916061004
 22
-72.671635317250932
 32
0.0
 13
36.31037916061004
 23
-72.671635317250932
 33
0.0
210
0.0
220
0.0
230
-1.0
  0
SOLID
  5
1FB0
  8
SAPA_FOGBAND
  6
CONTINUOUS
 10
-36.812335279300903
 20
-72.671635317250932
 30
0.0
 11
-36.804645225533271
 21
-72.70698592389985
 31
0.0
 12
-36.319851327113582
 22
-72.70698592389985
 32
0.0
 13
-36.319851327113582
 23
-72.70698592389985
 33
0.0
210
0.0
220
0.0
230
1.0
  0
SOLID
  5
1FB1
  8
SAPA_FOGBAND
  6
CONTINUOUS
 10
36.812335279300903
 20
-72.671635317250932
 30
0.0
 11
36.31037916061004
 21
-72.671635317250932
 31
0.0
 12
36.319851327113582
 22
-72.70698592389985
 32
0.0
 13
36.319851327113582
 23
-72.70698592389985
 33
0.0
210
0.0
220
0.0
230
-1.0
  0
SOLID
  5
1FB2
  8
SAPA_FOGBAND
  6
CONTINUOUS
 10
-36.804645225533271
 20
-72.70698592389985
 30
0.0
 11
-36.799734724695803
 21
-72.718453029168245
 31
0.0
 12
-36.322923928709763
 22
-72.718453029168245
 32
0.0
 13
-36.322923928709763
 23
-72.718453029168245
 33
0.0
210
0.0
220
0.0
230
1.0
  0
SOLID
  5
1FB3
  8
SAPA_FOGBAND
  6
CONTINUOUS
 10
36.804645225533271
 20
-72.70698592389985
 30
0.0
 11
36.319851327113582
 21
-72.70698592389985
 31
0.0
 12
36.322923928709763
 22
-72.718453029168245
 32
0.0
 13
36.322923928709763
 23
-72.718453029168245
 33
0.0
210
0.0
220
0.0
230
-1.0
  0
SOLID
  5
1FB4
  8
SAPA_FOGBAND
  6
CONTINUOUS
 10
-36.799734724695803
 20
-72.718453029168245
 30
0.0
 11
-36.785565289984902
 21
-72.751541792372123
 31
0.0
 12
-36.338997457293239
 22
-72.751541792372123
 32
0.0
 13
-36.338997457293239
 23
-72.751541792372123
 33
0.0
  0
SOLID
  5
1FB5
  8
SAPA_FOGBAND
  6
CONTINUOUS
 10
36.799734724695803
 20
-72.718453029168245
 30
0.0
 11
36.322923928709763
 21
-72.718453029168245
 31
0.0
 12
36.338997457293239
 22
-72.751541792372123
 32
0.0
 13
36.338997457293239
 23
-72.751541792372123
 33
0.0
210
0.0
220
0.0
230
-1.0
  0
SOLID
  5
1FB6
  8
SAPA_FOGBAND
  6
CONTINUOUS
 10
-36.785565289984902
 20
-72.751541792372123
 30
0.0
 11
-36.778452743370273
 21
-72.762050571066936
 31
0.0
 12
-36.344102306745839
 22
-72.762050571066936
 32
0.0
 13
-36.344102306745839
 23
-72.762050571066936
 33
0.0
210
0.0
220
0.0
230
1.0
  0
SOLID
  5
1FB7
  8
SAPA_FOGBAND
  6
CONTINUOUS
 10
36.785565289984902
 20
-72.751541792372123
 30
0.0
 11
36.338997457293239
 21
-72.751541792372123
 31
0.0
 12
36.344102306745839
 22
-72.762050571066936
 32
0.0
 13
36.344102306745839
 23
-72.762050571066936
 33
0.0
210
0.0
220
0.0
230
-1.0
  0
SOLID
  5
1FB8
  8
SAPA_FOGBAND
  6
CONTINUOUS
 10
-36.778452743370273
 20
-72.762050571066936
 30
0.0
 11
-36.758397900176107
 21
-72.791681576711667
 31
0.0
 12
-36.36628379973007
 22
-72.791681576711667
 32
0.0
 13
-36.36628379973007
 23
-72.791681576711667
 33
0.0
210
0.0
220
0.0
230
1.0
  0
SOLID
  5
1FB9
  8
SAPA_FOGBAND
  6
CONTINUOUS
 10
36.778452743370273
 20
-72.762050571066936
 30
0.0
 11
36.344102306745839
 21
-72.762050571066936
 31
0.0
 12
36.36628379973007
 22
-72.791681576711667
 32
0.0
 13
36.36628379973007
 23
-72.791681576711667
 33
0.0
210
0.0
220
0.0
230
-1.0
  0
SOLID
  5
1FBA
  8
SAPA_FOGBAND
  6
CONTINUOUS
 10
-36.758397900176107
 20
-72.791681576711667
 30
0.0
 11
-36.749227262697246
 21
-72.800852214190527
 31
0.0
 12
-36.373148852956319
 22
-72.800852214190527
 32
0.0
 13
-36.373148852956319
 23
-72.800852214190527
 33
0.0
  0
SOLID
  5
1FBB
  8
SAPA_FOGBAND
  6
CONTINUOUS
 10
36.758397900176107
 20
-72.791681576711667
 30
0.0
 11
36.36628379973007
 21
-72.791681576711667
 31
0.0
 12
36.373148852956319
 22
-72.800852214190527
 32
0.0
 13
36.373148852956319
 23
-72.800852214190527
 33
0.0
210
0.0
220
0.0
230
-1.0
  0
SOLID
  5
1FBC
  8
SAPA_FOGBAND
  6
CONTINUOUS
 10
-36.749227262697246
 20
-72.800852214190527
 30
0.0
 11
-36.724124956358523
 21
-72.825954520529265
 31
0.0
 12
-36.400762321135382
 22
-72.825954520529265
 32
0.0
 13
-36.400762321135382
 23
-72.825954520529265
 33
0.0
210
0.0
220
0.0
230
1.0
  0
SOLID
  5
1FBD
  8
SAPA_FOGBAND
  6
CONTINUOUS
 10
36.749227262697246
 20
-72.800852214190527
 30
0.0
 11
36.373148852956319
 21
-72.800852214190527
 31
0.0
 12
36.400762321135382
 22
-72.825954520529265
 32
0.0
 13
36.400762321135382
 23
-72.825954520529265
 33
0.0
210
0.0
220
0.0
230
-1.0
  0
SOLID
  5
1FBE
  8
SAPA_FOGBAND
  6
CONTINUOUS
 10
-36.724124956358523
 20
-72.825954520529265
 30
0.0
 11
-36.713042171003117
 21
-72.833455566059811
 31
0.0
 12
-36.409013749481133
 22
-72.833455566059811
 32
0.0
 13
-36.409013749481133
 23
-72.833455566059811
 33
0.0
210
0.0
220
0.0
230
1.0
  0
SOLID
  5
1FBF
  8
SAPA_FOGBAND
  6
CONTINUOUS
 10
36.724124956358523
 20
-72.825954520529265
 30
0.0
 11
36.400762321135382
 21
-72.825954520529265
 31
0.0
 12
36.409013749481133
 22
-72.833455566059811
 32
0.0
 13
36.409013749481133
 23
-72.833455566059811
 33
0.0
210
0.0
220
0.0
230
-1.0
  0
SOLID
  5
1FC0
  8
SAPA_FOGBAND
  6
CONTINUOUS
 10
-36.713042171003117
 20
-72.833455566059811
 30
0.0
 11
-36.683985172018971
 21
-72.853121910338061
 31
0.0
 12
-36.4412784221552
 22
-72.853121910338061
 32
0.0
 13
-36.4412784221552
 23
-72.853121910338061
 33
0.0
210
0.0
220
0.0
230
1.0
  0
SOLID
  5
1FC1
  8
SAPA_FOGBAND
  6
CONTINUOUS
 10
36.713042171003117
 20
-72.833455566059811
 30
0.0
 11
36.409013749481133
 21
-72.833455566059811
 31
0.0
 12
36.4412784221552
 22
-72.853121910338061
 32
0.0
 13
36.4412784221552
 23
-72.853121910338061
 33
0.0
210
0.0
220
0.0
230
-1.0
  0
SOLID
  5
1FC2
  8
SAPA_FOGBAND
  6
CONTINUOUS
 10
-36.683985172018971
 20
-72.853121910338061
 30
0.0
 11
-36.671000534011121
 21
-72.858682256591052
 31
0.0
 12
-36.450400745514791
 22
-72.858682256591052
 32
0.0
 13
-36.450400745514791
 23
-72.858682256591052
 33
0.0
210
0.0
220
0.0
230
1.0
  0
SOLID
  5
1FC3
  8
SAPA_FOGBAND
  6
CONTINUOUS
 10
36.683985172018971
 20
-72.853121910338061
 30
0.0
 11
36.4412784221552
 21
-72.853121910338061
 31
0.0
 12
36.450400745514791
 22
-72.858682256591052
 32
0.0
 13
36.450400745514791
 23
-72.858682256591052
 33
0.0
210
0.0
220
0.0
230
-1.0
  0
SOLID
  5
1FC4
  8
SAPA_FOGBAND
  6
CONTINUOUS
 10
-36.671000534011121
 20
-72.858682256591052
 30
0.0
 11
-36.639429303546699
 21
-72.872201845886423
 31
0.0
 12
-36.486648167173108
 22
-72.872201845886423
 32
0.0
 13
-36.486648167173108
 23
-72.872201845886423
 33
0.0
210
0.0
220
0.0
230
1.0
  0
SOLID
  5
1FC5
  8
SAPA_FOGBAND
  6
CONTINUOUS
 10
36.671000534011121
 20
-72.858682256591052
 30
0.0
 11
36.450400745514791
 21
-72.858682256591052
 31
0.0
 12
36.486648167173108
 22
-72.872201845886423
 32
0.0
 13
36.486648167173108
 23
-72.872201845886423
 33
0.0
210
0.0
220
0.0
230
-1.0
  0
SOLID
  5
1FC6
  8
SAPA_FOGBAND
  6
CONTINUOUS
 10
-36.639429303546699
 20
-72.872201845886423
 30
0.0
 11
-36.623713877978851
 21
-72.875620527460924
 31
0.0
 12
-36.49581400718786
 22
-72.875620527460924
 32
0.0
 13
-36.49581400718786
 23
-72.875620527460924
 33
0.0
  0
SOLID
  5
1FC7
  8
SAPA_FOGBAND
  6
CONTINUOUS
 10
36.639429303546699
 20
-72.872201845886423
 30
0.0
 11
36.486648167173108
 21
-72.872201845886423
 31
0.0
 12
36.49581400718786
 22
-72.875620527460924
 32
0.0
 13
36.49581400718786
 23
-72.875620527460924
 33
0.0
210
0.0
220
0.0
230
-1.0
  0
SOLID
  5
1FC8
  8
SAPA_FOGBAND
  6
CONTINUOUS
 10
-36.623713877978851
 20
-72.875620527460924
 30
0.0
 11
-36.592067716117469
 21
-72.882504728591343
 31
0.0
 12
-36.536752828278921
 22
-72.882504728591343
 32
0.0
 13
-36.536752828278921
 23
-72.882504728591343
 33
0.0
210
0.0
220
0.0
230
1.0
  0
SOLID
  5
1FC9
  8
SAPA_FOGBAND
  6
CONTINUOUS
 10
36.623713877978851
 20
-72.875620527460924
 30
0.0
 11
36.49581400718786
 21
-72.875620527460924
 31
0.0
 12
36.536752828278921
 22
-72.882504728591343
 32
0.0
 13
36.536752828278921
 23
-72.882504728591343
 33
0.0
210
0.0
220
0.0
230
-1.0
  0
SOLID
  5
1FCA
  8
SAPA_FOGBAND
  6
CONTINUOUS
 10
36.592067716117469
 20
-72.882504728591343
 30
0.0
 11
36.536752828278921
 21
-72.882504728591343
 31
0.0
 12
36.543612180900382
 22
-72.883658185427961
 32
0.0
 13
36.543612180900382
 23
-72.883658185427961
 33
0.0
210
0.0
220
0.0
230
-1.0
  0
LINE
  5
1FCB
  8
SAPA_FOGBAND
  6
CONTINUOUS
 10
-36.555732929052901
 20
-72.374478023404038
 30
0.0
 11
-36.604078696897773
 21
-72.377935780963199
 31
0.0
  0
LINE
  5
1FCC
  8
SAPA_FOGBAND
  6
CONTINUOUS
 10
-36.526813361949813
 20
-72.377935780963199
 30
0.0
 11
-36.555732929052901
 21
-72.374478023404038
 31
0.0
  0
LINE
  5
1FCD
  8
SAPA_FOGBAND
  6
CONTINUOUS
 10
-36.604078696897773
 20
-72.377935780963199
 30
0.0
 11
-36.612649231366198
 21
-72.380232248752719
 31
0.0
  0
LINE
  5
1FCE
  8
SAPA_FOGBAND
  6
CONTINUOUS
 10
-36.526813361949813
 20
-72.377935780963199
 30
0.0
 11
-36.507606447294052
 21
-72.380232248752719
 31
0.0
  0
LINE
  5
1FCF
  8
SAPA_FOGBAND
  6
CONTINUOUS
 10
-36.612649231366198
 20
-72.380232248752719
 30
0.0
 11
-36.650896408815079
 21
-72.390480549062914
 31
0.0
  0
LINE
  5
1FD0
  8
SAPA_FOGBAND
  6
CONTINUOUS
 10
-36.507606447294052
 20
-72.380232248752719
 30
0.0
 11
-36.475546973498631
 21
-72.390480549062914
 31
0.0
  0
LINE
  5
1FD1
  8
SAPA_FOGBAND
  6
CONTINUOUS
 10
-36.650896408815079
 20
-72.390480549062914
 30
0.0
 11
-36.660180504635669
 21
-72.394990484312672
 31
0.0
  0
LINE
  5
1FD2
  8
SAPA_FOGBAND
  6
CONTINUOUS
 10
-36.475546973498631
 20
-72.390480549062914
 30
0.0
 11
-36.461438668064318
 21
-72.394990484312672
 31
0.0
  0
LINE
  5
1FD3
  8
SAPA_FOGBAND
  6
CONTINUOUS
 10
-36.660180504635669
 20
-72.394990484312672
 30
0.0
 11
-36.694493950713778
 21
-72.411658927098998
 31
0.0
  0
LINE
  5
1FD4
  8
SAPA_FOGBAND
  6
CONTINUOUS
 10
-36.461438668064318
 20
-72.394990484312672
 30
0.0
 11
-36.430912694243297
 21
-72.411658927098998
 31
0.0
  0
LINE
  5
1FD5
  8
SAPA_FOGBAND
  6
CONTINUOUS
 10
-36.694493950713778
 20
-72.411658927098998
 30
0.0
 11
-36.703257621664811
 21
-72.418219328998518
 31
0.0
  0
LINE
  5
1FD6
  8
SAPA_FOGBAND
  6
CONTINUOUS
 10
-36.430912694243297
 20
-72.411658927098998
 30
0.0
 11
-36.418898215194041
 21
-72.418219328998518
 31
0.0
  0
LINE
  5
1FD7
  8
SAPA_FOGBAND
  6
CONTINUOUS
 10
-36.703257621664811
 20
-72.418219328998518
 30
0.0
 11
-36.733295593837369
 21
-72.440705473309478
 31
0.0
  0
LINE
  5
1FD8
  8
SAPA_FOGBAND
  6
CONTINUOUS
 10
-36.418898215194041
 20
-72.418219328998518
 30
0.0
 11
-36.391664389380381
 21
-72.440705473309478
 31
0.0
  0
LINE
  5
1FD9
  8
SAPA_FOGBAND
  6
CONTINUOUS
 10
-36.733295593837369
 20
-72.440705473309478
 30
0.0
 11
-36.740907844877562
 21
-72.449079231841168
 31
0.0
  0
LINE
  5
1FDA
  8
SAPA_FOGBAND
  6
CONTINUOUS
 10
-36.391664389380381
 20
-72.440705473309478
 30
0.0
 11
-36.381522611488009
 21
-72.449079231841168
 31
0.0
  0
LINE
  5
1FDB
  8
SAPA_FOGBAND
  6
CONTINUOUS
 10
-36.740907844877562
 20
-72.449079231841168
 30
0.0
 11
-36.76589894570666
 21
-72.476570369834292
 31
0.0
  0
LINE
  5
1FDC
  8
SAPA_FOGBAND
  6
CONTINUOUS
 10
-36.381522611488009
 20
-72.449079231841168
 30
0.0
 11
-36.358824012311537
 21
-72.476570369834292
 31
0.0
  0
LINE
  5
1FDD
  8
SAPA_FOGBAND
  6
CONTINUOUS
 10
-36.76589894570666
 20
-72.476570369834292
 30
0.0
 11
-36.771923841966419
 21
-72.486454835547192
 31
0.0
  0
LINE
  5
1FDE
  8
SAPA_FOGBAND
  6
CONTINUOUS
 10
-36.358824012311537
 20
-72.476570369834292
 30
0.0
 11
-36.350662708645359
 21
-72.486454835547192
 31
0.0
  0
LINE
  5
1FDF
  8
SAPA_FOGBAND
  6
CONTINUOUS
 10
-36.771923841966419
 20
-72.486454835547192
 30
0.0
 11
-36.791125636237886
 21
-72.517957365867943
 31
0.0
  0
LINE
  5
1FE0
  8
SAPA_FOGBAND
  6
CONTINUOUS
 10
-36.350662708645359
 20
-72.486454835547192
 30
0.0
 11
-36.333461025666963
 21
-72.517957365867943
 31
0.0
  0
LINE
  5
1FE1
  8
SAPA_FOGBAND
  6
CONTINUOUS
 10
-36.791125636237886
 20
-72.517957365867943
 30
0.0
 11
-36.795242568497251
 21
-72.528995288417477
 31
0.0
  0
LINE
  5
1FE2
  8
SAPA_FOGBAND
  6
CONTINUOUS
 10
-36.333461025666963
 20
-72.517957365867943
 30
0.0
 11
-36.327433863959513
 21
-72.528995288417477
 31
0.0
  0
LINE
  5
1FE3
  8
SAPA_FOGBAND
  6
CONTINUOUS
 10
-36.795242568497251
 20
-72.528995288417477
 30
0.0
 11
-36.808063907107773
 21
-72.563370627541019
 31
0.0
  0
LINE
  5
1FE4
  8
SAPA_FOGBAND
  6
CONTINUOUS
 10
-36.327433863959513
 20
-72.528995288417477
 30
0.0
 11
-36.316445261936579
 21
-72.563370627541019
 31
0.0
  0
LINE
  5
1FE5
  8
SAPA_FOGBAND
  6
CONTINUOUS
 10
-36.808063907107773
 20
-72.563370627541019
 30
0.0
 11
-36.810046903377469
 21
-72.57516306764721
 31
0.0
  0
LINE
  5
1FE6
  8
SAPA_FOGBAND
  6
CONTINUOUS
 10
-36.316445261936579
 20
-72.563370627541019
 30
0.0
 11
-36.312675628399568
 21
-72.57516306764721
 31
0.0
  0
LINE
  5
1FE7
  8
SAPA_FOGBAND
  6
CONTINUOUS
 10
-36.810046903377469
 20
-72.57516306764721
 30
0.0
 11
-36.81610156507481
 21
-72.611168801253541
 31
0.0
  0
LINE
  5
1FE8
  8
SAPA_FOGBAND
  6
CONTINUOUS
 10
-36.312675628399568
 20
-72.57516306764721
 30
0.0
 11
-36.308370615910732
 21
-72.611168801253541
 31
0.0
  0
LINE
  5
1FE9
  8
SAPA_FOGBAND
  6
CONTINUOUS
 10
-36.81610156507481
 20
-72.611168801253541
 30
0.0
 11
-36.815813037463691
 21
-72.623289549406053
 31
0.0
  0
LINE
  5
1FEA
  8
SAPA_FOGBAND
  6
CONTINUOUS
 10
-36.308370615910732
 20
-72.611168801253541
 30
0.0
 11
-36.306921403050879
 21
-72.623289549406053
 31
0.0
  0
LINE
  5
1FEB
  8
SAPA_FOGBAND
  6
CONTINUOUS
 10
-36.815813037463691
 20
-72.623289549406053
 30
0.0
 11
-36.814948108238191
 21
-72.659624336470628
 31
0.0
  0
LINE
  5
1FEC
  8
SAPA_FOGBAND
  6
CONTINUOUS
 10
-36.306921403050879
 20
-72.623289549406053
 30
0.0
 11
-36.309520118310417
 21
-72.659624336470628
 31
0.0
  0
LINE
  5
1FED
  8
SAPA_FOGBAND
  6
CONTINUOUS
 10
-36.814948108238191
 20
-72.659624336470628
 30
0.0
 11
-36.812335279300903
 21
-72.671635317250932
 31
0.0
  0
LINE
  5
1FEE
  8
SAPA_FOGBAND
  6
CONTINUOUS
 10
-36.309520118310417
 20
-72.659624336470628
 30
0.0
 11
-36.31037916061004
 21
-72.671635317250932
 31
0.0
  0
LINE
  5
1FEF
  8
SAPA_FOGBAND
  6
CONTINUOUS
 10
-36.812335279300903
 20
-72.671635317250932
 30
0.0
 11
-36.804645225533271
 21
-72.70698592389985
 31
0.0
  0
LINE
  5
1FF0
  8
SAPA_FOGBAND
  6
CONTINUOUS
 10
-36.31037916061004
 20
-72.671635317250932
 30
0.0
 11
-36.319851327113582
 21
-72.70698592389985
 31
0.0
  0
LINE
  5
1FF1
  8
SAPA_FOGBAND
  6
CONTINUOUS
 10
-36.804645225533271
 20
-72.70698592389985
 30
0.0
 11
-36.799734724695803
 21
-72.718453029168245
 31
0.0
  0
LINE
  5
1FF2
  8
SAPA_FOGBAND
  6
CONTINUOUS
 10
-36.319851327113582
 20
-72.70698592389985
 30
0.0
 11
-36.322923928709763
 21
-72.718453029168245
 31
0.0
  0
LINE
  5
1FF3
  8
SAPA_FOGBAND
  6
CONTINUOUS
 10
-36.799734724695803
 20
-72.718453029168245
 30
0.0
 11
-36.785565289984902
 21
-72.751541792372123
 31
0.0
  0
LINE
  5
1FF4
  8
SAPA_FOGBAND
  6
CONTINUOUS
 10
-36.322923928709763
 20
-72.718453029168245
 30
0.0
 11
-36.338997457293239
 21
-72.751541792372123
 31
0.0
  0
LINE
  5
1FF5
  8
SAPA_FOGBAND
  6
CONTINUOUS
 10
-36.785565289984902
 20
-72.751541792372123
 30
0.0
 11
-36.778452743370273
 21
-72.762050571066936
 31
0.0
  0
LINE
  5
1FF6
  8
SAPA_FOGBAND
  6
CONTINUOUS
 10
-36.338997457293239
 20
-72.751541792372123
 30
0.0
 11
-36.344102306745839
 21
-72.762050571066936
 31
0.0
  0
LINE
  5
1FF7
  8
SAPA_FOGBAND
  6
CONTINUOUS
 10
-36.778452743370273
 20
-72.762050571066936
 30
0.0
 11
-36.758397900176107
 21
-72.791681576711667
 31
0.0
  0
LINE
  5
1FF8
  8
SAPA_FOGBAND
  6
CONTINUOUS
 10
-36.344102306745839
 20
-72.762050571066936
 30
0.0
 11
-36.36628379973007
 21
-72.791681576711667
 31
0.0
  0
LINE
  5
1FF9
  8
SAPA_FOGBAND
  6
CONTINUOUS
 10
-36.758397900176107
 20
-72.791681576711667
 30
0.0
 11
-36.749227262697246
 21
-72.800852214190527
 31
0.0
  0
LINE
  5
1FFA
  8
SAPA_FOGBAND
  6
CONTINUOUS
 10
-36.36628379973007
 20
-72.791681576711667
 30
0.0
 11
-36.373148852956319
 21
-72.800852214190527
 31
0.0
  0
LINE
  5
1FFB
  8
SAPA_FOGBAND
  6
CONTINUOUS
 10
-36.749227262697246
 20
-72.800852214190527
 30
0.0
 11
-36.724124956358523
 21
-72.825954520529265
 31
0.0
  0
LINE
  5
1FFC
  8
SAPA_FOGBAND
  6
CONTINUOUS
 10
-36.373148852956319
 20
-72.800852214190527
 30
0.0
 11
-36.400762321135382
 21
-72.825954520529265
 31
0.0
  0
LINE
  5
1FFD
  8
SAPA_FOGBAND
  6
CONTINUOUS
 10
-36.724124956358523
 20
-72.825954520529265
 30
0.0
 11
-36.713042171003117
 21
-72.833455566059811
 31
0.0
  0
LINE
  5
1FFE
  8
SAPA_FOGBAND
  6
CONTINUOUS
 10
-36.400762321135382
 20
-72.825954520529265
 30
0.0
 11
-36.409013749481133
 21
-72.833455566059811
 31
0.0
  0
LINE
  5
1FFF
  8
SAPA_FOGBAND
  6
CONTINUOUS
 10
-36.713042171003117
 20
-72.833455566059811
 30
0.0
 11
-36.683985172018971
 21
-72.853121910338061
 31
0.0
  0
LINE
  5
2000
  8
SAPA_FOGBAND
  6
CONTINUOUS
 10
-36.409013749481133
 20
-72.833455566059811
 30
0.0
 11
-36.4412784221552
 21
-72.853121910338061
 31
0.0
  0
LINE
  5
2001
  8
SAPA_FOGBAND
  6
CONTINUOUS
 10
-36.683985172018971
 20
-72.853121910338061
 30
0.0
 11
-36.671000534011121
 21
-72.858682256591052
 31
0.0
  0
LINE
  5
2002
  8
SAPA_FOGBAND
  6
CONTINUOUS
 10
-36.4412784221552
 20
-72.853121910338061
 30
0.0
 11
-36.450400745514791
 21
-72.858682256591052
 31
0.0
  0
LINE
  5
2003
  8
SAPA_FOGBAND
  6
CONTINUOUS
 10
-36.671000534011121
 20
-72.858682256591052
 30
0.0
 11
-36.639429303546699
 21
-72.872201845886423
 31
0.0
  0
LINE
  5
2004
  8
SAPA_FOGBAND
  6
CONTINUOUS
 10
-36.450400745514791
 20
-72.858682256591052
 30
0.0
 11
-36.486648167173108
 21
-72.872201845886423
 31
0.0
  0
LINE
  5
2005
  8
SAPA_FOGBAND
  6
CONTINUOUS
 10
-36.639429303546699
 20
-72.872201845886423
 30
0.0
 11
-36.623713877978851
 21
-72.875620527460924
 31
0.0
  0
LINE
  5
2006
  8
SAPA_FOGBAND
  6
CONTINUOUS
 10
-36.486648167173108
 20
-72.872201845886423
 30
0.0
 11
-36.49581400718786
 21
-72.875620527460924
 31
0.0
  0
LINE
  5
2007
  8
SAPA_FOGBAND
  6
CONTINUOUS
 10
-36.623713877978851
 20
-72.875620527460924
 30
0.0
 11
-36.592067716117469
 21
-72.882504728591343
 31
0.0
  0
LINE
  5
2008
  8
SAPA_FOGBAND
  6
CONTINUOUS
 10
-36.49581400718786
 20
-72.875620527460924
 30
0.0
 11
-36.536752828278921
 21
-72.882504728591343
 31
0.0
  0
LINE
  5
2009
  8
SAPA_FOGBAND
  6
CONTINUOUS
 10
-36.536752828278921
 20
-72.882504728591343
 30
0.0
 11
-36.543612180900382
 21
-72.883658185427961
 31
0.0
  0
LINE
  5
200A
  8
SAPA_FOGBAND
  6
CONTINUOUS
 10
-36.543612180900382
 20
-72.883658185427961
 30
0.0
 11
-36.592067716117469
 21
-72.882504728591343
 31
0.0
  0
ENDBLK
  5
200C
  8
0
  0
BLOCK
  8
0
  2
*U109
 70
     1
 10
0.0
 20
0.0
 30
0.0
  3
*U109
  1

  0
SOLID
  5
20B1
  8
SAPA_FOGBAND
  6
CONTINUOUS
 10
-36.561800175261332
 20
-35.115692228706543
 30
0.0
 11
-36.742077739034542
 21
-35.190365640612981
 31
0.0
 12
-36.38152261148813
 22
-35.190365640612981
 32
0.0
 13
-36.38152261148813
 23
-35.190365640612981
 33
0.0
210
0.0
220
0.0
230
1.0
  0
SOLID
  5
20B2
  8
SAPA_FOGBAND
  6
CONTINUOUS
 10
-36.742077739034542
 20
-35.190365640612981
 30
0.0
 11
-36.816751150940981
 21
-35.370643204386191
 31
0.0
 12
-36.306849199581691
 22
-35.370643204386191
 32
0.0
 13
-36.306849199581691
 23
-35.370643204386191
 33
0.0
210
0.0
220
0.0
230
1.0
  0
SOLID
  5
20B3
  8
SAPA_FOGBAND
  6
CONTINUOUS
 10
36.742077739034542
 20
-35.190365640612981
 30
0.0
 11
36.38152261148813
 21
-35.190365640612981
 31
0.0
 12
36.306849199581691
 22
-35.370643204386191
 32
0.0
 13
36.306849199581691
 23
-35.370643204386191
 33
0.0
210
0.0
220
0.0
230
-1.0
  0
SOLID
  5
20B4
  8
SAPA_FOGBAND
  6
CONTINUOUS
 10
-36.816751150940981
 20
-35.370643204386191
 30
0.0
 11
-36.742077739034542
 21
-35.550920768159394
 31
0.0
 12
-36.38152261148813
 22
-35.550920768159394
 32
0.0
 13
-36.38152261148813
 23
-35.550920768159394
 33
0.0
210
0.0
220
0.0
230
1.0
  0
SOLID
  5
20B5
  8
SAPA_FOGBAND
  6
CONTINUOUS
 10
36.816751150940981
 20
-35.370643204386191
 30
0.0
 11
36.306849199581691
 21
-35.370643204386191
 31
0.0
 12
36.38152261148813
 22
-35.550920768159394
 32
0.0
 13
36.38152261148813
 23
-35.550920768159394
 33
0.0
210
0.0
220
0.0
230
-1.0
  0
SOLID
  5
20B6
  8
SAPA_FOGBAND
  6
CONTINUOUS
 10
36.742077739034542
 20
-35.550920768159394
 30
0.0
 11
36.38152261148813
 21
-35.550920768159394
 31
0.0
 12
36.561800175261332
 22
-35.625594180065818
 32
0.0
 13
36.561800175261332
 23
-35.625594180065818
 33
0.0
210
0.0
220
0.0
230
-1.0
  0
LINE
  5
20B7
  8
SAPA_FOGBAND
  6
CONTINUOUS
 10
-36.561800175261332
 20
-35.115692228706543
 30
0.0
 11
-36.742077739034542
 21
-35.190365640612981
 31
0.0
  0
LINE
  5
20B8
  8
SAPA_FOGBAND
  6
CONTINUOUS
 10
-36.38152261148813
 20
-35.190365640612981
 30
0.0
 11
-36.561800175261332
 21
-35.115692228706543
 31
0.0
  0
LINE
  5
20B9
  8
SAPA_FOGBAND
  6
CONTINUOUS
 10
-36.742077739034542
 20
-35.190365640612981
 30
0.0
 11
-36.816751150940981
 21
-35.370643204386191
 31
0.0
  0
LINE
  5
20BA
  8
SAPA_FOGBAND
  6
CONTINUOUS
 10
-36.38152261148813
 20
-35.190365640612981
 30
0.0
 11
-36.306849199581691
 21
-35.370643204386191
 31
0.0
  0
LINE
  5
20BB
  8
SAPA_FOGBAND
  6
CONTINUOUS
 10
-36.816751150940981
 20
-35.370643204386191
 30
0.0
 11
-36.742077739034542
 21
-35.550920768159394
 31
0.0
  0
LINE
  5
20BC
  8
SAPA_FOGBAND
  6
CONTINUOUS
 10
-36.306849199581691
 20
-35.370643204386191
 30
0.0
 11
-36.38152261148813
 21
-35.550920768159394
 31
0.0
  0
LINE
  5
20BD
  8
SAPA_FOGBAND
  6
CONTINUOUS
 10
-36.38152261148813
 20
-35.550920768159394
 30
0.0
 11
-36.561800175261332
 21
-35.625594180065818
 31
0.0
  0
LINE
  5
20BE
  8
SAPA_FOGBAND
  6
CONTINUOUS
 10
-36.561800175261332
 20
-35.625594180065818
 30
0.0
 11
-36.742077739034542
 21
-35.550920768159394
 31
0.0
  0
ENDBLK
  5
20C0
  8
0
  0
BLOCK
  8
0
  2
*U110
 70
     1
 10
0.0
 20
0.0
 30
0.0
  3
*U110
  1

  0
SOLID
  5
2132
  8
SAPA_FOGBAND
  6
CONTINUOUS
 10
-36.555732929052901
 20
-72.374478023404038
 30
0.0
 11
-36.604078696897773
 21
-72.377935780963199
 31
0.0
 12
-36.526813361949813
 22
-72.377935780963199
 32
0.0
 13
-36.526813361949813
 23
-72.377935780963199
 33
0.0
210
0.0
220
0.0
230
1.0
  0
SOLID
  5
2133
  8
SAPA_FOGBAND
  6
CONTINUOUS
 10
-36.604078696897773
 20
-72.377935780963199
 30
0.0
 11
-36.612649231366198
 21
-72.380232248752719
 31
0.0
 12
-36.507606447294052
 22
-72.380232248752719
 32
0.0
 13
-36.507606447294052
 23
-72.380232248752719
 33
0.0
210
0.0
220
0.0
230
1.0
  0
SOLID
  5
2134
  8
SAPA_FOGBAND
  6
CONTINUOUS
 10
36.604078696897773
 20
-72.377935780963199
 30
0.0
 11
36.526813361949813
 21
-72.377935780963199
 31
0.0
 12
36.507606447294052
 22
-72.380232248752719
 32
0.0
 13
36.507606447294052
 23
-72.380232248752719
 33
0.0
210
0.0
220
0.0
230
-1.0
  0
SOLID
  5
2135
  8
SAPA_FOGBAND
  6
CONTINUOUS
 10
-36.612649231366198
 20
-72.380232248752719
 30
0.0
 11
-36.650896408815079
 21
-72.390480549062914
 31
0.0
 12
-36.475546973498631
 22
-72.390480549062914
 32
0.0
 13
-36.475546973498631
 23
-72.390480549062914
 33
0.0
210
0.0
220
0.0
230
1.0
  0
SOLID
  5
2136
  8
SAPA_FOGBAND
  6
CONTINUOUS
 10
36.612649231366198
 20
-72.380232248752719
 30
0.0
 11
36.507606447294052
 21
-72.380232248752719
 31
0.0
 12
36.475546973498631
 22
-72.390480549062914
 32
0.0
 13
36.475546973498631
 23
-72.390480549062914
 33
0.0
210
0.0
220
0.0
230
-1.0
  0
SOLID
  5
2137
  8
SAPA_FOGBAND
  6
CONTINUOUS
 10
-36.650896408815079
 20
-72.390480549062914
 30
0.0
 11
-36.660180504635669
 21
-72.394990484312672
 31
0.0
 12
-36.461438668064318
 22
-72.394990484312672
 32
0.0
 13
-36.461438668064318
 23
-72.394990484312672
 33
0.0
210
0.0
220
0.0
230
1.0
  0
SOLID
  5
2138
  8
SAPA_FOGBAND
  6
CONTINUOUS
 10
36.650896408815079
 20
-72.390480549062914
 30
0.0
 11
36.475546973498631
 21
-72.390480549062914
 31
0.0
 12
36.461438668064318
 22
-72.394990484312672
 32
0.0
 13
36.461438668064318
 23
-72.394990484312672
 33
0.0
210
0.0
220
0.0
230
-1.0
  0
SOLID
  5
2139
  8
SAPA_FOGBAND
  6
CONTINUOUS
 10
-36.660180504635669
 20
-72.394990484312672
 30
0.0
 11
-36.694493950713778
 21
-72.411658927098998
 31
0.0
 12
-36.430912694243297
 22
-72.411658927098998
 32
0.0
 13
-36.430912694243297
 23
-72.411658927098998
 33
0.0
210
0.0
220
0.0
230
1.0
  0
SOLID
  5
213A
  8
SAPA_FOGBAND
  6
CONTINUOUS
 10
36.660180504635669
 20
-72.394990484312672
 30
0.0
 11
36.461438668064318
 21
-72.394990484312672
 31
0.0
 12
36.430912694243297
 22
-72.411658927098998
 32
0.0
 13
36.430912694243297
 23
-72.411658927098998
 33
0.0
210
0.0
220
0.0
230
-1.0
  0
SOLID
  5
213B
  8
SAPA_FOGBAND
  6
CONTINUOUS
 10
-36.694493950713778
 20
-72.411658927098998
 30
0.0
 11
-36.703257621664811
 21
-72.418219328998518
 31
0.0
 12
-36.418898215194041
 22
-72.418219328998518
 32
0.0
 13
-36.418898215194041
 23
-72.418219328998518
 33
0.0
210
0.0
220
0.0
230
1.0
  0
SOLID
  5
213C
  8
SAPA_FOGBAND
  6
CONTINUOUS
 10
36.694493950713778
 20
-72.411658927098998
 30
0.0
 11
36.430912694243297
 21
-72.411658927098998
 31
0.0
 12
36.418898215194041
 22
-72.418219328998518
 32
0.0
 13
36.418898215194041
 23
-72.418219328998518
 33
0.0
210
0.0
220
0.0
230
-1.0
  0
SOLID
  5
213D
  8
SAPA_FOGBAND
  6
CONTINUOUS
 10
-36.703257621664811
 20
-72.418219328998518
 30
0.0
 11
-36.733295593837369
 21
-72.440705473309478
 31
0.0
 12
-36.391664389380381
 22
-72.440705473309478
 32
0.0
 13
-36.391664389380381
 23
-72.440705473309478
 33
0.0
210
0.0
220
0.0
230
1.0
  0
SOLID
  5
213E
  8
SAPA_FOGBAND
  6
CONTINUOUS
 10
36.703257621664811
 20
-72.418219328998518
 30
0.0
 11
36.418898215194041
 21
-72.418219328998518
 31
0.0
 12
36.391664389380381
 22
-72.440705473309478
 32
0.0
 13
36.391664389380381
 23
-72.440705473309478
 33
0.0
210
0.0
220
0.0
230
-1.0
  0
SOLID
  5
213F
  8
SAPA_FOGBAND
  6
CONTINUOUS
 10
-36.733295593837369
 20
-72.440705473309478
 30
0.0
 11
-36.740907844877562
 21
-72.449079231841168
 31
0.0
 12
-36.381522611488009
 22
-72.449079231841168
 32
0.0
 13
-36.381522611488009
 23
-72.449079231841168
 33
0.0
  0
SOLID
  5
2140
  8
SAPA_FOGBAND
  6
CONTINUOUS
 10
36.733295593837369
 20
-72.440705473309478
 30
0.0
 11
36.391664389380381
 21
-72.440705473309478
 31
0.0
 12
36.381522611488009
 22
-72.449079231841168
 32
0.0
 13
36.381522611488009
 23
-72.449079231841168
 33
0.0
210
0.0
220
0.0
230
-1.0
  0
SOLID
  5
2141
  8
SAPA_FOGBAND
  6
CONTINUOUS
 10
-36.740907844877562
 20
-72.449079231841168
 30
0.0
 11
-36.76589894570666
 21
-72.476570369834292
 31
0.0
 12
-36.358824012311537
 22
-72.476570369834292
 32
0.0
 13
-36.358824012311537
 23
-72.476570369834292
 33
0.0
  0
SOLID
  5
2142
  8
SAPA_FOGBAND
  6
CONTINUOUS
 10
36.740907844877562
 20
-72.449079231841168
 30
0.0
 11
36.381522611488009
 21
-72.449079231841168
 31
0.0
 12
36.358824012311537
 22
-72.476570369834292
 32
0.0
 13
36.358824012311537
 23
-72.476570369834292
 33
0.0
210
0.0
220
0.0
230
-1.0
  0
SOLID
  5
2143
  8
SAPA_FOGBAND
  6
CONTINUOUS
 10
-36.76589894570666
 20
-72.476570369834292
 30
0.0
 11
-36.771923841966419
 21
-72.486454835547192
 31
0.0
 12
-36.350662708645359
 22
-72.486454835547192
 32
0.0
 13
-36.350662708645359
 23
-72.486454835547192
 33
0.0
210
0.0
220
0.0
230
1.0
  0
SOLID
  5
2144
  8
SAPA_FOGBAND
  6
CONTINUOUS
 10
36.76589894570666
 20
-72.476570369834292
 30
0.0
 11
36.358824012311537
 21
-72.476570369834292
 31
0.0
 12
36.350662708645359
 22
-72.486454835547192
 32
0.0
 13
36.350662708645359
 23
-72.486454835547192
 33
0.0
210
0.0
220
0.0
230
-1.0
  0
SOLID
  5
2145
  8
SAPA_FOGBAND
  6
CONTINUOUS
 10
-36.771923841966419
 20
-72.486454835547192
 30
0.0
 11
-36.791125636237886
 21
-72.517957365867943
 31
0.0
 12
-36.333461025666963
 22
-72.517957365867943
 32
0.0
 13
-36.333461025666963
 23
-72.517957365867943
 33
0.0
  0
SOLID
  5
2146
  8
SAPA_FOGBAND
  6
CONTINUOUS
 10
36.771923841966419
 20
-72.486454835547192
 30
0.0
 11
36.350662708645359
 21
-72.486454835547192
 31
0.0
 12
36.333461025666963
 22
-72.517957365867943
 32
0.0
 13
36.333461025666963
 23
-72.517957365867943
 33
0.0
210
0.0
220
0.0
230
-1.0
  0
SOLID
  5
2147
  8
SAPA_FOGBAND
  6
CONTINUOUS
 10
-36.791125636237886
 20
-72.517957365867943
 30
0.0
 11
-36.795242568497251
 21
-72.528995288417477
 31
0.0
 12
-36.327433863959513
 22
-72.528995288417477
 32
0.0
 13
-36.327433863959513
 23
-72.528995288417477
 33
0.0
210
0.0
220
0.0
230
1.0
  0
SOLID
  5
2148
  8
SAPA_FOGBAND
  6
CONTINUOUS
 10
36.791125636237886
 20
-72.517957365867943
 30
0.0
 11
36.333461025666963
 21
-72.517957365867943
 31
0.0
 12
36.327433863959513
 22
-72.528995288417477
 32
0.0
 13
36.327433863959513
 23
-72.528995288417477
 33
0.0
210
0.0
220
0.0
230
-1.0
  0
SOLID
  5
2149
  8
SAPA_FOGBAND
  6
CONTINUOUS
 10
-36.795242568497251
 20
-72.528995288417477
 30
0.0
 11
-36.808063907107773
 21
-72.563370627541019
 31
0.0
 12
-36.316445261936579
 22
-72.563370627541019
 32
0.0
 13
-36.316445261936579
 23
-72.563370627541019
 33
0.0
210
0.0
220
0.0
230
1.0
  0
SOLID
  5
214A
  8
SAPA_FOGBAND
  6
CONTINUOUS
 10
36.795242568497251
 20
-72.528995288417477
 30
0.0
 11
36.327433863959513
 21
-72.528995288417477
 31
0.0
 12
36.316445261936579
 22
-72.563370627541019
 32
0.0
 13
36.316445261936579
 23
-72.563370627541019
 33
0.0
210
0.0
220
0.0
230
-1.0
  0
SOLID
  5
214B
  8
SAPA_FOGBAND
  6
CONTINUOUS
 10
-36.808063907107773
 20
-72.563370627541019
 30
0.0
 11
-36.810046903377469
 21
-72.57516306764721
 31
0.0
 12
-36.312675628399568
 22
-72.57516306764721
 32
0.0
 13
-36.312675628399568
 23
-72.57516306764721
 33
0.0
210
0.0
220
0.0
230
1.0
  0
SOLID
  5
214C
  8
SAPA_FOGBAND
  6
CONTINUOUS
 10
36.808063907107773
 20
-72.563370627541019
 30
0.0
 11
36.316445261936579
 21
-72.563370627541019
 31
0.0
 12
36.312675628399568
 22
-72.57516306764721
 32
0.0
 13
36.312675628399568
 23
-72.57516306764721
 33
0.0
210
0.0
220
0.0
230
-1.0
  0
SOLID
  5
214D
  8
SAPA_FOGBAND
  6
CONTINUOUS
 10
-36.810046903377469
 20
-72.57516306764721
 30
0.0
 11
-36.81610156507481
 21
-72.611168801253541
 31
0.0
 12
-36.308370615910732
 22
-72.611168801253541
 32
0.0
 13
-36.308370615910732
 23
-72.611168801253541
 33
0.0
210
0.0
220
0.0
230
1.0
  0
SOLID
  5
214E
  8
SAPA_FOGBAND
  6
CONTINUOUS
 10
36.810046903377469
 20
-72.57516306764721
 30
0.0
 11
36.312675628399568
 21
-72.57516306764721
 31
0.0
 12
36.308370615910732
 22
-72.611168801253541
 32
0.0
 13
36.308370615910732
 23
-72.611168801253541
 33
0.0
210
0.0
220
0.0
230
-1.0
  0
SOLID
  5
214F
  8
SAPA_FOGBAND
  6
CONTINUOUS
 10
-36.81610156507481
 20
-72.611168801253541
 30
0.0
 11
-36.815813037463691
 21
-72.623289549406053
 31
0.0
 12
-36.306921403050879
 22
-72.623289549406053
 32
0.0
 13
-36.306921403050879
 23
-72.623289549406053
 33
0.0
210
0.0
220
0.0
230
1.0
  0
SOLID
  5
2150
  8
SAPA_FOGBAND
  6
CONTINUOUS
 10
36.81610156507481
 20
-72.611168801253541
 30
0.0
 11
36.308370615910732
 21
-72.611168801253541
 31
0.0
 12
36.306921403050879
 22
-72.623289549406053
 32
0.0
 13
36.306921403050879
 23
-72.623289549406053
 33
0.0
210
0.0
220
0.0
230
-1.0
  0
SOLID
  5
2151
  8
SAPA_FOGBAND
  6
CONTINUOUS
 10
-36.815813037463691
 20
-72.623289549406053
 30
0.0
 11
-36.814948108238191
 21
-72.659624336470628
 31
0.0
 12
-36.309520118310417
 22
-72.659624336470628
 32
0.0
 13
-36.309520118310417
 23
-72.659624336470628
 33
0.0
210
0.0
220
0.0
230
1.0
  0
SOLID
  5
2152
  8
SAPA_FOGBAND
  6
CONTINUOUS
 10
36.815813037463691
 20
-72.623289549406053
 30
0.0
 11
36.306921403050879
 21
-72.623289549406053
 31
0.0
 12
36.309520118310417
 22
-72.659624336470628
 32
0.0
 13
36.309520118310417
 23
-72.659624336470628
 33
0.0
210
0.0
220
0.0
230
-1.0
  0
SOLID
  5
2153
  8
SAPA_FOGBAND
  6
CONTINUOUS
 10
-36.814948108238191
 20
-72.659624336470628
 30
0.0
 11
-36.812335279300903
 21
-72.671635317250932
 31
0.0
 12
-36.31037916061004
 22
-72.671635317250932
 32
0.0
 13
-36.31037916061004
 23
-72.671635317250932
 33
0.0
210
0.0
220
0.0
230
1.0
  0
SOLID
  5
2154
  8
SAPA_FOGBAND
  6
CONTINUOUS
 10
36.814948108238191
 20
-72.659624336470628
 30
0.0
 11
36.309520118310417
 21
-72.659624336470628
 31
0.0
 12
36.31037916061004
 22
-72.671635317250932
 32
0.0
 13
36.31037916061004
 23
-72.671635317250932
 33
0.0
210
0.0
220
0.0
230
-1.0
  0
SOLID
  5
2155
  8
SAPA_FOGBAND
  6
CONTINUOUS
 10
-36.812335279300903
 20
-72.671635317250932
 30
0.0
 11
-36.804645225533271
 21
-72.70698592389985
 31
0.0
 12
-36.319851327113582
 22
-72.70698592389985
 32
0.0
 13
-36.319851327113582
 23
-72.70698592389985
 33
0.0
210
0.0
220
0.0
230
1.0
  0
SOLID
  5
2156
  8
SAPA_FOGBAND
  6
CONTINUOUS
 10
36.812335279300903
 20
-72.671635317250932
 30
0.0
 11
36.31037916061004
 21
-72.671635317250932
 31
0.0
 12
36.319851327113582
 22
-72.70698592389985
 32
0.0
 13
36.319851327113582
 23
-72.70698592389985
 33
0.0
210
0.0
220
0.0
230
-1.0
  0
SOLID
  5
2157
  8
SAPA_FOGBAND
  6
CONTINUOUS
 10
-36.804645225533271
 20
-72.70698592389985
 30
0.0
 11
-36.799734724695803
 21
-72.718453029168245
 31
0.0
 12
-36.322923928709763
 22
-72.718453029168245
 32
0.0
 13
-36.322923928709763
 23
-72.718453029168245
 33
0.0
210
0.0
220
0.0
230
1.0
  0
SOLID
  5
2158
  8
SAPA_FOGBAND
  6
CONTINUOUS
 10
36.804645225533271
 20
-72.70698592389985
 30
0.0
 11
36.319851327113582
 21
-72.70698592389985
 31
0.0
 12
36.322923928709763
 22
-72.718453029168245
 32
0.0
 13
36.322923928709763
 23
-72.718453029168245
 33
0.0
210
0.0
220
0.0
230
-1.0
  0
SOLID
  5
2159
  8
SAPA_FOGBAND
  6
CONTINUOUS
 10
-36.799734724695803
 20
-72.718453029168245
 30
0.0
 11
-36.785565289984902
 21
-72.751541792372123
 31
0.0
 12
-36.338997457293239
 22
-72.751541792372123
 32
0.0
 13
-36.338997457293239
 23
-72.751541792372123
 33
0.0
  0
SOLID
  5
215A
  8
SAPA_FOGBAND
  6
CONTINUOUS
 10
36.799734724695803
 20
-72.718453029168245
 30
0.0
 11
36.322923928709763
 21
-72.718453029168245
 31
0.0
 12
36.338997457293239
 22
-72.751541792372123
 32
0.0
 13
36.338997457293239
 23
-72.751541792372123
 33
0.0
210
0.0
220
0.0
230
-1.0
  0
SOLID
  5
215B
  8
SAPA_FOGBAND
  6
CONTINUOUS
 10
-36.785565289984902
 20
-72.751541792372123
 30
0.0
 11
-36.778452743370273
 21
-72.762050571066936
 31
0.0
 12
-36.344102306745839
 22
-72.762050571066936
 32
0.0
 13
-36.344102306745839
 23
-72.762050571066936
 33
0.0
210
0.0
220
0.0
230
1.0
  0
SOLID
  5
215C
  8
SAPA_FOGBAND
  6
CONTINUOUS
 10
36.785565289984902
 20
-72.751541792372123
 30
0.0
 11
36.338997457293239
 21
-72.751541792372123
 31
0.0
 12
36.344102306745839
 22
-72.762050571066936
 32
0.0
 13
36.344102306745839
 23
-72.762050571066936
 33
0.0
210
0.0
220
0.0
230
-1.0
  0
SOLID
  5
215D
  8
SAPA_FOGBAND
  6
CONTINUOUS
 10
-36.778452743370273
 20
-72.762050571066936
 30
0.0
 11
-36.758397900176107
 21
-72.791681576711667
 31
0.0
 12
-36.36628379973007
 22
-72.791681576711667
 32
0.0
 13
-36.36628379973007
 23
-72.791681576711667
 33
0.0
210
0.0
220
0.0
230
1.0
  0
SOLID
  5
215E
  8
SAPA_FOGBAND
  6
CONTINUOUS
 10
36.778452743370273
 20
-72.762050571066936
 30
0.0
 11
36.344102306745839
 21
-72.762050571066936
 31
0.0
 12
36.36628379973007
 22
-72.791681576711667
 32
0.0
 13
36.36628379973007
 23
-72.791681576711667
 33
0.0
210
0.0
220
0.0
230
-1.0
  0
SOLID
  5
215F
  8
SAPA_FOGBAND
  6
CONTINUOUS
 10
-36.758397900176107
 20
-72.791681576711667
 30
0.0
 11
-36.749227262697246
 21
-72.800852214190527
 31
0.0
 12
-36.373148852956319
 22
-72.800852214190527
 32
0.0
 13
-36.373148852956319
 23
-72.800852214190527
 33
0.0
  0
SOLID
  5
2160
  8
SAPA_FOGBAND
  6
CONTINUOUS
 10
36.758397900176107
 20
-72.791681576711667
 30
0.0
 11
36.36628379973007
 21
-72.791681576711667
 31
0.0
 12
36.373148852956319
 22
-72.800852214190527
 32
0.0
 13
36.373148852956319
 23
-72.800852214190527
 33
0.0
210
0.0
220
0.0
230
-1.0
  0
SOLID
  5
2161
  8
SAPA_FOGBAND
  6
CONTINUOUS
 10
-36.749227262697246
 20
-72.800852214190527
 30
0.0
 11
-36.724124956358523
 21
-72.825954520529265
 31
0.0
 12
-36.400762321135382
 22
-72.825954520529265
 32
0.0
 13
-36.400762321135382
 23
-72.825954520529265
 33
0.0
210
0.0
220
0.0
230
1.0
  0
SOLID
  5
2162
  8
SAPA_FOGBAND
  6
CONTINUOUS
 10
36.749227262697246
 20
-72.800852214190527
 30
0.0
 11
36.373148852956319
 21
-72.800852214190527
 31
0.0
 12
36.400762321135382
 22
-72.825954520529265
 32
0.0
 13
36.400762321135382
 23
-72.825954520529265
 33
0.0
210
0.0
220
0.0
230
-1.0
  0
SOLID
  5
2163
  8
SAPA_FOGBAND
  6
CONTINUOUS
 10
-36.724124956358523
 20
-72.825954520529265
 30
0.0
 11
-36.713042171003117
 21
-72.833455566059811
 31
0.0
 12
-36.409013749481133
 22
-72.833455566059811
 32
0.0
 13
-36.409013749481133
 23
-72.833455566059811
 33
0.0
210
0.0
220
0.0
230
1.0
  0
SOLID
  5
2164
  8
SAPA_FOGBAND
  6
CONTINUOUS
 10
36.724124956358523
 20
-72.825954520529265
 30
0.0
 11
36.400762321135382
 21
-72.825954520529265
 31
0.0
 12
36.409013749481133
 22
-72.833455566059811
 32
0.0
 13
36.409013749481133
 23
-72.833455566059811
 33
0.0
210
0.0
220
0.0
230
-1.0
  0
SOLID
  5
2165
  8
SAPA_FOGBAND
  6
CONTINUOUS
 10
-36.713042171003117
 20
-72.833455566059811
 30
0.0
 11
-36.683985172018971
 21
-72.853121910338061
 31
0.0
 12
-36.4412784221552
 22
-72.853121910338061
 32
0.0
 13
-36.4412784221552
 23
-72.853121910338061
 33
0.0
210
0.0
220
0.0
230
1.0
  0
SOLID
  5
2166
  8
SAPA_FOGBAND
  6
CONTINUOUS
 10
36.713042171003117
 20
-72.833455566059811
 30
0.0
 11
36.409013749481133
 21
-72.833455566059811
 31
0.0
 12
36.4412784221552
 22
-72.853121910338061
 32
0.0
 13
36.4412784221552
 23
-72.853121910338061
 33
0.0
210
0.0
220
0.0
230
-1.0
  0
SOLID
  5
2167
  8
SAPA_FOGBAND
  6
CONTINUOUS
 10
-36.683985172018971
 20
-72.853121910338061
 30
0.0
 11
-36.671000534011121
 21
-72.858682256591052
 31
0.0
 12
-36.450400745514791
 22
-72.858682256591052
 32
0.0
 13
-36.450400745514791
 23
-72.858682256591052
 33
0.0
210
0.0
220
0.0
230
1.0
  0
SOLID
  5
2168
  8
SAPA_FOGBAND
  6
CONTINUOUS
 10
36.683985172018971
 20
-72.853121910338061
 30
0.0
 11
36.4412784221552
 21
-72.853121910338061
 31
0.0
 12
36.450400745514791
 22
-72.858682256591052
 32
0.0
 13
36.450400745514791
 23
-72.858682256591052
 33
0.0
210
0.0
220
0.0
230
-1.0
  0
SOLID
  5
2169
  8
SAPA_FOGBAND
  6
CONTINUOUS
 10
-36.671000534011121
 20
-72.858682256591052
 30
0.0
 11
-36.639429303546699
 21
-72.872201845886423
 31
0.0
 12
-36.486648167173108
 22
-72.872201845886423
 32
0.0
 13
-36.486648167173108
 23
-72.872201845886423
 33
0.0
210
0.0
220
0.0
230
1.0
  0
SOLID
  5
216A
  8
SAPA_FOGBAND
  6
CONTINUOUS
 10
36.671000534011121
 20
-72.858682256591052
 30
0.0
 11
36.450400745514791
 21
-72.858682256591052
 31
0.0
 12
36.486648167173108
 22
-72.872201845886423
 32
0.0
 13
36.486648167173108
 23
-72.872201845886423
 33
0.0
210
0.0
220
0.0
230
-1.0
  0
SOLID
  5
216B
  8
SAPA_FOGBAND
  6
CONTINUOUS
 10
-36.639429303546699
 20
-72.872201845886423
 30
0.0
 11
-36.623713877978851
 21
-72.875620527460924
 31
0.0
 12
-36.49581400718786
 22
-72.875620527460924
 32
0.0
 13
-36.49581400718786
 23
-72.875620527460924
 33
0.0
  0
SOLID
  5
216C
  8
SAPA_FOGBAND
  6
CONTINUOUS
 10
36.639429303546699
 20
-72.872201845886423
 30
0.0
 11
36.486648167173108
 21
-72.872201845886423
 31
0.0
 12
36.49581400718786
 22
-72.875620527460924
 32
0.0
 13
36.49581400718786
 23
-72.875620527460924
 33
0.0
210
0.0
220
0.0
230
-1.0
  0
SOLID
  5
216D
  8
SAPA_FOGBAND
  6
CONTINUOUS
 10
-36.623713877978851
 20
-72.875620527460924
 30
0.0
 11
-36.592067716117469
 21
-72.882504728591343
 31
0.0
 12
-36.536752828278921
 22
-72.882504728591343
 32
0.0
 13
-36.536752828278921
 23
-72.882504728591343
 33
0.0
210
0.0
220
0.0
230
1.0
  0
SOLID
  5
216E
  8
SAPA_FOGBAND
  6
CONTINUOUS
 10
36.623713877978851
 20
-72.875620527460924
 30
0.0
 11
36.49581400718786
 21
-72.875620527460924
 31
0.0
 12
36.536752828278921
 22
-72.882504728591343
 32
0.0
 13
36.536752828278921
 23
-72.882504728591343
 33
0.0
210
0.0
220
0.0
230
-1.0
  0
SOLID
  5
216F
  8
SAPA_FOGBAND
  6
CONTINUOUS
 10
36.592067716117469
 20
-72.882504728591343
 30
0.0
 11
36.536752828278921
 21
-72.882504728591343
 31
0.0
 12
36.543612180900382
 22
-72.883658185427961
 32
0.0
 13
36.543612180900382
 23
-72.883658185427961
 33
0.0
210
0.0
220
0.0
230
-1.0
  0
LINE
  5
2170
  8
SAPA_FOGBAND
  6
CONTINUOUS
 10
-36.555732929052901
 20
-72.374478023404038
 30
0.0
 11
-36.604078696897773
 21
-72.377935780963199
 31
0.0
  0
LINE
  5
2171
  8
SAPA_FOGBAND
  6
CONTINUOUS
 10
-36.526813361949813
 20
-72.377935780963199
 30
0.0
 11
-36.555732929052901
 21
-72.374478023404038
 31
0.0
  0
LINE
  5
2172
  8
SAPA_FOGBAND
  6
CONTINUOUS
 10
-36.604078696897773
 20
-72.377935780963199
 30
0.0
 11
-36.612649231366198
 21
-72.380232248752719
 31
0.0
  0
LINE
  5
2173
  8
SAPA_FOGBAND
  6
CONTINUOUS
 10
-36.526813361949813
 20
-72.377935780963199
 30
0.0
 11
-36.507606447294052
 21
-72.380232248752719
 31
0.0
  0
LINE
  5
2174
  8
SAPA_FOGBAND
  6
CONTINUOUS
 10
-36.612649231366198
 20
-72.380232248752719
 30
0.0
 11
-36.650896408815079
 21
-72.390480549062914
 31
0.0
  0
LINE
  5
2175
  8
SAPA_FOGBAND
  6
CONTINUOUS
 10
-36.507606447294052
 20
-72.380232248752719
 30
0.0
 11
-36.475546973498631
 21
-72.390480549062914
 31
0.0
  0
LINE
  5
2176
  8
SAPA_FOGBAND
  6
CONTINUOUS
 10
-36.650896408815079
 20
-72.390480549062914
 30
0.0
 11
-36.660180504635669
 21
-72.394990484312672
 31
0.0
  0
LINE
  5
2177
  8
SAPA_FOGBAND
  6
CONTINUOUS
 10
-36.475546973498631
 20
-72.390480549062914
 30
0.0
 11
-36.461438668064318
 21
-72.394990484312672
 31
0.0
  0
LINE
  5
2178
  8
SAPA_FOGBAND
  6
CONTINUOUS
 10
-36.660180504635669
 20
-72.394990484312672
 30
0.0
 11
-36.694493950713778
 21
-72.411658927098998
 31
0.0
  0
LINE
  5
2179
  8
SAPA_FOGBAND
  6
CONTINUOUS
 10
-36.461438668064318
 20
-72.394990484312672
 30
0.0
 11
-36.430912694243297
 21
-72.411658927098998
 31
0.0
  0
LINE
  5
217A
  8
SAPA_FOGBAND
  6
CONTINUOUS
 10
-36.694493950713778
 20
-72.411658927098998
 30
0.0
 11
-36.703257621664811
 21
-72.418219328998518
 31
0.0
  0
LINE
  5
217B
  8
SAPA_FOGBAND
  6
CONTINUOUS
 10
-36.430912694243297
 20
-72.411658927098998
 30
0.0
 11
-36.418898215194041
 21
-72.418219328998518
 31
0.0
  0
LINE
  5
217C
  8
SAPA_FOGBAND
  6
CONTINUOUS
 10
-36.703257621664811
 20
-72.418219328998518
 30
0.0
 11
-36.733295593837369
 21
-72.440705473309478
 31
0.0
  0
LINE
  5
217D
  8
SAPA_FOGBAND
  6
CONTINUOUS
 10
-36.418898215194041
 20
-72.418219328998518
 30
0.0
 11
-36.391664389380381
 21
-72.440705473309478
 31
0.0
  0
LINE
  5
217E
  8
SAPA_FOGBAND
  6
CONTINUOUS
 10
-36.733295593837369
 20
-72.440705473309478
 30
0.0
 11
-36.740907844877562
 21
-72.449079231841168
 31
0.0
  0
LINE
  5
217F
  8
SAPA_FOGBAND
  6
CONTINUOUS
 10
-36.391664389380381
 20
-72.440705473309478
 30
0.0
 11
-36.381522611488009
 21
-72.449079231841168
 31
0.0
  0
LINE
  5
2180
  8
SAPA_FOGBAND
  6
CONTINUOUS
 10
-36.740907844877562
 20
-72.449079231841168
 30
0.0
 11
-36.76589894570666
 21
-72.476570369834292
 31
0.0
  0
LINE
  5
2181
  8
SAPA_FOGBAND
  6
CONTINUOUS
 10
-36.381522611488009
 20
-72.449079231841168
 30
0.0
 11
-36.358824012311537
 21
-72.476570369834292
 31
0.0
  0
LINE
  5
2182
  8
SAPA_FOGBAND
  6
CONTINUOUS
 10
-36.76589894570666
 20
-72.476570369834292
 30
0.0
 11
-36.771923841966419
 21
-72.486454835547192
 31
0.0
  0
LINE
  5
2183
  8
SAPA_FOGBAND
  6
CONTINUOUS
 10
-36.358824012311537
 20
-72.476570369834292
 30
0.0
 11
-36.350662708645359
 21
-72.486454835547192
 31
0.0
  0
LINE
  5
2184
  8
SAPA_FOGBAND
  6
CONTINUOUS
 10
-36.771923841966419
 20
-72.486454835547192
 30
0.0
 11
-36.791125636237886
 21
-72.517957365867943
 31
0.0
  0
LINE
  5
2185
  8
SAPA_FOGBAND
  6
CONTINUOUS
 10
-36.350662708645359
 20
-72.486454835547192
 30
0.0
 11
-36.333461025666963
 21
-72.517957365867943
 31
0.0
  0
LINE
  5
2186
  8
SAPA_FOGBAND
  6
CONTINUOUS
 10
-36.791125636237886
 20
-72.517957365867943
 30
0.0
 11
-36.795242568497251
 21
-72.528995288417477
 31
0.0
  0
LINE
  5
2187
  8
SAPA_FOGBAND
  6
CONTINUOUS
 10
-36.333461025666963
 20
-72.517957365867943
 30
0.0
 11
-36.327433863959513
 21
-72.528995288417477
 31
0.0
  0
LINE
  5
2188
  8
SAPA_FOGBAND
  6
CONTINUOUS
 10
-36.795242568497251
 20
-72.528995288417477
 30
0.0
 11
-36.808063907107773
 21
-72.563370627541019
 31
0.0
  0
LINE
  5
2189
  8
SAPA_FOGBAND
  6
CONTINUOUS
 10
-36.327433863959513
 20
-72.528995288417477
 30
0.0
 11
-36.316445261936579
 21
-72.563370627541019
 31
0.0
  0
LINE
  5
218A
  8
SAPA_FOGBAND
  6
CONTINUOUS
 10
-36.808063907107773
 20
-72.563370627541019
 30
0.0
 11
-36.810046903377469
 21
-72.57516306764721
 31
0.0
  0
LINE
  5
218B
  8
SAPA_FOGBAND
  6
CONTINUOUS
 10
-36.316445261936579
 20
-72.563370627541019
 30
0.0
 11
-36.312675628399568
 21
-72.57516306764721
 31
0.0
  0
LINE
  5
218C
  8
SAPA_FOGBAND
  6
CONTINUOUS
 10
-36.810046903377469
 20
-72.57516306764721
 30
0.0
 11
-36.81610156507481
 21
-72.611168801253541
 31
0.0
  0
LINE
  5
218D
  8
SAPA_FOGBAND
  6
CONTINUOUS
 10
-36.312675628399568
 20
-72.57516306764721
 30
0.0
 11
-36.308370615910732
 21
-72.611168801253541
 31
0.0
  0
LINE
  5
218E
  8
SAPA_FOGBAND
  6
CONTINUOUS
 10
-36.81610156507481
 20
-72.611168801253541
 30
0.0
 11
-36.815813037463691
 21
-72.623289549406053
 31
0.0
  0
LINE
  5
218F
  8
SAPA_FOGBAND
  6
CONTINUOUS
 10
-36.308370615910732
 20
-72.611168801253541
 30
0.0
 11
-36.306921403050879
 21
-72.623289549406053
 31
0.0
  0
LINE
  5
2190
  8
SAPA_FOGBAND
  6
CONTINUOUS
 10
-36.815813037463691
 20
-72.623289549406053
 30
0.0
 11
-36.814948108238191
 21
-72.659624336470628
 31
0.0
  0
LINE
  5
2191
  8
SAPA_FOGBAND
  6
CONTINUOUS
 10
-36.306921403050879
 20
-72.623289549406053
 30
0.0
 11
-36.309520118310417
 21
-72.659624336470628
 31
0.0
  0
LINE
  5
2192
  8
SAPA_FOGBAND
  6
CONTINUOUS
 10
-36.814948108238191
 20
-72.659624336470628
 30
0.0
 11
-36.812335279300903
 21
-72.671635317250932
 31
0.0
  0
LINE
  5
2193
  8
SAPA_FOGBAND
  6
CONTINUOUS
 10
-36.309520118310417
 20
-72.659624336470628
 30
0.0
 11
-36.31037916061004
 21
-72.671635317250932
 31
0.0
  0
LINE
  5
2194
  8
SAPA_FOGBAND
  6
CONTINUOUS
 10
-36.812335279300903
 20
-72.671635317250932
 30
0.0
 11
-36.804645225533271
 21
-72.70698592389985
 31
0.0
  0
LINE
  5
2195
  8
SAPA_FOGBAND
  6
CONTINUOUS
 10
-36.31037916061004
 20
-72.671635317250932
 30
0.0
 11
-36.319851327113582
 21
-72.70698592389985
 31
0.0
  0
LINE
  5
2196
  8
SAPA_FOGBAND
  6
CONTINUOUS
 10
-36.804645225533271
 20
-72.70698592389985
 30
0.0
 11
-36.799734724695803
 21
-72.718453029168245
 31
0.0
  0
LINE
  5
2197
  8
SAPA_FOGBAND
  6
CONTINUOUS
 10
-36.319851327113582
 20
-72.70698592389985
 30
0.0
 11
-36.322923928709763
 21
-72.718453029168245
 31
0.0
  0
LINE
  5
2198
  8
SAPA_FOGBAND
  6
CONTINUOUS
 10
-36.799734724695803
 20
-72.718453029168245
 30
0.0
 11
-36.785565289984902
 21
-72.751541792372123
 31
0.0
  0
LINE
  5
2199
  8
SAPA_FOGBAND
  6
CONTINUOUS
 10
-36.322923928709763
 20
-72.718453029168245
 30
0.0
 11
-36.338997457293239
 21
-72.751541792372123
 31
0.0
  0
LINE
  5
219A
  8
SAPA_FOGBAND
  6
CONTINUOUS
 10
-36.785565289984902
 20
-72.751541792372123
 30
0.0
 11
-36.778452743370273
 21
-72.762050571066936
 31
0.0
  0
LINE
  5
219B
  8
SAPA_FOGBAND
  6
CONTINUOUS
 10
-36.338997457293239
 20
-72.751541792372123
 30
0.0
 11
-36.344102306745839
 21
-72.762050571066936
 31
0.0
  0
LINE
  5
219C
  8
SAPA_FOGBAND
  6
CONTINUOUS
 10
-36.778452743370273
 20
-72.762050571066936
 30
0.0
 11
-36.758397900176107
 21
-72.791681576711667
 31
0.0
  0
LINE
  5
219D
  8
SAPA_FOGBAND
  6
CONTINUOUS
 10
-36.344102306745839
 20
-72.762050571066936
 30
0.0
 11
-36.36628379973007
 21
-72.791681576711667
 31
0.0
  0
LINE
  5
219E
  8
SAPA_FOGBAND
  6
CONTINUOUS
 10
-36.758397900176107
 20
-72.791681576711667
 30
0.0
 11
-36.749227262697246
 21
-72.800852214190527
 31
0.0
  0
LINE
  5
219F
  8
SAPA_FOGBAND
  6
CONTINUOUS
 10
-36.36628379973007
 20
-72.791681576711667
 30
0.0
 11
-36.373148852956319
 21
-72.800852214190527
 31
0.0
  0
LINE
  5
21A0
  8
SAPA_FOGBAND
  6
CONTINUOUS
 10
-36.749227262697246
 20
-72.800852214190527
 30
0.0
 11
-36.724124956358523
 21
-72.825954520529265
 31
0.0
  0
LINE
  5
21A1
  8
SAPA_FOGBAND
  6
CONTINUOUS
 10
-36.373148852956319
 20
-72.800852214190527
 30
0.0
 11
-36.400762321135382
 21
-72.825954520529265
 31
0.0
  0
LINE
  5
21A2
  8
SAPA_FOGBAND
  6
CONTINUOUS
 10
-36.724124956358523
 20
-72.825954520529265
 30
0.0
 11
-36.713042171003117
 21
-72.833455566059811
 31
0.0
  0
LINE
  5
21A3
  8
SAPA_FOGBAND
  6
CONTINUOUS
 10
-36.400762321135382
 20
-72.825954520529265
 30
0.0
 11
-36.409013749481133
 21
-72.833455566059811
 31
0.0
  0
LINE
  5
21A4
  8
SAPA_FOGBAND
  6
CONTINUOUS
 10
-36.713042171003117
 20
-72.833455566059811
 30
0.0
 11
-36.683985172018971
 21
-72.853121910338061
 31
0.0
  0
LINE
  5
21A5
  8
SAPA_FOGBAND
  6
CONTINUOUS
 10
-36.409013749481133
 20
-72.833455566059811
 30
0.0
 11
-36.4412784221552
 21
-72.853121910338061
 31
0.0
  0
LINE
  5
21A6
  8
SAPA_FOGBAND
  6
CONTINUOUS
 10
-36.683985172018971
 20
-72.853121910338061
 30
0.0
 11
-36.671000534011121
 21
-72.858682256591052
 31
0.0
  0
LINE
  5
21A7
  8
SAPA_FOGBAND
  6
CONTINUOUS
 10
-36.4412784221552
 20
-72.853121910338061
 30
0.0
 11
-36.450400745514791
 21
-72.858682256591052
 31
0.0
  0
LINE
  5
21A8
  8
SAPA_FOGBAND
  6
CONTINUOUS
 10
-36.671000534011121
 20
-72.858682256591052
 30
0.0
 11
-36.639429303546699
 21
-72.872201845886423
 31
0.0
  0
LINE
  5
21A9
  8
SAPA_FOGBAND
  6
CONTINUOUS
 10
-36.450400745514791
 20
-72.858682256591052
 30
0.0
 11
-36.486648167173108
 21
-72.872201845886423
 31
0.0
  0
LINE
  5
21AA
  8
SAPA_FOGBAND
  6
CONTINUOUS
 10
-36.639429303546699
 20
-72.872201845886423
 30
0.0
 11
-36.623713877978851
 21
-72.875620527460924
 31
0.0
  0
LINE
  5
21AB
  8
SAPA_FOGBAND
  6
CONTINUOUS
 10
-36.486648167173108
 20
-72.872201845886423
 30
0.0
 11
-36.49581400718786
 21
-72.875620527460924
 31
0.0
  0
LINE
  5
21AC
  8
SAPA_FOGBAND
  6
CONTINUOUS
 10
-36.623713877978851
 20
-72.875620527460924
 30
0.0
 11
-36.592067716117469
 21
-72.882504728591343
 31
0.0
  0
LINE
  5
21AD
  8
SAPA_FOGBAND
  6
CONTINUOUS
 10
-36.49581400718786
 20
-72.875620527460924
 30
0.0
 11
-36.536752828278921
 21
-72.882504728591343
 31
0.0
  0
LINE
  5
21AE
  8
SAPA_FOGBAND
  6
CONTINUOUS
 10
-36.536752828278921
 20
-72.882504728591343
 30
0.0
 11
-36.543612180900382
 21
-72.883658185427961
 31
0.0
  0
LINE
  5
21AF
  8
SAPA_FOGBAND
  6
CONTINUOUS
 10
-36.543612180900382
 20
-72.883658185427961
 30
0.0
 11
-36.592067716117469
 21
-72.882504728591343
 31
0.0
  0
ENDBLK
  5
21B1
  8
0
  0
BLOCK
  8
0
  2
*U111
 70
     1
 10
0.0
 20
0.0
 30
0.0
  3
*U111
  1

  0
SOLID
  5
2256
  8
SAPA_FOGBAND
  6
CONTINUOUS
 10
-36.561800175261332
 20
-35.115692228706543
 30
0.0
 11
-36.742077739034542
 21
-35.190365640612981
 31
0.0
 12
-36.38152261148813
 22
-35.190365640612981
 32
0.0
 13
-36.38152261148813
 23
-35.190365640612981
 33
0.0
210
0.0
220
0.0
230
1.0
  0
SOLID
  5
2257
  8
SAPA_FOGBAND
  6
CONTINUOUS
 10
-36.742077739034542
 20
-35.190365640612981
 30
0.0
 11
-36.816751150940981
 21
-35.370643204386191
 31
0.0
 12
-36.306849199581691
 22
-35.370643204386191
 32
0.0
 13
-36.306849199581691
 23
-35.370643204386191
 33
0.0
210
0.0
220
0.0
230
1.0
  0
SOLID
  5
2258
  8
SAPA_FOGBAND
  6
CONTINUOUS
 10
36.742077739034542
 20
-35.190365640612981
 30
0.0
 11
36.38152261148813
 21
-35.190365640612981
 31
0.0
 12
36.306849199581691
 22
-35.370643204386191
 32
0.0
 13
36.306849199581691
 23
-35.370643204386191
 33
0.0
210
0.0
220
0.0
230
-1.0
  0
SOLID
  5
2259
  8
SAPA_FOGBAND
  6
CONTINUOUS
 10
-36.816751150940981
 20
-35.370643204386191
 30
0.0
 11
-36.742077739034542
 21
-35.550920768159394
 31
0.0
 12
-36.38152261148813
 22
-35.550920768159394
 32
0.0
 13
-36.38152261148813
 23
-35.550920768159394
 33
0.0
210
0.0
220
0.0
230
1.0
  0
SOLID
  5
225A
  8
SAPA_FOGBAND
  6
CONTINUOUS
 10
36.816751150940981
 20
-35.370643204386191
 30
0.0
 11
36.306849199581691
 21
-35.370643204386191
 31
0.0
 12
36.38152261148813
 22
-35.550920768159394
 32
0.0
 13
36.38152261148813
 23
-35.550920768159394
 33
0.0
210
0.0
220
0.0
230
-1.0
  0
SOLID
  5
225B
  8
SAPA_FOGBAND
  6
CONTINUOUS
 10
36.742077739034542
 20
-35.550920768159394
 30
0.0
 11
36.38152261148813
 21
-35.550920768159394
 31
0.0
 12
36.561800175261332
 22
-35.625594180065818
 32
0.0
 13
36.561800175261332
 23
-35.625594180065818
 33
0.0
210
0.0
220
0.0
230
-1.0
  0
LINE
  5
225C
  8
SAPA_FOGBAND
  6
CONTINUOUS
 10
-36.561800175261332
 20
-35.115692228706543
 30
0.0
 11
-36.742077739034542
 21
-35.190365640612981
 31
0.0
  0
LINE
  5
225D
  8
SAPA_FOGBAND
  6
CONTINUOUS
 10
-36.38152261148813
 20
-35.190365640612981
 30
0.0
 11
-36.561800175261332
 21
-35.115692228706543
 31
0.0
  0
LINE
  5
225E
  8
SAPA_FOGBAND
  6
CONTINUOUS
 10
-36.742077739034542
 20
-35.190365640612981
 30
0.0
 11
-36.816751150940981
 21
-35.370643204386191
 31
0.0
  0
LINE
  5
225F
  8
SAPA_FOGBAND
  6
CONTINUOUS
 10
-36.38152261148813
 20
-35.190365640612981
 30
0.0
 11
-36.306849199581691
 21
-35.370643204386191
 31
0.0
  0
LINE
  5
2260
  8
SAPA_FOGBAND
  6
CONTINUOUS
 10
-36.816751150940981
 20
-35.370643204386191
 30
0.0
 11
-36.742077739034542
 21
-35.550920768159394
 31
0.0
  0
LINE
  5
2261
  8
SAPA_FOGBAND
  6
CONTINUOUS
 10
-36.306849199581691
 20
-35.370643204386191
 30
0.0
 11
-36.38152261148813
 21
-35.550920768159394
 31
0.0
  0
LINE
  5
2262
  8
SAPA_FOGBAND
  6
CONTINUOUS
 10
-36.38152261148813
 20
-35.550920768159394
 30
0.0
 11
-36.561800175261332
 21
-35.625594180065818
 31
0.0
  0
LINE
  5
2263
  8
SAPA_FOGBAND
  6
CONTINUOUS
 10
-36.561800175261332
 20
-35.625594180065818
 30
0.0
 11
-36.742077739034542
 21
-35.550920768159394
 31
0.0
  0
ENDBLK
  5
2265
  8
0
  0
ENDSEC
  0
SECTION
  2
ENTITIES
  0
LINE
  5
70A
  8
SAPA_ANSLUTNING
 10
-19.582986183229249
 20
38.299689794475213
 30
0.0
 11
-29.478572299729159
 21
65.487589201828683
 31
0.0
  0
LINE
  5
75F
  8
SAPA_ANSLUTNING
 10
-31.283333318913112
 20
-31.411388548482591
 30
0.0
 11
-31.283333318913112
 21
-21.411388548482591
 31
0.0
  0
ARC
  5
766
  8
SAPA_ANSLUTNING
 10
0.0
 20
-0.0000000000000002
 30
0.0
 40
10.750000000000041
 50
0.1169084134508354
 51
34.326769817923932
  0
LINE
  5
767
  8
SAPA_ANSLUTNING
 10
-6.4497915563033823
 20
9.4000100468158312
 30
0.0
 11
-5.7142890104091402
 21
8.3280790765649062
 31
0.0
  0
LINE
  5
76D
  8
SAPA_ANSLUTNING
 10
8.3409326200216434
 20
5.6955107785219541
 30
0.0
 11
9.4145180067570973
 21
6.4285963242723021
 31
0.0
  0
ARC
  5
76E
  8
SAPA_ANSLUTNING
 10
0.0
 20
-0.0000000000000002
 30
0.0
 40
10.750000000000041
 50
124.4558612119786
 51
147.9741470624692
  0
LINE
  5
779
  8
SAPA_ANSLUTNING
 10
-32.033333318912987
 20
-21.411388548482591
 30
0.0
 11
-30.53333331891298
 21
-21.411388548482591
 31
0.0
  0
LINE
  5
77A
  8
SAPA_ANSLUTNING
 10
-32.033333318912987
 20
-31.411388548482591
 30
0.0
 11
-30.53333331891298
 21
-31.411388548482591
 31
0.0
  0
LINE
  5
77E
  8
SAPA_PROFIL
 10
-46.256840816064518
 20
26.795175483276189
 30
0.0
 11
-31.879543718040161
 21
32.028083676158921
 31
0.0
  0
LINE
  5
77F
  8
SAPA_PROFIL
 10
-37.706337232922799
 20
3.3028599636284812
 30
0.0
 11
-23.610947921134169
 21
8.4331621135135073
 31
0.0
  0
LINE
  5
781
  8
SAPA_PROFIL
 10
-37.706337232922799
 20
3.3028599636284799
 30
0.0
 11
-46.256840816064518
 21
26.7951754832762
 31
0.0
  0
LINE
  5
783
  8
SAPA_PROFIL
  6
DASHED
 10
-48.497572445950439
 20
-7.0529826018148327
 30
0.0
 11
-28.870901098794018
 21
5.9423756660598421
 31
0.0
  0
LINE
  5
784
  8
SAPA_PROFIL
 10
-47.945495211199948
 20
-7.8867755778408117
 30
0.0
 11
-28.318823864043519
 21
5.1085826900338711
 31
0.0
  0
LINE
  5
785
  8
SAPA_PROFIL
 10
-33.839596211548489
 20
13.44651245029358
 30
0.0
 11
-28.318823864043519
 21
5.1085826900338729
 31
0.0
  0
LINE
  5
786
  8
SAPA_PROFIL
 10
-53.466267558704899
 20
0.451154182418909
 30
0.0
 11
-33.839596211548503
 21
13.44651245029358
 31
0.0
  0
LINE
  5
78C
  8
SAPA_ANSLUTNING
 10
-19.58298618322927
 20
38.299689794475228
 30
0.0
 11
-45.175513341265521
 21
59.774369893677971
 31
0.0
  0
LINE
  5
78D
  8
SAPA_ANSLUTNING
 10
-50.976868266301771
 20
26.873251178174161
 30
0.0
 11
-45.175513341265521
 21
59.774369893677978
 31
0.0
  0
LINE
  5
78E
  8
SAPA_ANSLUTNING
 10
-50.976868266301771
 20
26.873251178174169
 30
0.0
 11
-67.035562234580539
 21
40.348095364145692
 31
0.0
  0
LINE
  5
795
  8
SAPA_PROFIL
 10
35.344388134559424
 20
-7.3550724477099374
 30
0.0
 11
50.379470067133482
 21
-1.882750154499411
 31
0.0
  0
INSERT
  5
899
  8
0
  2
*U65
 10
0.0
 20
0.0
 30
0.0
  0
INSERT
  5
89A
  8
0
  2
*U66
 10
0.0
 20
0.0
 30
0.0
  0
INSERT
  5
89B
  8
0
  2
*U67
 10
0.0
 20
0.0
 30
0.0
  0
INSERT
  5
89C
  8
0
  2
*U68
 10
0.0
 20
0.0
 30
0.0
  0
LINE
  5
8AB
  8
SAPA_ANSLUTNING
 10
-25.376463985799699
 20
-4.4079742256427323
 30
0.0
 11
-26.117336046015701
 21
-3.1037086888783421
 31
0.0
  0
LINE
  5
8AC
  8
SAPA_ANSLUTNING
 10
-13.28859484440334
 20
4.1835005918292394
 30
0.0
 11
-12.547722784187339
 21
2.879235055064854
 31
0.0
  0
LINE
  5
8AD
  8
SAPA_ANSLUTNING
 10
-12.918158814295341
 20
3.5313678234470451
 30
0.0
 11
-9.1273349194294742
 21
5.6846988973268617
 31
0.0
  0
LINE
  5
8AE
  8
SAPA_ANSLUTNING
 10
-31.283333318913112
 20
-6.9007445707949042
 30
0.0
 11
-25.746900015907752
 21
-3.7558414572604439
 31
0.0
  0
POLYLINE
  5
8B3
  8
SAPA_LIGHT
 66
     1
 10
0.0
 20
0.0
 30
0.0
  0
VERTEX
  5
112C
  8
SAPA_LIGHT
 10
23.373683118161601
 20
25.534169279795972
 30
0.0
  0
VERTEX
  5
112D
  8
SAPA_LIGHT
 10
-23.610947921133839
 20
8.4331621135125374
 30
0.0
  0
VERTEX
  5
112E
  8
SAPA_LIGHT
 10
-32.225652659243131
 20
32.101868856737269
 30
0.0
  0
VERTEX
  5
112F
  8
SAPA_LIGHT
 10
-13.431800243525171
 20
38.942271723250563
 30
0.0
  0
VERTEX
  5
1130
  8
SAPA_LIGHT
 10
-24.353446790002451
 20
68.949248992961458
 30
0.0
  0
VERTEX
  5
1131
  8
SAPA_LIGHT
 10
-40.232069383629842
 20
63.169903007734248
 30
0.0
  0
VERTEX
  5
1132
  8
SAPA_LIGHT
 10
-44.295107988514161
 20
74.333009829026366
 30
0.0
  0
VERTEX
  5
1133
  8
SAPA_LIGHT
 10
-3.1409365934002831
 20
89.311903232737407
 30
0.0
  0
VERTEX
  5
1134
  8
SAPA_LIGHT
 10
0.9221020114840566
 20
78.148796411445389
 30
0.0
  0
VERTEX
  5
1135
  8
SAPA_LIGHT
 10
-14.95652058214349
 20
72.369450426218151
 30
0.0
  0
VERTEX
  5
1136
  8
SAPA_LIGHT
 10
-5.8040615467484571
 20
47.22327589398688
 30
0.0
  0
VERTEX
  5
1137
  8
SAPA_LIGHT
 10
12.98979086896982
 20
54.063678760500309
 30
0.0
  0
VERTEX
  5
1138
  8
SAPA_LIGHT
 10
23.373683118161608
 20
25.534169279795979
 30
0.0
  0
SEQEND
  5
1139
  8
SAPA_LIGHT
  0
POLYLINE
  5
8B5
  8
SAPA_LIGHT
 66
     1
 10
0.0
 20
0.0
 30
0.0
  0
VERTEX
  5
113A
  8
SAPA_LIGHT
 10
18.872413766148661
 20
84.682175585942105
 30
0.0
  0
VERTEX
  5
113B
  8
SAPA_LIGHT
 10
-9.3183648574285538
 20
74.421571286171925
 30
0.0
  0
VERTEX
  5
113C
  8
SAPA_LIGHT
 10
-0.1659058220335301
 20
49.275396753940718
 30
0.0
  0
VERTEX
  5
113D
  8
SAPA_LIGHT
 10
28.024872801543541
 20
59.536001053711082
 30
0.0
  0
SEQEND
  5
113E
  8
SAPA_LIGHT
  0
POLYLINE
  5
8B6
  8
SAPA_LIGHT
 66
     1
 10
0.0
 20
0.0
 30
0.0
  0
VERTEX
  5
113F
  8
SAPA_LIGHT
 10
-23.610947921134191
 20
8.4331621135135055
 30
0.0
  0
VERTEX
  5
1140
  8
SAPA_LIGHT
 10
-10.0
 20
-28.99999999999995
 30
0.0
  0
VERTEX
  5
1141
  8
SAPA_LIGHT
 10
50.0
 20
-28.99999999999994
 30
0.0
  0
VERTEX
  5
1142
  8
SAPA_LIGHT
 10
50.0
 20
-25.99999999999994
 30
0.0
  0
VERTEX
  5
1143
  8
SAPA_LIGHT
 10
43.071796769724408
 20
-21.99999999999994
 30
0.0
  0
VERTEX
  5
1144
  8
SAPA_LIGHT
 10
35.587383134146997
 20
-8.0226957221172288
 30
0.0
  0
VERTEX
  5
1145
  8
SAPA_LIGHT
 10
23.373683118161608
 20
25.534169279795979
 30
0.0
  0
VERTEX
  5
1146
  8
SAPA_LIGHT
 10
-23.610947921134191
 20
8.4331621135135038
 30
0.0
  0
SEQEND
  5
1147
  8
SAPA_LIGHT
  0
POLYLINE
  5
8CA
  8
SAPA_ANSLUTNING
 66
     1
 10
0.0
 20
0.0
 30
0.0
 70
     1
1001
ACAD
1000
ASC_BOUNDS
1002
{
1070
    19
1005
922
1002
}
  0
VERTEX
  5
1148
  8
SAPA_ANSLUTNING
 10
0.0
 20
-28.0
 30
0.0
  0
VERTEX
  5
1149
  8
SAPA_ANSLUTNING
 10
40.0
 20
-28.0
 30
0.0
  0
VERTEX
  5
114A
  8
SAPA_ANSLUTNING
 10
40.0
 20
-29.5
 30
0.0
  0
VERTEX
  5
114B
  8
SAPA_ANSLUTNING
 10
0.0
 20
-29.5
 30
0.0
  0
SEQEND
  5
114C
  8
SAPA_ANSLUTNING
  0
INSERT
  5
922
  8
SAPA_ANSLUTNING
  6
CONTINUOUS
  2
*X69
 10
0.0
 20
0.0
 30
0.0
1001
ACAD
1000
HATCH
1002
{
1070
    19
1000
ANSI37
1040
0.25
1040
0.0
1000
ASC_BOUNDS
1070
     1
1070
     1
1070
     1
1005
8CA
1000
ASC_SEEDPOINT
1011
16.974031316745592
1021
0.0
1031
0.0
1021
-28.889789715767279
1031
0.0
1000
R14_HATCH_DATA
1000
922
1011
1.0
1021
0.0
1031
0.0
1021
0.0
1031
0.0
1011
0.0
1021
0.0
1031
0.0
1021
1.0
1031
0.0
1011
0.0
1021
0.0
1031
0.0
1021
0.0
1031
1.0
1040
0.0
1010
0.0
1020
0.0
1030
1.0
1000
ANSI37
1070
     0
1070
     1
1071
        1
1071
        7
1070
     0
1070
     1
1071
        4
1040
40.0
1040
-29.5
1040
40.0
1040
-28.0
1040
0.0
1040
-28.0
1040
0.0
1040
-29.5
1071
        1
1005
8CA
1070
     0
1070
     1
1040
0.0
1040
0.25
1070
     0
1070
     2
1040
0.7853981633974483
1040
0.0
1040
0.0
1040
-0.5612660075668221
1040
0.5612660075668221
1070
     0
1040
2.3561944901923439
1040
0.0
1040
0.0
1040
-0.5612660075668221
1040
-0.5612660075668221
1070
     0
1040
0.060386031356339
1071
        1
1040
16.974031316745592
1040
-28.889789715767279
1040
0.0
1002
}
  0
LINE
  5
99C
  8
SAPA_ANSLUTNING
 10
-32.033333318913087
 20
-9.5095187469695457
 30
0.0
 11
-30.533333318913101
 21
-9.5095187469695475
 31
0.0
  0
LINE
  5
99D
  8
SAPA_ANSLUTNING
 10
-31.283333318913112
 20
-9.5095187469695457
 30
0.0
 11
-31.283333318913101
 21
-6.9007445707949033
 31
0.0
  0
POLYLINE
  5
99E
  8
SAPA_ANSLUTNING
 66
     1
 10
0.0
 20
0.0
 30
0.0
 70
     1
  0
VERTEX
  5
119A
  8
SAPA_ANSLUTNING
 10
2.9695236276844521
 20
-29.5
 30
0.0
  0
VERTEX
  5
119B
  8
SAPA_ANSLUTNING
 10
-30.53333331891309
 20
-29.5
 30
0.0
  0
VERTEX
  5
119C
  8
SAPA_ANSLUTNING
 10
-30.53333331891309
 20
-43.000000000003631
 30
0.0
  0
VERTEX
  5
119D
  8
SAPA_ANSLUTNING
 10
2.9695236276844521
 20
-43.000000000003631
 30
0.0
  0
SEQEND
  5
119E
  8
SAPA_ANSLUTNING
  0
LINE
  5
99F
  8
SAPA_ANSLUTNING
 10
-30.53333331891309
 20
-43.000000000003631
 30
0.0
 11
2.9666666800973749
 21
-29.5
 31
0.0
  0
LINE
  5
9A0
  8
SAPA_ANSLUTNING
 10
-30.53333331891309
 20
-29.5
 30
0.0
 11
2.9695236276844521
 21
-43.000000000003631
 31
0.0
  0
LINE
  5
9A2
  8
SAPA_PROFIL
 10
-53.46626755870485
 20
0.4511541824188399
 30
0.0
 11
-47.945495211199919
 21
-7.8867755778408402
 31
0.0
  0
INSERT
  5
9A4
  8
0
  2
*U70
 10
0.0
 20
0.0
 30
0.0
  0
INSERT
  5
9A6
  8
0
  2
*U71
 10
0.0
 20
0.0
 30
0.0
  0
INSERT
  5
9A7
  8
0
  2
*U72
 10
0.0
 20
0.0
 30
0.0
  0
POLYLINE
  5
9A8
  8
SAPA_LIGHT
 66
     1
 10
0.0
 20
0.0
 30
0.0
  0
VERTEX
  5
11AB
  8
SAPA_LIGHT
 10
62.966666680097369
 20
-29.0
 30
0.0
  0
VERTEX
  5
11AC
  8
SAPA_LIGHT
 10
-34.033333318913087
 20
-29.0
 30
0.0
  0
VERTEX
  5
11AD
  8
SAPA_LIGHT
 10
-39.834858246714781
 20
-28.600000000000449
 30
0.0
  0
VERTEX
  5
11AE
  8
SAPA_LIGHT
 10
-46.920644684341738
 20
-28.600000000000449
 30
0.0
  0
VERTEX
  5
11AF
  8
SAPA_LIGHT
 10
-47.627751465528277
 20
-28.89289321881391
 30
0.0
  0
VERTEX
  5
11B0
  8
SAPA_LIGHT
 10
-57.800543671663817
 20
-39.06568542494955
 30
0.0
  0
VERTEX
  5
11B1
  8
SAPA_LIGHT
 10
-58.034858246714599
 20
-39.631370849898808
 30
0.0
  0
VERTEX
  5
11B2
  8
SAPA_LIGHT
 10
-58.034858246714599
 20
-79.052098575258356
 30
0.0
  0
VERTEX
  5
11B3
  8
SAPA_LIGHT
 10
-34.033333318913009
 20
-79.052098575258313
 30
0.0
  0
VERTEX
  5
11B4
  8
SAPA_LIGHT
 10
-34.033333318913037
 20
-58.999999999999773
 30
0.0
  0
VERTEX
  5
11B5
  8
SAPA_LIGHT
 10
-7.0333333189113807
 20
-58.999999999999787
 30
0.0
  0
VERTEX
  5
11B6
  8
SAPA_LIGHT
 10
-7.0333333189113798
 20
-79.0
 30
0.0
  0
VERTEX
  5
11B7
  8
SAPA_LIGHT
 10
62.966666680097369
 20
-79.000000000000057
 30
0.0
  0
VERTEX
  5
11B8
  8
SAPA_LIGHT
 10
62.966666680097369
 20
-29.0
 30
0.0
  0
SEQEND
  5
11B9
  8
SAPA_LIGHT
  0
POLYLINE
  5
9A9
  8
SAPA_LIGHT
 66
     1
 10
0.0
 20
0.0
 30
0.0
  0
VERTEX
  5
11BA
  8
SAPA_LIGHT
 10
-34.03333331891298
 20
-94.999999999996675
 30
0.0
  0
VERTEX
  5
11BB
  8
SAPA_LIGHT
 10
-34.03333331891303
 20
-64.999999999996675
 30
0.0
  0
VERTEX
  5
11BC
  8
SAPA_LIGHT
 10
-7.0333333189113807
 20
-64.999999999996689
 30
0.0
  0
VERTEX
  5
11BD
  8
SAPA_LIGHT
 10
-7.0333333189113807
 20
-94.999999999996689
 30
0.0
  0
SEQEND
  5
11BE
  8
SAPA_LIGHT
  0
POLYLINE
  5
9AA
  8
SAPA_ANSLUTNING
 66
     1
 10
0.0
 20
0.0
 30
0.0
 70
     1
  0
VERTEX
  5
11BF
  8
SAPA_ANSLUTNING
 10
-68.535562234580567
 20
52.86827408422208
 30
0.0
  0
VERTEX
  5
11C0
  8
SAPA_ANSLUTNING
 10
-68.535562234580539
 20
-33.157022688817428
 30
0.0
  0
VERTEX
  5
11C1
  8
SAPA_ANSLUTNING
 10
-82.861771308086944
 20
-47.483231762323868
 30
0.0
 42
0.9999999999999925
  0
VERTEX
  5
11C2
  8
SAPA_ANSLUTNING
 10
-76.497810277407993
 20
-53.847192793002748
 30
0.0
  0
VERTEX
  5
11C3
  8
SAPA_ANSLUTNING
 10
-68.658586257427032
 20
-46.007968773021751
 30
0.0
  0
VERTEX
  5
11C4
  8
SAPA_ANSLUTNING
 10
-69.719246429206805
 20
-44.947308601241922
 30
0.0
  0
VERTEX
  5
11C5
  8
SAPA_ANSLUTNING
 10
-77.558470449187794
 20
-52.786532621222896
 30
0.0
 42
-0.9999999999999916
  0
VERTEX
  5
11C6
  8
SAPA_ANSLUTNING
 10
-81.801111136307085
 20
-48.543891934103662
 30
0.0
  0
VERTEX
  5
11C7
  8
SAPA_ANSLUTNING
 10
-67.035562234580539
 20
-33.778343032377073
 30
0.0
  0
VERTEX
  5
11C8
  8
SAPA_ANSLUTNING
 10
-67.035562234580539
 20
51.817962776907542
 30
0.0
  0
VERTEX
  5
11C9
  8
SAPA_ANSLUTNING
 10
-29.478572299729159
 20
65.487589201828683
 30
0.0
  0
VERTEX
  5
11CA
  8
SAPA_ANSLUTNING
 10
-29.991602514717648
 20
66.897128133007556
 30
0.0
  0
SEQEND
  5
11CB
  8
SAPA_ANSLUTNING
  0
POLYLINE
  5
9AB
  8
SAPA_ANSLUTNING
 66
     1
 10
0.0
 20
0.0
 30
0.0
  0
VERTEX
  5
11CC
  8
SAPA_ANSLUTNING
 10
-67.035562234580539
 20
19.432097913816801
 30
0.0
  0
VERTEX
  5
11CD
  8
SAPA_ANSLUTNING
 10
-19.06995596824078
 20
36.890150863296363
 30
0.0
  0
VERTEX
  5
11CE
  8
SAPA_ANSLUTNING
 10
-19.58298618322927
 20
38.299689794475228
 30
0.0
  0
VERTEX
  5
11CF
  8
SAPA_ANSLUTNING
 10
-67.035562234580539
 20
21.02836457253067
 30
0.0
  0
SEQEND
  5
11D0
  8
SAPA_ANSLUTNING
  0
POLYLINE
  5
9AC
  8
SAPA_ANSLUTNING
 66
     1
 10
0.0
 20
0.0
 30
0.0
  0
VERTEX
  5
11D1
  8
SAPA_ANSLUTNING
 10
-9.4977709495374736
 20
6.3368316657090578
 30
0.0
  0
VERTEX
  5
11D2
  8
SAPA_ANSLUTNING
 10
-32.033333318913101
 20
-6.464218465650367
 30
0.0
  0
VERTEX
  5
11D3
  8
SAPA_ANSLUTNING
 10
-32.033333318913101
 20
-43.000000000003631
 30
0.0
  0
VERTEX
  5
11D4
  8
SAPA_ANSLUTNING
 10
-30.53333331891309
 20
-43.000000000003631
 30
0.0
  0
VERTEX
  5
11D5
  8
SAPA_ANSLUTNING
 10
-30.533333318913101
 20
-7.3372706759394291
 30
0.0
  0
VERTEX
  5
11D6
  8
SAPA_ANSLUTNING
 10
-8.7568988893214783
 20
5.0325661289446657
 30
0.0
 42
-0.7673077548638057
  0
VERTEX
  5
11D7
  8
SAPA_ANSLUTNING
 10
10.09997897492782
 20
0.020608396753687
 30
0.0
  0
VERTEX
  5
11D8
  8
SAPA_ANSLUTNING
 10
11.39998137252795
 20
0.020608396753687
 30
0.0
 42
0.7391864751352149
  0
VERTEX
  5
11D9
  8
SAPA_ANSLUTNING
 10
-9.449784241985359
 20
6.3766431435298427
 30
0.0
  0
SEQEND
  5
11DA
  8
SAPA_ANSLUTNING
  0
TEXT
  5
CB2
  8
SAPA_TEXT
 10
52.367137191603803
 20
-5.655470125190277
 30
0.0
 40
3.5
  1
min 20°
  7
ISO
  0
TEXT
  5
CB3
  8
SAPA_TEXT
 10
52.367137191603803
 20
-11.488803458523609
 30
0.0
 40
3.5
  1
max 60°
  7
ISO
  0
ARC
  5
CB4
  8
SAPA_FOGBAND
 10
-35.878749920064458
 20
69.921604242959461
 30
0.0
 40
0.1999999999999072
 50
199.999999999956
 51
289.99999999997408
  0
LINE
  5
CB5
  8
SAPA_FOGBAND
 10
-35.81034589139945
 20
69.733665718802342
 30
0.0
 11
-31.178103919138959
 21
71.419663914623499
 31
0.0
  0
ARC
  5
CB6
  8
SAPA_FOGBAND
 10
-30.836083775812991
 20
70.479971293837664
 30
0.0
 40
1.0000000000000331
 50
50.345472579278429
 51
110.00000000001771
  0
LINE
  5
CB7
  8
SAPA_FOGBAND
 10
-30.197926790459508
 20
71.249877562187663
 30
0.0
 11
-26.121399420673569
 21
68.383498113103641
 31
0.0
  0
ARC
  5
CB8
  8
SAPA_FOGBAND
 10
-26.759556406028061
 20
67.613591844755334
 30
0.0
 40
0.999999999999359
 50
38.241841344460553
 51
50.345472579172032
  0
ARC
  5
CB9
  8
SAPA_FOGBAND
 10
-27.114609490738051
 20
67.415801993696277
 30
0.0
 40
1.402769144204514
 50
341.85707667742992
 51
35.609435779333097
  0
ARC
  5
CBA
  8
SAPA_FOGBAND
 10
-25.96802737040365
 20
67.051371350241425
 30
0.0
 40
0.2000000000000674
 50
245.81623060075091
 51
338.78447689250982
  0
LINE
  5
CBB
  8
SAPA_FOGBAND
 10
-26.04996029727608
 20
66.868924109938519
 30
0.0
 11
-30.154590144123901
 21
67.757890540310754
 31
0.0
  0
ARC
  5
CBC
  8
SAPA_FOGBAND
 10
-30.574781888409539
 20
66.85045519934468
 30
0.0
 40
1.0000000000000091
 50
65.153306302305964
 51
109.9999999999926
  0
LINE
  5
CBD
  8
SAPA_FOGBAND
 10
-30.916802031735092
 20
67.790147820130642
 30
0.0
 11
-31.028304065967699
 21
67.749564398610076
 31
0.0
  0
ARC
  5
CBE
  8
SAPA_FOGBAND
 10
-30.68628392264198
 20
66.809871777824029
 30
0.0
 40
1.0000000000001461
 50
109.9999999999998
 51
157.10585874597189
  0
LINE
  5
CBF
  8
SAPA_FOGBAND
 10
-31.607509113030702
 20
67.198901530662511
 30
0.0
 11
-35.104686668553533
 21
65.265568846729096
 31
0.0
  0
LINE
  5
CC0
  8
SAPA_FOGBAND
 10
-35.104686668553533
 20
65.265568846729096
 30
0.0
 11
-35.748523397883801
 21
65.418093764602517
 31
0.0
  0
LINE
  5
CC1
  8
SAPA_FOGBAND
 10
-35.748523397883801
 20
65.418093764602517
 30
0.0
 11
-32.978766270882147
 21
67.487695462882527
 31
0.0
  0
ARC
  5
CC2
  8
SAPA_FOGBAND
 10
-33.272079246382752
 20
67.550683544318758
 30
0.0
 40
0.3000000000000596
 50
347.87997593854828
 51
116.95295746820651
  0
LINE
  5
CC3
  8
SAPA_FOGBAND
 10
-33.40805688293446
 20
67.818097235736843
 30
0.0
 11
-35.957040964221143
 21
66.521960044171465
 31
0.0
  0
ARC
  5
CC4
  8
SAPA_FOGBAND
 10
-35.821063327669748
 20
66.254546352753422
 30
0.0
 40
0.2999999999998788
 50
116.952957468157
 51
199.99999999998539
  0
LINE
  5
CC5
  8
SAPA_FOGBAND
 10
-36.102971113905447
 20
66.15194030975583
 30
0.0
 11
-36.022814320938458
 21
65.931711331063156
 31
0.0
  0
ARC
  5
CC6
  8
SAPA_FOGBAND
 10
-36.304722107174278
 20
65.829105288065705
 30
0.0
 40
0.2999999999999572
 50
289.99999999995578
 51
19.999999999955062
  0
LINE
  5
CC7
  8
SAPA_FOGBAND
 10
-36.202116064176813
 20
65.547197501829885
 30
0.0
 11
-40.479334775783421
 21
63.990417205358632
 31
0.0
  0
LINE
  5
CC8
  8
SAPA_FOGBAND
 10
-40.479334775783421
 20
63.990417205358632
 30
0.0
 11
-46.246610421431782
 21
61.336123954711432
 31
0.0
  0
LINE
  5
CC9
  8
SAPA_FOGBAND
 10
-46.246610421431782
 20
61.336123954711432
 30
0.0
 11
-46.246610421431782
 21
61.336123954711432
 31
0.0
  0
LINE
  5
CCA
  8
SAPA_FOGBAND
 10
-46.246610421431782
 20
61.336123954711432
 30
0.0
 11
-46.941436263851728
 21
61.526269417961323
 31
0.0
  0
ARC
  5
CCB
  8
SAPA_FOGBAND
 10
-68.172788036596955
 20
56.988139071513473
 30
0.0
 40
21.710940217765859
 50
12.06522376247934
 51
15.369664331739591
  0
LINE
  5
CCC
  8
SAPA_FOGBAND
 10
-47.238320713273353
 20
62.742528963422011
 30
0.0
 11
-42.985866714361123
 21
66.057811951411296
 31
0.0
  0
LINE
  5
CCD
  8
SAPA_FOGBAND
 10
-42.985866714361123
 20
66.057811951411296
 30
0.0
 11
-43.61860397951358
 21
67.796243299865139
 31
0.0
  0
ARC
  5
CCE
  8
SAPA_FOGBAND
 10
-43.477650086395613
 20
67.847546321364021
 30
0.0
 40
0.1500000000000797
 50
109.9999999999981
 51
200.00000000000159
  0
LINE
  5
CCF
  8
SAPA_FOGBAND
 10
-43.528953107894488
 20
67.988500214481988
 30
0.0
 11
-42.480076733223008
 21
68.37025999428721
 31
0.0
  0
ARC
  5
CD0
  8
SAPA_FOGBAND
 10
-42.428773711724311
 20
68.229306101169556
 30
0.0
 40
0.1499999999997319
 50
26.530215321818869
 51
109.9999999999778
  0
LINE
  5
CD1
  8
SAPA_FOGBAND
 10
-42.29456887197005
 20
68.296306556290801
 30
0.0
 11
-41.964519181673921
 21
67.635202602341451
 31
0.0
  0
ARC
  5
CD2
  8
SAPA_FOGBAND
 10
-41.830314341919532
 20
67.702203057463024
 30
0.0
 40
0.1499999999999971
 50
206.53021532190749
 51
290.0000000000627
  0
LINE
  5
CD3
  8
SAPA_FOGBAND
 10
-41.77901132042053
 20
67.561249164345199
 30
0.0
 11
-38.629423753757251
 21
68.707605288825548
 31
0.0
  0
ARC
  5
CD4
  8
SAPA_FOGBAND
 10
-38.697827782422202
 20
68.895543812982851
 30
0.0
 40
0.2000000000000492
 50
289.99999999993679
 51
19.999999999936861
  0
LINE
  5
CD5
  8
SAPA_FOGBAND
 10
-38.509889258264892
 20
68.963947841647794
 30
0.0
 11
-38.783505372925831
 21
69.715701938276311
 31
0.0
  0
ARC
  5
CD6
  8
SAPA_FOGBAND
 10
-38.595566848768463
 20
69.784105966941397
 30
0.0
 40
0.2000000000001579
 50
109.9999999999681
 51
199.99999999996879
  0
LINE
  5
CD7
  8
SAPA_FOGBAND
 10
-38.663970877433549
 20
69.972044491098771
 30
0.0
 11
-38.288093829119099
 21
70.10885254842907
 31
0.0
  0
ARC
  5
CD8
  8
SAPA_FOGBAND
 10
-38.356497857784291
 20
70.296791072586132
 30
0.0
 40
0.1999999999999048
 50
290.00000000002558
 51
20.000000000042949
  0
LINE
  5
CD9
  8
SAPA_FOGBAND
 10
-38.168559333627243
 20
70.365195101251373
 30
0.0
 11
-38.535067711643777
 21
71.372168593892724
 31
0.0
  0
ARC
  5
CDA
  8
SAPA_FOGBAND
 10
-38.629036973722393
 20
71.337966579560202
 30
0.0
 40
0.1000000000000015
 50
19.99999999997198
 51
160.55544447106499
  0
LINE
  5
CDB
  8
SAPA_FOGBAND
 10
-38.723333380799389
 20
71.371256031528773
 30
0.0
 11
-39.149782169671028
 21
70.163288155368264
 31
0.0
  0
ARC
  5
CDC
  8
SAPA_FOGBAND
 10
-39.526967797979133
 20
70.296445963242363
 30
0.0
 40
0.4000000000000126
 50
160.5554444710985
 51
340.55544447109401
  0
LINE
  5
CDD
  8
SAPA_FOGBAND
 10
-39.904153426287237
 20
70.429603771116433
 30
0.0
 11
-39.30494329085424
 21
72.126939098503129
 31
0.0
  0
ARC
  5
CDE
  8
SAPA_FOGBAND
 10
-38.126238202391633
 20
71.710820948896696
 30
0.0
 40
1.2499999999998159
 50
109.999999999991
 51
160.55544447109651
  0
ARC
  5
CDF
  8
SAPA_FOGBAND
 10
-38.126238202391242
 20
71.710820948896824
 30
0.0
 40
1.249999999999825
 50
59.444555528904552
 51
110.0000000000099
  0
LINE
  5
CE0
  8
SAPA_FOGBAND
 10
-37.490773310031109
 20
72.787242971422046
 30
0.0
 11
-35.940725597594671
 21
71.87217352642287
 31
0.0
  0
ARC
  5
CE1
  8
SAPA_FOGBAND
 10
-36.144074363149969
 20
71.527718479214755
 30
0.0
 40
0.4000000000000099
 50
239.44455552890719
 51
59.4445555289007
  0
LINE
  5
CE2
  8
SAPA_FOGBAND
 10
-36.347423128705231
 20
71.183263432006612
 30
0.0
 11
-37.450568637390518
 21
71.834504513353068
 31
0.0
  0
ARC
  5
CE3
  8
SAPA_FOGBAND
 10
-37.501405828779291
 20
71.748390751551014
 30
0.0
 40
0.0999999999999977
 50
59.444555528933357
 51
200.00000000003249
  0
LINE
  5
CE4
  8
SAPA_FOGBAND
 10
-37.595375090857871
 20
71.714188737218393
 30
0.0
 11
-37.228866712841409
 21
70.707215244577242
 31
0.0
  0
ARC
  5
CE5
  8
SAPA_FOGBAND
 10
-37.040928188684241
 20
70.775619273242299
 30
0.0
 40
0.1999999999999612
 50
199.9999999999807
 51
289.99999999995998
  0
LINE
  5
CE6
  8
SAPA_FOGBAND
 10
-36.972524160019248
 20
70.587680749085095
 30
0.0
 11
-36.596647111704719
 21
70.724488806415181
 31
0.0
  0
ARC
  5
CE7
  8
SAPA_FOGBAND
 10
-36.528243083039349
 20
70.536550282258034
 30
0.0
 40
0.2000000000000348
 50
20.00000000006381
 51
110.0000000000683
  0
LINE
  5
CE8
  8
SAPA_FOGBAND
 10
-36.34030455888221
 20
70.604954310923404
 30
0.0
 11
-36.066688444221612
 21
69.853200214294503
 31
0.0
  0
POLYLINE
  5
FEF
  8
SAPA_PROFIL
 66
     1
 10
0.0
 20
0.0
 30
0.0
 70
     1
  0
VERTEX
  5
1B60
  8
SAPA_PROFIL
 10
-55.834858246714617
 20
-77.800000000000253
 30
0.0
 42
-0.4142135623730941
  0
VERTEX
  5
1B61
  8
SAPA_PROFIL
 10
-56.83485824671461
 20
-76.800000000000267
 30
0.0
  0
VERTEX
  5
1B62
  8
SAPA_PROFIL
 10
-56.834858246714766
 20
-40.211269837221231
 30
0.0
 42
-0.198912367379658
  0
VERTEX
  5
1B63
  8
SAPA_PROFIL
 10
-56.541965027901298
 20
-39.504163056034677
 30
0.0
  0
VERTEX
  5
1B64
  8
SAPA_PROFIL
 10
-46.925669937510953
 20
-29.887867965644219
 30
0.0
 42
-0.1989123673796596
  0
VERTEX
  5
1B65
  8
SAPA_PROFIL
 10
-46.713537903155
 20
-29.8000000000002
 30
0.0
  0
VERTEX
  5
1B66
  8
SAPA_PROFIL
 10
-45.735968946607883
 20
-29.8000000000002
 30
0.0
  0
VERTEX
  5
1B67
  8
SAPA_PROFIL
 10
-44.927678569742319
 20
-31.200000000000291
 30
0.0
 42
0.4142135623730646
  0
VERTEX
  5
1B68
  8
SAPA_PROFIL
 10
-43.834858246714859
 20
-31.492820323027871
 30
0.0
  0
VERTEX
  5
1B69
  8
SAPA_PROFIL
 10
-42.634858246714813
 20
-30.8000000000002
 30
0.0
  0
VERTEX
  5
1B6A
  8
SAPA_PROFIL
 10
-42.634858246714813
 20
-29.8000000000002
 30
0.0
  0
VERTEX
  5
1B6B
  8
SAPA_PROFIL
 10
-40.034858246714791
 20
-29.8000000000002
 30
0.0
 42
0.4142135623730951
  0
VERTEX
  5
1B6C
  8
SAPA_PROFIL
 10
-39.534858246714791
 20
-29.30000000000021
 30
0.0
  0
VERTEX
  5
1B6D
  8
SAPA_PROFIL
 10
-39.534858246714677
 20
-28.90000000000034
 30
0.0
  0
VERTEX
  5
1B6E
  8
SAPA_PROFIL
 10
-39.834858246714752
 20
-28.600000000000382
 30
0.0
  0
VERTEX
  5
1B6F
  8
SAPA_PROFIL
 10
-46.920644684341688
 20
-28.600000000000382
 30
0.0
 42
0.1989123673796596
  0
VERTEX
  5
1B70
  8
SAPA_PROFIL
 10
-47.627751465528249
 20
-28.892893218813828
 30
0.0
  0
VERTEX
  5
1B71
  8
SAPA_PROFIL
 10
-57.80054367166376
 20
-39.065685424949471
 30
0.0
 42
0.1989123673796587
  0
VERTEX
  5
1B72
  8
SAPA_PROFIL
 10
-58.034858246714563
 20
-39.63137084989873
 30
0.0
  0
VERTEX
  5
1B73
  8
SAPA_PROFIL
 10
-58.034858246714798
 20
-78.500000000000085
 30
0.0
 42
0.4142135623730966
  0
VERTEX
  5
1B74
  8
SAPA_PROFIL
 10
-57.534858246714798
 20
-79.000000000000085
 30
0.0
  0
VERTEX
  5
1B75
  8
SAPA_PROFIL
 10
-39.834858246714731
 20
-79.000000000000142
 30
0.0
  0
VERTEX
  5
1B76
  8
SAPA_PROFIL
 10
-39.534858246714663
 20
-78.700000000000173
 30
0.0
  0
VERTEX
  5
1B77
  8
SAPA_PROFIL
 10
-39.534858246714784
 20
-78.300000000000324
 30
0.0
 42
0.4142135623730951
  0
VERTEX
  5
1B78
  8
SAPA_PROFIL
 10
-40.034858246714784
 20
-77.800000000000324
 30
0.0
  0
VERTEX
  5
1B79
  8
SAPA_PROFIL
 10
-42.634858246714792
 20
-77.800000000000324
 30
0.0
  0
VERTEX
  5
1B7A
  8
SAPA_PROFIL
 10
-42.634858246714792
 20
-76.800000000000324
 30
0.0
  0
VERTEX
  5
1B7B
  8
SAPA_PROFIL
 10
-43.834858246714838
 20
-76.107179676972663
 30
0.0
 42
0.4142135623730646
  0
VERTEX
  5
1B7C
  8
SAPA_PROFIL
 10
-44.927678569742312
 20
-76.400000000000233
 30
0.0
  0
VERTEX
  5
1B7D
  8
SAPA_PROFIL
 10
-45.735968946607869
 20
-77.800000000000324
 30
0.0
  0
SEQEND
  5
1B7E
  8
SAPA_PROFIL
  0
INSERT
  5
FF0
  8
SAPA_PROFIL
  2
BYGG-013688$0$00509-TXT
 10
-54.113060981213778
 20
-21.69766537639617
 30
0.0
  0
POLYLINE
  5
FF1
  8
SAPA_PROFIL
 66
     1
 10
0.0
 20
0.0
 30
0.0
 70
     1
  0
VERTEX
  5
1B7F
  8
SAPA_PROFIL
 10
-67.035562234580539
 20
-24.999216867472398
 30
0.0
  0
VERTEX
  5
1B80
  8
SAPA_PROFIL
 10
-36.033333318913101
 20
-24.999216867472398
 30
0.0
 42
-0.4142135623730951
  0
VERTEX
  5
1B81
  8
SAPA_PROFIL
 10
-34.033333318913087
 20
-26.999216867472398
 30
0.0
  0
VERTEX
  5
1B82
  8
SAPA_PROFIL
 10
-34.033333318913087
 20
-43.000000000003631
 30
0.0
  0
VERTEX
  5
1B83
  8
SAPA_PROFIL
 10
-32.033333318913101
 20
-43.000000000003631
 30
0.0
  0
VERTEX
  5
1B84
  8
SAPA_PROFIL
 10
-32.033333318913151
 20
-22.999216867472342
 30
0.0
  0
VERTEX
  5
1B85
  8
SAPA_PROFIL
 10
-63.035562234580539
 20
-22.999216867472398
 30
0.0
 42
-0.4142135623730951
  0
VERTEX
  5
1B86
  8
SAPA_PROFIL
 10
-65.035562234580539
 20
-20.999216867472398
 30
0.0
  0
VERTEX
  5
1B87
  8
SAPA_PROFIL
 10
-65.035562234580539
 20
-4.9972289156640377
 30
0.0
  0
VERTEX
  5
1B88
  8
SAPA_PROFIL
 10
-67.035562234580539
 20
-4.9972289156640377
 30
0.0
  0
SEQEND
  5
1B89
  8
SAPA_PROFIL
  0
LINE
  5
FF2
  8
SAPA_PROFIL
 10
-38.033333318911723
 20
-30.700000000000141
 30
0.0
 11
-38.033333318911723
 21
-33.149999999999963
 31
0.0
  0
ARC
  5
FF3
  8
SAPA_PROFIL
 10
-38.533333318911723
 20
-30.700000000000141
 30
0.0
 40
0.5
 50
0.0
 51
90.0
  0
LINE
  5
FF4
  8
SAPA_PROFIL
 10
-42.233333318911527
 20
-30.19999999999969
 30
0.0
 11
-38.533333318911723
 21
-30.200000000000149
 31
0.0
  0
ARC
  5
FF5
  8
SAPA_PROFIL
 10
-42.233333318911527
 20
-30.499999999999869
 30
0.0
 40
0.3000000000001819
 50
90.0
 51
180.0
  0
LINE
  5
FF6
  8
SAPA_PROFIL
 10
-42.533333318911723
 20
-31.526794919242871
 30
0.0
 11
-42.533333318911723
 21
-30.499999999999869
 31
0.0
  0
ARC
  5
FF7
  8
SAPA_PROFIL
 10
-42.833333318911642
 20
-31.526794919242761
 30
0.0
 40
0.2999999999999189
 50
299.99999999997101
 51
359.99999999997829
  0
LINE
  5
FF8
  8
SAPA_PROFIL
 10
-44.220416806452057
 20
-32.674038105676452
 30
0.0
 11
-42.683333318911806
 21
-31.786602540378102
 31
0.0
  0
ARC
  5
FF9
  8
SAPA_PROFIL
 10
-44.370416806452177
 20
-32.414230484541271
 30
0.0
 40
0.2999999999999183
 50
210.0000000000197
 51
300.00000000003178
  0
LINE
  5
FFA
  8
SAPA_PROFIL
 10
-44.937456522614688
 20
-32.032088886237823
 30
0.0
 11
-44.630224427587379
 21
-32.564230484541312
 31
0.0
  0
ARC
  5
FFB
  8
SAPA_PROFIL
 10
-45.803481926398852
 20
-32.532088886237787
 30
0.0
 40
0.9999999999997509
 50
30.000000000006469
 51
130.0000000000266
  0
LINE
  5
FFC
  8
SAPA_PROFIL
 10
-51.354727123754671
 20
-35.884729394583118
 30
0.0
 11
-46.44626953608558
 21
-31.766044443119299
 31
0.0
  0
ARC
  5
FFD
  8
SAPA_PROFIL
 10
-51.033333318911708
 20
-36.267751616142881
 30
0.0
 40
0.5000000000000071
 50
129.99999999995339
 51
179.99999999994299
  0
LINE
  5
FFE
  8
SAPA_PROFIL
 10
-51.533333318911723
 20
-44.299792461790602
 30
0.0
 11
-51.533333318911723
 21
-36.267751616142377
 31
0.0
  0
ARC
  5
FFF
  8
SAPA_PROFIL
 10
-50.533333318911588
 20
-44.299792461790531
 30
0.0
 40
1.0000000000001319
 50
180.00000000000401
 51
250.00000000000489
  0
LINE
  5
1000
  8
SAPA_PROFIL
 10
-47.191313175585762
 20
-46.580366088754857
 30
0.0
 11
-50.875353462237221
 21
-45.239485082576593
 31
0.0
  0
ARC
  5
1001
  8
SAPA_PROFIL
 10
-47.53333331891141
 20
-47.520058709540947
 30
0.0
 40
1.000000000000149
 50
0.0000000000048853
 51
70.000000000004405
  0
LINE
  5
1002
  8
SAPA_PROFIL
 10
-46.533333318911261
 20
-60.479941290459337
 30
0.0
 11
-46.533333318911261
 21
-47.520058709540862
 31
0.0
  0
ARC
  5
1003
  8
SAPA_PROFIL
 10
-47.53333331891141
 20
-60.479941290459251
 30
0.0
 40
1.0000000000001501
 50
289.99999999999562
 51
359.99999999999511
  0
LINE
  5
1004
  8
SAPA_PROFIL
 10
-50.875353462237221
 20
-62.760514917424061
 30
0.0
 11
-47.191313175585762
 21
-61.419633911245327
 31
0.0
  0
ARC
  5
1005
  8
SAPA_PROFIL
 10
-50.533333318911588
 20
-63.700207538210122
 30
0.0
 40
1.000000000000135
 50
109.9999999999951
 51
179.99999999999591
  0
LINE
  5
1006
  8
SAPA_PROFIL
 10
-51.533333318911723
 20
-71.732248383857822
 30
0.0
 11
-51.533333318911723
 21
-63.700207538210051
 31
0.0
  0
ARC
  5
1007
  8
SAPA_PROFIL
 10
-51.033333318911218
 20
-71.732248383857552
 30
0.0
 40
0.5000000000004964
 50
180.00000000003089
 51
230.00000000002029
  0
LINE
  5
1008
  8
SAPA_PROFIL
 10
-46.44626953608558
 20
-76.233955556881355
 30
0.0
 11
-51.354727123754671
 21
-72.115270605417535
 31
0.0
  0
ARC
  5
1009
  8
SAPA_PROFIL
 10
-45.803481926399037
 20
-75.467911113762639
 30
0.0
 40
0.9999999999998003
 50
229.99999999999019
 51
330.00000000001029
  0
LINE
  5
100A
  8
SAPA_PROFIL
 10
-44.630224427587379
 20
-75.435769515459342
 30
0.0
 11
-44.937456522614688
 21
-75.967911113762383
 31
0.0
  0
ARC
  5
100B
  8
SAPA_PROFIL
 10
-44.370416806451949
 20
-75.585769515459148
 30
0.0
 40
0.2999999999999931
 50
60.000000000026191
 51
150.00000000004201
  0
LINE
  5
100C
  8
SAPA_PROFIL
 10
-42.683333318911806
 20
-76.213397459622101
 30
0.0
 11
-44.220416806452057
 21
-75.325961894323754
 31
0.0
  0
ARC
  5
100D
  8
SAPA_PROFIL
 10
-42.833333318911649
 20
-76.473205080757452
 30
0.0
 40
0.2999999999999332
 50
0.0000000000244267
 51
60.000000000027988
  0
LINE
  5
100E
  8
SAPA_PROFIL
 10
-42.533333318911723
 20
-77.500000000000782
 30
0.0
 11
-42.533333318911723
 21
-76.473205080757324
 31
0.0
  0
ARC
  5
100F
  8
SAPA_PROFIL
 10
-42.233333318911761
 20
-77.500000000000554
 30
0.0
 40
0.2999999999999545
 50
180.0000000000434
 51
270.00000000004343
  0
LINE
  5
1010
  8
SAPA_PROFIL
 10
-38.533333318911723
 20
-77.800000000000495
 30
0.0
 11
-42.233333318911527
 21
-77.800000000000495
 31
0.0
  0
ARC
  5
1011
  8
SAPA_PROFIL
 10
-38.533333318911723
 20
-77.300000000000509
 30
0.0
 40
0.5
 50
270.0
 51
0.0
  0
LINE
  5
1012
  8
SAPA_PROFIL
 10
-38.033333318911723
 20
-74.850000000000236
 30
0.0
 11
-38.033333318911723
 21
-77.300000000000509
 31
0.0
  0
ARC
  5
1013
  8
SAPA_PROFIL
 10
-38.333333318911407
 20
-74.850000000000122
 30
0.0
 40
0.2999999999996829
 50
359.99999999997829
 51
44.999999999990401
  0
LINE
  5
1014
  8
SAPA_PROFIL
 10
-38.521201284555723
 20
-74.237867965644327
 30
0.0
 11
-38.121201284555632
 21
-74.637867965644404
 31
0.0
  0
ARC
  5
1015
  8
SAPA_PROFIL
 10
-38.733333318911619
 20
-74.4500000000005
 30
0.0
 40
0.3000000000001037
 50
45.000000000037417
 51
180.00000000001901
  0
LINE
  5
1016
  8
SAPA_PROFIL
 10
-39.033333318911723
 20
-75.300000000000495
 30
0.0
 11
-39.033333318911723
 21
-74.4500000000006
 31
0.0
  0
ARC
  5
1017
  8
SAPA_PROFIL
 10
-39.533333318911779
 20
-75.300000000000452
 30
0.0
 40
0.500000000000057
 50
270.00000000000648
 51
359.99999999999352
  0
LINE
  5
1018
  8
SAPA_PROFIL
 10
-39.924142248631881
 20
-75.800000000000054
 30
0.0
 11
-39.533333318911723
 21
-75.800000000000509
 31
0.0
  0
ARC
  5
1019
  8
SAPA_PROFIL
 10
-39.924142248631831
 20
-75.500000000000313
 30
0.0
 40
0.2999999999997415
 50
229.999999999995
 51
269.99999999999193
  0
LINE
  5
101A
  8
SAPA_PROFIL
 10
-41.926169601817307
 20
-74.211721773135068
 30
0.0
 11
-40.116978531537647
 21
-75.729813332935791
 31
0.0
  0
ARC
  5
101B
  8
SAPA_PROFIL
 10
-41.733333318911562
 20
-73.981908440199575
 30
0.0
 40
0.2999999999997058
 50
180.0000000000054
 51
230.00000000000611
  0
LINE
  5
101C
  8
SAPA_PROFIL
 10
-42.033333318911723
 20
-70.4500000000006
 30
0.0
 11
-42.033333318911261
 21
-73.981908440199604
 31
0.0
  0
ARC
  5
101D
  8
SAPA_PROFIL
 10
-41.733333318911541
 20
-70.4500000000006
 30
0.0
 40
0.3000000000001819
 50
90.0
 51
180.0
  0
LINE
  5
101E
  8
SAPA_PROFIL
 10
-39.33333331891145
 20
-70.150000000000418
 30
0.0
 11
-41.733333318911541
 21
-70.150000000000418
 31
0.0
  0
ARC
  5
101F
  8
SAPA_PROFIL
 10
-39.333333318911677
 20
-70.450000000000372
 30
0.0
 40
0.2999999999999545
 50
359.99999999995657
 51
89.999999999956557
  0
LINE
  5
1020
  8
SAPA_PROFIL
 10
-39.033333318911723
 20
-70.850000000000236
 30
0.0
 11
-39.033333318911723
 21
-70.4500000000006
 31
0.0
  0
ARC
  5
1021
  8
SAPA_PROFIL
 10
-38.733333318911647
 20
-70.850000000000392
 30
0.0
 40
0.3000000000000798
 50
179.9999999999701
 51
314.99999999997408
  0
LINE
  5
1022
  8
SAPA_PROFIL
 10
-38.121201284555632
 20
-70.662132034356404
 30
0.0
 11
-38.521201284555723
 21
-71.062132034356495
 31
0.0
  0
ARC
  5
1023
  8
SAPA_PROFIL
 10
-38.333333318911492
 20
-70.450000000000685
 30
0.0
 40
0.2999999999997627
 50
315.00000000001631
 51
0.0000000000162844
  0
LINE
  5
1024
  8
SAPA_PROFIL
 10
-38.033333318911268
 20
-68.650000000000404
 30
0.0
 11
-38.033333318911723
 21
-70.4500000000006
 31
0.0
  0
ARC
  5
1025
  8
SAPA_PROFIL
 10
-38.533333318911239
 20
-68.650000000000389
 30
0.0
 40
0.4999999999999716
 50
359.99999999999682
 51
90.000000000003226
  0
LINE
  5
1026
  8
SAPA_PROFIL
 10
-43.03333331891217
 20
-68.150000000000418
 30
0.0
 11
-38.533333318911268
 21
-68.150000000000418
 31
0.0
  0
ARC
  5
1027
  8
SAPA_PROFIL
 10
-43.03333331891217
 20
-68.650000000000404
 30
0.0
 40
0.5
 50
90.0
 51
180.0
  0
LINE
  5
1028
  8
SAPA_PROFIL
 10
-43.533333318911268
 20
-72.650000000000418
 30
0.0
 11
-43.53333331891217
 21
-68.650000000000404
 31
0.0
  0
ARC
  5
1029
  8
SAPA_PROFIL
 10
-44.033333318911382
 20
-72.650000000000304
 30
0.0
 40
0.5000000000001137
 50
270.00000000001302
 51
359.99999999998698
  0
LINE
  5
102A
  8
SAPA_PROFIL
 10
-46.05028996611491
 20
-73.150000000000418
 30
0.0
 11
-44.033333318911261
 21
-73.150000000000418
 31
0.0
  0
ARC
  5
102B
  8
SAPA_PROFIL
 10
-46.05028996611469
 20
-72.65000000000019
 30
0.0
 40
0.5000000000002249
 50
229.99999999996871
 51
269.9999999999755
  0
LINE
  5
102C
  8
SAPA_PROFIL
 10
-48.854727123754671
 20
-70.949501460030064
 30
0.0
 11
-46.371683770958313
 21
-73.033022221559676
 31
0.0
  0
ARC
  5
102D
  8
SAPA_PROFIL
 10
-48.53333331891146
 20
-70.566479238470791
 30
0.0
 40
0.4999999999998082
 50
180.00000000000321
 51
229.9999999999896
  0
LINE
  5
102E
  8
SAPA_PROFIL
 10
-49.033333318911723
 20
-64.568533728391543
 30
0.0
 11
-49.033333318911261
 21
-70.566479238470819
 31
0.0
  0
ARC
  5
102F
  8
SAPA_PROFIL
 10
-48.533333318911502
 20
-64.568533728391472
 30
0.0
 40
0.5000000000002208
 50
110.0000000000081
 51
180.00000000000969
  0
LINE
  5
1030
  8
SAPA_PROFIL
 10
-44.691313175585762
 20
-62.638063870531688
 30
0.0
 11
-48.704343390574472
 21
-64.098687417998335
 31
0.0
  0
ARC
  5
1031
  8
SAPA_PROFIL
 10
-45.033333318911438
 20
-61.698371249745598
 30
0.0
 40
1.0000000000001701
 50
289.99999999999648
 51
359.99999999999432
  0
LINE
  5
1032
  8
SAPA_PROFIL
 10
-44.033333318911261
 20
-60.650000000000418
 30
0.0
 11
-44.033333318911261
 21
-61.698371249745698
 31
0.0
  0
ARC
  5
1033
  8
SAPA_PROFIL
 10
-43.733333318911399
 20
-60.650000000000112
 30
0.0
 40
0.2999999999998692
 50
90.000000000027114
 51
180.00000000005971
  0
LINE
  5
1034
  8
SAPA_PROFIL
 10
-43.33333331891145
 20
-60.350000000000243
 30
0.0
 11
-43.733333318911541
 21
-60.350000000000243
 31
0.0
  0
ARC
  5
1035
  8
SAPA_PROFIL
 10
-43.333333318911421
 20
-60.050000000000082
 30
0.0
 40
0.3000000000001535
 50
269.9999999999946
 51
0.0000000000054281
  0
LINE
  5
1036
  8
SAPA_PROFIL
 10
-43.033333318911268
 20
-59.650000000000418
 30
0.0
 11
-43.033333318911268
 21
-60.050000000000061
 31
0.0
  0
ARC
  5
1037
  8
SAPA_PROFIL
 10
-43.333333318911421
 20
-59.650000000000382
 30
0.0
 40
0.3000000000001535
 50
359.99999999999449
 51
90.000000000005414
  0
LINE
  5
1038
  8
SAPA_PROFIL
 10
-43.733333318911541
 20
-59.350000000000229
 30
0.0
 11
-43.33333331891145
 21
-59.350000000000229
 31
0.0
  0
ARC
  5
1039
  8
SAPA_PROFIL
 10
-43.73333331891137
 20
-59.050000000000331
 30
0.0
 40
0.2999999999998977
 50
179.99999999994569
 51
269.99999999996737
  0
LINE
  5
103A
  8
SAPA_PROFIL
 10
-44.033333318911261
 20
-54.624264068712229
 30
0.0
 11
-44.033333318911261
 21
-59.050000000000047
 31
0.0
  0
ARC
  5
103B
  8
SAPA_PROFIL
 10
-44.333333318911357
 20
-54.624264068712762
 30
0.0
 40
0.3000000000001049
 50
0.0000000000990637
 51
45.000000000080611
  0
LINE
  5
103C
  8
SAPA_PROFIL
 10
-44.533333318911261
 20
-54.000000000000327
 30
0.0
 11
-44.121201284555632
 21
-54.412132034356411
 31
0.0
  0
LINE
  5
103D
  8
SAPA_PROFIL
 10
-44.121201284555632
 20
-53.587867965644229
 30
0.0
 11
-44.533333318911261
 21
-54.000000000000327
 31
0.0
  0
ARC
  5
103E
  8
SAPA_PROFIL
 10
-44.333333318911357
 20
-53.375735931287899
 30
0.0
 40
0.3000000000001037
 50
314.9999999999194
 51
359.99999999990092
  0
LINE
  5
103F
  8
SAPA_PROFIL
 10
-44.033333318911261
 20
-48.950000000000138
 30
0.0
 11
-44.033333318911261
 21
-53.375735931288411
 31
0.0
  0
ARC
  5
1040
  8
SAPA_PROFIL
 10
-43.73333331891159
 20
-48.950000000000088
 30
0.0
 40
0.2999999999996703
 50
89.999999999989143
 51
180.0000000000108
  0
LINE
  5
1041
  8
SAPA_PROFIL
 10
-43.33333331891145
 20
-48.650000000000411
 30
0.0
 11
-43.733333318911541
 21
-48.650000000000411
 31
0.0
  0
ARC
  5
1042
  8
SAPA_PROFIL
 10
-43.333333318911421
 20
-48.350000000000257
 30
0.0
 40
0.3000000000001535
 50
269.9999999999946
 51
0.0000000000054281
  0
LINE
  5
1043
  8
SAPA_PROFIL
 10
-43.033333318911268
 20
-47.950000000000152
 30
0.0
 11
-43.033333318911268
 21
-48.350000000000229
 31
0.0
  0
ARC
  5
1044
  8
SAPA_PROFIL
 10
-43.333333318911187
 20
-47.950000000000337
 30
0.0
 40
0.2999999999999261
 50
0.000000000037997
 51
90.000000000048857
  0
LINE
  5
1045
  8
SAPA_PROFIL
 10
-43.733333318911541
 20
-47.650000000000418
 30
0.0
 11
-43.33333331891145
 21
-47.650000000000418
 31
0.0
  0
ARC
  5
1046
  8
SAPA_PROFIL
 10
-43.733333318911399
 20
-47.350000000000549
 30
0.0
 40
0.2999999999998692
 50
179.99999999994029
 51
269.99999999997289
  0
LINE
  5
1047
  8
SAPA_PROFIL
 10
-44.033333318911261
 20
-46.301628750254487
 30
0.0
 11
-44.033333318911261
 21
-47.350000000000229
 31
0.0
  0
ARC
  5
1048
  8
SAPA_PROFIL
 10
-45.033333318911438
 20
-46.301628750254586
 30
0.0
 40
1.0000000000001701
 50
0.0000000000056996
 51
70.000000000003539
  0
LINE
  5
1049
  8
SAPA_PROFIL
 10
-48.704343390574472
 20
-43.901312582001857
 30
0.0
 11
-44.691313175585762
 21
-45.361936129468504
 31
0.0
  0
ARC
  5
104A
  8
SAPA_PROFIL
 10
-48.533333318911822
 20
-43.43146627160894
 30
0.0
 40
0.4999999999999006
 50
180.00000000001711
 51
250.00000000001839
  0
LINE
  5
104B
  8
SAPA_PROFIL
 10
-49.033333318911261
 20
-37.43352076152938
 30
0.0
 11
-49.033333318911723
 21
-43.431466271609089
 31
0.0
  0
ARC
  5
104C
  8
SAPA_PROFIL
 10
-48.53333331891146
 20
-37.433520761529401
 30
0.0
 40
0.4999999999998068
 50
130.00000000001091
 51
179.9999999999975
  0
LINE
  5
104D
  8
SAPA_PROFIL
 10
-46.371683770958313
 20
-34.966977778440977
 30
0.0
 11
-48.854727123754671
 21
-37.050498539970121
 31
0.0
  0
ARC
  5
104E
  8
SAPA_PROFIL
 10
-46.05028996611469
 20
-35.350000000000463
 30
0.0
 40
0.5000000000002203
 50
90.000000000024414
 51
130.0000000000318
  0
LINE
  5
104F
  8
SAPA_PROFIL
 10
-44.033333318911261
 20
-34.850000000000243
 30
0.0
 11
-46.05028996611491
 21
-34.850000000000243
 31
0.0
  0
ARC
  5
1050
  8
SAPA_PROFIL
 10
-44.033333318911382
 20
-35.35000000000035
 30
0.0
 40
0.5000000000001137
 50
0.0000000000130276
 51
89.999999999986969
  0
LINE
  5
1051
  8
SAPA_PROFIL
 10
-43.53333331891217
 20
-39.350000000000229
 30
0.0
 11
-43.533333318911268
 21
-35.350000000000243
 31
0.0
  0
ARC
  5
1052
  8
SAPA_PROFIL
 10
-43.03333331891217
 20
-39.350000000000229
 30
0.0
 40
0.5
 50
180.0
 51
270.0
  0
LINE
  5
1053
  8
SAPA_PROFIL
 10
-38.533333318911268
 20
-39.849999999999781
 30
0.0
 11
-43.03333331891217
 21
-39.850000000000243
 31
0.0
  0
ARC
  5
1054
  8
SAPA_PROFIL
 10
-38.533333318911239
 20
-39.34999999999981
 30
0.0
 40
0.4999999999999716
 50
269.99999999999682
 51
0.0000000000032569
  0
LINE
  5
1055
  8
SAPA_PROFIL
 10
-38.033333318911723
 20
-37.550000000000061
 30
0.0
 11
-38.033333318911268
 21
-39.349999999999781
 31
0.0
  0
ARC
  5
1056
  8
SAPA_PROFIL
 10
-38.333333318911492
 20
-37.549999999999983
 30
0.0
 40
0.2999999999997633
 50
359.99999999998511
 51
44.999999999984652
  0
LINE
  5
1057
  8
SAPA_PROFIL
 10
-38.521201284555723
 20
-36.937867965644152
 30
0.0
 11
-38.121201284555632
 21
-37.337867965644243
 31
0.0
  0
ARC
  5
1058
  8
SAPA_PROFIL
 10
-38.73333331891174
 20
-37.150000000000027
 30
0.0
 40
0.2999999999999829
 50
44.99999999998272
 51
179.99999999998639
  0
LINE
  5
1059
  8
SAPA_PROFIL
 10
-39.033333318911723
 20
-37.550000000000061
 30
0.0
 11
-39.033333318911723
 21
-37.149999999999963
 31
0.0
  0
ARC
  5
105A
  8
SAPA_PROFIL
 10
-39.33333331891145
 20
-37.550000000000061
 30
0.0
 40
0.2999999999997271
 50
270.0
 51
0.0
  0
LINE
  5
105B
  8
SAPA_PROFIL
 10
-41.733333318911541
 20
-37.850000000000243
 30
0.0
 11
-39.33333331891145
 21
-37.849999999999781
 31
0.0
  0
ARC
  5
105C
  8
SAPA_PROFIL
 10
-41.733333318911541
 20
-37.550000000000061
 30
0.0
 40
0.3000000000001819
 50
180.0
 51
270.0
  0
LINE
  5
105D
  8
SAPA_PROFIL
 10
-42.033333318911261
 20
-34.01809155980105
 30
0.0
 11
-42.033333318911723
 21
-37.550000000000061
 31
0.0
  0
ARC
  5
105E
  8
SAPA_PROFIL
 10
-41.733333318911072
 20
-34.018091559800837
 30
0.0
 40
0.3000000000001951
 50
130.0000000000386
 51
180.00000000003931
  0
LINE
  5
105F
  8
SAPA_PROFIL
 10
-40.116978531537647
 20
-32.270186667064408
 30
0.0
 11
-41.926169601817307
 21
-33.788278226865131
 31
0.0
  0
ARC
  5
1060
  8
SAPA_PROFIL
 10
-39.924142248631831
 20
-32.499999999999893
 30
0.0
 40
0.2999999999997413
 50
90.000000000008114
 51
130.000000000005
  0
LINE
  5
1061
  8
SAPA_PROFIL
 10
-39.533333318911723
 20
-32.200000000000152
 30
0.0
 11
-39.924142248631881
 21
-32.200000000000152
 31
0.0
  0
ARC
  5
1062
  8
SAPA_PROFIL
 10
-39.533333318911779
 20
-32.700000000000202
 30
0.0
 40
0.500000000000057
 50
0.0000000000065138
 51
89.999999999993491
  0
LINE
  5
1063
  8
SAPA_PROFIL
 10
-39.033333318911723
 20
-33.550000000000061
 30
0.0
 11
-39.033333318911723
 21
-32.700000000000152
 31
0.0
  0
ARC
  5
1064
  8
SAPA_PROFIL
 10
-38.733333318911718
 20
-33.549999999999933
 30
0.0
 40
0.3000000000000095
 50
180.00000000002439
 51
315.00000000000671
  0
LINE
  5
1065
  8
SAPA_PROFIL
 10
-38.121201284555632
 20
-33.362132034356243
 30
0.0
 11
-38.521201284555723
 21
-33.762132034355872
 31
0.0
  0
ARC
  5
1066
  8
SAPA_PROFIL
 10
-38.333333318911947
 20
-33.150000000000311
 30
0.0
 40
0.3000000000002316
 50
315.00000000005269
 51
0.0000000000651378
  0
POLYLINE
  5
1067
  8
SAPA_PROFIL
 66
     1
 10
0.0
 20
0.0
 30
0.0
 70
     1
  0
VERTEX
  5
1B8A
  8
SAPA_PROFIL
 10
-38.03333331891173
 20
-33.149999999999977
 30
0.0
 42
-0.1989123673797145
  0
VERTEX
  5
1B8B
  8
SAPA_PROFIL
 10
-38.121201284555639
 20
-33.36213203435625
 30
0.0
  0
VERTEX
  5
1B8C
  8
SAPA_PROFIL
 10
-38.52120128455573
 20
-33.762132034355893
 30
0.0
 42
-0.668178637919182
  0
VERTEX
  5
1B8D
  8
SAPA_PROFIL
 10
-39.03333331891173
 20
-33.550000000000068
 30
0.0
  0
VERTEX
  5
1B8E
  8
SAPA_PROFIL
 10
-39.03333331891173
 20
-32.700000000000159
 30
0.0
 42
0.4142135623730284
  0
VERTEX
  5
1B8F
  8
SAPA_PROFIL
 10
-39.53333331891173
 20
-32.200000000000159
 30
0.0
  0
VERTEX
  5
1B90
  8
SAPA_PROFIL
 10
-39.924142248631881
 20
-32.200000000000159
 30
0.0
 42
0.17632698070845
  0
VERTEX
  5
1B91
  8
SAPA_PROFIL
 10
-40.116978531537647
 20
-32.270186667064422
 30
0.0
  0
VERTEX
  5
1B92
  8
SAPA_PROFIL
 10
-41.926169601817321
 20
-33.788278226865152
 30
0.0
 42
0.2216946626429421
  0
VERTEX
  5
1B93
  8
SAPA_PROFIL
 10
-42.033333318911268
 20
-34.018091559801071
 30
0.0
  0
VERTEX
  5
1B94
  8
SAPA_PROFIL
 10
-42.033333318911723
 20
-37.550000000000068
 30
0.0
 42
0.4142135623730951
  0
VERTEX
  5
1B95
  8
SAPA_PROFIL
 10
-41.733333318911541
 20
-37.85000000000025
 30
0.0
  0
VERTEX
  5
1B96
  8
SAPA_PROFIL
 10
-39.333333318911457
 20
-37.849999999999802
 30
0.0
 42
0.4142135623730951
  0
VERTEX
  5
1B97
  8
SAPA_PROFIL
 10
-39.03333331891173
 20
-37.550000000000068
 30
0.0
  0
VERTEX
  5
1B98
  8
SAPA_PROFIL
 10
-39.03333331891173
 20
-37.149999999999977
 30
0.0
 42
-0.6681786379193188
  0
VERTEX
  5
1B99
  8
SAPA_PROFIL
 10
-38.52120128455573
 20
-36.937867965644159
 30
0.0
  0
VERTEX
  5
1B9A
  8
SAPA_PROFIL
 10
-38.121201284555639
 20
-37.33786796564425
 30
0.0
 42
-0.198912367379658
  0
VERTEX
  5
1B9B
  8
SAPA_PROFIL
 10
-38.03333331891173
 20
-37.550000000000068
 30
0.0
  0
VERTEX
  5
1B9C
  8
SAPA_PROFIL
 10
-38.033333318911282
 20
-39.349999999999802
 30
0.0
 42
-0.4142135623731284
  0
VERTEX
  5
1B9D
  8
SAPA_PROFIL
 10
-38.533333318911282
 20
-39.849999999999802
 30
0.0
  0
VERTEX
  5
1B9E
  8
SAPA_PROFIL
 10
-43.033333318912177
 20
-39.85000000000025
 30
0.0
 42
-0.4142135623730951
  0
VERTEX
  5
1B9F
  8
SAPA_PROFIL
 10
-43.533333318912177
 20
-39.35000000000025
 30
0.0
  0
VERTEX
  5
1BA0
  8
SAPA_PROFIL
 10
-43.533333318911282
 20
-35.35000000000025
 30
0.0
 42
0.4142135623729619
  0
VERTEX
  5
1BA1
  8
SAPA_PROFIL
 10
-44.033333318911268
 20
-34.85000000000025
 30
0.0
  0
VERTEX
  5
1BA2
  8
SAPA_PROFIL
 10
-46.05028996611491
 20
-34.85000000000025
 30
0.0
 42
0.1763269807084973
  0
VERTEX
  5
1BA3
  8
SAPA_PROFIL
 10
-46.37168377095832
 20
-34.966977778440992
 30
0.0
  0
VERTEX
  5
1BA4
  8
SAPA_PROFIL
 10
-48.854727123754678
 20
-37.050498539970143
 30
0.0
 42
0.2216946626428772
  0
VERTEX
  5
1BA5
  8
SAPA_PROFIL
 10
-49.033333318911268
 20
-37.433520761529401
 30
0.0
  0
VERTEX
  5
1BA6
  8
SAPA_PROFIL
 10
-49.03333331891173
 20
-43.431466271609111
 30
0.0
 42
0.315298788878991
  0
VERTEX
  5
1BA7
  8
SAPA_PROFIL
 10
-48.704343390574479
 20
-43.901312582001871
 30
0.0
  0
VERTEX
  5
1BA8
  8
SAPA_PROFIL
 10
-44.691313175585769
 20
-45.361936129468518
 30
0.0
 42
-0.3152987888789731
  0
VERTEX
  5
1BA9
  8
SAPA_PROFIL
 10
-44.033333318911268
 20
-46.301628750254501
 30
0.0
  0
VERTEX
  5
1BAA
  8
SAPA_PROFIL
 10
-44.033333318911268
 20
-47.35000000000025
 30
0.0
 42
0.4142135623732616
  0
VERTEX
  5
1BAB
  8
SAPA_PROFIL
 10
-43.733333318911548
 20
-47.650000000000432
 30
0.0
  0
VERTEX
  5
1BAC
  8
SAPA_PROFIL
 10
-43.333333318911457
 20
-47.650000000000432
 30
0.0
 42
-0.4142135623731506
  0
VERTEX
  5
1BAD
  8
SAPA_PROFIL
 10
-43.033333318911268
 20
-47.950000000000152
 30
0.0
  0
VERTEX
  5
1BAE
  8
SAPA_PROFIL
 10
-43.033333318911268
 20
-48.35000000000025
 30
0.0
 42
-0.4142135623731505
  0
VERTEX
  5
1BAF
  8
SAPA_PROFIL
 10
-43.333333318911457
 20
-48.650000000000432
 30
0.0
  0
VERTEX
  5
1BB0
  8
SAPA_PROFIL
 10
-43.733333318911548
 20
-48.650000000000432
 30
0.0
 42
0.4142135623732061
  0
VERTEX
  5
1BB1
  8
SAPA_PROFIL
 10
-44.033333318911268
 20
-48.950000000000159
 30
0.0
  0
VERTEX
  5
1BB2
  8
SAPA_PROFIL
 10
-44.033333318911268
 20
-53.375735931288432
 30
0.0
 42
-0.198912367379577
  0
VERTEX
  5
1BB3
  8
SAPA_PROFIL
 10
-44.121201284555639
 20
-53.58786796564425
 30
0.0
  0
VERTEX
  5
1BB4
  8
SAPA_PROFIL
 10
-44.533333318911268
 20
-54.000000000000341
 30
0.0
  0
VERTEX
  5
1BB5
  8
SAPA_PROFIL
 10
-44.121201284555639
 20
-54.412132034356432
 30
0.0
 42
-0.1989123673795771
  0
VERTEX
  5
1BB6
  8
SAPA_PROFIL
 10
-44.033333318911268
 20
-54.62426406871225
 30
0.0
  0
VERTEX
  5
1BB7
  8
SAPA_PROFIL
 10
-44.033333318911268
 20
-59.050000000000068
 30
0.0
 42
0.4142135623732059
  0
VERTEX
  5
1BB8
  8
SAPA_PROFIL
 10
-43.733333318911548
 20
-59.35000000000025
 30
0.0
  0
VERTEX
  5
1BB9
  8
SAPA_PROFIL
 10
-43.333333318911457
 20
-59.35000000000025
 30
0.0
 42
-0.4142135623731506
  0
VERTEX
  5
1BBA
  8
SAPA_PROFIL
 10
-43.033333318911268
 20
-59.650000000000432
 30
0.0
  0
VERTEX
  5
1BBB
  8
SAPA_PROFIL
 10
-43.033333318911268
 20
-60.050000000000061
 30
0.0
 42
-0.4142135623731505
  0
VERTEX
  5
1BBC
  8
SAPA_PROFIL
 10
-43.333333318911457
 20
-60.35000000000025
 30
0.0
  0
VERTEX
  5
1BBD
  8
SAPA_PROFIL
 10
-43.733333318911548
 20
-60.35000000000025
 30
0.0
 42
0.4142135623732615
  0
VERTEX
  5
1BBE
  8
SAPA_PROFIL
 10
-44.033333318911268
 20
-60.650000000000432
 30
0.0
  0
VERTEX
  5
1BBF
  8
SAPA_PROFIL
 10
-44.033333318911268
 20
-61.698371249745719
 30
0.0
 42
-0.3152987888789731
  0
VERTEX
  5
1BC0
  8
SAPA_PROFIL
 10
-44.691313175585769
 20
-62.63806387053171
 30
0.0
  0
VERTEX
  5
1BC1
  8
SAPA_PROFIL
 10
-48.704343390574479
 20
-64.098687417998349
 30
0.0
 42
0.315298788878991
  0
VERTEX
  5
1BC2
  8
SAPA_PROFIL
 10
-49.03333331891173
 20
-64.568533728391571
 30
0.0
  0
VERTEX
  5
1BC3
  8
SAPA_PROFIL
 10
-49.033333318911268
 20
-70.566479238470833
 30
0.0
 42
0.2216946626428772
  0
VERTEX
  5
1BC4
  8
SAPA_PROFIL
 10
-48.854727123754678
 20
-70.949501460030092
 30
0.0
  0
VERTEX
  5
1BC5
  8
SAPA_PROFIL
 10
-46.37168377095832
 20
-73.03302222155969
 30
0.0
 42
0.1763269807084973
  0
VERTEX
  5
1BC6
  8
SAPA_PROFIL
 10
-46.05028996611491
 20
-73.150000000000432
 30
0.0
  0
VERTEX
  5
1BC7
  8
SAPA_PROFIL
 10
-44.033333318911268
 20
-73.150000000000432
 30
0.0
 42
0.4142135623729619
  0
VERTEX
  5
1BC8
  8
SAPA_PROFIL
 10
-43.533333318911282
 20
-72.650000000000432
 30
0.0
  0
VERTEX
  5
1BC9
  8
SAPA_PROFIL
 10
-43.533333318912177
 20
-68.650000000000432
 30
0.0
 42
-0.4142135623730951
  0
VERTEX
  5
1BCA
  8
SAPA_PROFIL
 10
-43.033333318912177
 20
-68.150000000000432
 30
0.0
  0
VERTEX
  5
1BCB
  8
SAPA_PROFIL
 10
-38.533333318911282
 20
-68.150000000000432
 30
0.0
 42
-0.4142135623731285
  0
VERTEX
  5
1BCC
  8
SAPA_PROFIL
 10
-38.033333318911282
 20
-68.650000000000432
 30
0.0
  0
VERTEX
  5
1BCD
  8
SAPA_PROFIL
 10
-38.03333331891173
 20
-70.450000000000614
 30
0.0
 42
-0.198912367379658
  0
VERTEX
  5
1BCE
  8
SAPA_PROFIL
 10
-38.121201284555639
 20
-70.662132034356432
 30
0.0
  0
VERTEX
  5
1BCF
  8
SAPA_PROFIL
 10
-38.52120128455573
 20
-71.062132034356523
 30
0.0
 42
-0.6681786379193188
  0
VERTEX
  5
1BD0
  8
SAPA_PROFIL
 10
-39.03333331891173
 20
-70.85000000000025
 30
0.0
  0
VERTEX
  5
1BD1
  8
SAPA_PROFIL
 10
-39.03333331891173
 20
-70.450000000000614
 30
0.0
 42
0.4142135623730951
  0
VERTEX
  5
1BD2
  8
SAPA_PROFIL
 10
-39.333333318911457
 20
-70.150000000000432
 30
0.0
  0
VERTEX
  5
1BD3
  8
SAPA_PROFIL
 10
-41.733333318911541
 20
-70.150000000000432
 30
0.0
 42
0.4142135623730951
  0
VERTEX
  5
1BD4
  8
SAPA_PROFIL
 10
-42.033333318911723
 20
-70.450000000000614
 30
0.0
  0
VERTEX
  5
1BD5
  8
SAPA_PROFIL
 10
-42.033333318911268
 20
-73.981908440199604
 30
0.0
 42
0.221694662642942
  0
VERTEX
  5
1BD6
  8
SAPA_PROFIL
 10
-41.926169601817321
 20
-74.211721773135082
 30
0.0
  0
VERTEX
  5
1BD7
  8
SAPA_PROFIL
 10
-40.116978531537647
 20
-75.729813332935805
 30
0.0
 42
0.1763269807084499
  0
VERTEX
  5
1BD8
  8
SAPA_PROFIL
 10
-39.924142248631881
 20
-75.800000000000068
 30
0.0
  0
VERTEX
  5
1BD9
  8
SAPA_PROFIL
 10
-39.53333331891173
 20
-75.800000000000523
 30
0.0
 42
0.4142135623730284
  0
VERTEX
  5
1BDA
  8
SAPA_PROFIL
 10
-39.03333331891173
 20
-75.300000000000523
 30
0.0
  0
VERTEX
  5
1BDB
  8
SAPA_PROFIL
 10
-39.03333331891173
 20
-74.450000000000614
 30
0.0
 42
-0.668178637919182
  0
VERTEX
  5
1BDC
  8
SAPA_PROFIL
 10
-38.52120128455573
 20
-74.237867965644341
 30
0.0
  0
VERTEX
  5
1BDD
  8
SAPA_PROFIL
 10
-38.121201284555639
 20
-74.637867965644432
 30
0.0
 42
-0.1989123673797144
  0
VERTEX
  5
1BDE
  8
SAPA_PROFIL
 10
-38.03333331891173
 20
-74.85000000000025
 30
0.0
  0
VERTEX
  5
1BDF
  8
SAPA_PROFIL
 10
-38.03333331891173
 20
-77.300000000000523
 30
0.0
 42
-0.4142135623730951
  0
VERTEX
  5
1BE0
  8
SAPA_PROFIL
 10
-38.53333331891173
 20
-77.800000000000523
 30
0.0
  0
VERTEX
  5
1BE1
  8
SAPA_PROFIL
 10
-42.233333318911541
 20
-77.800000000000523
 30
0.0
 42
-0.4142135623730951
  0
VERTEX
  5
1BE2
  8
SAPA_PROFIL
 10
-42.533333318911723
 20
-77.500000000000796
 30
0.0
  0
VERTEX
  5
1BE3
  8
SAPA_PROFIL
 10
-42.533333318911723
 20
-76.473205080757339
 30
0.0
 42
0.2679491924311428
  0
VERTEX
  5
1BE4
  8
SAPA_PROFIL
 10
-42.683333318911821
 20
-76.213397459622115
 30
0.0
  0
VERTEX
  5
1BE5
  8
SAPA_PROFIL
 10
-44.220416806452072
 20
-75.325961894323768
 30
0.0
 42
0.4142135623731709
  0
VERTEX
  5
1BE6
  8
SAPA_PROFIL
 10
-44.630224427587393
 20
-75.435769515459356
 30
0.0
  0
VERTEX
  5
1BE7
  8
SAPA_PROFIL
 10
-44.937456522614688
 20
-75.967911113762398
 30
0.0
 42
-0.4663076581551056
  0
VERTEX
  5
1BE8
  8
SAPA_PROFIL
 10
-46.446269536085588
 20
-76.233955556881369
 30
0.0
  0
VERTEX
  5
1BE9
  8
SAPA_PROFIL
 10
-51.354727123754678
 20
-72.115270605417535
 30
0.0
 42
-0.2216946626428921
  0
VERTEX
  5
1BEA
  8
SAPA_PROFIL
 10
-51.53333331891173
 20
-71.732248383857836
 30
0.0
  0
VERTEX
  5
1BEB
  8
SAPA_PROFIL
 10
-51.53333331891173
 20
-63.700207538210059
 30
0.0
 42
-0.3152987888789878
  0
VERTEX
  5
1BEC
  8
SAPA_PROFIL
 10
-50.875353462237229
 20
-62.760514917424068
 30
0.0
  0
VERTEX
  5
1BED
  8
SAPA_PROFIL
 10
-47.191313175585769
 20
-61.419633911245342
 30
0.0
 42
0.3152987888789804
  0
VERTEX
  5
1BEE
  8
SAPA_PROFIL
 10
-46.533333318911268
 20
-60.479941290459351
 30
0.0
  0
VERTEX
  5
1BEF
  8
SAPA_PROFIL
 10
-46.533333318911268
 20
-47.520058709540869
 30
0.0
 42
0.3152987888789804
  0
VERTEX
  5
1BF0
  8
SAPA_PROFIL
 10
-47.191313175585769
 20
-46.580366088754879
 30
0.0
  0
VERTEX
  5
1BF1
  8
SAPA_PROFIL
 10
-50.875353462237229
 20
-45.2394850825766
 30
0.0
 42
-0.3152987888789877
  0
VERTEX
  5
1BF2
  8
SAPA_PROFIL
 10
-51.53333331891173
 20
-44.299792461790609
 30
0.0
  0
VERTEX
  5
1BF3
  8
SAPA_PROFIL
 10
-51.53333331891173
 20
-36.267751616142391
 30
0.0
 42
-0.2216946626428921
  0
VERTEX
  5
1BF4
  8
SAPA_PROFIL
 10
-51.354727123754678
 20
-35.884729394583132
 30
0.0
  0
VERTEX
  5
1BF5
  8
SAPA_PROFIL
 10
-46.446269536085588
 20
-31.766044443119309
 30
0.0
 42
-0.4663076581551056
  0
VERTEX
  5
1BF6
  8
SAPA_PROFIL
 10
-44.937456522614688
 20
-32.03208888623783
 30
0.0
  0
VERTEX
  5
1BF7
  8
SAPA_PROFIL
 10
-44.630224427587393
 20
-32.564230484541334
 30
0.0
 42
0.414213562373157
  0
VERTEX
  5
1BF8
  8
SAPA_PROFIL
 10
-44.220416806452072
 20
-32.674038105676459
 30
0.0
  0
VERTEX
  5
1BF9
  8
SAPA_PROFIL
 10
-42.683333318911821
 20
-31.786602540378109
 30
0.0
 42
0.2679491924311554
  0
VERTEX
  5
1BFA
  8
SAPA_PROFIL
 10
-42.533333318911723
 20
-31.526794919242889
 30
0.0
  0
VERTEX
  5
1BFB
  8
SAPA_PROFIL
 10
-42.533333318911723
 20
-30.49999999999989
 30
0.0
 42
-0.4142135623730951
  0
VERTEX
  5
1BFC
  8
SAPA_PROFIL
 10
-42.233333318911541
 20
-30.199999999999712
 30
0.0
  0
VERTEX
  5
1BFD
  8
SAPA_PROFIL
 10
-38.53333331891173
 20
-30.200000000000159
 30
0.0
 42
-0.4142135623730951
  0
VERTEX
  5
1BFE
  8
SAPA_PROFIL
 10
-38.03333331891173
 20
-30.700000000000159
 30
0.0
  0
SEQEND
  5
1BFF
  8
SAPA_PROFIL
  0
LINE
  5
1068
  8
SAPA_PROFIL
  6
CONTINUOUS
 10
7.466666680097382
 20
-56.700000000000038
 30
0.0
 11
6.316666680097291
 21
-56.700000000000038
 31
0.0
  0
ARC
  5
1069
  8
SAPA_PROFIL
  6
CONTINUOUS
 10
7.466666680097382
 20
-55.700000000000031
 30
0.0
 40
1.0
 50
270.0
 51
0.0
  0
LINE
  5
106A
  8
SAPA_PROFIL
  6
CONTINUOUS
 10
8.4666666800973829
 20
-52.299999999999947
 30
0.0
 11
8.4666666800973829
 21
-55.700000000000031
 31
0.0
  0
ARC
  5
106B
  8
SAPA_PROFIL
  6
CONTINUOUS
 10
7.466666680097382
 20
-52.299999999999947
 30
0.0
 40
1.0
 50
0.0
 51
90.0
  0
LINE
  5
106C
  8
SAPA_PROFIL
  6
CONTINUOUS
 10
7.216666680097382
 20
-51.299999999999947
 30
0.0
 11
7.466666680097382
 21
-51.299999999999947
 31
0.0
  0
LINE
  5
106D
  8
SAPA_PROFIL
  6
CONTINUOUS
 10
7.216666680097382
 20
-51.650000000000077
 30
0.0
 11
7.216666680097382
 21
-51.299999999999947
 31
0.0
  0
ARC
  5
106E
  8
SAPA_PROFIL
  6
CONTINUOUS
 10
6.916666680097169
 20
-51.649999999999842
 30
0.0
 40
0.3000000000002108
 50
245.63479199996351
 51
359.99999999995521
  0
LINE
  5
106F
  8
SAPA_PROFIL
  6
CONTINUOUS
 10
5.4166666800974284
 20
-51.299999999999947
 30
0.0
 11
6.7929012736733014
 21
-51.923280303301901
 31
0.0
  0
LINE
  5
1070
  8
SAPA_PROFIL
  6
CONTINUOUS
 10
5.4166666800974284
 20
-51.650000000000077
 30
0.0
 11
5.4166666800974284
 21
-51.299999999999947
 31
0.0
  0
ARC
  5
1071
  8
SAPA_PROFIL
  6
CONTINUOUS
 10
5.1166666800972234
 20
-51.649999999999849
 30
0.0
 40
0.300000000000208
 50
245.63479199996141
 51
359.99999999995657
  0
LINE
  5
1072
  8
SAPA_PROFIL
  6
CONTINUOUS
 10
3.6166666800974729
 20
-51.299999999999947
 30
0.0
 11
4.992901273673346
 21
-51.923280303301901
 31
0.0
  0
LINE
  5
1073
  8
SAPA_PROFIL
  6
CONTINUOUS
 10
3.6166666800974729
 20
-51.650000000000077
 30
0.0
 11
3.6166666800974729
 21
-51.299999999999947
 31
0.0
  0
ARC
  5
1074
  8
SAPA_PROFIL
  6
CONTINUOUS
 10
3.3166666800972631
 20
-51.649999999999842
 30
0.0
 40
0.3000000000002123
 50
245.63479199996291
 51
359.99999999995521
  0
LINE
  5
1075
  8
SAPA_PROFIL
  6
CONTINUOUS
 10
1.816666680097291
 20
-51.299999999999947
 30
0.0
 11
3.1929012736733919
 21
-51.923280303301901
 31
0.0
  0
LINE
  5
1076
  8
SAPA_PROFIL
  6
CONTINUOUS
 10
1.816666680097291
 20
-51.650000000000077
 30
0.0
 11
1.816666680097291
 21
-51.299999999999947
 31
0.0
  0
ARC
  5
1077
  8
SAPA_PROFIL
  6
CONTINUOUS
 10
1.516666680097204
 20
-51.649999999999928
 30
0.0
 40
0.3000000000000913
 50
245.6347919999744
 51
359.99999999997152
  0
LINE
  5
1078
  8
SAPA_PROFIL
  6
CONTINUOUS
 10
0.0166666800973374
 20
-51.299999999999947
 30
0.0
 11
1.392901273673437
 21
-51.923280303301901
 31
0.0
  0
LINE
  5
1079
  8
SAPA_PROFIL
  6
CONTINUOUS
 10
0.0166666800973374
 20
-51.650000000000311
 30
0.0
 11
0.0166666800973374
 21
-51.299999999999947
 31
0.0
  0
ARC
  5
107A
  8
SAPA_PROFIL
  6
CONTINUOUS
 10
-0.2833330979231843
 20
-51.649999856848737
 30
0.0
 40
0.2999997780205591
 50
245.63481147028429
 51
359.99997266004442
  0
LINE
  5
107B
  8
SAPA_PROFIL
  6
CONTINUOUS
 10
-1.7833333199026169
 20
-51.299999999999947
 30
0.0
 11
-0.4070983199026657
 21
-51.92327999999997
 31
0.0
  0
LINE
  5
107C
  8
SAPA_PROFIL
  6
CONTINUOUS
 10
-1.7833333199026169
 20
-51.650000000000077
 30
0.0
 11
-1.7833333199026169
 21
-51.299999999999947
 31
0.0
  0
ARC
  5
107D
  8
SAPA_PROFIL
  6
CONTINUOUS
 10
-2.0833333199028301
 20
-51.649999999999842
 30
0.0
 40
0.300000000000211
 50
245.6347919999634
 51
359.99999999995521
  0
LINE
  5
107E
  8
SAPA_PROFIL
  6
CONTINUOUS
 10
-2.9833333199026622
 20
-51.571732366488952
 30
0.0
 11
-2.2070987263266981
 21
-51.923280303301901
 31
0.0
  0
LINE
  5
107F
  8
SAPA_PROFIL
  6
CONTINUOUS
 10
-2.9833333199026622
 20
-56.700000000000038
 30
0.0
 11
-2.9833333199026622
 21
-51.571732366488952
 31
0.0
  0
LINE
  5
1080
  8
SAPA_PROFIL
  6
CONTINUOUS
 10
-2.6833333199027081
 20
-56.700000000000038
 30
0.0
 11
-2.9833333199026622
 21
-56.700000000000038
 31
0.0
  0
LINE
  5
1081
  8
SAPA_PROFIL
  6
CONTINUOUS
 10
-1.307098319902529
 20
-56.076718999999898
 30
0.0
 11
-2.6833333199027081
 21
-56.700000000000038
 31
0.0
  0
ARC
  5
1082
  8
SAPA_PROFIL
  6
CONTINUOUS
 10
-1.183333553390618
 20
-56.349999849425998
 30
0.0
 40
0.3000002334879027
 50
359.99997124261188
 51
114.36505364112639
  0
LINE
  5
1083
  8
SAPA_PROFIL
  6
CONTINUOUS
 10
-0.8833333199025261
 20
-56.700000000000038
 30
0.0
 11
-0.8833333199027535
 21
-56.34999999999944
 31
0.0
  0
LINE
  5
1084
  8
SAPA_PROFIL
  6
CONTINUOUS
 10
0.4929016800974253
 20
-56.076718999999898
 30
0.0
 11
-0.8833333199025261
 21
-56.700000000000038
 31
0.0
  0
ARC
  5
1085
  8
SAPA_PROFIL
  6
CONTINUOUS
 10
0.6166664466094483
 20
-56.349999849426077
 30
0.0
 40
0.300000233488018
 50
359.99997124262688
 51
114.3650536411397
  0
LINE
  5
1086
  8
SAPA_PROFIL
  6
CONTINUOUS
 10
0.9166666800974284
 20
-56.700000000000038
 30
0.0
 11
0.9166666800974284
 21
-56.34999999999944
 31
0.0
  0
LINE
  5
1087
  8
SAPA_PROFIL
  6
CONTINUOUS
 10
2.2929016800973789
 20
-56.076718999999898
 30
0.0
 11
0.9166666800974284
 21
-56.700000000000038
 31
0.0
  0
ARC
  5
1088
  8
SAPA_PROFIL
  6
CONTINUOUS
 10
2.4166664466094021
 20
-56.349999849426077
 30
0.0
 40
0.3000002334880181
 50
359.99997124262688
 51
114.3650536411397
  0
LINE
  5
1089
  8
SAPA_PROFIL
  6
CONTINUOUS
 10
2.716666680097382
 20
-56.700000000000038
 30
0.0
 11
2.716666680097382
 21
-56.34999999999944
 31
0.0
  0
LINE
  5
108A
  8
SAPA_PROFIL
  6
CONTINUOUS
 10
4.0929016800973343
 20
-56.076718999999898
 30
0.0
 11
2.716666680097382
 21
-56.700000000000038
 31
0.0
  0
ARC
  5
108B
  8
SAPA_PROFIL
  6
CONTINUOUS
 10
4.2166664466093593
 20
-56.349999849426077
 30
0.0
 40
0.3000002334880159
 50
359.99997124262688
 51
114.36505364114009
  0
LINE
  5
108C
  8
SAPA_PROFIL
  6
CONTINUOUS
 10
4.5166666800973374
 20
-56.700000000000038
 30
0.0
 11
4.5166666800973374
 21
-56.34999999999944
 31
0.0
  0
LINE
  5
108D
  8
SAPA_PROFIL
  6
CONTINUOUS
 10
5.892901680097288
 20
-56.076718999999898
 30
0.0
 11
4.5166666800973374
 21
-56.700000000000038
 31
0.0
  0
ARC
  5
108E
  8
SAPA_PROFIL
  6
CONTINUOUS
 10
6.0166664466093103
 20
-56.349999849426077
 30
0.0
 40
0.3000002334880194
 50
359.99997124262688
 51
114.3650536411394
  0
LINE
  5
108F
  8
SAPA_PROFIL
  6
CONTINUOUS
 10
6.316666680097291
 20
-56.700000000000038
 30
0.0
 11
6.316666680097291
 21
-56.34999999999944
 31
0.0
  0
POLYLINE
  5
1090
  8
SAPA_PROFIL
  6
CONTINUOUS
 66
     1
 10
0.0
 20
0.0
 30
0.0
 70
   129
  0
VERTEX
  5
1C00
  8
SAPA_PROFIL
  6
CONTINUOUS
 10
6.3166666800973408
 20
-56.700000000000053
 30
0.0
  0
VERTEX
  5
1C01
  8
SAPA_PROFIL
  6
CONTINUOUS
 10
6.3166666800973408
 20
-56.349999999999568
 30
0.0
 42
0.5450200690651577
  0
VERTEX
  5
1C02
  8
SAPA_PROFIL
  6
CONTINUOUS
 10
5.8929016800973377
 20
-56.076718999999912
 30
0.0
  0
VERTEX
  5
1C03
  8
SAPA_PROFIL
  6
CONTINUOUS
 10
4.5166666800973871
 20
-56.700000000000053
 30
0.0
  0
VERTEX
  5
1C04
  8
SAPA_PROFIL
  6
CONTINUOUS
 10
4.5166666800973303
 20
-56.349999999999568
 30
0.0
 42
0.545020069065169
  0
VERTEX
  5
1C05
  8
SAPA_PROFIL
  6
CONTINUOUS
 10
4.0929016800973841
 20
-56.076718999999912
 30
0.0
  0
VERTEX
  5
1C06
  8
SAPA_PROFIL
  6
CONTINUOUS
 10
2.7166666800973749
 20
-56.700000000000053
 30
0.0
  0
VERTEX
  5
1C07
  8
SAPA_PROFIL
  6
CONTINUOUS
 10
2.716666680097318
 20
-56.349999999999568
 30
0.0
 42
0.5450200690651634
  0
VERTEX
  5
1C08
  8
SAPA_PROFIL
  6
CONTINUOUS
 10
2.2929016800973718
 20
-56.076718999999912
 30
0.0
  0
VERTEX
  5
1C09
  8
SAPA_PROFIL
  6
CONTINUOUS
 10
0.9166666800973644
 20
-56.700000000000053
 30
0.0
  0
VERTEX
  5
1C0A
  8
SAPA_PROFIL
  6
CONTINUOUS
 10
0.9166666800973644
 20
-56.349999999999568
 30
0.0
 42
0.5450200690651634
  0
VERTEX
  5
1C0B
  8
SAPA_PROFIL
  6
CONTINUOUS
 10
0.4929016800973614
 20
-56.076718999999912
 30
0.0
  0
VERTEX
  5
1C0C
  8
SAPA_PROFIL
  6
CONTINUOUS
 10
-0.8833333199026469
 20
-56.700000000000053
 30
0.0
  0
VERTEX
  5
1C0D
  8
SAPA_PROFIL
  6
CONTINUOUS
 10
-0.8833333199027038
 20
-56.349999999999568
 30
0.0
 42
0.545020069065169
  0
VERTEX
  5
1C0E
  8
SAPA_PROFIL
  6
CONTINUOUS
 10
-1.307098319902593
 20
-56.076718999999912
 30
0.0
  0
VERTEX
  5
1C0F
  8
SAPA_PROFIL
  6
CONTINUOUS
 10
-2.6833333199026579
 20
-56.700000000000053
 30
0.0
  0
VERTEX
  5
1C10
  8
SAPA_PROFIL
  6
CONTINUOUS
 10
-2.983333319902612
 20
-56.700000000000053
 30
0.0
  0
VERTEX
  5
1C11
  8
SAPA_PROFIL
  6
CONTINUOUS
 10
-2.983333319902612
 20
-51.571732366488959
 30
0.0
  0
VERTEX
  5
1C12
  8
SAPA_PROFIL
  6
CONTINUOUS
 10
-2.2070987263266479
 20
-51.923280303301908
 30
0.0
 42
0.5450207798987302
  0
VERTEX
  5
1C13
  8
SAPA_PROFIL
  6
CONTINUOUS
 10
-1.783333319902624
 20
-51.650000000000091
 30
0.0
  0
VERTEX
  5
1C14
  8
SAPA_PROFIL
  6
CONTINUOUS
 10
-1.783333319902624
 20
-51.299999999999947
 30
0.0
  0
VERTEX
  5
1C15
  8
SAPA_PROFIL
  6
CONTINUOUS
 10
-0.407098319902616
 20
-51.923279999999977
 30
0.0
 42
0.5450205149791647
  0
VERTEX
  5
1C16
  8
SAPA_PROFIL
  6
CONTINUOUS
 10
0.0166666800973303
 20
-51.650000000000318
 30
0.0
  0
VERTEX
  5
1C17
  8
SAPA_PROFIL
  6
CONTINUOUS
 10
0.0166666800973872
 20
-51.299999999999947
 30
0.0
  0
VERTEX
  5
1C18
  8
SAPA_PROFIL
  6
CONTINUOUS
 10
1.392901273673373
 20
-51.923280303301908
 30
0.0
 42
0.5450207798987699
  0
VERTEX
  5
1C19
  8
SAPA_PROFIL
  6
CONTINUOUS
 10
1.816666680097341
 20
-51.650000000000091
 30
0.0
  0
VERTEX
  5
1C1A
  8
SAPA_PROFIL
  6
CONTINUOUS
 10
1.816666680097341
 20
-51.299999999999947
 30
0.0
  0
VERTEX
  5
1C1B
  8
SAPA_PROFIL
  6
CONTINUOUS
 10
3.1929012736733848
 20
-51.923280303301908
 30
0.0
 42
0.5450207798987417
  0
VERTEX
  5
1C1C
  8
SAPA_PROFIL
  6
CONTINUOUS
 10
3.616666680097353
 20
-51.650000000000091
 30
0.0
  0
VERTEX
  5
1C1D
  8
SAPA_PROFIL
  6
CONTINUOUS
 10
3.616666680097353
 20
-51.299999999999947
 30
0.0
  0
VERTEX
  5
1C1E
  8
SAPA_PROFIL
  6
CONTINUOUS
 10
4.9929012736733958
 20
-51.923280303301908
 30
0.0
 42
0.5450207798987586
  0
VERTEX
  5
1C1F
  8
SAPA_PROFIL
  6
CONTINUOUS
 10
5.4166666800973644
 20
-51.650000000000091
 30
0.0
  0
VERTEX
  5
1C20
  8
SAPA_PROFIL
  6
CONTINUOUS
 10
5.4166666800973644
 20
-51.299999999999947
 30
0.0
  0
VERTEX
  5
1C21
  8
SAPA_PROFIL
  6
CONTINUOUS
 10
6.7929012736733512
 20
-51.923280303301908
 30
0.0
 42
0.5450207798987302
  0
VERTEX
  5
1C22
  8
SAPA_PROFIL
  6
CONTINUOUS
 10
7.2166666800973749
 20
-51.650000000000091
 30
0.0
  0
VERTEX
  5
1C23
  8
SAPA_PROFIL
  6
CONTINUOUS
 10
7.2166666800973749
 20
-51.299999999999947
 30
0.0
  0
VERTEX
  5
1C24
  8
SAPA_PROFIL
  6
CONTINUOUS
 10
7.4666666800973749
 20
-51.299999999999947
 30
0.0
 42
-0.4142135623730951
  0
VERTEX
  5
1C25
  8
SAPA_PROFIL
  6
CONTINUOUS
 10
8.4666666800973758
 20
-52.299999999999947
 30
0.0
  0
VERTEX
  5
1C26
  8
SAPA_PROFIL
  6
CONTINUOUS
 10
8.4666666800973758
 20
-55.700000000000038
 30
0.0
 42
-0.4142135623730951
  0
VERTEX
  5
1C27
  8
SAPA_PROFIL
  6
CONTINUOUS
 10
7.4666666800973749
 20
-56.700000000000053
 30
0.0
  0
SEQEND
  5
1C28
  8
SAPA_PROFIL
  6
CONTINUOUS
  0
POLYLINE
  5
1091
  8
SAPA_PROFIL
  6
CONTINUOUS
 66
     1
 10
0.0
 20
0.0
 30
0.0
 70
   129
  0
VERTEX
  5
1C29
  8
SAPA_PROFIL
  6
CONTINUOUS
 10
-13.09546531990264
 20
-56.237867999999942
 30
0.0
  0
VERTEX
  5
1C2A
  8
SAPA_PROFIL
  6
CONTINUOUS
 10
-14.033333319902621
 20
-57.075735999999999
 30
0.0
  0
VERTEX
  5
1C2B
  8
SAPA_PROFIL
  6
CONTINUOUS
 10
-14.033333319902621
 20
-58.700000000000038
 30
0.0
 42
0.4142135623730951
  0
VERTEX
  5
1C2C
  8
SAPA_PROFIL
  6
CONTINUOUS
 10
-13.733333319902609
 20
-59.0
 30
0.0
  0
VERTEX
  5
1C2D
  8
SAPA_PROFIL
  6
CONTINUOUS
 10
7.4666666800973749
 20
-59.0
 30
0.0
 42
-0.4142135623730951
  0
VERTEX
  5
1C2E
  8
SAPA_PROFIL
  6
CONTINUOUS
 10
8.4666666800973758
 20
-60.0
 30
0.0
  0
VERTEX
  5
1C2F
  8
SAPA_PROFIL
  6
CONTINUOUS
 10
8.4666666800973758
 20
-68.200000000000045
 30
0.0
 42
-0.4142135623730951
  0
VERTEX
  5
1C30
  8
SAPA_PROFIL
  6
CONTINUOUS
 10
7.9666666800973749
 20
-68.700000000000045
 30
0.0
  0
VERTEX
  5
1C31
  8
SAPA_PROFIL
  6
CONTINUOUS
 10
4.7666666800973871
 20
-68.700000000000045
 30
0.0
 42
-0.4142135623730951
  0
VERTEX
  5
1C32
  8
SAPA_PROFIL
  6
CONTINUOUS
 10
4.2666666800973871
 20
-68.200000000000045
 30
0.0
  0
VERTEX
  5
1C33
  8
SAPA_PROFIL
  6
CONTINUOUS
 10
4.2666666800973871
 20
-65.299999999999955
 30
0.0
 42
0.4142135623730951
  0
VERTEX
  5
1C34
  8
SAPA_PROFIL
  6
CONTINUOUS
 10
3.9666666800973749
 20
-65.0
 30
0.0
  0
VERTEX
  5
1C35
  8
SAPA_PROFIL
  6
CONTINUOUS
 10
3.2666666800973871
 20
-65.0
 30
0.0
 42
0.4142135623730951
  0
VERTEX
  5
1C36
  8
SAPA_PROFIL
  6
CONTINUOUS
 10
2.9666666800973749
 20
-65.299999999999955
 30
0.0
  0
VERTEX
  5
1C37
  8
SAPA_PROFIL
  6
CONTINUOUS
 10
2.9666666800973749
 20
-72.0
 30
0.0
  0
VERTEX
  5
1C38
  8
SAPA_PROFIL
  6
CONTINUOUS
 10
3.4315900994563431
 20
-72.586384015500926
 30
0.0
 42
0.7105995019814529
  0
VERTEX
  5
1C39
  8
SAPA_PROFIL
  6
CONTINUOUS
 10
3.9666666800973749
 20
-72.399999999999977
 30
0.0
  0
VERTEX
  5
1C3A
  8
SAPA_PROFIL
  6
CONTINUOUS
 10
3.9666666800973749
 20
-70.5
 30
0.0
 42
-0.4142135623730951
  0
VERTEX
  5
1C3B
  8
SAPA_PROFIL
  6
CONTINUOUS
 10
4.2666666800973871
 20
-70.200000000000045
 30
0.0
  0
VERTEX
  5
1C3C
  8
SAPA_PROFIL
  6
CONTINUOUS
 10
8.1666666800973644
 20
-70.200000000000045
 30
0.0
 42
-0.4142135623730951
  0
VERTEX
  5
1C3D
  8
SAPA_PROFIL
  6
CONTINUOUS
 10
8.4666666800973758
 20
-70.5
 30
0.0
  0
VERTEX
  5
1C3E
  8
SAPA_PROFIL
  6
CONTINUOUS
 10
8.4666666800973758
 20
-77.399999999999977
 30
0.0
 42
-0.4142135623730951
  0
VERTEX
  5
1C3F
  8
SAPA_PROFIL
  6
CONTINUOUS
 10
8.1666666800973644
 20
-77.700000000000045
 30
0.0
  0
VERTEX
  5
1C40
  8
SAPA_PROFIL
  6
CONTINUOUS
 10
4.2666666800973871
 20
-77.700000000000045
 30
0.0
 42
-0.4142135623730951
  0
VERTEX
  5
1C41
  8
SAPA_PROFIL
  6
CONTINUOUS
 10
3.9666666800973749
 20
-77.399999999999977
 30
0.0
  0
VERTEX
  5
1C42
  8
SAPA_PROFIL
  6
CONTINUOUS
 10
3.9666666800973749
 20
-76.0
 30
0.0
 42
0.7105990647993644
  0
VERTEX
  5
1C43
  8
SAPA_PROFIL
  6
CONTINUOUS
 10
3.431590680097599
 20
-75.813616000000138
 30
0.0
  0
VERTEX
  5
1C44
  8
SAPA_PROFIL
  6
CONTINUOUS
 10
2.9666666800973749
 20
-76.399999999999963
 30
0.0
  0
VERTEX
  5
1C45
  8
SAPA_PROFIL
  6
CONTINUOUS
 10
2.9666666800973749
 20
-78.700000000000045
 30
0.0
 42
0.4142135623730951
  0
VERTEX
  5
1C46
  8
SAPA_PROFIL
  6
CONTINUOUS
 10
3.2666666800973871
 20
-79.0
 30
0.0
  0
VERTEX
  5
1C47
  8
SAPA_PROFIL
  6
CONTINUOUS
 10
62.466666680097369
 20
-79.0
 30
0.0
 42
0.4142135623730951
  0
VERTEX
  5
1C48
  8
SAPA_PROFIL
  6
CONTINUOUS
 10
62.966666680097383
 20
-78.5
 30
0.0
  0
VERTEX
  5
1C49
  8
SAPA_PROFIL
  6
CONTINUOUS
 10
62.966666680097383
 20
-29.5
 30
0.0
 42
0.4142135623730951
  0
VERTEX
  5
1C4A
  8
SAPA_PROFIL
  6
CONTINUOUS
 10
62.466666680097369
 20
-29.0
 30
0.0
  0
VERTEX
  5
1C4B
  8
SAPA_PROFIL
  6
CONTINUOUS
 10
3.2666666800973871
 20
-29.0
 30
0.0
 42
0.4142135623730951
  0
VERTEX
  5
1C4C
  8
SAPA_PROFIL
  6
CONTINUOUS
 10
2.9666666800973749
 20
-29.299999999999962
 30
0.0
  0
VERTEX
  5
1C4D
  8
SAPA_PROFIL
  6
CONTINUOUS
 10
2.9666666800973749
 20
-31.599999999999909
 30
0.0
  0
VERTEX
  5
1C4E
  8
SAPA_PROFIL
  6
CONTINUOUS
 10
3.4315900994563431
 20
-32.186384015501062
 30
0.0
 42
0.7105995019814529
  0
VERTEX
  5
1C4F
  8
SAPA_PROFIL
  6
CONTINUOUS
 10
3.9666666800973749
 20
-32.0
 30
0.0
  0
VERTEX
  5
1C50
  8
SAPA_PROFIL
  6
CONTINUOUS
 10
3.9666666800973749
 20
-30.599999999999909
 30
0.0
 42
-0.4142135623730951
  0
VERTEX
  5
1C51
  8
SAPA_PROFIL
  6
CONTINUOUS
 10
4.2666666800973871
 20
-30.299999999999962
 30
0.0
  0
VERTEX
  5
1C52
  8
SAPA_PROFIL
  6
CONTINUOUS
 10
8.1666666800973644
 20
-30.299999999999962
 30
0.0
 42
-0.4142135623730951
  0
VERTEX
  5
1C53
  8
SAPA_PROFIL
  6
CONTINUOUS
 10
8.4666666800973758
 20
-30.599999999999909
 30
0.0
  0
VERTEX
  5
1C54
  8
SAPA_PROFIL
  6
CONTINUOUS
 10
8.4666666800973758
 20
-37.5
 30
0.0
 42
-0.4142135623730951
  0
VERTEX
  5
1C55
  8
SAPA_PROFIL
  6
CONTINUOUS
 10
8.1666666800973644
 20
-37.799999999999962
 30
0.0
  0
VERTEX
  5
1C56
  8
SAPA_PROFIL
  6
CONTINUOUS
 10
4.2666666800973871
 20
-37.799999999999962
 30
0.0
 42
-0.4142135623730951
  0
VERTEX
  5
1C57
  8
SAPA_PROFIL
  6
CONTINUOUS
 10
3.9666666800973749
 20
-37.5
 30
0.0
  0
VERTEX
  5
1C58
  8
SAPA_PROFIL
  6
CONTINUOUS
 10
3.9666666800973749
 20
-35.599999999999909
 30
0.0
 42
0.7105995019814529
  0
VERTEX
  5
1C59
  8
SAPA_PROFIL
  6
CONTINUOUS
 10
3.4315900994563431
 20
-35.413615984499302
 30
0.0
  0
VERTEX
  5
1C5A
  8
SAPA_PROFIL
  6
CONTINUOUS
 10
2.9666666800973749
 20
-36.0
 30
0.0
  0
VERTEX
  5
1C5B
  8
SAPA_PROFIL
  6
CONTINUOUS
 10
2.9666666800973749
 20
-42.700000000000038
 30
0.0
 42
0.4142135623730951
  0
VERTEX
  5
1C5C
  8
SAPA_PROFIL
  6
CONTINUOUS
 10
3.2666666800973871
 20
-43.0
 30
0.0
  0
VERTEX
  5
1C5D
  8
SAPA_PROFIL
  6
CONTINUOUS
 10
3.9666666800973749
 20
-43.0
 30
0.0
 42
0.4142135623730951
  0
VERTEX
  5
1C5E
  8
SAPA_PROFIL
  6
CONTINUOUS
 10
4.2666666800973871
 20
-42.700000000000038
 30
0.0
  0
VERTEX
  5
1C5F
  8
SAPA_PROFIL
  6
CONTINUOUS
 10
4.2666666800973871
 20
-39.799999999999947
 30
0.0
 42
-0.4142135623730951
  0
VERTEX
  5
1C60
  8
SAPA_PROFIL
  6
CONTINUOUS
 10
4.7666666800973871
 20
-39.299999999999962
 30
0.0
  0
VERTEX
  5
1C61
  8
SAPA_PROFIL
  6
CONTINUOUS
 10
7.9666666800973749
 20
-39.299999999999962
 30
0.0
 42
-0.4142135623730951
  0
VERTEX
  5
1C62
  8
SAPA_PROFIL
  6
CONTINUOUS
 10
8.4666666800973758
 20
-39.799999999999947
 30
0.0
  0
VERTEX
  5
1C63
  8
SAPA_PROFIL
  6
CONTINUOUS
 10
8.4666666800973758
 20
-48.0
 30
0.0
 42
-0.4142135623730951
  0
VERTEX
  5
1C64
  8
SAPA_PROFIL
  6
CONTINUOUS
 10
7.4666666800973749
 20
-49.0
 30
0.0
  0
VERTEX
  5
1C65
  8
SAPA_PROFIL
  6
CONTINUOUS
 10
-13.733333319902609
 20
-49.0
 30
0.0
 42
0.4142135623730951
  0
VERTEX
  5
1C66
  8
SAPA_PROFIL
  6
CONTINUOUS
 10
-14.033333319902621
 20
-49.299999999999962
 30
0.0
  0
VERTEX
  5
1C67
  8
SAPA_PROFIL
  6
CONTINUOUS
 10
-14.033333319902621
 20
-50.924263999999987
 30
0.0
  0
VERTEX
  5
1C68
  8
SAPA_PROFIL
  6
CONTINUOUS
 10
-13.09546535425863
 20
-51.762132034356
 30
0.0
 42
0.6681786379193053
  0
VERTEX
  5
1C69
  8
SAPA_PROFIL
  6
CONTINUOUS
 10
-12.58333331990263
 20
-51.549999999999947
 30
0.0
  0
VERTEX
  5
1C6A
  8
SAPA_PROFIL
  6
CONTINUOUS
 10
-12.58333331990263
 20
-51.299999999999947
 30
0.0
  0
VERTEX
  5
1C6B
  8
SAPA_PROFIL
  6
CONTINUOUS
 10
-11.207098726326651
 20
-51.823280303301999
 30
0.0
 42
0.545020779898719
  0
VERTEX
  5
1C6C
  8
SAPA_PROFIL
  6
CONTINUOUS
 10
-10.783333319902621
 20
-51.549999999999947
 30
0.0
  0
VERTEX
  5
1C6D
  8
SAPA_PROFIL
  6
CONTINUOUS
 10
-10.783333319902621
 20
-51.299999999999947
 30
0.0
  0
VERTEX
  5
1C6E
  8
SAPA_PROFIL
  6
CONTINUOUS
 10
-9.4070987263266375
 20
-51.823280303301999
 30
0.0
 42
0.545020779898719
  0
VERTEX
  5
1C6F
  8
SAPA_PROFIL
  6
CONTINUOUS
 10
-8.9833333199026129
 20
-51.549999999999947
 30
0.0
  0
VERTEX
  5
1C70
  8
SAPA_PROFIL
  6
CONTINUOUS
 10
-8.9833333199026129
 20
-51.299999999999947
 30
0.0
  0
VERTEX
  5
1C71
  8
SAPA_PROFIL
  6
CONTINUOUS
 10
-7.6070987263266261
 20
-51.823280303301999
 30
0.0
 42
0.545020779898736
  0
VERTEX
  5
1C72
  8
SAPA_PROFIL
  6
CONTINUOUS
 10
-7.1833333199026583
 20
-51.549999999999947
 30
0.0
  0
VERTEX
  5
1C73
  8
SAPA_PROFIL
  6
CONTINUOUS
 10
-7.1833333199026583
 20
-51.299999999999947
 30
0.0
  0
VERTEX
  5
1C74
  8
SAPA_PROFIL
  6
CONTINUOUS
 10
-5.8070987263266138
 20
-51.823280303301999
 30
0.0
 42
0.545020779898719
  0
VERTEX
  5
1C75
  8
SAPA_PROFIL
  6
CONTINUOUS
 10
-5.3833333199026461
 20
-51.549999999999947
 30
0.0
  0
VERTEX
  5
1C76
  8
SAPA_PROFIL
  6
CONTINUOUS
 10
-5.3833333199026461
 20
-51.299999999999947
 30
0.0
  0
VERTEX
  5
1C77
  8
SAPA_PROFIL
  6
CONTINUOUS
 10
-4.6596160250966241
 20
-51.527762717384
 30
0.0
 42
-0.2945484962563007
  0
VERTEX
  5
1C78
  8
SAPA_PROFIL
  6
CONTINUOUS
 10
-4.4833813601485408
 20
-51.801117531062573
 30
0.0
  0
VERTEX
  5
1C79
  8
SAPA_PROFIL
  6
CONTINUOUS
 10
-4.4835885421146031
 20
-52.735700062251908
 30
0.0
 42
0.3475954753796602
  0
VERTEX
  5
1C7A
  8
SAPA_PROFIL
  6
CONTINUOUS
 10
-4.2528344979457406
 20
-53.027673489322531
 30
0.0
 42
-0.7905229096113223
  0
VERTEX
  5
1C7B
  8
SAPA_PROFIL
  6
CONTINUOUS
 10
-4.252824293505113
 20
-54.973664089865572
 30
0.0
 42
0.3476065658631347
  0
VERTEX
  5
1C7C
  8
SAPA_PROFIL
  6
CONTINUOUS
 10
-4.4835752722369762
 20
-55.265651810886993
 30
0.0
  0
VERTEX
  5
1C7D
  8
SAPA_PROFIL
  6
CONTINUOUS
 10
-4.4834285515286183
 20
-55.849992662092973
 30
0.0
 42
-0.4102317530969934
  0
VERTEX
  5
1C7E
  8
SAPA_PROFIL
  6
CONTINUOUS
 10
-4.7792801996820913
 20
-56.15002829858053
 30
0.0
 42
0.0712587206050408
  0
VERTEX
  5
1C7F
  8
SAPA_PROFIL
  6
CONTINUOUS
 10
-4.8633241246105854
 20
-56.163255612455032
 30
0.0
  0
VERTEX
  5
1C80
  8
SAPA_PROFIL
  6
CONTINUOUS
 10
-6.2833333199026242
 20
-56.700000000000053
 30
0.0
  0
VERTEX
  5
1C81
  8
SAPA_PROFIL
  6
CONTINUOUS
 10
-6.2833333199026242
 20
-56.450000000000038
 30
0.0
 42
0.5450200690651634
  0
VERTEX
  5
1C82
  8
SAPA_PROFIL
  6
CONTINUOUS
 10
-6.7070983199024559
 20
-56.176718999999821
 30
0.0
  0
VERTEX
  5
1C83
  8
SAPA_PROFIL
  6
CONTINUOUS
 10
-8.0833333199026356
 20
-56.700000000000053
 30
0.0
  0
VERTEX
  5
1C84
  8
SAPA_PROFIL
  6
CONTINUOUS
 10
-8.0833333199026356
 20
-56.450000000000038
 30
0.0
 42
0.5450200690651803
  0
VERTEX
  5
1C85
  8
SAPA_PROFIL
  6
CONTINUOUS
 10
-8.5070983199024681
 20
-56.176718999999821
 30
0.0
  0
VERTEX
  5
1C86
  8
SAPA_PROFIL
  6
CONTINUOUS
 10
-9.8833333199026452
 20
-56.700000000000053
 30
0.0
  0
VERTEX
  5
1C87
  8
SAPA_PROFIL
  6
CONTINUOUS
 10
-9.8833333199026452
 20
-56.450000000000038
 30
0.0
 42
0.545020069065169
  0
VERTEX
  5
1C88
  8
SAPA_PROFIL
  6
CONTINUOUS
 10
-10.307098319902479
 20
-56.176718999999821
 30
0.0
  0
VERTEX
  5
1C89
  8
SAPA_PROFIL
  6
CONTINUOUS
 10
-11.68333331990266
 20
-56.700000000000053
 30
0.0
  0
VERTEX
  5
1C8A
  8
SAPA_PROFIL
  6
CONTINUOUS
 10
-11.68333331990266
 20
-56.150000000000091
 30
0.0
  0
VERTEX
  5
1C8B
  8
SAPA_PROFIL
  6
CONTINUOUS
 10
-12.883333319902651
 20
-56.150000000000091
 30
0.0
 42
0.1989123673796988
  0
SEQEND
  5
1C8C
  8
SAPA_PROFIL
  6
CONTINUOUS
  0
POLYLINE
  5
1092
  8
SAPA_PROFIL
  6
CONTINUOUS
 66
     1
 10
0.0
 20
0.0
 30
0.0
 70
   129
  0
VERTEX
  5
1C8D
  8
SAPA_PROFIL
  6
CONTINUOUS
 10
60.966666680097092
 20
-31.800000000000178
 30
0.0
 42
0.4142140000000055
  0
VERTEX
  5
1C8E
  8
SAPA_PROFIL
  6
CONTINUOUS
 10
59.966666680097369
 20
-30.799999999999962
 30
0.0
  0
VERTEX
  5
1C8F
  8
SAPA_PROFIL
  6
CONTINUOUS
 10
56.690930748809372
 20
-30.799999999999962
 30
0.0
 42
0.198912367379658
  0
VERTEX
  5
1C90
  8
SAPA_PROFIL
  6
CONTINUOUS
 10
56.478798714453369
 20
-30.887867965644091
 30
0.0
  0
VERTEX
  5
1C91
  8
SAPA_PROFIL
  6
CONTINUOUS
 10
54.554534645741342
 20
-32.812132034355962
 30
0.0
 42
-0.198912367379717
  0
VERTEX
  5
1C92
  8
SAPA_PROFIL
  6
CONTINUOUS
 10
54.342402611385403
 20
-32.900000000000091
 30
0.0
  0
VERTEX
  5
1C93
  8
SAPA_PROFIL
  6
CONTINUOUS
 10
53.766666680097387
 20
-32.900000000000091
 30
0.0
 42
-0.4142135623730951
  0
VERTEX
  5
1C94
  8
SAPA_PROFIL
  6
CONTINUOUS
 10
53.466666680097383
 20
-32.599999999999909
 30
0.0
  0
VERTEX
  5
1C95
  8
SAPA_PROFIL
  6
CONTINUOUS
 10
53.466666680097312
 20
-31.099999999999909
 30
0.0
 42
0.4142135623730951
  0
VERTEX
  5
1C96
  8
SAPA_PROFIL
  6
CONTINUOUS
 10
53.166666680097357
 20
-30.799999999999962
 30
0.0
  0
VERTEX
  5
1C97
  8
SAPA_PROFIL
  6
CONTINUOUS
 10
48.466666680097383
 20
-30.799999999999962
 30
0.0
 42
0.4142135623730951
  0
VERTEX
  5
1C98
  8
SAPA_PROFIL
  6
CONTINUOUS
 10
47.466666680097369
 20
-31.799999999999962
 30
0.0
  0
VERTEX
  5
1C99
  8
SAPA_PROFIL
  6
CONTINUOUS
 10
47.466666680097319
 20
-36.400000000000091
 30
0.0
 42
-0.4142135623730951
  0
VERTEX
  5
1C9A
  8
SAPA_PROFIL
  6
CONTINUOUS
 10
47.166666680097357
 20
-36.700000000000053
 30
0.0
  0
VERTEX
  5
1C9B
  8
SAPA_PROFIL
  6
CONTINUOUS
 10
44.86666668009741
 20
-36.700000000000053
 30
0.0
 42
-0.4142135623730951
  0
VERTEX
  5
1C9C
  8
SAPA_PROFIL
  6
CONTINUOUS
 10
44.566666680097327
 20
-36.400000000000091
 30
0.0
  0
VERTEX
  5
1C9D
  8
SAPA_PROFIL
  6
CONTINUOUS
 10
44.566666680097327
 20
-35.900000000000091
 30
0.0
 42
-0.4142135623730951
  0
VERTEX
  5
1C9E
  8
SAPA_PROFIL
  6
CONTINUOUS
 10
44.86666668009741
 20
-35.599999999999909
 30
0.0
  0
VERTEX
  5
1C9F
  8
SAPA_PROFIL
  6
CONTINUOUS
 10
45.203293604731861
 20
-35.600000000000023
 30
0.0
 42
0.5535245743249283
  0
VERTEX
  5
1CA0
  8
SAPA_PROFIL
  6
CONTINUOUS
 10
43.430774282222387
 20
-31.289445788469038
 30
0.0
  0
VERTEX
  5
1CA1
  8
SAPA_PROFIL
  6
CONTINUOUS
 10
43.143443375393979
 20
-31.576776695296761
 30
0.0
 42
-0.4142135623729314
  0
VERTEX
  5
1CA2
  8
SAPA_PROFIL
  6
CONTINUOUS
 10
42.789889984800368
 20
-31.576776695296989
 30
0.0
  0
VERTEX
  5
1CA3
  8
SAPA_PROFIL
  6
CONTINUOUS
 10
42.502559077972698
 20
-31.289445788468701
 30
0.0
 42
0.5535245743249283
  0
VERTEX
  5
1CA4
  8
SAPA_PROFIL
  6
CONTINUOUS
 10
40.730039755462371
 20
-35.599999999999909
 30
0.0
  0
VERTEX
  5
1CA5
  8
SAPA_PROFIL
  6
CONTINUOUS
 10
41.066666680097342
 20
-35.599999999999909
 30
0.0
 42
-0.4142135623730951
  0
VERTEX
  5
1CA6
  8
SAPA_PROFIL
  6
CONTINUOUS
 10
41.366666680097403
 20
-35.900000000000091
 30
0.0
  0
VERTEX
  5
1CA7
  8
SAPA_PROFIL
  6
CONTINUOUS
 10
41.366666680097403
 20
-36.400000000000091
 30
0.0
 42
-0.4142135623730951
  0
VERTEX
  5
1CA8
  8
SAPA_PROFIL
  6
CONTINUOUS
 10
41.066666680097342
 20
-36.700000000000053
 30
0.0
  0
VERTEX
  5
1CA9
  8
SAPA_PROFIL
  6
CONTINUOUS
 10
39.966666680097369
 20
-36.700000000000053
 30
0.0
 42
-0.4142135623730951
  0
VERTEX
  5
1CAA
  8
SAPA_PROFIL
  6
CONTINUOUS
 10
38.466666680097383
 20
-35.200000000000053
 30
0.0
  0
VERTEX
  5
1CAB
  8
SAPA_PROFIL
  6
CONTINUOUS
 10
38.466666680097383
 20
-32.166025403784033
 30
0.0
 42
-0.2679491924311181
  0
VERTEX
  5
1CAC
  8
SAPA_PROFIL
  6
CONTINUOUS
 10
38.716666680097369
 20
-31.733012701892221
 30
0.0
 42
0.7673269879789605
  0
VERTEX
  5
1CAD
  8
SAPA_PROFIL
  6
CONTINUOUS
 10
38.466666680097383
 20
-30.799999999999962
 30
0.0
  0
VERTEX
  5
1CAE
  8
SAPA_PROFIL
  6
CONTINUOUS
 10
23.466666680097379
 20
-30.799999999999962
 30
0.0
 42
0.4142135623730951
  0
VERTEX
  5
1CAF
  8
SAPA_PROFIL
  6
CONTINUOUS
 10
22.466666680097379
 20
-31.799999999999962
 30
0.0
  0
VERTEX
  5
1CB0
  8
SAPA_PROFIL
  6
CONTINUOUS
 10
22.466666680097379
 20
-36.400000000000091
 30
0.0
 42
-0.4142135623730951
  0
VERTEX
  5
1CB1
  8
SAPA_PROFIL
  6
CONTINUOUS
 10
22.166666680097361
 20
-36.700000000000053
 30
0.0
  0
VERTEX
  5
1CB2
  8
SAPA_PROFIL
  6
CONTINUOUS
 10
19.866666680097349
 20
-36.700000000000053
 30
0.0
 42
-0.4142135623730951
  0
VERTEX
  5
1CB3
  8
SAPA_PROFIL
  6
CONTINUOUS
 10
19.566666680097342
 20
-36.400000000000091
 30
0.0
  0
VERTEX
  5
1CB4
  8
SAPA_PROFIL
  6
CONTINUOUS
 10
19.566666680097342
 20
-35.900000000000091
 30
0.0
 42
-0.4142135623730951
  0
VERTEX
  5
1CB5
  8
SAPA_PROFIL
  6
CONTINUOUS
 10
19.866666680097349
 20
-35.599999999999909
 30
0.0
  0
VERTEX
  5
1CB6
  8
SAPA_PROFIL
  6
CONTINUOUS
 10
20.203293604731869
 20
-35.600000000000023
 30
0.0
 42
0.5535245743249283
  0
VERTEX
  5
1CB7
  8
SAPA_PROFIL
  6
CONTINUOUS
 10
18.430774282222391
 20
-31.289445788469038
 30
0.0
  0
VERTEX
  5
1CB8
  8
SAPA_PROFIL
  6
CONTINUOUS
 10
18.143443375393979
 20
-31.576776695296761
 30
0.0
 42
-0.4142135623730236
  0
VERTEX
  5
1CB9
  8
SAPA_PROFIL
  6
CONTINUOUS
 10
17.789889984800372
 20
-31.576776695296989
 30
0.0
  0
VERTEX
  5
1CBA
  8
SAPA_PROFIL
  6
CONTINUOUS
 10
17.502559077972759
 20
-31.289445788468701
 30
0.0
 42
0.5535245743249283
  0
VERTEX
  5
1CBB
  8
SAPA_PROFIL
  6
CONTINUOUS
 10
15.73003975546237
 20
-35.599999999999909
 30
0.0
  0
VERTEX
  5
1CBC
  8
SAPA_PROFIL
  6
CONTINUOUS
 10
16.066666680097342
 20
-35.599999999999909
 30
0.0
 42
-0.4142135623730951
  0
VERTEX
  5
1CBD
  8
SAPA_PROFIL
  6
CONTINUOUS
 10
16.366666680097349
 20
-35.900000000000091
 30
0.0
  0
VERTEX
  5
1CBE
  8
SAPA_PROFIL
  6
CONTINUOUS
 10
16.366666680097349
 20
-36.400000000000091
 30
0.0
 42
-0.4142135623730951
  0
VERTEX
  5
1CBF
  8
SAPA_PROFIL
  6
CONTINUOUS
 10
16.066666680097342
 20
-36.700000000000053
 30
0.0
  0
VERTEX
  5
1CC0
  8
SAPA_PROFIL
  6
CONTINUOUS
 10
14.96666668009737
 20
-36.700000000000053
 30
0.0
 42
-0.4142135623730951
  0
VERTEX
  5
1CC1
  8
SAPA_PROFIL
  6
CONTINUOUS
 10
13.46666668009737
 20
-35.200000000000053
 30
0.0
  0
VERTEX
  5
1CC2
  8
SAPA_PROFIL
  6
CONTINUOUS
 10
13.46666668009737
 20
-32.219615242270947
 30
0.0
 42
-0.2679491924311181
  0
VERTEX
  5
1CC3
  8
SAPA_PROFIL
  6
CONTINUOUS
 10
13.61666668009741
 20
-31.959807621135269
 30
0.0
 42
0.7673269879789743
  0
VERTEX
  5
1CC4
  8
SAPA_PROFIL
  6
CONTINUOUS
 10
13.46666668009737
 20
-31.400000000000091
 30
0.0
  0
VERTEX
  5
1CC5
  8
SAPA_PROFIL
  6
CONTINUOUS
 10
11.4666666800976
 20
-31.400000000000318
 30
0.0
 42
0.4142137811865409
  0
VERTEX
  5
1CC6
  8
SAPA_PROFIL
  6
CONTINUOUS
 10
10.46666668009737
 20
-32.399999252924999
 30
0.0
  0
VERTEX
  5
1CC7
  8
SAPA_PROFIL
  6
CONTINUOUS
 10
10.46666668009737
 20
-75.599999999999909
 30
0.0
 42
0.4142140000000106
  0
VERTEX
  5
1CC8
  8
SAPA_PROFIL
  6
CONTINUOUS
 10
11.466666680097539
 20
-76.599999999999682
 30
0.0
  0
VERTEX
  5
1CC9
  8
SAPA_PROFIL
  6
CONTINUOUS
 10
13.46666668009737
 20
-76.599999999999909
 30
0.0
 42
0.7673269879789674
  0
VERTEX
  5
1CCA
  8
SAPA_PROFIL
  6
CONTINUOUS
 10
13.61666668009741
 20
-76.040192378864731
 30
0.0
 42
-0.267949192431118
  0
VERTEX
  5
1CCB
  8
SAPA_PROFIL
  6
CONTINUOUS
 10
13.46666668009737
 20
-75.780384757729053
 30
0.0
  0
VERTEX
  5
1CCC
  8
SAPA_PROFIL
  6
CONTINUOUS
 10
13.46666668009737
 20
-72.799999999999955
 30
0.0
 42
-0.4142135623730951
  0
VERTEX
  5
1CCD
  8
SAPA_PROFIL
  6
CONTINUOUS
 10
14.96666668009737
 20
-71.299999999999955
 30
0.0
  0
VERTEX
  5
1CCE
  8
SAPA_PROFIL
  6
CONTINUOUS
 10
16.066666680097342
 20
-71.299999999999955
 30
0.0
 42
-0.4142135623730951
  0
VERTEX
  5
1CCF
  8
SAPA_PROFIL
  6
CONTINUOUS
 10
16.366666680097349
 20
-71.599999999999909
 30
0.0
  0
VERTEX
  5
1CD0
  8
SAPA_PROFIL
  6
CONTINUOUS
 10
16.366666680097349
 20
-72.099999999999909
 30
0.0
 42
-0.4142135623730951
  0
VERTEX
  5
1CD1
  8
SAPA_PROFIL
  6
CONTINUOUS
 10
16.066666680097342
 20
-72.399999999999977
 30
0.0
  0
VERTEX
  5
1CD2
  8
SAPA_PROFIL
  6
CONTINUOUS
 10
15.73003975546237
 20
-72.399999999999977
 30
0.0
 42
0.5535245743249339
  0
VERTEX
  5
1CD3
  8
SAPA_PROFIL
  6
CONTINUOUS
 10
17.502559077972819
 20
-76.710554211531303
 30
0.0
  0
VERTEX
  5
1CD4
  8
SAPA_PROFIL
  6
CONTINUOUS
 10
17.789889984800372
 20
-76.423223304703015
 30
0.0
 42
-0.4142135623730951
  0
VERTEX
  5
1CD5
  8
SAPA_PROFIL
  6
CONTINUOUS
 10
18.143443375393979
 20
-76.423223304703356
 30
0.0
  0
VERTEX
  5
1CD6
  8
SAPA_PROFIL
  6
CONTINUOUS
 10
18.430774282222391
 20
-76.710554211530962
 30
0.0
 42
0.5535245743249339
  0
VERTEX
  5
1CD7
  8
SAPA_PROFIL
  6
CONTINUOUS
 10
20.203293604731869
 20
-72.399999999999977
 30
0.0
  0
VERTEX
  5
1CD8
  8
SAPA_PROFIL
  6
CONTINUOUS
 10
19.866666680097349
 20
-72.399999999999977
 30
0.0
 42
-0.4142135623730951
  0
VERTEX
  5
1CD9
  8
SAPA_PROFIL
  6
CONTINUOUS
 10
19.566666680097342
 20
-72.099999999999909
 30
0.0
  0
VERTEX
  5
1CDA
  8
SAPA_PROFIL
  6
CONTINUOUS
 10
19.566666680097342
 20
-71.599999999999909
 30
0.0
 42
-0.4142135623730951
  0
VERTEX
  5
1CDB
  8
SAPA_PROFIL
  6
CONTINUOUS
 10
19.866666680097349
 20
-71.299999999999955
 30
0.0
  0
VERTEX
  5
1CDC
  8
SAPA_PROFIL
  6
CONTINUOUS
 10
22.166666680097361
 20
-71.299999999999955
 30
0.0
 42
-0.4142135623730951
  0
VERTEX
  5
1CDD
  8
SAPA_PROFIL
  6
CONTINUOUS
 10
22.466666680097379
 20
-71.599999999999909
 30
0.0
  0
VERTEX
  5
1CDE
  8
SAPA_PROFIL
  6
CONTINUOUS
 10
22.466666680097379
 20
-76.200000000000045
 30
0.0
 42
0.4142135623730951
  0
VERTEX
  5
1CDF
  8
SAPA_PROFIL
  6
CONTINUOUS
 10
23.466666680097379
 20
-77.200000000000045
 30
0.0
  0
VERTEX
  5
1CE0
  8
SAPA_PROFIL
  6
CONTINUOUS
 10
38.466666680097383
 20
-77.200000000000045
 30
0.0
 42
0.7673269879789535
  0
VERTEX
  5
1CE1
  8
SAPA_PROFIL
  6
CONTINUOUS
 10
38.716666680097433
 20
-76.266987298107779
 30
0.0
 42
-0.267949192431118
  0
VERTEX
  5
1CE2
  8
SAPA_PROFIL
  6
CONTINUOUS
 10
38.466666680097383
 20
-75.833974596215967
 30
0.0
  0
VERTEX
  5
1CE3
  8
SAPA_PROFIL
  6
CONTINUOUS
 10
38.466666680097383
 20
-72.799999999999955
 30
0.0
 42
-0.4142135623730951
  0
VERTEX
  5
1CE4
  8
SAPA_PROFIL
  6
CONTINUOUS
 10
39.966666680097369
 20
-71.299999999999955
 30
0.0
  0
VERTEX
  5
1CE5
  8
SAPA_PROFIL
  6
CONTINUOUS
 10
41.066666680097342
 20
-71.299999999999955
 30
0.0
 42
-0.4142135623730951
  0
VERTEX
  5
1CE6
  8
SAPA_PROFIL
  6
CONTINUOUS
 10
41.366666680097403
 20
-71.599999999999909
 30
0.0
  0
VERTEX
  5
1CE7
  8
SAPA_PROFIL
  6
CONTINUOUS
 10
41.366666680097403
 20
-72.099999999999909
 30
0.0
 42
-0.4142135623730951
  0
VERTEX
  5
1CE8
  8
SAPA_PROFIL
  6
CONTINUOUS
 10
41.066666680097342
 20
-72.399999999999977
 30
0.0
  0
VERTEX
  5
1CE9
  8
SAPA_PROFIL
  6
CONTINUOUS
 10
40.730039755462371
 20
-72.399999999999977
 30
0.0
 42
0.5535245743249339
  0
VERTEX
  5
1CEA
  8
SAPA_PROFIL
  6
CONTINUOUS
 10
42.502559077972812
 20
-76.710554211531303
 30
0.0
  0
VERTEX
  5
1CEB
  8
SAPA_PROFIL
  6
CONTINUOUS
 10
42.789889984800368
 20
-76.423223304703015
 30
0.0
 42
-0.4142135623730951
  0
VERTEX
  5
1CEC
  8
SAPA_PROFIL
  6
CONTINUOUS
 10
43.143443375393979
 20
-76.423223304703356
 30
0.0
  0
VERTEX
  5
1CED
  8
SAPA_PROFIL
  6
CONTINUOUS
 10
43.430774282222387
 20
-76.710554211530962
 30
0.0
 42
0.5535245743249339
  0
VERTEX
  5
1CEE
  8
SAPA_PROFIL
  6
CONTINUOUS
 10
45.203293604731861
 20
-72.399999999999977
 30
0.0
  0
VERTEX
  5
1CEF
  8
SAPA_PROFIL
  6
CONTINUOUS
 10
44.86666668009741
 20
-72.399999999999977
 30
0.0
 42
-0.4142135623730951
  0
VERTEX
  5
1CF0
  8
SAPA_PROFIL
  6
CONTINUOUS
 10
44.566666680097327
 20
-72.099999999999909
 30
0.0
  0
VERTEX
  5
1CF1
  8
SAPA_PROFIL
  6
CONTINUOUS
 10
44.566666680097327
 20
-71.599999999999909
 30
0.0
 42
-0.4142135623730951
  0
VERTEX
  5
1CF2
  8
SAPA_PROFIL
  6
CONTINUOUS
 10
44.86666668009741
 20
-71.299999999999955
 30
0.0
  0
VERTEX
  5
1CF3
  8
SAPA_PROFIL
  6
CONTINUOUS
 10
47.166666680097357
 20
-71.299999999999955
 30
0.0
 42
-0.4142135623730951
  0
VERTEX
  5
1CF4
  8
SAPA_PROFIL
  6
CONTINUOUS
 10
47.466666680097319
 20
-71.599999999999909
 30
0.0
  0
VERTEX
  5
1CF5
  8
SAPA_PROFIL
  6
CONTINUOUS
 10
47.466666680097369
 20
-76.200000000000045
 30
0.0
 42
0.4142135623730951
  0
VERTEX
  5
1CF6
  8
SAPA_PROFIL
  6
CONTINUOUS
 10
48.466666680097383
 20
-77.200000000000045
 30
0.0
  0
VERTEX
  5
1CF7
  8
SAPA_PROFIL
  6
CONTINUOUS
 10
53.166666680097357
 20
-77.200000000000045
 30
0.0
 42
0.4142135623730951
  0
VERTEX
  5
1CF8
  8
SAPA_PROFIL
  6
CONTINUOUS
 10
53.466666680097312
 20
-76.899999999999963
 30
0.0
  0
VERTEX
  5
1CF9
  8
SAPA_PROFIL
  6
CONTINUOUS
 10
53.466666680097383
 20
-75.399999999999977
 30
0.0
 42
-0.4142135623730951
  0
VERTEX
  5
1CFA
  8
SAPA_PROFIL
  6
CONTINUOUS
 10
53.766666680097387
 20
-75.099999999999895
 30
0.0
  0
VERTEX
  5
1CFB
  8
SAPA_PROFIL
  6
CONTINUOUS
 10
54.342402611385403
 20
-75.099999999999895
 30
0.0
 42
-0.1989123673797306
  0
VERTEX
  5
1CFC
  8
SAPA_PROFIL
  6
CONTINUOUS
 10
54.554534645741342
 20
-75.187867965644045
 30
0.0
  0
VERTEX
  5
1CFD
  8
SAPA_PROFIL
  6
CONTINUOUS
 10
56.478798714453369
 20
-77.112132034355895
 30
0.0
 42
0.1989123673796489
  0
VERTEX
  5
1CFE
  8
SAPA_PROFIL
  6
CONTINUOUS
 10
56.690930748809372
 20
-77.200000000000045
 30
0.0
  0
VERTEX
  5
1CFF
  8
SAPA_PROFIL
  6
CONTINUOUS
 10
59.966666680097369
 20
-77.200000000000045
 30
0.0
 42
0.4142140000000004
  0
VERTEX
  5
1D00
  8
SAPA_PROFIL
  6
CONTINUOUS
 10
60.966666680097092
 20
-76.199999999999818
 30
0.0
  0
SEQEND
  5
1D01
  8
SAPA_PROFIL
  6
CONTINUOUS
  0
POLYLINE
  5
1093
  8
SAPA_PROFIL
 66
     1
 10
0.0
 20
0.0
 30
0.0
 70
     1
  0
VERTEX
  5
1D02
  8
SAPA_PROFIL
 10
-44.162112619224473
 20
73.581200330660295
 30
0.0
 42
0.5773502691895968
  0
VERTEX
  5
1D03
  8
SAPA_PROFIL
 10
-43.605260129699133
 20
72.051260689723662
 30
0.0
  0
VERTEX
  5
1D04
  8
SAPA_PROFIL
 10
-42.63426980960562
 20
71.880048884873844
 30
0.0
  0
VERTEX
  5
1D05
  8
SAPA_PROFIL
 10
-43.024644146963531
 20
69.666126002570635
 30
0.0
  0
VERTEX
  5
1D06
  8
SAPA_PROFIL
 10
-44.152275291906548
 20
69.255701830579866
 30
0.0
 42
0.4142135623729286
  0
VERTEX
  5
1D07
  8
SAPA_PROFIL
 10
-44.33157703514474
 20
68.871188001346525
 30
0.0
  0
VERTEX
  5
1D08
  8
SAPA_PROFIL
 10
-44.194768977814448
 20
68.495310953032075
 30
0.0
 42
0.4142135623732059
  0
VERTEX
  5
1D09
  8
SAPA_PROFIL
 10
-43.810255148580879
 20
68.316009209793961
 30
0.0
  0
VERTEX
  5
1D0A
  8
SAPA_PROFIL
 10
-42.586472043904941
 20
68.76142983309424
 30
0.0
 42
-0.4142135623731506
  0
VERTEX
  5
1D0B
  8
SAPA_PROFIL
 10
-42.201958214671258
 20
68.582128089856184
 30
0.0
  0
VERTEX
  5
1D0C
  8
SAPA_PROFIL
 10
-42.00357302823236
 20
68.037069269760977
 30
0.0
 42
0.4142135623730951
  0
VERTEX
  5
1D0D
  8
SAPA_PROFIL
 10
-41.619059198998897
 20
67.857767526522821
 30
0.0
  0
VERTEX
  5
1D0E
  8
SAPA_PROFIL
 10
-39.356519652015741
 20
68.681264575474813
 30
0.0
  0
VERTEX
  5
1D0F
  8
SAPA_PROFIL
 10
-38.969689285427251
 20
69.31028623906036
 30
0.0
 42
0.7105995015649727
  0
VERTEX
  5
1D10
  8
SAPA_PROFIL
 10
-39.327839938400651
 20
69.749346665466106
 30
0.0
  0
VERTEX
  5
1D11
  8
SAPA_PROFIL
 10
-39.985624772950622
 20
69.5099325651382
 30
0.0
  0
VERTEX
  5
1D12
  8
SAPA_PROFIL
 10
-40.911179225653342
 20
72.052872524414312
 30
0.0
 42
-0.4142135623731506
  0
VERTEX
  5
1D13
  8
SAPA_PROFIL
 10
-40.731877482415229
 20
72.437386353647881
 30
0.0
  0
VERTEX
  5
1D14
  8
SAPA_PROFIL
 10
-36.597229950957619
 20
73.9422749842808
 30
0.0
 42
-0.4142135623730951
  0
VERTEX
  5
1D15
  8
SAPA_PROFIL
 10
-36.21271612172395
 20
73.762973241042729
 30
0.0
  0
VERTEX
  5
1D16
  8
SAPA_PROFIL
 10
-35.287161669021287
 20
71.220033281766476
 30
0.0
  0
VERTEX
  5
1D17
  8
SAPA_PROFIL
 10
-35.944946503571288
 20
70.980619181438669
 30
0.0
 42
0.7105995015650586
  0
VERTEX
  5
1D18
  8
SAPA_PROFIL
 10
-35.937083219083839
 20
70.414064579464707
 30
0.0
  0
VERTEX
  5
1D19
  8
SAPA_PROFIL
 10
-35.236426634751467
 20
70.18085579616681
 30
0.0
  0
VERTEX
  5
1D1A
  8
SAPA_PROFIL
 10
-27.290929429668299
 20
73.072780275262502
 30
0.0
  0
VERTEX
  5
1D1B
  8
SAPA_PROFIL
 10
-26.94890928634263
 20
72.133087654476583
 30
0.0
  0
VERTEX
  5
1D1C
  8
SAPA_PROFIL
 10
-26.009216665556721
 20
72.475107797802252
 30
0.0
  0
VERTEX
  5
1D1D
  8
SAPA_PROFIL
 10
-26.351236808882391
 20
73.414800418588172
 30
0.0
  0
VERTEX
  5
1D1E
  8
SAPA_PROFIL
 10
-23.579143577564029
 20
74.423759841398862
 30
0.0
  0
VERTEX
  5
1D1F
  8
SAPA_PROFIL
 10
-23.921163720889691
 20
75.363452462184767
 30
0.0
  0
VERTEX
  5
1D20
  8
SAPA_PROFIL
 10
-22.13574774139655
 20
76.013290734503386
 30
0.0
  0
VERTEX
  5
1D21
  8
SAPA_PROFIL
 10
-21.83691150266618
 20
76.654147116559159
 30
0.0
  0
VERTEX
  5
1D22
  8
SAPA_PROFIL
 10
-21.196055120610112
 20
76.355310877829254
 30
0.0
  0
VERTEX
  5
1D23
  8
SAPA_PROFIL
 10
-19.41063914111712
 20
77.005149150147915
 30
0.0
  0
VERTEX
  5
1D24
  8
SAPA_PROFIL
 10
-19.068618997791489
 20
76.065456529362137
 30
0.0
  0
VERTEX
  5
1D25
  8
SAPA_PROFIL
 10
-16.296525766473021
 20
77.07441595217287
 30
0.0
  0
VERTEX
  5
1D26
  8
SAPA_PROFIL
 10
-15.95450562314735
 20
76.134723331386965
 30
0.0
  0
VERTEX
  5
1D27
  8
SAPA_PROFIL
 10
-15.014813002361439
 20
76.476743474712634
 30
0.0
  0
VERTEX
  5
1D28
  8
SAPA_PROFIL
 10
-15.35683314568711
 20
77.416436095498526
 30
0.0
  0
VERTEX
  5
1D29
  8
SAPA_PROFIL
 10
-7.4113359406037427
 20
80.308360574594062
 30
0.0
  0
VERTEX
  5
1D2A
  8
SAPA_PROFIL
 10
-7.0245055740152971
 20
80.937382238180064
 30
0.0
 42
0.7105995015650586
  0
VERTEX
  5
1D2B
  8
SAPA_PROFIL
 10
-7.3826562269886571
 20
81.376442664585696
 30
0.0
  0
VERTEX
  5
1D2C
  8
SAPA_PROFIL
 10
-8.0404410615385835
 20
81.13702856425769
 30
0.0
  0
VERTEX
  5
1D2D
  8
SAPA_PROFIL
 10
-8.9659955142412482
 20
83.679968523533944
 30
0.0
 42
-0.4142135623730951
  0
VERTEX
  5
1D2E
  8
SAPA_PROFIL
 10
-8.7866937710031365
 20
84.064482352767513
 30
0.0
  0
VERTEX
  5
1D2F
  8
SAPA_PROFIL
 10
-4.652046239545335
 20
85.569370983400276
 30
0.0
 42
-0.4142135623731506
  0
VERTEX
  5
1D30
  8
SAPA_PROFIL
 10
-4.2675324103118806
 20
85.390069240162106
 30
0.0
  0
VERTEX
  5
1D31
  8
SAPA_PROFIL
 10
-3.3419779576093629
 20
82.847129280885923
 30
0.0
  0
VERTEX
  5
1D32
  8
SAPA_PROFIL
 10
-3.9997627921593661
 20
82.607715180558131
 30
0.0
 42
0.7105995015649949
  0
VERTEX
  5
1D33
  8
SAPA_PROFIL
 10
-3.9918995076717301
 20
82.041160578583984
 30
0.0
  0
VERTEX
  5
1D34
  8
SAPA_PROFIL
 10
-3.2912429233397411
 20
81.807951795286414
 30
0.0
  0
VERTEX
  5
1D35
  8
SAPA_PROFIL
 10
-1.0287033763565789
 20
82.631448844238435
 30
0.0
 42
0.4142135623730951
  0
VERTEX
  5
1D36
  8
SAPA_PROFIL
 10
-0.8494016331184672
 20
83.015962673471975
 30
0.0
  0
VERTEX
  5
1D37
  8
SAPA_PROFIL
 10
-1.047786819557377
 20
83.561021493567196
 30
0.0
 42
-0.4142135623731506
  0
VERTEX
  5
1D38
  8
SAPA_PROFIL
 10
-0.8684850763192635
 20
83.945535322800765
 30
0.0
  0
VERTEX
  5
1D39
  8
SAPA_PROFIL
 10
0.3552980283570273
 20
84.390955946100433
 30
0.0
 42
0.414213562373206
  0
VERTEX
  5
1D3A
  8
SAPA_PROFIL
 10
0.5345997715950324
 20
84.77546977533396
 30
0.0
  0
VERTEX
  5
1D3B
  8
SAPA_PROFIL
 10
0.3977917142647342
 20
85.15134682364841
 30
0.0
 42
0.4142135623729286
  0
VERTEX
  5
1D3C
  8
SAPA_PROFIL
 10
0.0132778850313589
 20
85.330648566886353
 30
0.0
  0
VERTEX
  5
1D3D
  8
SAPA_PROFIL
 10
-1.1143532599117729
 20
84.920224394895541
 30
0.0
  0
VERTEX
  5
1D3E
  8
SAPA_PROFIL
 10
-2.8364795493269508
 20
86.365259929184646
 30
0.0
  0
VERTEX
  5
1D3F
  8
SAPA_PROFIL
 10
-2.2027106370866378
 20
87.120556327767844
 30
0.0
 42
0.5773502691896019
  0
VERTEX
  5
1D40
  8
SAPA_PROFIL
 10
-2.7595631266111198
 20
88.650495968704789
 30
0.0
  0
VERTEX
  5
1D41
  8
SAPA_PROFIL
 10
-3.9767507551657628
 20
88.865118974793063
 30
0.0
 42
0.1316524948697527
  0
VERTEX
  5
1D42
  8
SAPA_PROFIL
 10
-4.4924190656352501
 20
88.820003840711308
 30
0.0
  0
VERTEX
  5
1D43
  8
SAPA_PROFIL
 10
-42.943625516279333
 20
74.82490922105228
 30
0.0
 42
0.1316524948697533
  0
VERTEX
  5
1D44
  8
SAPA_PROFIL
 10
-43.367649809204252
 20
74.528004218138392
 30
0.0
  0
SEQEND
  5
1D45
  8
SAPA_PROFIL
  0
POLYLINE
  5
1094
  8
SAPA_PROFIL
 62
     4
 66
     1
 10
0.0
 20
0.0
 30
0.0
 70
     1
  0
VERTEX
  5
1D46
  8
SAPA_PROFIL
 62
     4
 10
-14.315751411929471
 20
52.627554538969427
 30
0.0
  0
VERTEX
  5
1D47
  8
SAPA_PROFIL
 62
     4
 10
-13.56330709661299
 20
50.560230773240391
 30
0.0
 42
1.0
  0
VERTEX
  5
1D48
  8
SAPA_PROFIL
 62
     4
 10
-11.402014068805441
 20
51.346877102889408
 30
0.0
  0
VERTEX
  5
1D49
  8
SAPA_PROFIL
 62
     4
 10
-12.154458384121821
 20
53.414200868618487
 30
0.0
 42
1.0
  0
SEQEND
  5
1D4A
  8
SAPA_PROFIL
 62
     4
  0
POLYLINE
  5
1095
  8
SAPA_PROFIL
 62
     4
 66
     1
 10
0.0
 20
0.0
 30
0.0
 70
     1
  0
VERTEX
  5
1D4B
  8
SAPA_PROFIL
 62
     4
 10
-22.175480552553211
 20
65.889140335397769
 30
0.0
  0
VERTEX
  5
1D4C
  8
SAPA_PROFIL
 62
     4
 10
-23.218926601429139
 20
68.755984793103536
 30
0.0
  0
VERTEX
  5
1D4D
  8
SAPA_PROFIL
 62
     4
 10
-24.357117482877459
 20
71.88313853891195
 30
0.0
 42
-0.6681786379192966
  0
VERTEX
  5
1D4E
  8
SAPA_PROFIL
 62
     4
 10
-23.675962041614191
 20
72.507302504093033
 30
0.0
  0
VERTEX
  5
1D4F
  8
SAPA_PROFIL
 62
     4
 10
-20.924834036336598
 20
71.224430438882422
 30
0.0
 42
0.1989123679837333
  0
VERTEX
  5
1D50
  8
SAPA_PROFIL
 62
     4
 10
-20.160195629163649
 20
71.191045604150844
 30
0.0
  0
VERTEX
  5
1D51
  8
SAPA_PROFIL
 62
     4
 10
-19.609736436369161
 20
71.391396365506225
 30
0.0
 42
0.1989123667755704
  0
VERTEX
  5
1D52
  8
SAPA_PROFIL
 62
     4
 10
-19.045448793640499
 20
71.908470722444861
 30
0.0
  0
VERTEX
  5
1D53
  8
SAPA_PROFIL
 62
     4
 10
-17.7625767205014
 20
74.659598744724775
 30
0.0
 42
-0.6681786379192936
  0
VERTEX
  5
1D54
  8
SAPA_PROFIL
 62
     4
 10
-16.839576516590199
 20
74.619299685517291
 30
0.0
  0
VERTEX
  5
1D55
  8
SAPA_PROFIL
 62
     4
 10
-15.701385635141881
 20
71.492145939708877
 30
0.0
  0
VERTEX
  5
1D56
  8
SAPA_PROFIL
 62
     4
 10
-14.657939586265931
 20
68.62530148200311
 30
0.0
 42
-0.4142135623730951
  0
VERTEX
  5
1D57
  8
SAPA_PROFIL
 62
     4
 10
-14.956775824996059
 20
67.984445099947322
 30
0.0
  0
VERTEX
  5
1D58
  8
SAPA_PROFIL
 62
     4
 10
-21.53462417049742
 20
65.590304096667637
 30
0.0
 42
-0.4142135623730951
  0
SEQEND
  5
1D59
  8
SAPA_PROFIL
 62
     4
  0
POLYLINE
  5
1096
  8
SAPA_PROFIL
 62
     4
 66
     1
 10
0.0
 20
0.0
 30
0.0
 70
     1
  0
VERTEX
  5
1D5A
  8
SAPA_PROFIL
 62
     4
 10
-12.381973324390859
 20
58.237251733623651
 30
0.0
  0
VERTEX
  5
1D5B
  8
SAPA_PROFIL
 62
     4
 10
-13.255857455666421
 20
56.430127453783399
 30
0.0
 42
-0.9251773977986363
  0
VERTEX
  5
1D5C
  8
SAPA_PROFIL
 62
     4
 10
-15.41063101418457
 20
55.64585401689893
 30
0.0
  0
VERTEX
  5
1D5D
  8
SAPA_PROFIL
 62
     4
 10
-17.24166219312319
 20
56.468469637610291
 30
0.0
  0
VERTEX
  5
1D5E
  8
SAPA_PROFIL
 62
     4
 10
-18.100741931507709
 20
56.155790183977132
 30
0.0
 42
-0.4142135623730769
  0
VERTEX
  5
1D5F
  8
SAPA_PROFIL
 62
     4
 10
-18.74159831356349
 20
56.45462642270725
 30
0.0
  0
VERTEX
  5
1D60
  8
SAPA_PROFIL
 62
     4
 10
-21.491440265901868
 20
64.009755093825945
 30
0.0
 42
-0.4142135623730951
  0
VERTEX
  5
1D61
  8
SAPA_PROFIL
 62
     4
 10
-21.19260402717175
 20
64.650611475881732
 30
0.0
  0
VERTEX
  5
1D62
  8
SAPA_PROFIL
 62
     4
 10
-14.61475568167039
 20
67.044752479161417
 30
0.0
 42
-0.4142135623730951
  0
VERTEX
  5
1D63
  8
SAPA_PROFIL
 62
     4
 10
-13.973899299614599
 20
66.745916240431299
 30
0.0
  0
VERTEX
  5
1D64
  8
SAPA_PROFIL
 62
     4
 10
-11.224057347276229
 20
59.19078756931259
 30
0.0
 42
-0.4142135623730951
  0
VERTEX
  5
1D65
  8
SAPA_PROFIL
 62
     4
 10
-11.522893586006351
 20
58.54993118725681
 30
0.0
  0
SEQEND
  5
1D66
  8
SAPA_PROFIL
 62
     4
  0
POLYLINE
  5
1097
  8
SAPA_PROFIL
 62
     4
 66
     1
 10
0.0
 20
0.0
 30
0.0
 70
     1
  0
VERTEX
  5
1D67
  8
SAPA_PROFIL
 62
     4
 10
-19.732593955848142
 20
56.25356017249949
 30
0.0
 42
-1.0
  0
VERTEX
  5
1D68
  8
SAPA_PROFIL
 62
     4
 10
-20.954194362869881
 20
55.808933986176093
 30
0.0
  0
VERTEX
  5
1D69
  8
SAPA_PROFIL
 62
     4
 10
-21.244911484696718
 20
56.607672713844138
 30
0.0
  0
VERTEX
  5
1D6A
  8
SAPA_PROFIL
 62
     4
 10
-21.197926853657361
 20
56.624773721010442
 30
0.0
 42
1.0
  0
VERTEX
  5
1D6B
  8
SAPA_PROFIL
 62
     4
 10
-21.368936925320192
 20
57.094620031403387
 30
0.0
  0
VERTEX
  5
1D6C
  8
SAPA_PROFIL
 62
     4
 10
-21.79179860467389
 20
56.940710966906842
 30
0.0
 42
0.4142135623730951
  0
VERTEX
  5
1D6D
  8
SAPA_PROFIL
 62
     4
 10
-21.971100347911889
 20
56.556197137673308
 30
0.0
  0
VERTEX
  5
1D6E
  8
SAPA_PROFIL
 62
     4
 10
-21.389666104258279
 20
54.958719682337332
 30
0.0
 42
0.4225789089359373
  0
VERTEX
  5
1D6F
  8
SAPA_PROFIL
 62
     4
 10
-20.121634145879689
 20
54.398634909708413
 30
0.0
  0
VERTEX
  5
1D70
  8
SAPA_PROFIL
 62
     4
 10
-17.302556283521959
 20
55.424695339685407
 30
0.0
  0
VERTEX
  5
1D71
  8
SAPA_PROFIL
 62
     4
 10
-16.21310043402724
 20
54.91667373384427
 30
0.0
  0
VERTEX
  5
1D72
  8
SAPA_PROFIL
 62
     4
 10
-14.10967655257439
 20
49.13756411601095
 30
0.0
 42
0.4142135623730951
  0
VERTEX
  5
1D73
  8
SAPA_PROFIL
 62
     4
 10
-12.82796378846281
 20
48.539891638550721
 30
0.0
  0
VERTEX
  5
1D74
  8
SAPA_PROFIL
 62
     4
 10
-10.66667076065526
 20
49.32653796819973
 30
0.0
 42
0.4142135623730951
  0
VERTEX
  5
1D75
  8
SAPA_PROFIL
 62
     4
 10
-10.06899828319502
 20
50.608250732311312
 30
0.0
  0
VERTEX
  5
1D76
  8
SAPA_PROFIL
 62
     4
 10
-12.172422164647839
 20
56.387360350144519
 30
0.0
  0
VERTEX
  5
1D77
  8
SAPA_PROFIL
 62
     4
 10
-11.664400558806619
 20
57.47681619963938
 30
0.0
  0
VERTEX
  5
1D78
  8
SAPA_PROFIL
 62
     4
 10
-8.8453226964488945
 20
58.502876629616402
 30
0.0
 42
0.4225789089359373
  0
VERTEX
  5
1D79
  8
SAPA_PROFIL
 62
     4
 10
-8.2339694132556573
 20
59.747001688896653
 30
0.0
  0
VERTEX
  5
1D7A
  8
SAPA_PROFIL
 62
     4
 10
-8.8154036569092682
 20
61.344479144232629
 30
0.0
 42
0.4142135623730951
  0
VERTEX
  5
1D7B
  8
SAPA_PROFIL
 62
     4
 10
-9.1999174861428425
 20
61.523780887470743
 30
0.0
  0
VERTEX
  5
1D7C
  8
SAPA_PROFIL
 62
     4
 10
-9.6227791654964374
 20
61.369871822974218
 30
0.0
 42
1.0
  0
VERTEX
  5
1D7D
  8
SAPA_PROFIL
 62
     4
 10
-9.4517690938336028
 20
60.900025512581259
 30
0.0
  0
VERTEX
  5
1D7E
  8
SAPA_PROFIL
 62
     4
 10
-9.4047844627942432
 20
60.917126519747569
 30
0.0
  0
VERTEX
  5
1D7F
  8
SAPA_PROFIL
 62
     4
 10
-9.1140673409674182
 20
60.118387792079517
 30
0.0
 42
-1.0
  0
VERTEX
  5
1D80
  8
SAPA_PROFIL
 62
     4
 10
-10.335667747989159
 20
59.673761605756127
 30
0.0
  0
VERTEX
  5
1D81
  8
SAPA_PROFIL
 62
     4
 10
-14.76169301435597
 20
71.834166083034546
 30
0.0
  0
VERTEX
  5
1D82
  8
SAPA_PROFIL
 62
     4
 10
-16.62541818374822
 20
76.954708902009003
 30
0.0
  0
VERTEX
  5
1D83
  8
SAPA_PROFIL
 62
     4
 10
-18.034957114927071
 20
76.441678687020499
 30
0.0
  0
VERTEX
  5
1D84
  8
SAPA_PROFIL
 62
     4
 10
-19.915501655167589
 20
72.408837906148236
 30
0.0
 42
-0.4142135623730951
  0
VERTEX
  5
1D85
  8
SAPA_PROFIL
 62
     4
 10
-20.57996467955617
 20
72.166993143500292
 30
0.0
  0
VERTEX
  5
1D86
  8
SAPA_PROFIL
 62
     4
 10
-24.612805460428429
 20
74.047537683740813
 30
0.0
  0
VERTEX
  5
1D87
  8
SAPA_PROFIL
 62
     4
 10
-26.022344391607319
 20
73.534507468752309
 30
0.0
  0
VERTEX
  5
1D88
  8
SAPA_PROFIL
 62
     4
 10
-24.158619222215041
 20
68.413964649777867
 30
0.0
  0
VERTEX
  5
1D89
  8
SAPA_PROFIL
 62
     4
 10
-19.835199998845841
 20
56.535467958735232
 30
0.0
  0
SEQEND
  5
1D8A
  8
SAPA_PROFIL
 62
     4
  0
POLYLINE
  5
1098
  8
SAPA_PROFIL
 66
     1
 10
0.0
 20
0.0
 30
0.0
 70
     1
  0
VERTEX
  5
1D8B
  8
SAPA_PROFIL
 10
11.90589202440944
 20
10.70731516352958
 30
0.0
 42
-0.4142135623732062
  0
VERTEX
  5
1D8C
  8
SAPA_PROFIL
 10
12.29040585364308
 20
10.528013420291639
 30
0.0
  0
VERTEX
  5
1D8D
  8
SAPA_PROFIL
 10
16.189435487555521
 20
-0.1844824566678937
 30
0.0
 42
-0.4142135623730117
  0
VERTEX
  5
1D8E
  8
SAPA_PROFIL
 10
16.010133744317471
 20
-0.5689962859012782
 30
0.0
  0
VERTEX
  5
1D8F
  8
SAPA_PROFIL
 10
15.57073307761064
 20
-0.7289250494994235
 30
0.0
 42
0.2868106387144194
  0
VERTEX
  5
1D90
  8
SAPA_PROFIL
 10
14.91820614462776
 20
-1.5643290658909159
 30
0.0
 42
-0.037344033101038
  0
VERTEX
  5
1D91
  8
SAPA_PROFIL
 10
14.51953465140841
 20
-3.7660474647176718
 30
0.0
 42
0.3617029558070689
  0
VERTEX
  5
1D92
  8
SAPA_PROFIL
 10
16.700937511487581
 20
-8.3955579367919029
 30
0.0
  0
VERTEX
  5
1D93
  8
SAPA_PROFIL
 10
20.054251532469461
 20
-9.9592339449743008
 30
0.0
  0
VERTEX
  5
1D94
  8
SAPA_PROFIL
 10
20.818889937535879
 20
-9.9926187787236245
 30
0.0
  0
VERTEX
  5
1D95
  8
SAPA_PROFIL
 10
27.445224019610631
 20
-7.5808304105447633
 30
0.0
 42
0.4142135623730951
  0
VERTEX
  5
1D96
  8
SAPA_PROFIL
 10
29.835913929451578
 20
-2.4539793540984638
 30
0.0
  0
VERTEX
  5
1D97
  8
SAPA_PROFIL
 10
22.991930163678919
 20
16.349711501475721
 30
0.0
 42
0.4142135623730867
  0
VERTEX
  5
1D98
  8
SAPA_PROFIL
 10
17.865079107232731
 20
18.7404014113167
 30
0.0
  0
VERTEX
  5
1D99
  8
SAPA_PROFIL
 10
12.47106724016421
 20
16.777141648425239
 30
0.0
 42
0.5027747815994277
  0
VERTEX
  5
1D9A
  8
SAPA_PROFIL
 10
10.634900741379649
 20
10.62404439121314
 30
0.0
 42
0.2214354817247867
  0
VERTEX
  5
1D9B
  8
SAPA_PROFIL
 10
11.476064824606251
 20
10.55087085692298
 30
0.0
  0
SEQEND
  5
1D9C
  8
SAPA_PROFIL
  0
POLYLINE
  5
1099
  8
SAPA_PROFIL
 66
     1
 10
0.0
 20
0.0
 30
0.0
 70
     1
  0
VERTEX
  5
1D9D
  8
SAPA_PROFIL
 10
25.250764305501999
 20
-11.784917298699471
 30
0.0
  0
VERTEX
  5
1D9E
  8
SAPA_PROFIL
 10
24.865091739690001
 20
-12.24454396457093
 30
0.0
  0
VERTEX
  5
1D9F
  8
SAPA_PROFIL
 10
20.38118004161171
 20
-13.876554355749469
 30
0.0
 42
-0.1989123673796723
  0
VERTEX
  5
1DA0
  8
SAPA_PROFIL
 10
20.151788520091799
 20
-13.866538905624729
 30
0.0
  0
VERTEX
  5
1DA1
  8
SAPA_PROFIL
 10
10.11418262878297
 20
-9.1859264089655426
 30
0.0
 42
-0.4663076581549887
  0
VERTEX
  5
1DA2
  8
SAPA_PROFIL
 10
9.4202485093234412
 20
-6.5961290180370611
 30
0.0
 42
0.9999999999999927
  0
VERTEX
  5
1DA3
  8
SAPA_PROFIL
 10
-9.4202485093233292
 20
6.5961290180370611
 30
0.0
 42
-0.8070884877514037
  0
VERTEX
  5
1DA4
  8
SAPA_PROFIL
 10
-12.573752938184009
 20
7.922595189693026
 30
0.0
 42
0.5810002848221991
  0
VERTEX
  5
1DA5
  8
SAPA_PROFIL
 10
-13.23618825311015
 20
8.4846436166728552
 30
0.0
  0
VERTEX
  5
1DA6
  8
SAPA_PROFIL
 10
-16.85125865844023
 20
7.1688655943560491
 30
0.0
  0
VERTEX
  5
1DA7
  8
SAPA_PROFIL
 10
-17.442143310247669
 20
7.2730545009562197
 30
0.0
  0
VERTEX
  5
1DA8
  8
SAPA_PROFIL
 10
-17.827815876059589
 20
6.8134278350847799
 30
0.0
  0
VERTEX
  5
1DA9
  8
SAPA_PROFIL
 10
-21.47418479870808
 20
5.486258084087523
 30
0.0
 42
-0.4142135623730784
  0
VERTEX
  5
1DAA
  8
SAPA_PROFIL
 10
-22.75589756281963
 20
6.0839305615476738
 30
0.0
  0
VERTEX
  5
1DAB
  8
SAPA_PROFIL
 10
-23.50834187813609
 20
8.1512543272767175
 30
0.0
 42
-0.4142135623731229
  0
VERTEX
  5
1DAC
  8
SAPA_PROFIL
 10
-23.32904013489804
 20
8.5357681565101302
 30
0.0
  0
VERTEX
  5
1DAD
  8
SAPA_PROFIL
 10
-11.86479016130974
 20
12.708413905081549
 30
0.0
  0
VERTEX
  5
1DAE
  8
SAPA_PROFIL
 10
-11.62537606098166
 20
12.050629070533089
 30
0.0
 42
0.4142135623728317
  0
VERTEX
  5
1DAF
  8
SAPA_PROFIL
 10
-11.240862231748309
 20
11.87132732729512
 30
0.0
  0
VERTEX
  5
1DB0
  8
SAPA_PROFIL
 10
20.144871302499979
 20
23.294800114371949
 30
0.0
 42
0.4142135623727621
  0
VERTEX
  5
1DB1
  8
SAPA_PROFIL
 10
20.324173045738149
 20
23.679313943605049
 30
0.0
  0
VERTEX
  5
1DB2
  8
SAPA_PROFIL
 10
20.084758945410758
 20
24.337098778155969
 30
0.0
  0
VERTEX
  5
1DB3
  8
SAPA_PROFIL
 10
23.091775331925898
 20
25.431563236798301
 30
0.0
 42
-0.414213562373123
  0
VERTEX
  5
1DB4
  8
SAPA_PROFIL
 10
23.476289161159311
 20
25.252261493560152
 30
0.0
  0
VERTEX
  5
1DB5
  8
SAPA_PROFIL
 10
35.587383134147018
 20
-8.0226957221172484
 30
0.0
 42
-0.414213562373123
  0
VERTEX
  5
1DB6
  8
SAPA_PROFIL
 10
35.40808139090899
 20
-8.4072095513506326
 30
0.0
  0
VERTEX
  5
1DB7
  8
SAPA_PROFIL
 10
25.84164895730947
 20
-11.88910620529964
 30
0.0
  0
SEQEND
  5
1DB8
  8
SAPA_PROFIL
  0
CIRCLE
  5
109A
  8
SAPA_PROFIL
 10
0.0
 20
0.0
 30
0.0
 40
5.3499999999999988
  0
POLYLINE
  5
109B
  8
SAPA_PROFIL
 66
     1
 10
0.0
 20
0.0
 30
0.0
 70
     1
  0
VERTEX
  5
1DB9
  8
SAPA_PROFIL
 10
2.9695236276844521
 20
-9.5489229457893998
 30
0.0
  0
VERTEX
  5
1DBA
  8
SAPA_PROFIL
 10
1.652257488195346
 20
-9.8625577409058565
 30
0.0
 42
0.8419933402193075
  0
VERTEX
  5
1DBB
  8
SAPA_PROFIL
 10
3.7500009987113572
 20
-22.0
 30
0.0
  0
VERTEX
  5
1DBC
  8
SAPA_PROFIL
 10
24.13397459621558
 20
-21.99999999999994
 30
0.0
  0
VERTEX
  5
1DBD
  8
SAPA_PROFIL
 10
25.0
 20
-22.49999999999994
 30
0.0
  0
VERTEX
  5
1DBE
  8
SAPA_PROFIL
 10
25.86602540378442
 20
-21.99999999999994
 30
0.0
  0
VERTEX
  5
1DBF
  8
SAPA_PROFIL
 10
43.071796769724408
 20
-21.99999999999994
 30
0.0
  0
VERTEX
  5
1DC0
  8
SAPA_PROFIL
 10
50.0
 20
-25.99999999999994
 30
0.0
  0
VERTEX
  5
1DC1
  8
SAPA_PROFIL
 10
50.0
 20
-29.0
 30
0.0
  0
VERTEX
  5
1DC2
  8
SAPA_PROFIL
 10
40.0
 20
-29.0
 30
0.0
  0
VERTEX
  5
1DC3
  8
SAPA_PROFIL
 10
40.0
 20
-28.0
 30
0.0
  0
VERTEX
  5
1DC4
  8
SAPA_PROFIL
 10
0.0
 20
-28.0
 30
0.0
  0
VERTEX
  5
1DC5
  8
SAPA_PROFIL
 10
0.0
 20
-29.0
 30
0.0
  0
VERTEX
  5
1DC6
  8
SAPA_PROFIL
 10
-10.0
 20
-29.0
 30
0.0
  0
VERTEX
  5
1DC7
  8
SAPA_PROFIL
 10
-10.0
 20
0.0
 30
0.0
 42
-1.9780623748969339
  0
SEQEND
  5
1DC8
  8
SAPA_PROFIL
  0
POLYLINE
  5
109C
  8
SAPA_PROFIL
  6
CONTINUOUS
 62
     7
 66
     1
 10
0.0
 20
0.0
 30
0.0
 70
   129
  0
VERTEX
  5
1DC9
  8
SAPA_PROFIL
  6
CONTINUOUS
 62
     7
 10
15.619756464998339
 20
40.784423277121903
 30
0.0
 42
-0.4040262258351265
  0
VERTEX
  5
1DCA
  8
SAPA_PROFIL
  6
CONTINUOUS
 62
     7
 10
15.31523827851357
 20
40.160068469541443
 30
0.0
  0
VERTEX
  5
1DCB
  8
SAPA_PROFIL
  6
CONTINUOUS
 62
     7
 10
-3.8825795247877402
 20
33.172634226272912
 30
0.0
 42
-0.4142135623730951
  0
VERTEX
  5
1DCC
  8
SAPA_PROFIL
  6
CONTINUOUS
 62
     7
 10
-5.1642922888993184
 20
33.770306703733148
 30
0.0
  0
VERTEX
  5
1DCD
  8
SAPA_PROFIL
  6
CONTINUOUS
 62
     7
 10
-6.361362790539153
 20
37.059230876483831
 30
0.0
 42
-0.4142135623730951
  0
VERTEX
  5
1DCE
  8
SAPA_PROFIL
  6
CONTINUOUS
 62
     7
 10
-5.7636903130789143
 20
38.340943640595412
 30
0.0
  0
VERTEX
  5
1DCF
  8
SAPA_PROFIL
  6
CONTINUOUS
 62
     7
 10
-4.8239976922930046
 20
38.682963783921082
 30
0.0
 42
0.4142135623730951
  0
VERTEX
  5
1DD0
  8
SAPA_PROFIL
  6
CONTINUOUS
 62
     7
 10
-3.6286527373725259
 20
41.246389312144217
 30
0.0
  0
VERTEX
  5
1DD1
  8
SAPA_PROFIL
  6
CONTINUOUS
 62
     7
 10
-9.6824092742369103
 20
57.878948700054799
 30
0.0
 42
0.4142135623730951
  0
VERTEX
  5
1DD2
  8
SAPA_PROFIL
  6
CONTINUOUS
 62
     7
 10
-10.06692310347033
 20
58.058250443292877
 30
0.0
  0
VERTEX
  5
1DD3
  8
SAPA_PROFIL
  6
CONTINUOUS
 62
     7
 10
-11.59323206304672
 20
57.502719413713258
 30
0.0
  0
VERTEX
  5
1DD4
  8
SAPA_PROFIL
  6
CONTINUOUS
 62
     7
 10
-12.15376993360386
 20
56.300642071096618
 30
0.0
 42
0.198912367380615
  0
VERTEX
  5
1DD5
  8
SAPA_PROFIL
  6
CONTINUOUS
 62
     7
 10
-12.163785383728509
 20
56.071250549576071
 30
0.0
  0
VERTEX
  5
1DD6
  8
SAPA_PROFIL
  6
CONTINUOUS
 62
     7
 10
-11.753361211737699
 20
54.943619404632969
 30
0.0
  0
VERTEX
  5
1DD7
  8
SAPA_PROFIL
  6
CONTINUOUS
 62
     7
 10
-11.14256100822683
 20
55.165932497794657
 30
0.0
  0
VERTEX
  5
1DD8
  8
SAPA_PROFIL
  6
CONTINUOUS
 62
     7
 10
-11.257552957151431
 20
53.659520584776821
 30
0.0
 42
0.5450207774095396
  0
VERTEX
  5
1DD9
  8
SAPA_PROFIL
  6
CONTINUOUS
 62
     7
 10
-10.855817167515729
 20
53.354778730216061
 30
0.0
  0
VERTEX
  5
1DDA
  8
SAPA_PROFIL
  6
CONTINUOUS
 62
     7
 10
-10.52692475024064
 20
53.474485780380043
 30
0.0
  0
VERTEX
  5
1DDB
  8
SAPA_PROFIL
  6
CONTINUOUS
 62
     7
 10
-10.641916699165231
 20
51.968073867362023
 30
0.0
 42
0.545020777409285
  0
VERTEX
  5
1DDC
  8
SAPA_PROFIL
  6
CONTINUOUS
 62
     7
 10
-10.240180909529521
 20
51.663332012801398
 30
0.0
  0
VERTEX
  5
1DDD
  8
SAPA_PROFIL
  6
CONTINUOUS
 62
     7
 10
-9.9112884922544318
 20
51.7830390629654
 30
0.0
  0
VERTEX
  5
1DDE
  8
SAPA_PROFIL
  6
CONTINUOUS
 62
     7
 10
-10.026280441179059
 20
50.276627149947302
 30
0.0
 42
0.5450207774091322
  0
VERTEX
  5
1DDF
  8
SAPA_PROFIL
  6
CONTINUOUS
 62
     7
 10
-9.6245446515433137
 20
49.971885295386748
 30
0.0
  0
VERTEX
  5
1DE0
  8
SAPA_PROFIL
  6
CONTINUOUS
 62
     7
 10
-9.2956522342682248
 20
50.091592345550751
 30
0.0
  0
VERTEX
  5
1DE1
  8
SAPA_PROFIL
  6
CONTINUOUS
 62
     7
 10
-9.4106441831928311
 20
48.585180432532937
 30
0.0
 42
0.545020777409636
  0
VERTEX
  5
1DE2
  8
SAPA_PROFIL
  6
CONTINUOUS
 62
     7
 10
-9.0089083935571175
 20
48.280438577972127
 30
0.0
  0
VERTEX
  5
1DE3
  8
SAPA_PROFIL
  6
CONTINUOUS
 62
     7
 10
-8.6800159762820286
 20
48.40014562813613
 30
0.0
  0
VERTEX
  5
1DE4
  8
SAPA_PROFIL
  6
CONTINUOUS
 62
     7
 10
-8.7950079252066722
 20
46.893733715118081
 30
0.0
 42
0.5450207774091208
  0
VERTEX
  5
1DE5
  8
SAPA_PROFIL
  6
CONTINUOUS
 62
     7
 10
-8.3932721355709106
 20
46.588991860557492
 30
0.0
  0
VERTEX
  5
1DE6
  8
SAPA_PROFIL
  6
CONTINUOUS
 62
     7
 10
-8.0643797182958217
 20
46.708698910721488
 30
0.0
  0
VERTEX
  5
1DE7
  8
SAPA_PROFIL
  6
CONTINUOUS
 62
     7
 10
-8.1793716672204368
 20
45.202286997703361
 30
0.0
 42
0.5450207774089454
  0
VERTEX
  5
1DE8
  8
SAPA_PROFIL
  6
CONTINUOUS
 62
     7
 10
-7.7776358775847143
 20
44.897545143142871
 30
0.0
  0
VERTEX
  5
1DE9
  8
SAPA_PROFIL
  6
CONTINUOUS
 62
     7
 10
-7.4487434603096254
 20
45.017252193306859
 30
0.0
  0
VERTEX
  5
1DEA
  8
SAPA_PROFIL
  6
CONTINUOUS
 62
     7
 10
-7.5637354092342264
 20
43.510840280288861
 30
0.0
 42
0.5450207774092681
  0
VERTEX
  5
1DEB
  8
SAPA_PROFIL
  6
CONTINUOUS
 62
     7
 10
-7.1619996195985074
 20
43.206098425728229
 30
0.0
  0
VERTEX
  5
1DEC
  8
SAPA_PROFIL
  6
CONTINUOUS
 62
     7
 10
-6.8331072023234176
 20
43.325805475892217
 30
0.0
  0
VERTEX
  5
1DED
  8
SAPA_PROFIL
  6
CONTINUOUS
 62
     7
 10
-6.9480991512480621
 20
41.819393562874183
 30
0.0
 42
0.5450207774092116
  0
VERTEX
  5
1DEE
  8
SAPA_PROFIL
  6
CONTINUOUS
 62
     7
 10
-6.5463633616122996
 20
41.514651708313572
 30
0.0
  0
VERTEX
  5
1DEF
  8
SAPA_PROFIL
  6
CONTINUOUS
 62
     7
 10
-6.2174709443372107
 20
41.634358758477568
 30
0.0
  0
VERTEX
  5
1DF0
  8
SAPA_PROFIL
  6
CONTINUOUS
 62
     7
 10
-6.1319659085057943
 20
41.399435603281091
 30
0.0
 42
-0.4142135623730951
  0
VERTEX
  5
1DF1
  8
SAPA_PROFIL
  6
CONTINUOUS
 62
     7
 10
-6.7296383859660329
 20
40.11772283916951
 30
0.0
  0
VERTEX
  5
1DF2
  8
SAPA_PROFIL
  6
CONTINUOUS
 62
     7
 10
-9.9245932966381574
 20
38.954854351862238
 30
0.0
 42
-0.4142135623730951
  0
VERTEX
  5
1DF3
  8
SAPA_PROFIL
  6
CONTINUOUS
 62
     7
 10
-11.20630606074973
 20
39.552526829322467
 30
0.0
  0
VERTEX
  5
1DF4
  8
SAPA_PROFIL
  6
CONTINUOUS
 62
     7
 10
-11.599629225574249
 20
40.633173343226268
 30
0.0
  0
VERTEX
  5
1DF5
  8
SAPA_PROFIL
  6
CONTINUOUS
 62
     7
 10
-11.270736808299329
 20
40.752880393390242
 30
0.0
 42
0.5450207774097775
  0
VERTEX
  5
1DF6
  8
SAPA_PROFIL
  6
CONTINUOUS
 62
     7
 10
-11.158873627311459
 20
41.244556985608142
 30
0.0
  0
VERTEX
  5
1DF7
  8
SAPA_PROFIL
  6
CONTINUOUS
 62
     7
 10
-12.21526548356046
 20
42.324620060640918
 30
0.0
  0
VERTEX
  5
1DF8
  8
SAPA_PROFIL
  6
CONTINUOUS
 62
     7
 10
-11.886373066285371
 20
42.444327110804913
 30
0.0
 42
0.545020777409251
  0
VERTEX
  5
1DF9
  8
SAPA_PROFIL
  6
CONTINUOUS
 62
     7
 10
-11.774509885297659
 20
42.936003703022763
 30
0.0
  0
VERTEX
  5
1DFA
  8
SAPA_PROFIL
  6
CONTINUOUS
 62
     7
 10
-12.83090174154666
 20
44.016066778055539
 30
0.0
  0
VERTEX
  5
1DFB
  8
SAPA_PROFIL
  6
CONTINUOUS
 62
     7
 10
-12.50200932427151
 20
44.135773828219548
 30
0.0
 42
0.5450207774093077
  0
VERTEX
  5
1DFC
  8
SAPA_PROFIL
  6
CONTINUOUS
 62
     7
 10
-12.39014614328387
 20
44.627450420437398
 30
0.0
  0
VERTEX
  5
1DFD
  8
SAPA_PROFIL
  6
CONTINUOUS
 62
     7
 10
-13.446537999532859
 20
45.707513495470188
 30
0.0
  0
VERTEX
  5
1DFE
  8
SAPA_PROFIL
  6
CONTINUOUS
 62
     7
 10
-13.117645582257831
 20
45.827220545634162
 30
0.0
 42
0.5450207774091775
  0
VERTEX
  5
1DFF
  8
SAPA_PROFIL
  6
CONTINUOUS
 62
     7
 10
-13.005782401270061
 20
46.318897137852019
 30
0.0
  0
VERTEX
  5
1E00
  8
SAPA_PROFIL
  6
CONTINUOUS
 62
     7
 10
-14.06217425751907
 20
47.398960212884823
 30
0.0
  0
VERTEX
  5
1E01
  8
SAPA_PROFIL
  6
CONTINUOUS
 62
     7
 10
-13.733281840244141
 20
47.518667263048769
 30
0.0
 42
0.5450207774097434
  0
VERTEX
  5
1E02
  8
SAPA_PROFIL
  6
CONTINUOUS
 62
     7
 10
-13.621418659256269
 20
48.010343855266669
 30
0.0
  0
VERTEX
  5
1E03
  8
SAPA_PROFIL
  6
CONTINUOUS
 62
     7
 10
-14.67781051550527
 20
49.090406930299451
 30
0.0
  0
VERTEX
  5
1E04
  8
SAPA_PROFIL
  6
CONTINUOUS
 62
     7
 10
-14.348918098230181
 20
49.210113980463447
 30
0.0
 42
0.5450207774091265
  0
VERTEX
  5
1E05
  8
SAPA_PROFIL
  6
CONTINUOUS
 62
     7
 10
-14.23705491724248
 20
49.701790572681318
 30
0.0
  0
VERTEX
  5
1E06
  8
SAPA_PROFIL
  6
CONTINUOUS
 62
     7
 10
-15.293446773491469
 20
50.781853647714101
 30
0.0
  0
VERTEX
  5
1E07
  8
SAPA_PROFIL
  6
CONTINUOUS
 62
     7
 10
-14.96455435621654
 20
50.901560697878033
 30
0.0
 42
0.5450207774097152
  0
VERTEX
  5
1E08
  8
SAPA_PROFIL
  6
CONTINUOUS
 62
     7
 10
-14.852691175228671
 20
51.393237290095939
 30
0.0
  0
VERTEX
  5
1E09
  8
SAPA_PROFIL
  6
CONTINUOUS
 62
     7
 10
-15.909083031477669
 20
52.473300365128722
 30
0.0
  0
VERTEX
  5
1E0A
  8
SAPA_PROFIL
  6
CONTINUOUS
 62
     7
 10
-15.58019061420258
 20
52.593007415292711
 30
0.0
 42
0.5450207774091775
  0
VERTEX
  5
1E0B
  8
SAPA_PROFIL
  6
CONTINUOUS
 62
     7
 10
-15.468327433214879
 20
53.084684007510582
 30
0.0
  0
VERTEX
  5
1E0C
  8
SAPA_PROFIL
  6
CONTINUOUS
 62
     7
 10
-16.524719289463881
 20
54.164747082543357
 30
0.0
  0
VERTEX
  5
1E0D
  8
SAPA_PROFIL
  6
CONTINUOUS
 62
     7
 10
-16.195826872188889
 20
54.284454132707317
 30
0.0
 42
0.6681786379193241
  0
VERTEX
  5
1E0E
  8
SAPA_PROFIL
  6
CONTINUOUS
 62
     7
 10
-16.171647436664259
 20
54.838254255054167
 30
0.0
  0
VERTEX
  5
1E0F
  8
SAPA_PROFIL
  6
CONTINUOUS
 62
     7
 10
-17.37372477928152
 20
55.398792125611209
 30
0.0
  0
VERTEX
  5
1E10
  8
SAPA_PROFIL
  6
CONTINUOUS
 62
     7
 10
-18.90003373885791
 20
54.843261096031583
 30
0.0
 42
0.4142135623730951
  0
VERTEX
  5
1E11
  8
SAPA_PROFIL
  6
CONTINUOUS
 62
     7
 10
-19.079335482095939
 20
54.458747266798142
 30
0.0
  0
VERTEX
  5
1E12
  8
SAPA_PROFIL
  6
CONTINUOUS
 62
     7
 10
-13.02557894523161
 20
37.826187878887538
 30
0.0
 42
0.4142135623730951
  0
VERTEX
  5
1E13
  8
SAPA_PROFIL
  6
CONTINUOUS
 62
     7
 10
-10.46215341700845
 20
36.630842923967073
 30
0.0
  0
VERTEX
  5
1E14
  8
SAPA_PROFIL
  6
CONTINUOUS
 62
     7
 10
-9.5224607962225463
 20
36.972863067292742
 30
0.0
 42
-0.4142135623730951
  0
VERTEX
  5
1E15
  8
SAPA_PROFIL
  6
CONTINUOUS
 62
     7
 10
-8.2407480321109716
 20
36.375190589832499
 30
0.0
  0
VERTEX
  5
1E16
  8
SAPA_PROFIL
  6
CONTINUOUS
 62
     7
 10
-7.0436775304711281
 20
33.086266417081823
 30
0.0
 42
-0.41421356237309
  0
VERTEX
  5
1E17
  8
SAPA_PROFIL
  6
CONTINUOUS
 62
     7
 10
-7.6413500079313721
 20
31.804553652970242
 30
0.0
  0
VERTEX
  5
1E18
  8
SAPA_PROFIL
  6
CONTINUOUS
 62
     7
 10
-26.839167811233441
 20
24.817119409703619
 30
0.0
 42
-0.404026225835172
  0
VERTEX
  5
1E19
  8
SAPA_PROFIL
  6
CONTINUOUS
 62
     7
 10
-27.473769810179661
 20
25.09966242338864
 30
0.0
  0
VERTEX
  5
1E1A
  8
SAPA_PROFIL
  6
CONTINUOUS
 62
     7
 10
-28.223439675637849
 20
26.955160451786501
 30
0.0
 42
-0.4244748162095842
  0
VERTEX
  5
1E1B
  8
SAPA_PROFIL
  6
CONTINUOUS
 62
     7
 10
-27.930857820017192
 20
27.612310058888259
 30
0.0
  0
VERTEX
  5
1E1C
  8
SAPA_PROFIL
  6
CONTINUOUS
 62
     7
 10
-22.292953439304402
 20
29.66433943710674
 30
0.0
 42
0.4142135623731155
  0
VERTEX
  5
1E1D
  8
SAPA_PROFIL
  6
CONTINUOUS
 62
     7
 10
-22.11365169606637
 20
30.048853266340171
 30
0.0
  0
VERTEX
  5
1E1E
  8
SAPA_PROFIL
  6
CONTINUOUS
 62
     7
 10
-23.447530255036469
 20
33.713654487405222
 30
0.0
 42
-0.2134217652833684
  0
VERTEX
  5
1E1F
  8
SAPA_PROFIL
  6
CONTINUOUS
 62
     7
 10
-23.430039021972899
 20
33.957978159541021
 30
0.0
 42
0.2134217652833683
  0
VERTEX
  5
1E20
  8
SAPA_PROFIL
  6
CONTINUOUS
 62
     7
 10
-23.41254778890935
 20
34.202301831676849
 30
0.0
  0
VERTEX
  5
1E21
  8
SAPA_PROFIL
  6
CONTINUOUS
 62
     7
 10
-23.60161187420492
 20
34.721751136856277
 30
0.0
 42
0.4142135623731054
  0
VERTEX
  5
1E22
  8
SAPA_PROFIL
  6
CONTINUOUS
 62
     7
 10
-23.98612570343845
 20
34.90105288009434
 30
0.0
  0
VERTEX
  5
1E23
  8
SAPA_PROFIL
  6
CONTINUOUS
 62
     7
 10
-25.583603158774441
 20
34.31961863644073
 30
0.0
  0
VERTEX
  5
1E24
  8
SAPA_PROFIL
  6
CONTINUOUS
 62
     7
 10
-25.975610716736469
 20
33.682178384729518
 30
0.0
 42
0.7105995015649932
  0
VERTEX
  5
1E25
  8
SAPA_PROFIL
  6
CONTINUOUS
 62
     7
 10
-25.617460063763161
 20
33.243117958324547
 30
0.0
  0
VERTEX
  5
1E26
  8
SAPA_PROFIL
  6
CONTINUOUS
 62
     7
 10
-25.241583015448771
 20
33.379926015654817
 30
0.0
 42
-0.4142135623731308
  0
VERTEX
  5
1E27
  8
SAPA_PROFIL
  6
CONTINUOUS
 62
     7
 10
-24.857069186215341
 20
33.200624272416732
 30
0.0
  0
VERTEX
  5
1E28
  8
SAPA_PROFIL
  6
CONTINUOUS
 62
     7
 10
-24.036220842233728
 20
30.945361982530549
 30
0.0
 42
-0.4142135623730951
  0
VERTEX
  5
1E29
  8
SAPA_PROFIL
  6
CONTINUOUS
 62
     7
 10
-24.215522585471771
 20
30.560848153297101
 30
0.0
  0
VERTEX
  5
1E2A
  8
SAPA_PROFIL
  6
CONTINUOUS
 62
     7
 10
-28.707415131647132
 20
28.92593297096704
 30
0.0
 42
-0.4040262258351568
  0
VERTEX
  5
1E2B
  8
SAPA_PROFIL
  6
CONTINUOUS
 62
     7
 10
-29.088176331014822
 20
29.095458779178049
 30
0.0
  0
VERTEX
  5
1E2C
  8
SAPA_PROFIL
  6
CONTINUOUS
 62
     7
 10
-29.987780169564981
 20
31.322056413256089
 30
0.0
 42
-0.4244748162096048
  0
VERTEX
  5
1E2D
  8
SAPA_PROFIL
  6
CONTINUOUS
 62
     7
 10
-29.812231056192459
 20
31.716346177516979
 30
0.0
  0
VERTEX
  5
1E2E
  8
SAPA_PROFIL
  6
CONTINUOUS
 62
     7
 10
-29.000353498592411
 20
32.011845442352147
 30
0.0
 42
0.710599501565118
  0
VERTEX
  5
1E2F
  8
SAPA_PROFIL
  6
CONTINUOUS
 62
     7
 10
-29.008216783080108
 20
32.578400044326138
 30
0.0
  0
VERTEX
  5
1E30
  8
SAPA_PROFIL
  6
CONTINUOUS
 62
     7
 10
-29.718250690232459
 20
32.814730005807782
 30
0.0
  0
VERTEX
  5
1E31
  8
SAPA_PROFIL
  6
CONTINUOUS
 62
     7
 10
-31.879543718040068
 20
32.028083676158737
 30
0.0
 42
0.4142135623733353
  0
VERTEX
  5
1E32
  8
SAPA_PROFIL
  6
CONTINUOUS
 62
     7
 10
-32.058845461278047
 20
31.643569846925161
 30
0.0
  0
VERTEX
  5
1E33
  8
SAPA_PROFIL
  6
CONTINUOUS
 62
     7
 10
-32.055092831412537
 20
31.633793911897861
 30
0.0
  0
VERTEX
  5
1E34
  8
SAPA_PROFIL
  6
CONTINUOUS
 62
     7
 10
-28.959207747184958
 20
23.97120944023882
 30
0.0
 42
0.4040262258351517
  0
VERTEX
  5
1E35
  8
SAPA_PROFIL
  6
CONTINUOUS
 62
     7
 10
-26.420799751399532
 20
22.841037385499028
 30
0.0
 42
-0.8769764629929342
  0
VERTEX
  5
1E36
  8
SAPA_PROFIL
  6
CONTINUOUS
 62
     7
 10
-25.505203171723341
 20
21.0821927204228
 30
0.0
  0
VERTEX
  5
1E37
  8
SAPA_PROFIL
  6
CONTINUOUS
 62
     7
 10
-27.475942007055551
 20
19.702266532081381
 30
0.0
 42
0.3394542588633806
  0
VERTEX
  5
1E38
  8
SAPA_PROFIL
  6
CONTINUOUS
 62
     7
 10
-27.585776862385639
 20
19.353914875796718
 30
0.0
  0
VERTEX
  5
1E39
  8
SAPA_PROFIL
  6
CONTINUOUS
 62
     7
 10
-23.781957992796919
 20
8.9030084239062912
 30
0.0
 42
0.4142135623730951
  0
VERTEX
  5
1E3A
  8
SAPA_PROFIL
  6
CONTINUOUS
 62
     7
 10
-23.141101610741138
 20
8.6041721851761732
 30
0.0
  0
VERTEX
  5
1E3B
  8
SAPA_PROFIL
  6
CONTINUOUS
 62
     7
 10
22.90383680776873
 20
25.363159208132949
 30
0.0
 42
0.4142135623730951
  0
VERTEX
  5
1E3C
  8
SAPA_PROFIL
  6
CONTINUOUS
 62
     7
 10
23.202673046498852
 20
26.00401559018874
 30
0.0
  0
VERTEX
  5
1E3D
  8
SAPA_PROFIL
  6
CONTINUOUS
 62
     7
 10
19.398854176909751
 20
36.45492204208022
 30
0.0
 42
0.3394542588634147
  0
VERTEX
  5
1E3E
  8
SAPA_PROFIL
  6
CONTINUOUS
 62
     7
 10
19.090799667849701
 20
36.651174408510037
 30
0.0
  0
VERTEX
  5
1E3F
  8
SAPA_PROFIL
  6
CONTINUOUS
 62
     7
 10
16.694126678056179
 20
36.441492691723923
 30
0.0
 42
-0.87697646299261
  0
VERTEX
  5
1E40
  8
SAPA_PROFIL
  6
CONTINUOUS
 62
     7
 10
16.264950791983122
 20
38.377380010601577
 30
0.0
 42
0.404026225835172
  0
VERTEX
  5
1E41
  8
SAPA_PROFIL
  6
CONTINUOUS
 62
     7
 10
17.483023537920989
 20
40.874799240924077
 30
0.0
  0
VERTEX
  5
1E42
  8
SAPA_PROFIL
  6
CONTINUOUS
 62
     7
 10
14.929194746670399
 20
48.734676068523292
 30
0.0
  0
VERTEX
  5
1E43
  8
SAPA_PROFIL
  6
CONTINUOUS
 62
     7
 10
14.92578557801767
 20
48.744577013207753
 30
0.0
 42
0.4142135623733302
  0
VERTEX
  5
1E44
  8
SAPA_PROFIL
  6
CONTINUOUS
 62
     7
 10
14.54127174878368
 20
48.92387875644669
 30
0.0
  0
VERTEX
  5
1E45
  8
SAPA_PROFIL
  6
CONTINUOUS
 62
     7
 10
12.37997872097624
 20
48.137232426797709
 30
0.0
  0
VERTEX
  5
1E46
  8
SAPA_PROFIL
  6
CONTINUOUS
 62
     7
 10
11.98797116301421
 20
47.499792175086512
 30
0.0
 42
0.7105995015651246
  0
VERTEX
  5
1E47
  8
SAPA_PROFIL
  6
CONTINUOUS
 62
     7
 10
12.346121815987569
 20
47.06073174868154
 30
0.0
  0
VERTEX
  5
1E48
  8
SAPA_PROFIL
  6
CONTINUOUS
 62
     7
 10
13.157999373588471
 20
47.356231013517011
 30
0.0
 42
-0.4244748162093936
  0
VERTEX
  5
1E49
  8
SAPA_PROFIL
  6
CONTINUOUS
 62
     7
 10
13.54592237147479
 20
47.167028325593741
 30
0.0
  0
VERTEX
  5
1E4A
  8
SAPA_PROFIL
  6
CONTINUOUS
 62
     7
 10
14.288015220887459
 20
44.883101379899287
 30
0.0
 42
-0.4040262258354259
  0
VERTEX
  5
1E4B
  8
SAPA_PROFIL
  6
CONTINUOUS
 62
     7
 10
14.105304308996891
 20
44.508488495351408
 30
0.0
  0
VERTEX
  5
1E4C
  8
SAPA_PROFIL
  6
CONTINUOUS
 62
     7
 10
9.6134117628209381
 20
42.873573313021147
 30
0.0
 42
-0.4142135623730951
  0
VERTEX
  5
1E4D
  8
SAPA_PROFIL
  6
CONTINUOUS
 62
     7
 10
9.2288979335874082
 20
43.052875056259182
 30
0.0
  0
VERTEX
  5
1E4E
  8
SAPA_PROFIL
  6
CONTINUOUS
 62
     7
 10
8.4080495896058025
 20
45.308137346145372
 30
0.0
 42
-0.4142135623731257
  0
VERTEX
  5
1E4F
  8
SAPA_PROFIL
  6
CONTINUOUS
 62
     7
 10
8.5873513328439355
 20
45.69265117537887
 30
0.0
  0
VERTEX
  5
1E50
  8
SAPA_PROFIL
  6
CONTINUOUS
 62
     7
 10
8.9632283811582791
 20
45.829459232709141
 30
0.0
 42
0.7105995015649868
  0
VERTEX
  5
1E51
  8
SAPA_PROFIL
  6
CONTINUOUS
 62
     7
 10
8.9553650966707004
 20
46.396013834683103
 30
0.0
  0
VERTEX
  5
1E52
  8
SAPA_PROFIL
  6
CONTINUOUS
 62
     7
 10
8.2453311895182662
 20
46.632343796164783
 30
0.0
  0
VERTEX
  5
1E53
  8
SAPA_PROFIL
  6
CONTINUOUS
 62
     7
 10
6.6478537341821804
 20
46.050909552511129
 30
0.0
 42
0.4142135623731155
  0
VERTEX
  5
1E54
  8
SAPA_PROFIL
  6
CONTINUOUS
 62
     7
 10
6.4685519909441549
 20
45.66639572327766
 30
0.0
  0
VERTEX
  5
1E55
  8
SAPA_PROFIL
  6
CONTINUOUS
 62
     7
 10
6.6576160762397301
 20
45.146946418098231
 30
0.0
 42
0.2134217652833684
  0
VERTEX
  5
1E56
  8
SAPA_PROFIL
  6
CONTINUOUS
 62
     7
 10
6.8280633673332609
 20
44.971026774627582
 30
0.0
 42
-0.2134217652833637
  0
VERTEX
  5
1E57
  8
SAPA_PROFIL
  6
CONTINUOUS
 62
     7
 10
6.9985106584269401
 20
44.795107131156861
 30
0.0
  0
VERTEX
  5
1E58
  8
SAPA_PROFIL
  6
CONTINUOUS
 62
     7
 10
8.3323892173970489
 20
41.13030591009182
 30
0.0
 42
0.4142135623731104
  0
VERTEX
  5
1E59
  8
SAPA_PROFIL
  6
CONTINUOUS
 62
     7
 10
8.7169030466305806
 20
40.951004166853792
 30
0.0
  0
VERTEX
  5
1E5A
  8
SAPA_PROFIL
  6
CONTINUOUS
 62
     7
 10
14.35480742734412
 20
43.00303354507254
 30
0.0
 42
-0.424474816209579
  0
VERTEX
  5
1E5B
  8
SAPA_PROFIL
  6
CONTINUOUS
 62
     7
 10
15.00134575715459
 20
42.687695731866981
 30
0.0
  0
SEQEND
  5
1E5C
  8
SAPA_PROFIL
  6
CONTINUOUS
 62
     7
  0
POLYLINE
  5
109D
  8
SAPA_PROFIL
  6
CONTINUOUS
 62
     7
 66
     1
 10
0.0
 20
0.0
 30
0.0
 70
   129
  0
VERTEX
  5
1E5D
  8
SAPA_PROFIL
  6
CONTINUOUS
 62
     7
 10
-22.706147533368529
 20
11.2100913993071
 30
0.0
  0
VERTEX
  5
1E5E
  8
SAPA_PROFIL
  6
CONTINUOUS
 62
     7
 10
-25.167409867434621
 20
17.972354085507838
 30
0.0
 42
-0.3394542588633467
  0
VERTEX
  5
1E5F
  8
SAPA_PROFIL
  6
CONTINUOUS
 62
     7
 10
-24.801293682999191
 20
19.133526273122548
 30
0.0
  0
VERTEX
  5
1E60
  8
SAPA_PROFIL
  6
CONTINUOUS
 62
     7
 10
-24.35805029902108
 20
19.44388863184497
 30
0.0
 42
0.3394542588633758
  0
VERTEX
  5
1E61
  8
SAPA_PROFIL
  6
CONTINUOUS
 62
     7
 10
-23.259701745716491
 20
22.927405194688919
 30
0.0
  0
VERTEX
  5
1E62
  8
SAPA_PROFIL
  6
CONTINUOUS
 62
     7
 10
-23.499115846044461
 20
23.585190029239069
 30
0.0
 42
-0.4142135623730848
  0
VERTEX
  5
1E63
  8
SAPA_PROFIL
  6
CONTINUOUS
 62
     7
 10
-23.319814102806379
 20
23.969703858472531
 30
0.0
  0
VERTEX
  5
1E64
  8
SAPA_PROFIL
  6
CONTINUOUS
 62
     7
 10
13.163965143389881
 20
37.248713537626969
 30
0.0
 42
-0.4142135623729826
  0
VERTEX
  5
1E65
  8
SAPA_PROFIL
  6
CONTINUOUS
 62
     7
 10
13.54847897262326
 20
37.069411794388998
 30
0.0
  0
VERTEX
  5
1E66
  8
SAPA_PROFIL
  6
CONTINUOUS
 62
     7
 10
13.78789307295127
 20
36.411626959838742
 30
0.0
 42
0.3394542588633709
  0
VERTEX
  5
1E67
  8
SAPA_PROFIL
  6
CONTINUOUS
 62
     7
 10
16.868438163551669
 20
34.449103295540503
 30
0.0
  0
VERTEX
  5
1E68
  8
SAPA_PROFIL
  6
CONTINUOUS
 62
     7
 10
17.407479373497491
 20
34.496263290584587
 30
0.0
 42
-0.3394542588634342
  0
VERTEX
  5
1E69
  8
SAPA_PROFIL
  6
CONTINUOUS
 62
     7
 10
18.434327737031548
 20
33.842088735818763
 30
0.0
  0
VERTEX
  5
1E6A
  8
SAPA_PROFIL
  6
CONTINUOUS
 62
     7
 10
20.895590071097939
 20
27.079826049617161
 30
0.0
 42
-0.4142135623730132
  0
VERTEX
  5
1E6B
  8
SAPA_PROFIL
  6
CONTINUOUS
 62
     7
 10
20.716288327859921
 20
26.695312220383691
 30
0.0
  0
VERTEX
  5
1E6C
  8
SAPA_PROFIL
  6
CONTINUOUS
 62
     7
 10
-22.321633704135049
 20
11.030789656069039
 30
0.0
 42
-0.4142135623730951
  0
SEQEND
  5
1E6D
  8
SAPA_PROFIL
  6
CONTINUOUS
 62
     7
  0
LINE
  5
109E
  8
SAPA_PROFIL
 10
14.54127174878359
 20
48.923878756446882
 30
0.0
 11
29.85826146759338
 21
54.498807092655099
 31
0.0
  0
POLYLINE
  5
10C7
  8
SAPA_GLAS
 66
     1
 10
0.0
 20
0.0
 30
0.0
  0
VERTEX
  5
1E9A
  8
SAPA_GLAS
 10
25.028776346010702
 20
67.767708411795752
 30
0.0
  0
VERTEX
  5
1E9B
  8
SAPA_GLAS
 10
-3.162002277566482
 20
57.507104112025473
 30
0.0
  0
VERTEX
  5
1E9C
  8
SAPA_GLAS
 10
-0.1659058220331211
 20
49.275396753940854
 30
0.0
  0
VERTEX
  5
1E9D
  8
SAPA_GLAS
 10
28.024872801543541
 20
59.536001053711068
 30
0.0
  0
SEQEND
  5
1E9E
  8
SAPA_GLAS
  0
POLYLINE
  5
10C8
  8
SAPA_GLAS
 66
     1
 10
0.0
 20
0.0
 30
0.0
  0
VERTEX
  5
1E9F
  8
SAPA_GLAS
 10
-3.1620022775661951
 20
57.507104112025573
 30
0.0
  0
VERTEX
  5
1EA0
  8
SAPA_GLAS
 10
-7.2662439974743416
 20
68.78341556145655
 30
0.0
  0
VERTEX
  5
1EA1
  8
SAPA_GLAS
 10
2.13068221038451
 20
72.203616994713229
 30
0.0
  0
VERTEX
  5
1EA2
  8
SAPA_GLAS
 10
6.2349239302930011
 20
60.927305545282373
 30
0.0
  0
VERTEX
  5
1EA3
  8
SAPA_GLAS
 10
-3.1620022775661951
 20
57.507104112025573
 30
0.0
  0
SEQEND
  5
1EA4
  8
SAPA_GLAS
  0
POLYLINE
  5
10C9
  8
SAPA_GLAS
 66
     1
 10
0.0
 20
0.0
 30
0.0
  0
VERTEX
  5
1EA5
  8
SAPA_GLAS
 10
18.872413766148661
 20
84.682175585942105
 30
0.0
  0
VERTEX
  5
1EA6
  8
SAPA_GLAS
 10
-9.3183648574285574
 20
74.421571286171925
 30
0.0
  0
VERTEX
  5
1EA7
  8
SAPA_GLAS
 10
-7.2662439974745441
 20
68.783415561456479
 30
0.0
  0
VERTEX
  5
1EA8
  8
SAPA_GLAS
 10
20.924534626102631
 20
79.044019861226744
 30
0.0
  0
SEQEND
  5
1EA9
  8
SAPA_GLAS
  0
LINE
  5
10CA
  8
SAPA_GLAS
 10
-1.6639540497995879
 20
53.391250432983242
 30
0.0
 11
26.526824573777109
 21
63.651854732753343
 31
0.0
  0
POLYLINE
  5
10CB
  8
SAPA_GLAS
 66
     1
 10
0.0
 20
0.0
 30
0.0
  0
VERTEX
  5
1EAA
  8
SAPA_GLAS
 10
-13.03333331891138
 20
-94.999999999996689
 30
0.0
  0
VERTEX
  5
1EAB
  8
SAPA_GLAS
 10
-13.033333318911369
 20
-64.999999999996689
 30
0.0
  0
VERTEX
  5
1EAC
  8
SAPA_GLAS
 10
-7.0333333189113736
 20
-64.999999999996689
 30
0.0
  0
VERTEX
  5
1EAD
  8
SAPA_GLAS
 10
-7.0333333189113807
 20
-94.999999999996689
 30
0.0
  0
SEQEND
  5
1EAE
  8
SAPA_GLAS
  0
POLYLINE
  5
10CC
  8
SAPA_GLAS
 66
     1
 10
0.0
 20
0.0
 30
0.0
  0
VERTEX
  5
1EAF
  8
SAPA_GLAS
 10
-28.03333331891297
 20
-74.99999999999622
 30
0.0
  0
VERTEX
  5
1EB0
  8
SAPA_GLAS
 10
-13.03333331891138
 20
-74.999999999996234
 30
0.0
  0
VERTEX
  5
1EB1
  8
SAPA_GLAS
 10
-13.033333318911369
 20
-64.999999999996689
 30
0.0
  0
VERTEX
  5
1EB2
  8
SAPA_GLAS
 10
-28.03333331891297
 20
-64.999999999996675
 30
0.0
  0
VERTEX
  5
1EB3
  8
SAPA_GLAS
 10
-28.03333331891297
 20
-74.99999999999622
 30
0.0
  0
SEQEND
  5
1EB4
  8
SAPA_GLAS
  0
POLYLINE
  5
10CD
  8
SAPA_GLAS
 66
     1
 10
0.0
 20
0.0
 30
0.0
  0
VERTEX
  5
1EB5
  8
SAPA_GLAS
 10
-34.03333331891298
 20
-94.999999999996675
 30
0.0
  0
VERTEX
  5
1EB6
  8
SAPA_GLAS
 10
-34.033333318913023
 20
-64.999999999996675
 30
0.0
  0
VERTEX
  5
1EB7
  8
SAPA_GLAS
 10
-28.03333331891297
 20
-64.999999999996675
 30
0.0
  0
VERTEX
  5
1EB8
  8
SAPA_GLAS
 10
-28.03333331891297
 20
-94.999999999996675
 30
0.0
  0
SEQEND
  5
1EB9
  8
SAPA_GLAS
  0
POLYLINE
  5
10D5
  8
SAPA_ISOLATOR
 66
     1
 10
0.0
 20
0.0
 30
0.0
 70
     1
  0
VERTEX
  5
1EEB
  8
SAPA_ISOLATOR
 10
-14.03333331891133
 20
-57.099999999999682
 30
0.0
  0
VERTEX
  5
1EEC
  8
SAPA_ISOLATOR
 10
-14.03333331891133
 20
-58.499999999999773
 30
0.0
 42
-0.4142135623730951
  0
VERTEX
  5
1EED
  8
SAPA_ISOLATOR
 10
-14.53333331891133
 20
-58.999999999999773
 30
0.0
  0
VERTEX
  5
1EEE
  8
SAPA_ISOLATOR
 10
-44.033333318911332
 20
-58.999999999999773
 30
0.0
  0
VERTEX
  5
1EEF
  8
SAPA_ISOLATOR
 10
-44.033333318911332
 20
-57.499999999999773
 30
0.0
  0
VERTEX
  5
1EF0
  8
SAPA_ISOLATOR
 10
-40.886886709504601
 20
-54.353553383970393
 30
0.0
 42
0.4142135623730951
  0
VERTEX
  5
1EF1
  8
SAPA_ISOLATOR
 10
-40.886886709504601
 20
-53.646446602783719
 30
0.0
  0
VERTEX
  5
1EF2
  8
SAPA_ISOLATOR
 10
-44.033333318911268
 20
-50.499999999999773
 30
0.0
  0
VERTEX
  5
1EF3
  8
SAPA_ISOLATOR
 10
-44.033333318911268
 20
-48.999999999999773
 30
0.0
  0
VERTEX
  5
1EF4
  8
SAPA_ISOLATOR
 10
-14.53333331891127
 20
-48.999999999999773
 30
0.0
 42
-0.4142135623730951
  0
VERTEX
  5
1EF5
  8
SAPA_ISOLATOR
 10
-14.03333331891127
 20
-49.499999999999773
 30
0.0
  0
VERTEX
  5
1EF6
  8
SAPA_ISOLATOR
 10
-14.03333331891127
 20
-50.899999999999856
 30
0.0
  0
VERTEX
  5
1EF7
  8
SAPA_ISOLATOR
 10
-13.183333318911361
 20
-51.749999999999773
 30
0.0
  0
VERTEX
  5
1EF8
  8
SAPA_ISOLATOR
 10
-8.6283003606961852
 20
-51.749999999999773
 30
0.0
 42
-0.0912836897734203
  0
VERTEX
  5
1EF9
  8
SAPA_ISOLATOR
 10
-6.5087433270940087
 20
-52.968641667809827
 30
0.0
 42
-0.4609552212306286
  0
VERTEX
  5
1EFA
  8
SAPA_ISOLATOR
 10
-6.5087433270940087
 20
-55.031358332189939
 30
0.0
 42
-0.0912836897734202
  0
VERTEX
  5
1EFB
  8
SAPA_ISOLATOR
 10
-8.6283003606962438
 20
-56.249999999999773
 30
0.0
  0
VERTEX
  5
1EFC
  8
SAPA_ISOLATOR
 10
-13.183333318911419
 20
-56.249999999999773
 30
0.0
  0
SEQEND
  5
1EFD
  8
SAPA_ISOLATOR
  0
POLYLINE
  5
10D6
  8
SAPA_ISOLATOR
 66
     1
 10
0.0
 20
0.0
 30
0.0
 70
     1
  0
VERTEX
  5
1EFE
  8
SAPA_ISOLATOR
 10
-40.033333318167308
 20
-54.914213554697881
 30
0.0
 42
0.1989123671061432
  0
VERTEX
  5
1EFF
  8
SAPA_ISOLATOR
 10
-39.740440100097942
 20
-54.207106774255408
 30
0.0
  0
VERTEX
  5
1F00
  8
SAPA_ISOLATOR
 10
-39.740440100097942
 20
-53.792893225744358
 30
0.0
 42
0.1989123671061405
  0
VERTEX
  5
1F01
  8
SAPA_ISOLATOR
 10
-40.033333318167308
 20
-53.085786445301892
 30
0.0
  0
VERTEX
  5
1F02
  8
SAPA_ISOLATOR
 10
-42.265566368549621
 20
-50.853553390221123
 30
0.0
 42
-0.6681786375387241
  0
VERTEX
  5
1F03
  8
SAPA_ISOLATOR
 10
-41.912012977584311
 20
-49.999999999999773
 30
0.0
  0
VERTEX
  5
1F04
  8
SAPA_ISOLATOR
 10
-29.533333318911279
 20
-49.999999999999773
 30
0.0
 42
-0.4142135623730951
  0
VERTEX
  5
1F05
  8
SAPA_ISOLATOR
 10
-29.033333318911279
 20
-50.499999999999773
 30
0.0
  0
VERTEX
  5
1F06
  8
SAPA_ISOLATOR
 10
-29.033333318911328
 20
-57.499999999999773
 30
0.0
 42
-0.4142135623730951
  0
VERTEX
  5
1F07
  8
SAPA_ISOLATOR
 10
-29.533333318911328
 20
-57.999999999999773
 30
0.0
  0
VERTEX
  5
1F08
  8
SAPA_ISOLATOR
 10
-41.912012977584361
 20
-57.999999999999773
 30
0.0
 42
-0.6681786375387241
  0
VERTEX
  5
1F09
  8
SAPA_ISOLATOR
 10
-42.265566368549678
 20
-57.14644660977865
 30
0.0
  0
SEQEND
  5
1F0A
  8
SAPA_ISOLATOR
  0
POLYLINE
  5
10D7
  8
SAPA_ISOLATOR
 66
     1
 10
0.0
 20
0.0
 30
0.0
 70
     1
  0
VERTEX
  5
1F0B
  8
SAPA_ISOLATOR
 10
-13.5975468812847
 20
-55.249999999999773
 30
0.0
  0
VERTEX
  5
1F0C
  8
SAPA_ISOLATOR
 10
-15.03333331891133
 20
-56.685786437626803
 30
0.0
  0
VERTEX
  5
1F0D
  8
SAPA_ISOLATOR
 10
-15.03333331891133
 20
-57.499999999999773
 30
0.0
 42
-0.4142135623730951
  0
VERTEX
  5
1F0E
  8
SAPA_ISOLATOR
 10
-15.53333331891133
 20
-57.999999999999773
 30
0.0
  0
VERTEX
  5
1F0F
  8
SAPA_ISOLATOR
 10
-27.533333318911328
 20
-57.999999999999773
 30
0.0
 42
-0.4142135623730951
  0
VERTEX
  5
1F10
  8
SAPA_ISOLATOR
 10
-28.033333318911328
 20
-57.499999999999773
 30
0.0
  0
VERTEX
  5
1F11
  8
SAPA_ISOLATOR
 10
-28.033333318911279
 20
-50.499999999999773
 30
0.0
 42
-0.4142135623730951
  0
VERTEX
  5
1F12
  8
SAPA_ISOLATOR
 10
-27.533333318911271
 20
-49.999999999999773
 30
0.0
  0
VERTEX
  5
1F13
  8
SAPA_ISOLATOR
 10
-15.53333331891127
 20
-49.999999999999773
 30
0.0
 42
-0.4142135623730951
  0
VERTEX
  5
1F14
  8
SAPA_ISOLATOR
 10
-15.03333331891127
 20
-50.499999999999773
 30
0.0
  0
VERTEX
  5
1F15
  8
SAPA_ISOLATOR
 10
-15.03333331891127
 20
-51.31421356237297
 30
0.0
  0
VERTEX
  5
1F16
  8
SAPA_ISOLATOR
 10
-13.59754688128424
 20
-52.749999999999773
 30
0.0
  0
VERTEX
  5
1F17
  8
SAPA_ISOLATOR
 10
-8.3031453451984021
 20
-52.749999999999773
 30
0.0
 42
-0.065831318015991
  0
VERTEX
  5
1F18
  8
SAPA_ISOLATOR
 10
-6.9969389097325907
 20
-53.603761710396839
 30
0.0
 42
-0.3815575211595297
  0
VERTEX
  5
1F19
  8
SAPA_ISOLATOR
 10
-6.9140953799031299
 20
-54.223631241553001
 30
0.0
 42
-0.0681340277693807
  0
VERTEX
  5
1F1A
  8
SAPA_ISOLATOR
 10
-8.3031453451984021
 20
-55.249999999999773
 30
0.0
  0
SEQEND
  5
1F1B
  8
SAPA_ISOLATOR
  0
POLYLINE
  5
10EB
  8
SAPA_FOGBAND
 66
     1
 10
0.0
 20
0.0
 30
0.0
 70
     1
  0
VERTEX
  5
20C1
  8
SAPA_FOGBAND
 10
4.4911737873998687
 20
50.790299137629432
 30
0.0
 42
0.4679153941829814
  0
VERTEX
  5
20C2
  8
SAPA_FOGBAND
 10
4.3369136255472824
 20
50.524759363244868
 30
0.0
  0
VERTEX
  5
20C3
  8
SAPA_FOGBAND
 10
5.893312206595958
 20
46.248037304041311
 30
0.0
 42
0.6685323900181767
  0
VERTEX
  5
20C4
  8
SAPA_FOGBAND
 10
6.262594873595372
 20
46.2320950116736
 30
0.0
 42
-0.1991665782226247
  0
VERTEX
  5
20C5
  8
SAPA_FOGBAND
 10
6.3190649306671673
 20
46.283891113243662
 30
0.0
  0
VERTEX
  5
20C6
  8
SAPA_FOGBAND
 10
8.7506704846228889
 20
47.168923156360172
 30
0.0
 42
-0.4142135623731784
  0
VERTEX
  5
20C7
  8
SAPA_FOGBAND
 10
9.0070130374451551
 20
47.049388660868047
 30
0.0
  0
VERTEX
  5
20C8
  8
SAPA_FOGBAND
 10
9.280629152105714
 20
46.297634564239253
 30
0.0
 42
0.4142135623731368
  0
VERTEX
  5
20C9
  8
SAPA_FOGBAND
 10
9.5369717049279821
 20
46.178100068747149
 30
0.0
  0
VERTEX
  5
20CA
  8
SAPA_FOGBAND
 10
9.9128487532423915
 20
46.314908126077547
 30
0.0
 42
-0.4142135623733448
  0
VERTEX
  5
20CB
  8
SAPA_FOGBAND
 10
10.169191306064549
 20
46.195373630585401
 30
0.0
  0
VERTEX
  5
20CC
  8
SAPA_FOGBAND
 10
10.53569968408112
 20
45.18840013794393
 30
0.0
 42
-0.703825529076487
  0
VERTEX
  5
20CD
  8
SAPA_FOGBAND
 10
10.390893230613729
 20
45.068084361809369
 30
0.0
  0
VERTEX
  5
20CE
  8
SAPA_FOGBAND
 10
9.2877477219286018
 20
45.719325443155761
 30
0.0
 42
0.9999999999999856
  0
VERTEX
  5
20CF
  8
SAPA_FOGBAND
 10
8.8810501908179962
 20
45.030415348739609
 30
0.0
  0
VERTEX
  5
20D0
  8
SAPA_FOGBAND
 10
10.431097903254249
 20
44.115345903740597
 30
0.0
 42
0.2242387338110932
  0
VERTEX
  5
20D1
  8
SAPA_FOGBAND
 10
11.494087974771929
 20
44.01715215028343
 30
0.0
 42
0.2242387338111004
  0
VERTEX
  5
20D2
  8
SAPA_FOGBAND
 10
12.24526788407759
 20
44.775649776659577
 30
0.0
  0
VERTEX
  5
20D3
  8
SAPA_FOGBAND
 10
12.844478019510669
 20
46.472985104046082
 30
0.0
 42
1.0000000000000899
  0
VERTEX
  5
20D4
  8
SAPA_FOGBAND
 10
12.090106762894401
 20
46.739300719794102
 30
0.0
  0
VERTEX
  5
20D5
  8
SAPA_FOGBAND
 10
11.663657974022779
 20
45.531332843633841
 30
0.0
 42
-0.7038255290763446
  0
VERTEX
  5
20D6
  8
SAPA_FOGBAND
 10
11.475392304867279
 20
45.530420281269571
 30
0.0
  0
VERTEX
  5
20D7
  8
SAPA_FOGBAND
 10
11.10888392685067
 20
46.537393773911148
 30
0.0
 42
-0.4142135623729703
  0
VERTEX
  5
20D8
  8
SAPA_FOGBAND
 10
11.22841842234264
 20
46.79373632673348
 30
0.0
  0
VERTEX
  5
20D9
  8
SAPA_FOGBAND
 10
11.604295470656981
 20
46.930544384063737
 30
0.0
 42
0.4142135623730117
  0
VERTEX
  5
20DA
  8
SAPA_FOGBAND
 10
11.72382996614909
 20
47.186886936885998
 30
0.0
  0
VERTEX
  5
20DB
  8
SAPA_FOGBAND
 10
11.45021385148843
 20
47.938641033514763
 30
0.0
 42
-0.4142135623731784
  0
VERTEX
  5
20DC
  8
SAPA_FOGBAND
 10
11.569748346980511
 20
48.194983586337138
 30
0.0
  0
VERTEX
  5
20DD
  8
SAPA_FOGBAND
 10
14.001353900936421
 20
49.080015629453108
 30
0.0
 42
-0.1991665782227297
  0
VERTEX
  5
20DE
  8
SAPA_FOGBAND
 10
14.07790636667805
 20
49.076635766674237
 30
0.0
 42
0.6685323900181511
  0
VERTEX
  5
20DF
  8
SAPA_FOGBAND
 10
14.35054579366917
 20
49.326218593972222
 30
0.0
  0
VERTEX
  5
20E0
  8
SAPA_FOGBAND
 10
12.79415747881988
 20
53.602912443383367
 30
0.0
 42
0.4679406819625479
  0
VERTEX
  5
20E1
  8
SAPA_FOGBAND
 10
12.505295985900821
 20
53.70718678673245
 30
0.0
  0
VERTEX
  5
20E2
  8
SAPA_FOGBAND
 10
11.89107338086426
 20
53.348194376428637
 30
0.0
 42
0.3624646087620003
  0
VERTEX
  5
20E3
  8
SAPA_FOGBAND
 10
11.80405498748884
 20
53.10711977353921
 30
0.0
  0
VERTEX
  5
20E4
  8
SAPA_FOGBAND
 10
11.84356480197164
 20
52.99856745040087
 30
0.0
 42
-0.3515239862759624
  0
VERTEX
  5
20E5
  8
SAPA_FOGBAND
 10
11.76317099554897
 20
52.761539183598458
 30
0.0
  0
VERTEX
  5
20E6
  8
SAPA_FOGBAND
 10
10.44170875487611
 20
51.939828730722901
 30
0.0
 42
-0.751570456352482
  0
VERTEX
  5
20E7
  8
SAPA_FOGBAND
 10
10.298898452731439
 20
52.068328831210771
 30
0.0
  0
VERTEX
  5
20E8
  8
SAPA_FOGBAND
 10
11.56667277883294
 20
52.76710564931232
 30
0.0
 42
0.7197481174277197
  0
VERTEX
  5
20E9
  8
SAPA_FOGBAND
 10
11.09198748729181
 20
53.231090265932352
 30
0.0
  0
VERTEX
  5
20EA
  8
SAPA_FOGBAND
 10
9.1723228475735645
 20
52.246976264658073
 30
0.0
 42
-0.5053637834253038
  0
VERTEX
  5
20EB
  8
SAPA_FOGBAND
 10
8.9307907349074078
 20
52.24747805354415
 30
0.0
  0
VERTEX
  5
20EC
  8
SAPA_FOGBAND
 10
8.9012180713365012
 20
52.287795017335696
 30
0.0
 42
0.3333333333331249
  0
VERTEX
  5
20ED
  8
SAPA_FOGBAND
 10
8.6715461875068893
 20
52.357442887210183
 30
0.0
  0
VERTEX
  5
20EE
  8
SAPA_FOGBAND
 10
8.2956691391925084
 20
52.220634829880019
 30
0.0
 42
0.3333333333331312
  0
VERTEX
  5
20EF
  8
SAPA_FOGBAND
 10
8.1644990566404232
 20
52.019651224968527
 30
0.0
  0
VERTEX
  5
20F0
  8
SAPA_FOGBAND
 10
8.1677603268290575
 20
51.969757697163878
 30
0.0
 42
-0.505363783425254
  0
VERTEX
  5
20F1
  8
SAPA_FOGBAND
 10
7.983058537765241
 20
51.814119455212577
 30
0.0
  0
VERTEX
  5
20F2
  8
SAPA_FOGBAND
 10
5.8799338213188159
 20
51.33405787212002
 30
0.0
 42
0.7197481174279296
  0
VERTEX
  5
20F3
  8
SAPA_FOGBAND
 10
5.8145473541521202
 20
50.673503210962657
 30
0.0
  0
VERTEX
  5
20F4
  8
SAPA_FOGBAND
 10
7.2348839124028022
 20
50.953118741172418
 30
0.0
 42
-0.7515704563522813
  0
VERTEX
  5
20F5
  8
SAPA_FOGBAND
 10
7.2080831464617781
 20
50.762885260499019
 30
0.0
  0
VERTEX
  5
20F6
  8
SAPA_FOGBAND
 10
5.6675990423445572
 20
50.542932431804047
 30
0.0
 42
-0.3515239862759173
  0
VERTEX
  5
20F7
  8
SAPA_FOGBAND
 10
5.4536549806270438
 20
50.672830475786277
 30
0.0
  0
VERTEX
  5
20F8
  8
SAPA_FOGBAND
 10
5.4141451661443201
 20
50.781382798924412
 30
0.0
 42
0.3624646087620678
  0
VERTEX
  5
20F9
  8
SAPA_FOGBAND
 10
5.1925254417024727
 20
50.910122313768539
 30
0.0
  0
SEQEND
  5
20FA
  8
SAPA_FOGBAND
  0
POLYLINE
  5
10EC
  8
SAPA_FOGBAND
 66
     1
 10
0.0
 20
0.0
 30
0.0
 70
     1
  0
VERTEX
  5
20FB
  8
SAPA_FOGBAND
 10
-6.5647055468533164
 20
80.591043840767114
 30
0.0
 42
-0.4142135623731784
  0
VERTEX
  5
20FC
  8
SAPA_FOGBAND
 10
-6.6842400423451789
 20
80.334701287944824
 30
0.0
  0
VERTEX
  5
20FD
  8
SAPA_FOGBAND
 10
-11.31648201460551
 20
78.648703092123256
 30
0.0
 42
0.2663342079579515
  0
VERTEX
  5
20FE
  8
SAPA_FOGBAND
 10
-11.958204693663101
 20
77.888593486709055
 30
0.0
  0
VERTEX
  5
20FF
  8
SAPA_FOGBAND
 10
-13.23853263797869
 20
73.07247815402134
 30
0.0
 42
0.052861208559515
  0
VERTEX
  5
2100
  8
SAPA_FOGBAND
 10
-13.25431904775478
 20
72.862214296764549
 30
0.0
 42
0.2389362379610746
  0
VERTEX
  5
2101
  8
SAPA_FOGBAND
 10
-12.596051114965441
 20
71.778136762398162
 30
0.0
 42
0.4294697894411934
  0
VERTEX
  5
2102
  8
SAPA_FOGBAND
 10
-12.31970877829075
 20
71.866326971837452
 30
0.0
  0
VERTEX
  5
2103
  8
SAPA_FOGBAND
 10
-9.7467964999232226
 20
75.185719973846773
 30
0.0
 42
-0.1982170680849751
  0
VERTEX
  5
2104
  8
SAPA_FOGBAND
 10
-9.1836428987298593
 20
75.700370841115173
 30
0.0
  0
VERTEX
  5
2105
  8
SAPA_FOGBAND
 10
-9.0721408644974044
 20
75.740954262636166
 30
0.0
 42
-0.2084822249037384
  0
VERTEX
  5
2106
  8
SAPA_FOGBAND
 10
-8.2744847881371726
 20
75.691427860332965
 30
0.0
  0
VERTEX
  5
2107
  8
SAPA_FOGBAND
 10
-4.3527690604940741
 20
76.45835150266943
 30
0.0
  0
VERTEX
  5
2108
  8
SAPA_FOGBAND
 10
-3.9576026390922201
 20
76.989042640718125
 30
0.0
  0
VERTEX
  5
2109
  8
SAPA_FOGBAND
 10
-7.4096740236616352
 20
76.794083958077493
 30
0.0
 42
-0.6313983151680102
  0
VERTEX
  5
210A
  8
SAPA_FOGBAND
 10
-7.2931965016250331
 20
77.323129086551177
 30
0.0
  0
VERTEX
  5
210B
  8
SAPA_FOGBAND
 10
-4.5074204833645011
 20
77.968685778171988
 30
0.0
 42
-0.379100851898285
  0
VERTEX
  5
210C
  8
SAPA_FOGBAND
 10
-4.15778740249345
 20
77.779036308875305
 30
0.0
  0
VERTEX
  5
210D
  8
SAPA_FOGBAND
 10
-4.0776306095264738
 20
77.558807330182646
 30
0.0
 42
0.4142135623730951
  0
VERTEX
  5
210E
  8
SAPA_FOGBAND
 10
-3.693116780292923
 20
77.379505586944887
 30
0.0
  0
VERTEX
  5
210F
  8
SAPA_FOGBAND
 10
0.5841019313137004
 20
78.936285883416133
 30
0.0
  0
VERTEX
  5
2110
  8
SAPA_FOGBAND
 10
6.708238205588672
 20
80.610112615019347
 30
0.0
  0
VERTEX
  5
2111
  8
SAPA_FOGBAND
 10
6.708238205588672
 20
80.610112615019347
 30
0.0
  0
VERTEX
  5
2112
  8
SAPA_FOGBAND
 10
7.1182825332948001
 20
81.202397932923745
 30
0.0
 42
-0.0144193411868444
  0
VERTEX
  5
2113
  8
SAPA_FOGBAND
 10
6.563912650037552
 20
82.324940444711174
 30
0.0
  0
VERTEX
  5
2114
  8
SAPA_FOGBAND
 10
1.175321067267679
 20
82.131169813764473
 30
0.0
  0
VERTEX
  5
2115
  8
SAPA_FOGBAND
 10
0.5425838021152228
 20
83.869601162218316
 30
0.0
 42
0.4142135623731212
  0
VERTEX
  5
2116
  8
SAPA_FOGBAND
 10
0.3503268874983707
 20
83.959252033837416
 30
0.0
  0
VERTEX
  5
2117
  8
SAPA_FOGBAND
 10
-0.6985494871729521
 20
83.577492254031768
 30
0.0
 42
0.3812119866949899
  0
VERTEX
  5
2118
  8
SAPA_FOGBAND
 10
-0.7931203998028518
 20
83.401598479092215
 30
0.0
  0
VERTEX
  5
2119
  8
SAPA_FOGBAND
 10
-0.6210037006939256
 20
82.683011617342103
 30
0.0
 42
-0.3812119866949819
  0
VERTEX
  5
211A
  8
SAPA_FOGBAND
 10
-0.7155746133242529
 20
82.507117842402394
 30
0.0
  0
VERTEX
  5
211B
  8
SAPA_FOGBAND
 10
-3.8651621799875309
 20
81.360761717922045
 30
0.0
 42
-0.4142135623730951
  0
VERTEX
  5
211C
  8
SAPA_FOGBAND
 10
-4.12150473281004
 20
81.480296213413823
 30
0.0
  0
VERTEX
  5
211D
  8
SAPA_FOGBAND
 10
-4.3951208474701318
 20
82.232050310042666
 30
0.0
 42
0.4142135623730951
  0
VERTEX
  5
211E
  8
SAPA_FOGBAND
 10
-4.6514634002927204
 20
82.351584805534657
 30
0.0
  0
VERTEX
  5
211F
  8
SAPA_FOGBAND
 10
-5.0273404486071689
 20
82.214776748204372
 30
0.0
 42
-0.4142135623731784
  0
VERTEX
  5
2120
  8
SAPA_FOGBAND
 10
-5.2836830014293277
 20
82.334311243696504
 30
0.0
  0
VERTEX
  5
2121
  8
SAPA_FOGBAND
 10
-5.6501913794458618
 20
83.341284736337869
 30
0.0
 42
-0.7038255290761633
  0
VERTEX
  5
2122
  8
SAPA_FOGBAND
 10
-5.5053849259785128
 20
83.461600512472558
 30
0.0
  0
VERTEX
  5
2123
  8
SAPA_FOGBAND
 10
-4.4022394172932309
 20
82.810359431126074
 30
0.0
 42
0.9999999999999552
  0
VERTEX
  5
2124
  8
SAPA_FOGBAND
 10
-3.9955418861826688
 20
83.499269525542346
 30
0.0
  0
VERTEX
  5
2125
  8
SAPA_FOGBAND
 10
-5.5455895986191051
 20
84.414338970541507
 30
0.0
 42
0.2242387338111004
  0
VERTEX
  5
2126
  8
SAPA_FOGBAND
 10
-6.6085796701364554
 20
84.512532723998433
 30
0.0
 42
0.2242387338111007
  0
VERTEX
  5
2127
  8
SAPA_FOGBAND
 10
-7.3597595794422377
 20
83.754035097622619
 30
0.0
  0
VERTEX
  5
2128
  8
SAPA_FOGBAND
 10
-7.9589697148752387
 20
82.056699770235923
 30
0.0
 42
0.9999999999999548
  0
VERTEX
  5
2129
  8
SAPA_FOGBAND
 10
-7.2045984582590306
 20
81.790384154487754
 30
0.0
  0
VERTEX
  5
212A
  8
SAPA_FOGBAND
 10
-6.7781496693873837
 20
82.998352030648263
 30
0.0
 42
-0.7038255290761636
  0
VERTEX
  5
212B
  8
SAPA_FOGBAND
 10
-6.5898840002317707
 20
82.999264593012214
 30
0.0
  0
VERTEX
  5
212C
  8
SAPA_FOGBAND
 10
-6.2233756222153147
 20
81.992291100371077
 30
0.0
 42
-0.4142135623730117
  0
VERTEX
  5
212D
  8
SAPA_FOGBAND
 10
-6.3429101177071763
 20
81.735948547548773
 30
0.0
  0
VERTEX
  5
212E
  8
SAPA_FOGBAND
 10
-6.7187871660215466
 20
81.599140490218247
 30
0.0
 42
0.4142135623730951
  0
VERTEX
  5
212F
  8
SAPA_FOGBAND
 10
-6.8383216615139126
 20
81.342797937396014
 30
0.0
  0
SEQEND
  5
2130
  8
SAPA_FOGBAND
  0
CIRCLE
  5
10ED
  8
SAPA_FOGBAND
 10
-36.561800175261212
 20
-72.62935679561437
 30
0.0
 40
0.2549509756796394
  0
INSERT
  5
10EE
  8
SAPA_FOGBAND
  6
CONTINUOUS
  2
*U110
 10
0.0
 20
0.0
 30
0.0
1001
ACAD
1002
{
1000
R14_HATCH_DATA
1000
10EE
1011
1.0
1021
0.0
1031
0.0
1021
0.0
1031
0.0
1011
0.0
1021
0.0
1031
0.0
1021
1.0
1031
0.0
1011
0.0
1021
0.0
1031
0.0
1021
0.0
1031
1.0
1040
0.0
1010
0.0
1020
0.0
1030
1.0
1000
SOLID
1070
     1
1070
     1
1071
        1
1071
        1
1071
        1
1070
     3
1040
-36.561800175261212
1040
-72.62935679561437
1040
0.1802775637731993
1040
0.1802775637731993
1040
0.9999999999999614
1040
-0.7853981633974677
1040
5.4977871437821184
1070
     0
1071
        1
1005
10ED
1070
     0
1070
     1
1071
        1
1040
9.2008398681107337
1040
24.653020573776981
1040
0.0
1002
}
  0
POLYLINE
  5
10EF
  8
SAPA_FOGBAND
 66
     1
 10
0.0
 20
0.0
 30
0.0
 70
     1
  0
VERTEX
  5
21B2
  8
SAPA_FOGBAND
 10
-39.133333318912079
 20
-71.729356795614279
 30
0.0
 42
-0.9999999999999998
  0
VERTEX
  5
21B3
  8
SAPA_FOGBAND
 10
-39.133333318912079
 20
-73.529356795614234
 30
0.0
  0
VERTEX
  5
21B4
  8
SAPA_FOGBAND
 10
-39.733333318912102
 20
-73.529356795614234
 30
0.0
 42
-0.9999999999999998
  0
VERTEX
  5
21B5
  8
SAPA_FOGBAND
 10
-39.733333318912102
 20
-71.729356795614279
 30
0.0
  0
SEQEND
  5
21B6
  8
SAPA_FOGBAND
  0
POLYLINE
  5
10F0
  8
SAPA_FOGBAND
 66
     1
 10
0.0
 20
0.0
 30
0.0
 70
     1
  0
VERTEX
  5
21B7
  8
SAPA_FOGBAND
 10
-35.697562023760881
 20
-68.37935679561437
 30
0.0
  0
VERTEX
  5
21B8
  8
SAPA_FOGBAND
 10
-37.833333318912011
 20
-68.379356795614143
 30
0.0
 42
0.4142135623730951
  0
VERTEX
  5
21B9
  8
SAPA_FOGBAND
 10
-38.033333318912057
 20
-68.579356795614189
 30
0.0
  0
VERTEX
  5
21BA
  8
SAPA_FOGBAND
 10
-38.033333318912057
 20
-70.62935679561437
 30
0.0
 42
-0.4142135623730951
  0
VERTEX
  5
21BB
  8
SAPA_FOGBAND
 10
-38.533333318912057
 20
-71.12935679561437
 30
0.0
  0
VERTEX
  5
21BC
  8
SAPA_FOGBAND
 10
-39.260128238155218
 20
-71.12935679561437
 30
0.0
  0
VERTEX
  5
21BD
  8
SAPA_FOGBAND
 10
-39.327588147465619
 20
-70.877592986593839
 30
0.0
 42
0.4740571810232154
  0
VERTEX
  5
21BE
  8
SAPA_FOGBAND
 10
-39.609870733104273
 20
-70.750299124230281
 30
0.0
  0
VERTEX
  5
21BF
  8
SAPA_FOGBAND
 10
-41.056076869864043
 20
-71.370399626988814
 30
0.0
 42
0.2846003776496056
  0
VERTEX
  5
21C0
  8
SAPA_FOGBAND
 10
-41.333333318912011
 20
-71.818043805449037
 30
0.0
  0
VERTEX
  5
21C1
  8
SAPA_FOGBAND
 10
-41.333333318912011
 20
-73.440669785779477
 30
0.0
 42
0.2846003776496054
  0
VERTEX
  5
21C2
  8
SAPA_FOGBAND
 10
-41.056076869864043
 20
-73.8883139642397
 30
0.0
  0
VERTEX
  5
21C3
  8
SAPA_FOGBAND
 10
-39.60987073310428
 20
-74.508414466998232
 30
0.0
 42
0.4740571810232154
  0
VERTEX
  5
21C4
  8
SAPA_FOGBAND
 10
-39.327588147465633
 20
-74.381120604634674
 30
0.0
  0
VERTEX
  5
21C5
  8
SAPA_FOGBAND
 10
-39.260128238155218
 20
-74.12935679561437
 30
0.0
  0
VERTEX
  5
21C6
  8
SAPA_FOGBAND
 10
-38.533333318912071
 20
-74.12935679561437
 30
0.0
 42
-0.4142135623730951
  0
VERTEX
  5
21C7
  8
SAPA_FOGBAND
 10
-38.033333318912057
 20
-74.62935679561437
 30
0.0
  0
VERTEX
  5
21C8
  8
SAPA_FOGBAND
 10
-38.033333318912057
 20
-77.679356795614325
 30
0.0
 42
-0.4142135623730951
  0
VERTEX
  5
21C9
  8
SAPA_FOGBAND
 10
-38.233333318912109
 20
-77.87935679561437
 30
0.0
  0
VERTEX
  5
21CA
  8
SAPA_FOGBAND
 10
-39.133333318912094
 20
-77.879356795614143
 30
0.0
 42
0.4142135623730951
  0
VERTEX
  5
21CB
  8
SAPA_FOGBAND
 10
-39.333333318912018
 20
-78.079356795614189
 30
0.0
  0
VERTEX
  5
21CC
  8
SAPA_FOGBAND
 10
-39.333333318912132
 20
-78.779356795614234
 30
0.0
 42
0.4142135623730951
  0
VERTEX
  5
21CD
  8
SAPA_FOGBAND
 10
-39.033333318912057
 20
-79.079356795614174
 30
0.0
  0
VERTEX
  5
21CE
  8
SAPA_FOGBAND
 10
-38.222821542260533
 20
-79.079356795614174
 30
0.0
 42
-0.1316524975873982
  0
VERTEX
  5
21CF
  8
SAPA_FOGBAND
 10
-37.222821542260533
 20
-79.347305988045335
 30
0.0
  0
VERTEX
  5
21D0
  8
SAPA_FOGBAND
 10
-34.587454623916351
 20
-83.318018525147494
 30
0.0
 42
0.876976462992761
  0
VERTEX
  5
21D1
  8
SAPA_FOGBAND
 10
-34.07011328779987
 20
-83.215112935237215
 30
0.0
  0
VERTEX
  5
21D2
  8
SAPA_FOGBAND
 10
-34.623958084344103
 20
-77.790451373365016
 30
0.0
 42
-0.1353185728426623
  0
VERTEX
  5
21D3
  8
SAPA_FOGBAND
 10
-34.623958084344103
 20
-77.790451373365016
 30
0.0
  0
VERTEX
  5
21D4
  8
SAPA_FOGBAND
 10
-34.21192139194391
 20
-77.552561880536203
 30
0.0
 42
0.5773502691896196
  0
VERTEX
  5
21D5
  8
SAPA_FOGBAND
 10
-34.21192139194391
 20
-77.206151719022358
 30
0.0
  0
VERTEX
  5
21D6
  8
SAPA_FOGBAND
 10
-34.624231954505767
 20
-76.968104102291448
 30
0.0
  0
VERTEX
  5
21D7
  8
SAPA_FOGBAND
 10
-34.624231954505767
 20
-76.190609492374819
 30
0.0
  0
VERTEX
  5
21D8
  8
SAPA_FOGBAND
 10
-34.21192139194391
 20
-75.952561880536081
 30
0.0
 42
0.5773502691896196
  0
VERTEX
  5
21D9
  8
SAPA_FOGBAND
 10
-34.21192139194391
 20
-75.606151719022449
 30
0.0
  0
VERTEX
  5
21DA
  8
SAPA_FOGBAND
 10
-34.624231954505767
 20
-75.368104102291539
 30
0.0
  0
VERTEX
  5
21DB
  8
SAPA_FOGBAND
 10
-34.624231954505767
 20
-74.590609492374909
 30
0.0
  0
VERTEX
  5
21DC
  8
SAPA_FOGBAND
 10
-34.21192139194391
 20
-74.352561880536172
 30
0.0
 42
0.5773502691896196
  0
VERTEX
  5
21DD
  8
SAPA_FOGBAND
 10
-34.21192139194391
 20
-74.006151719022313
 30
0.0
  0
VERTEX
  5
21DE
  8
SAPA_FOGBAND
 10
-34.62423195450576
 20
-73.76810410229163
 30
0.0
  0
VERTEX
  5
21DF
  8
SAPA_FOGBAND
 10
-34.62423195450576
 20
-72.990609492374773
 30
0.0
  0
VERTEX
  5
21E0
  8
SAPA_FOGBAND
 10
-34.21192139194391
 20
-72.752561880536263
 30
0.0
 42
0.5773502691896196
  0
VERTEX
  5
21E1
  8
SAPA_FOGBAND
 10
-34.21192139194391
 20
-72.406151719022404
 30
0.0
  0
VERTEX
  5
21E2
  8
SAPA_FOGBAND
 10
-34.62423195450576
 20
-72.168104102291494
 30
0.0
  0
VERTEX
  5
21E3
  8
SAPA_FOGBAND
 10
-34.62423195450576
 20
-71.390609492374864
 30
0.0
  0
VERTEX
  5
21E4
  8
SAPA_FOGBAND
 10
-34.21192139194391
 20
-71.152561880536126
 30
0.0
 42
0.5773502691896196
  0
VERTEX
  5
21E5
  8
SAPA_FOGBAND
 10
-34.21192139194391
 20
-70.806151719022267
 30
0.0
  0
VERTEX
  5
21E6
  8
SAPA_FOGBAND
 10
-34.62423195450576
 20
-70.568104102291585
 30
0.0
  0
VERTEX
  5
21E7
  8
SAPA_FOGBAND
 10
-34.62423195450576
 20
-69.790609488209924
 30
0.0
  0
VERTEX
  5
21E8
  8
SAPA_FOGBAND
 10
-34.21192139194391
 20
-69.552561876371186
 30
0.0
 42
0.5773502691896196
  0
VERTEX
  5
21E9
  8
SAPA_FOGBAND
 10
-34.21192139194391
 20
-69.206151714857313
 30
0.0
  0
VERTEX
  5
21EA
  8
SAPA_FOGBAND
 10
-35.597562022990182
 20
-68.406151715302343
 30
0.0
 42
0.1316524987190407
  0
SEQEND
  5
21EB
  8
SAPA_FOGBAND
  0
POLYLINE
  5
10F1
  8
SAPA_FOGBAND
 66
     1
 10
0.0
 20
0.0
 30
0.0
 70
     1
  0
VERTEX
  5
21EC
  8
SAPA_FOGBAND
 10
4.8812971787277268
 20
-73.301327184516467
 30
0.0
  0
VERTEX
  5
21ED
  8
SAPA_FOGBAND
 10
4.2812971787278178
 20
-73.301327184516467
 30
0.0
 42
0.9999999999999998
  0
VERTEX
  5
21EE
  8
SAPA_FOGBAND
 10
4.2812971787278178
 20
-75.101327184516634
 30
0.0
  0
VERTEX
  5
21EF
  8
SAPA_FOGBAND
 10
4.8812971787277268
 20
-75.101327184516634
 30
0.0
 42
0.9999999999999998
  0
SEQEND
  5
21F0
  8
SAPA_FOGBAND
  0
POLYLINE
  5
10F2
  8
SAPA_FOGBAND
 66
     1
 10
0.0
 20
0.0
 30
0.0
  0
VERTEX
  5
21F1
  8
SAPA_FOGBAND
 10
2.9666666810890732
 20
-77.801327184516467
 30
0.0
  0
VERTEX
  5
21F2
  8
SAPA_FOGBAND
 10
2.6666666810891182
 20
-77.801327184516467
 30
0.0
 42
-0.4142135623730951
  0
VERTEX
  5
21F3
  8
SAPA_FOGBAND
 10
2.1666666810891182
 20
-77.301327184516467
 30
0.0
  0
VERTEX
  5
21F4
  8
SAPA_FOGBAND
 10
2.1666666810891182
 20
-70.001327184516285
 30
0.0
 42
-0.4142135623730951
  0
VERTEX
  5
21F5
  8
SAPA_FOGBAND
 10
2.6666666810891182
 20
-69.501327184516285
 30
0.0
  0
VERTEX
  5
21F6
  8
SAPA_FOGBAND
 10
2.9666666810890732
 20
-69.50132718451674
 30
0.0
  0
SEQEND
  5
21F7
  8
SAPA_FOGBAND
  0
POLYLINE
  5
10F3
  8
SAPA_FOGBAND
 10
-2.0951658686515602
 20
-76.264574318353766
 30
0.0
 66
     1
 70
     8
  0
VERTEX
  8
SAPA_FOGBAND
  5
2266
 10
-2.09517
 20
-76.2646
 30
0.000000
  70
    32
  0
VERTEX
  8
SAPA_FOGBAND
  5
2267
 10
-2.17793
 20
-76.2598
 30
0.000000
  70
    32
  0
VERTEX
  8
SAPA_FOGBAND
  5
2268
 10
-2.26042
 20
-76.2470
 30
0.000000
  70
    32
  0
VERTEX
  8
SAPA_FOGBAND
  5
2269
 10
-2.34243
 20
-76.2264
 30
0.000000
  70
    32
  0
VERTEX
  8
SAPA_FOGBAND
  5
226A
 10
-2.42377
 20
-76.1979
 30
0.000000
  70
    32
  0
VERTEX
  8
SAPA_FOGBAND
  5
226B
 10
-2.50424
 20
-76.1616
 30
0.000000
  70
    32
  0
VERTEX
  8
SAPA_FOGBAND
  5
226C
 10
-2.58364
 20
-76.1177
 30
0.000000
  70
    32
  0
VERTEX
  8
SAPA_FOGBAND
  5
226D
 10
-2.66179
 20
-76.0661
 30
0.000000
  70
    32
  0
VERTEX
  8
SAPA_FOGBAND
  5
226E
 10
-2.73849
 20
-76.0071
 30
0.000000
  70
    32
  0
VERTEX
  8
SAPA_FOGBAND
  5
226F
 10
-2.81356
 20
-75.9407
 30
0.000000
  70
    32
  0
VERTEX
  8
SAPA_FOGBAND
  5
2270
 10
-2.88682
 20
-75.8672
 30
0.000000
  70
    32
  0
VERTEX
  8
SAPA_FOGBAND
  5
2271
 10
-2.95810
 20
-75.7867
 30
0.000000
  70
    32
  0
VERTEX
  8
SAPA_FOGBAND
  5
2272
 10
-3.02722
 20
-75.6994
 30
0.000000
  70
    32
  0
VERTEX
  8
SAPA_FOGBAND
  5
2273
 10
-3.09401
 20
-75.6055
 30
0.000000
  70
    32
  0
VERTEX
  8
SAPA_FOGBAND
  5
2274
 10
-3.15832
 20
-75.5052
 30
0.000000
  70
    32
  0
VERTEX
  8
SAPA_FOGBAND
  5
2275
 10
-3.21999
 20
-75.3989
 30
0.000000
  70
    32
  0
VERTEX
  8
SAPA_FOGBAND
  5
2276
 10
-3.27887
 20
-75.2867
 30
0.000000
  70
    32
  0
VERTEX
  8
SAPA_FOGBAND
  5
2277
 10
-3.33482
 20
-75.1688
 30
0.000000
  70
    32
  0
VERTEX
  8
SAPA_FOGBAND
  5
2278
 10
-3.38770
 20
-75.0457
 30
0.000000
  70
    32
  0
VERTEX
  8
SAPA_FOGBAND
  5
2279
 10
-3.43740
 20
-74.9176
 30
0.000000
  70
    32
  0
VERTEX
  8
SAPA_FOGBAND
  5
227A
 10
-3.48377
 20
-74.7848
 30
0.000000
  70
    32
  0
VERTEX
  8
SAPA_FOGBAND
  5
227B
 10
-3.52673
 20
-74.6475
 30
0.000000
  70
    32
  0
VERTEX
  8
SAPA_FOGBAND
  5
227C
 10
-3.56615
 20
-74.5063
 30
0.000000
  70
    32
  0
VERTEX
  8
SAPA_FOGBAND
  5
227D
 10
-3.60196
 20
-74.3613
 30
0.000000
  70
    32
  0
VERTEX
  8
SAPA_FOGBAND
  5
227E
 10
-3.63405
 20
-74.2130
 30
0.000000
  70
    32
  0
VERTEX
  8
SAPA_FOGBAND
  5
227F
 10
-3.66236
 20
-74.0616
 30
0.000000
  70
    32
  0
VERTEX
  8
SAPA_FOGBAND
  5
2280
 10
-3.68681
 20
-73.9077
 30
0.000000
  70
    32
  0
VERTEX
  8
SAPA_FOGBAND
  5
2281
 10
-3.70735
 20
-73.7514
 30
0.000000
  70
    32
  0
VERTEX
  8
SAPA_FOGBAND
  5
2282
 10
-3.72393
 20
-73.5933
 30
0.000000
  70
    32
  0
VERTEX
  8
SAPA_FOGBAND
  5
2283
 10
-3.73650
 20
-73.4336
 30
0.000000
  70
    32
  0
VERTEX
  8
SAPA_FOGBAND
  5
2284
 10
-3.74504
 20
-73.2729
 30
0.000000
  70
    32
  0
VERTEX
  8
SAPA_FOGBAND
  5
2285
 10
-3.74953
 20
-73.1114
 30
0.000000
  70
    32
  0
VERTEX
  8
SAPA_FOGBAND
  5
2286
 10
-3.74995
 20
-72.9495
 30
0.000000
  70
    32
  0
VERTEX
  8
SAPA_FOGBAND
  5
2287
 10
-3.74631
 20
-72.7877
 30
0.000000
  70
    32
  0
VERTEX
  8
SAPA_FOGBAND
  5
2288
 10
-3.73860
 20
-72.6263
 30
0.000000
  70
    32
  0
VERTEX
  8
SAPA_FOGBAND
  5
2289
 10
-3.72687
 20
-72.4657
 30
0.000000
  70
    32
  0
VERTEX
  8
SAPA_FOGBAND
  5
228A
 10
-3.71112
 20
-72.3064
 30
0.000000
  70
    32
  0
VERTEX
  8
SAPA_FOGBAND
  5
228B
 10
-3.69140
 20
-72.1486
 30
0.000000
  70
    32
  0
VERTEX
  8
SAPA_FOGBAND
  5
228C
 10
-3.66775
 20
-71.9928
 30
0.000000
  70
    32
  0
VERTEX
  8
SAPA_FOGBAND
  5
228D
 10
-3.64024
 20
-71.8393
 30
0.000000
  70
    32
  0
VERTEX
  8
SAPA_FOGBAND
  5
228E
 10
-3.60892
 20
-71.6886
 30
0.000000
  70
    32
  0
VERTEX
  8
SAPA_FOGBAND
  5
228F
 10
-3.57388
 20
-71.5409
 30
0.000000
  70
    32
  0
VERTEX
  8
SAPA_FOGBAND
  5
2290
 10
-3.53520
 20
-71.3967
 30
0.000000
  70
    32
  0
VERTEX
  8
SAPA_FOGBAND
  5
2291
 10
-3.49297
 20
-71.2562
 30
0.000000
  70
    32
  0
VERTEX
  8
SAPA_FOGBAND
  5
2292
 10
-3.44730
 20
-71.1199
 30
0.000000
  70
    32
  0
VERTEX
  8
SAPA_FOGBAND
  5
2293
 10
-3.39828
 20
-70.9880
 30
0.000000
  70
    32
  0
VERTEX
  8
SAPA_FOGBAND
  5
2294
 10
-3.34605
 20
-70.8609
 30
0.000000
  70
    32
  0
VERTEX
  8
SAPA_FOGBAND
  5
2295
 10
-3.29073
 20
-70.7389
 30
0.000000
  70
    32
  0
VERTEX
  8
SAPA_FOGBAND
  5
2296
 10
-3.23245
 20
-70.6222
 30
0.000000
  70
    32
  0
VERTEX
  8
SAPA_FOGBAND
  5
2297
 10
-3.17134
 20
-70.5112
 30
0.000000
  70
    32
  0
VERTEX
  8
SAPA_FOGBAND
  5
2298
 10
-3.10757
 20
-70.4061
 30
0.000000
  70
    32
  0
VERTEX
  8
SAPA_FOGBAND
  5
2299
 10
-3.04128
 20
-70.3071
 30
0.000000
  70
    32
  0
VERTEX
  8
SAPA_FOGBAND
  5
229A
 10
-2.97263
 20
-70.2146
 30
0.000000
  70
    32
  0
VERTEX
  8
SAPA_FOGBAND
  5
229B
 10
-2.90178
 20
-70.1287
 30
0.000000
  70
    32
  0
VERTEX
  8
SAPA_FOGBAND
  5
229C
 10
-2.82892
 20
-70.0496
 30
0.000000
  70
    32
  0
VERTEX
  8
SAPA_FOGBAND
  5
229D
 10
-2.75421
 20
-69.9775
 30
0.000000
  70
    32
  0
VERTEX
  8
SAPA_FOGBAND
  5
229E
 10
-2.67783
 20
-69.9127
 30
0.000000
  70
    32
  0
VERTEX
  8
SAPA_FOGBAND
  5
229F
 10
-2.59997
 20
-69.8552
 30
0.000000
  70
    32
  0
VERTEX
  8
SAPA_FOGBAND
  5
22A0
 10
-2.52081
 20
-69.8052
 30
0.000000
  70
    32
  0
VERTEX
  8
SAPA_FOGBAND
  5
22A1
 10
-2.44055
 20
-69.7628
 30
0.000000
  70
    32
  0
VERTEX
  8
SAPA_FOGBAND
  5
22A2
 10
-2.35938
 20
-69.7281
 30
0.000000
  70
    32
  0
VERTEX
  8
SAPA_FOGBAND
  5
22A3
 10
-2.27749
 20
-69.7013
 30
0.000000
  70
    32
  0
VERTEX
  8
SAPA_FOGBAND
  5
22A4
 10
-2.19508
 20
-69.6823
 30
0.000000
  70
    32
  0
VERTEX
  8
SAPA_FOGBAND
  5
22A5
 10
-2.11236
 20
-69.6712
 30
0.000000
  70
    32
  0
VERTEX
  8
SAPA_FOGBAND
  5
22A6
 10
-2.02951
 20
-69.6680
 30
0.000000
  70
    32
  0
VERTEX
  8
SAPA_FOGBAND
  5
22A7
 10
-1.94674
 20
-69.6728
 30
0.000000
  70
    32
  0
VERTEX
  8
SAPA_FOGBAND
  5
22A8
 10
-1.86425
 20
-69.6856
 30
0.000000
  70
    32
  0
VERTEX
  8
SAPA_FOGBAND
  5
22A9
 10
-1.78224
 20
-69.7062
 30
0.000000
  70
    32
  0
VERTEX
  8
SAPA_FOGBAND
  5
22AA
 10
-1.70090
 20
-69.7347
 30
0.000000
  70
    32
  0
VERTEX
  8
SAPA_FOGBAND
  5
22AB
 10
-1.62044
 20
-69.7710
 30
0.000000
  70
    32
  0
VERTEX
  8
SAPA_FOGBAND
  5
22AC
 10
-1.54103
 20
-69.8149
 30
0.000000
  70
    32
  0
VERTEX
  8
SAPA_FOGBAND
  5
22AD
 10
-1.46289
 20
-69.8665
 30
0.000000
  70
    32
  0
VERTEX
  8
SAPA_FOGBAND
  5
22AE
 10
-1.38619
 20
-69.9255
 30
0.000000
  70
    32
  0
VERTEX
  8
SAPA_FOGBAND
  5
22AF
 10
-1.31111
 20
-69.9919
 30
0.000000
  70
    32
  0
VERTEX
  8
SAPA_FOGBAND
  5
22B0
 10
-1.23785
 20
-70.0654
 30
0.000000
  70
    32
  0
VERTEX
  8
SAPA_FOGBAND
  5
22B1
 10
-1.16657
 20
-70.1459
 30
0.000000
  70
    32
  0
VERTEX
  8
SAPA_FOGBAND
  5
22B2
 10
-1.09745
 20
-70.2332
 30
0.000000
  70
    32
  0
VERTEX
  8
SAPA_FOGBAND
  5
22B3
 10
-1.03066
 20
-70.3271
 30
0.000000
  70
    32
  0
VERTEX
  8
SAPA_FOGBAND
  5
22B4
 10
-0.966351
 20
-70.4274
 30
0.000000
  70
    32
  0
VERTEX
  8
SAPA_FOGBAND
  5
22B5
 10
-0.904682
 20
-70.5337
 30
0.000000
  70
    32
  0
VERTEX
  8
SAPA_FOGBAND
  5
22B6
 10
-0.845802
 20
-70.6460
 30
0.000000
  70
    32
  0
VERTEX
  8
SAPA_FOGBAND
  5
22B7
 10
-0.789853
 20
-70.7638
 30
0.000000
  70
    32
  0
VERTEX
  8
SAPA_FOGBAND
  5
22B8
 10
-0.736969
 20
-70.8869
 30
0.000000
  70
    32
  0
VERTEX
  8
SAPA_FOGBAND
  5
22B9
 10
-0.687279
 20
-71.0150
 30
0.000000
  70
    32
  0
VERTEX
  8
SAPA_FOGBAND
  5
22BA
 10
-0.640901
 20
-71.1479
 30
0.000000
  70
    32
  0
VERTEX
  8
SAPA_FOGBAND
  5
22BB
 10
-0.597947
 20
-71.2851
 30
0.000000
  70
    32
  0
VERTEX
  8
SAPA_FOGBAND
  5
22BC
 10
-0.558521
 20
-71.4263
 30
0.000000
  70
    32
  0
VERTEX
  8
SAPA_FOGBAND
  5
22BD
 10
-0.522718
 20
-71.5713
 30
0.000000
  70
    32
  0
VERTEX
  8
SAPA_FOGBAND
  5
22BE
 10
-0.490624
 20
-71.7196
 30
0.000000
  70
    32
  0
VERTEX
  8
SAPA_FOGBAND
  5
22BF
 10
-0.462317
 20
-71.8710
 30
0.000000
  70
    32
  0
VERTEX
  8
SAPA_FOGBAND
  5
22C0
 10
-0.437864
 20
-72.0249
 30
0.000000
  70
    32
  0
VERTEX
  8
SAPA_FOGBAND
  5
22C1
 10
-0.417324
 20
-72.1812
 30
0.000000
  70
    32
  0
VERTEX
  8
SAPA_FOGBAND
  5
22C2
 10
-0.400748
 20
-72.3393
 30
0.000000
  70
    32
  0
VERTEX
  8
SAPA_FOGBAND
  5
22C3
 10
-0.388174
 20
-72.4990
 30
0.000000
  70
    32
  0
VERTEX
  8
SAPA_FOGBAND
  5
22C4
 10
-0.379634
 20
-72.6597
 30
0.000000
  70
    32
  0
VERTEX
  8
SAPA_FOGBAND
  5
22C5
 10
-0.375147
 20
-72.8212
 30
0.000000
  70
    32
  0
VERTEX
  8
SAPA_FOGBAND
  5
22C6
 10
-0.374725
 20
-72.9831
 30
0.000000
  70
    32
  0
VERTEX
  8
SAPA_FOGBAND
  5
22C7
 10
-0.378369
 20
-73.1449
 30
0.000000
  70
    32
  0
VERTEX
  8
SAPA_FOGBAND
  5
22C8
 10
-0.386070
 20
-73.3063
 30
0.000000
  70
    32
  0
VERTEX
  8
SAPA_FOGBAND
  5
22C9
 10
-0.397808
 20
-73.4669
 30
0.000000
  70
    32
  0
VERTEX
  8
SAPA_FOGBAND
  5
22CA
 10
-0.413557
 20
-73.6262
 30
0.000000
  70
    32
  0
VERTEX
  8
SAPA_FOGBAND
  5
22CB
 10
-0.433278
 20
-73.7840
 30
0.000000
  70
    32
  0
VERTEX
  8
SAPA_FOGBAND
  5
22CC
 10
-0.456923
 20
-73.9398
 30
0.000000
  70
    32
  0
VERTEX
  8
SAPA_FOGBAND
  5
22CD
 10
-0.484436
 20
-74.0933
 30
0.000000
  70
    32
  0
VERTEX
  8
SAPA_FOGBAND
  5
22CE
 10
-0.515750
 20
-74.2440
 30
0.000000
  70
    32
  0
VERTEX
  8
SAPA_FOGBAND
  5
22CF
 10
-0.550790
 20
-74.3917
 30
0.000000
  70
    32
  0
VERTEX
  8
SAPA_FOGBAND
  5
22D0
 10
-0.589472
 20
-74.5359
 30
0.000000
  70
    32
  0
VERTEX
  8
SAPA_FOGBAND
  5
22D1
 10
-0.631702
 20
-74.6764
 30
0.000000
  70
    32
  0
VERTEX
  8
SAPA_FOGBAND
  5
22D2
 10
-0.677378
 20
-74.8127
 30
0.000000
  70
    32
  0
VERTEX
  8
SAPA_FOGBAND
  5
22D3
 10
-0.726391
 20
-74.9446
 30
0.000000
  70
    32
  0
VERTEX
  8
SAPA_FOGBAND
  5
22D4
 10
-0.778622
 20
-75.0717
 30
0.000000
  70
    32
  0
VERTEX
  8
SAPA_FOGBAND
  5
22D5
 10
-0.833946
 20
-75.1937
 30
0.000000
  70
    32
  0
VERTEX
  8
SAPA_FOGBAND
  5
22D6
 10
-0.892229
 20
-75.3104
 30
0.000000
  70
    32
  0
VERTEX
  8
SAPA_FOGBAND
  5
22D7
 10
-0.953331
 20
-75.4214
 30
0.000000
  70
    32
  0
VERTEX
  8
SAPA_FOGBAND
  5
22D8
 10
-1.01710
 20
-75.5266
 30
0.000000
  70
    32
  0
VERTEX
  8
SAPA_FOGBAND
  5
22D9
 10
-1.08340
 20
-75.6255
 30
0.000000
  70
    32
  0
VERTEX
  8
SAPA_FOGBAND
  5
22DA
 10
-1.15205
 20
-75.7180
 30
0.000000
  70
    32
  0
VERTEX
  8
SAPA_FOGBAND
  5
22DB
 10
-1.22289
 20
-75.8040
 30
0.000000
  70
    32
  0
VERTEX
  8
SAPA_FOGBAND
  5
22DC
 10
-1.29575
 20
-75.8830
 30
0.000000
  70
    32
  0
VERTEX
  8
SAPA_FOGBAND
  5
22DD
 10
-1.37047
 20
-75.9551
 30
0.000000
  70
    32
  0
VERTEX
  8
SAPA_FOGBAND
  5
22DE
 10
-1.44685
 20
-76.0199
 30
0.000000
  70
    32
  0
VERTEX
  8
SAPA_FOGBAND
  5
22DF
 10
-1.52471
 20
-76.0774
 30
0.000000
  70
    32
  0
VERTEX
  8
SAPA_FOGBAND
  5
22E0
 10
-1.60386
 20
-76.1274
 30
0.000000
  70
    32
  0
VERTEX
  8
SAPA_FOGBAND
  5
22E1
 10
-1.68413
 20
-76.1698
 30
0.000000
  70
    32
  0
VERTEX
  8
SAPA_FOGBAND
  5
22E2
 10
-1.76530
 20
-76.2045
 30
0.000000
  70
    32
  0
VERTEX
  8
SAPA_FOGBAND
  5
22E3
 10
-1.84719
 20
-76.2313
 30
0.000000
  70
    32
  0
VERTEX
  8
SAPA_FOGBAND
  5
22E4
 10
-1.92959
 20
-76.2503
 30
0.000000
  70
    32
  0
VERTEX
  8
SAPA_FOGBAND
  5
22E5
 10
-2.01232
 20
-76.2614
 30
0.000000
  70
    32
  0
VERTEX
  8
SAPA_FOGBAND
  5
22E6
 10
-2.09517
 20
-76.2646
 30
0.000000
  70
    32
  0
SEQEND
  8
SAPA_FOGBAND
  5
22E7
  0
POLYLINE
  5
10F4
  8
SAPA_FOGBAND
 66
     1
 10
0.0
 20
0.0
 30
0.0
 70
     1
  0
VERTEX
  5
21F8
  8
SAPA_FOGBAND
 10
-5.4866581848738596
 20
-62.891324764996043
 30
0.0
  0
VERTEX
  5
21F9
  8
SAPA_FOGBAND
 10
-5.9786105247639361
 20
-65.892651927565439
 30
0.0
 42
0.4464785874932524
  0
VERTEX
  5
21FA
  8
SAPA_FOGBAND
 10
-4.984533219657969
 20
-67.00132718451674
 30
0.0
  0
VERTEX
  5
21FB
  8
SAPA_FOGBAND
 10
-1.3834810655009091
 20
-67.00132718451674
 30
0.0
 42
0.622676997742357
  0
VERTEX
  5
21FC
  8
SAPA_FOGBAND
 10
-0.5915993373375131
 20
-65.390652697902723
 30
0.0
  0
VERTEX
  5
21FD
  8
SAPA_FOGBAND
 10
-3.0666346598545
 20
-62.389325535333562
 30
0.0
 42
0.232531183213058
  0
VERTEX
  5
21FE
  8
SAPA_FOGBAND
 10
-3.858516388018117
 20
-62.000000021947123
 30
0.0
  0
VERTEX
  5
21FF
  8
SAPA_FOGBAND
 10
-4.4925808797681119
 20
-62.000000021947343
 30
0.0
 42
0.3826682380870913
  0
SEQEND
  5
2200
  8
SAPA_FOGBAND
  0
POLYLINE
  5
10F5
  8
SAPA_FOGBAND
 66
     1
 10
0.0
 20
0.0
 30
0.0
 70
     1
  0
VERTEX
  5
2201
  8
SAPA_FOGBAND
 10
4.4755520072813582
 20
-75.953090993536861
 30
0.0
 42
0.4740571810231764
  0
VERTEX
  5
2202
  8
SAPA_FOGBAND
 10
4.757834592919898
 20
-76.080384855900647
 30
0.0
  0
VERTEX
  5
2203
  8
SAPA_FOGBAND
 10
6.2040407296800089
 20
-75.460284353141887
 30
0.0
 42
0.2846003776496257
  0
VERTEX
  5
2204
  8
SAPA_FOGBAND
 10
6.4812971787278642
 20
-75.012640174681891
 30
0.0
  0
VERTEX
  5
2205
  8
SAPA_FOGBAND
 10
6.4812971787278642
 20
-73.390014194351224
 30
0.0
 42
0.2846003776496159
  0
VERTEX
  5
2206
  8
SAPA_FOGBAND
 10
6.2040407296797824
 20
-72.942370015891228
 30
0.0
  0
VERTEX
  5
2207
  8
SAPA_FOGBAND
 10
4.757834592919898
 20
-72.322269513132468
 30
0.0
 42
0.4740571810232354
  0
VERTEX
  5
2208
  8
SAPA_FOGBAND
 10
4.4755520072813582
 20
-72.449563375495799
 30
0.0
  0
VERTEX
  5
2209
  8
SAPA_FOGBAND
 10
4.4080920979709566
 20
-72.701327184516543
 30
0.0
  0
VERTEX
  5
220A
  8
SAPA_FOGBAND
 10
3.4666666810888449
 20
-72.701327184516543
 30
0.0
 42
-0.4142135623730951
  0
VERTEX
  5
220B
  8
SAPA_FOGBAND
 10
2.9666666810888449
 20
-72.201327184516543
 30
0.0
  0
VERTEX
  5
220C
  8
SAPA_FOGBAND
 10
2.9666666810890732
 20
-69.173227633781934
 30
0.0
 42
0.1657205760184635
  0
VERTEX
  5
220D
  8
SAPA_FOGBAND
 10
2.7585484092524619
 20
-68.562553147168146
 30
0.0
  0
VERTEX
  5
220E
  8
SAPA_FOGBAND
 10
-2.6360366756033922
 20
-59.194662756691152
 30
0.0
 42
0.2325311832130358
  0
VERTEX
  5
220F
  8
SAPA_FOGBAND
 10
-3.0319775396853141
 20
-58.999999999998053
 30
0.0
  0
VERTEX
  5
2210
  8
SAPA_FOGBAND
 10
-5.2627210961228883
 20
-58.999999999998053
 30
0.0
 42
0.3826682380870913
  0
VERTEX
  5
2211
  8
SAPA_FOGBAND
 10
-6.2567984012286351
 20
-59.891324743047207
 30
0.0
  0
VERTEX
  5
2212
  8
SAPA_FOGBAND
 10
-7.0333333189113736
 20
-65.495793503343847
 30
0.0
  0
VERTEX
  5
2213
  8
SAPA_FOGBAND
 10
-7.0333333189113807
 20
-79.201327162567267
 30
0.0
 42
0.4257917699693507
  0
VERTEX
  5
2214
  8
SAPA_FOGBAND
 10
-6.72152595638061
 20
-79.501094716165298
 30
0.0
  0
VERTEX
  5
2215
  8
SAPA_FOGBAND
 10
2.6784740436199348
 20
-79.013254901495984
 30
0.0
 42
0.4027293761437475
  0
VERTEX
  5
2216
  8
SAPA_FOGBAND
 10
2.9666666810890732
 20
-78.713487347897953
 30
0.0
  0
VERTEX
  5
2217
  8
SAPA_FOGBAND
 10
2.9666666810888449
 20
-76.201327184516558
 30
0.0
 42
-0.4142135623730951
  0
VERTEX
  5
2218
  8
SAPA_FOGBAND
 10
3.4666666810888449
 20
-75.70132718451633
 30
0.0
  0
VERTEX
  5
2219
  8
SAPA_FOGBAND
 10
4.4080920979709566
 20
-75.70132718451633
 30
0.0
  0
SEQEND
  5
221A
  8
SAPA_FOGBAND
  0
POLYLINE
  5
10F6
  8
SAPA_FOGBAND
 66
     1
 10
0.0
 20
0.0
 30
0.0
 70
     1
  0
VERTEX
  5
221B
  8
SAPA_FOGBAND
 10
-35.697562023761002
 20
-31.12064320438618
 30
0.0
  0
VERTEX
  5
221C
  8
SAPA_FOGBAND
 10
-37.833333318912132
 20
-31.12064320438596
 30
0.0
 42
0.4142135623730951
  0
VERTEX
  5
221D
  8
SAPA_FOGBAND
 10
-38.033333318912177
 20
-31.320643204385998
 30
0.0
  0
VERTEX
  5
221E
  8
SAPA_FOGBAND
 10
-38.033333318912177
 20
-33.370643204386191
 30
0.0
 42
-0.4142135623730951
  0
VERTEX
  5
221F
  8
SAPA_FOGBAND
 10
-38.533333318912177
 20
-33.870643204386177
 30
0.0
  0
VERTEX
  5
2220
  8
SAPA_FOGBAND
 10
-39.260128238155339
 20
-33.870643204386177
 30
0.0
  0
VERTEX
  5
2221
  8
SAPA_FOGBAND
 10
-39.32758814746574
 20
-33.618879395365653
 30
0.0
 42
0.4740571810232154
  0
VERTEX
  5
2222
  8
SAPA_FOGBAND
 10
-39.609870733104401
 20
-33.491585533002102
 30
0.0
  0
VERTEX
  5
2223
  8
SAPA_FOGBAND
 10
-41.056076869864157
 20
-34.111686035760627
 30
0.0
 42
0.2846003776496056
  0
VERTEX
  5
2224
  8
SAPA_FOGBAND
 10
-41.333333318912132
 20
-34.55933021422085
 30
0.0
  0
VERTEX
  5
2225
  8
SAPA_FOGBAND
 10
-41.333333318912132
 20
-36.18195619455129
 30
0.0
 42
0.2846003776496054
  0
VERTEX
  5
2226
  8
SAPA_FOGBAND
 10
-41.056076869864157
 20
-36.629600373011513
 30
0.0
  0
VERTEX
  5
2227
  8
SAPA_FOGBAND
 10
-39.609870733104401
 20
-37.249700875770053
 30
0.0
 42
0.4740571810232154
  0
VERTEX
  5
2228
  8
SAPA_FOGBAND
 10
-39.32758814746574
 20
-37.122407013406487
 30
0.0
  0
VERTEX
  5
2229
  8
SAPA_FOGBAND
 10
-39.260128238155339
 20
-36.870643204386191
 30
0.0
  0
VERTEX
  5
222A
  8
SAPA_FOGBAND
 10
-38.533333318912177
 20
-36.870643204386191
 30
0.0
 42
-0.4142135623730951
  0
VERTEX
  5
222B
  8
SAPA_FOGBAND
 10
-38.033333318912177
 20
-37.370643204386177
 30
0.0
  0
VERTEX
  5
222C
  8
SAPA_FOGBAND
 10
-38.033333318912177
 20
-40.420643204386138
 30
0.0
 42
-0.4142135623730951
  0
VERTEX
  5
222D
  8
SAPA_FOGBAND
 10
-38.233333318912223
 20
-40.620643204386177
 30
0.0
  0
VERTEX
  5
222E
  8
SAPA_FOGBAND
 10
-39.1333333189122
 20
-40.620643204385949
 30
0.0
 42
0.4142135623730951
  0
VERTEX
  5
222F
  8
SAPA_FOGBAND
 10
-39.333333318912132
 20
-40.820643204386002
 30
0.0
  0
VERTEX
  5
2230
  8
SAPA_FOGBAND
 10
-39.333333318912253
 20
-41.52064320438604
 30
0.0
 42
0.4142135623730951
  0
VERTEX
  5
2231
  8
SAPA_FOGBAND
 10
-39.033333318912177
 20
-41.820643204386002
 30
0.0
  0
VERTEX
  5
2232
  8
SAPA_FOGBAND
 10
-38.22282154226064
 20
-41.820643204386002
 30
0.0
 42
-0.1316524975873982
  0
VERTEX
  5
2233
  8
SAPA_FOGBAND
 10
-37.22282154226064
 20
-42.088592396817162
 30
0.0
  0
VERTEX
  5
2234
  8
SAPA_FOGBAND
 10
-34.587454623916472
 20
-46.0593049339193
 30
0.0
 42
0.876976462992761
  0
VERTEX
  5
2235
  8
SAPA_FOGBAND
 10
-34.070113287799977
 20
-45.956399344009021
 30
0.0
  0
VERTEX
  5
2236
  8
SAPA_FOGBAND
 10
-34.623958084344217
 20
-40.531737782136823
 30
0.0
 42
-0.1353185728426623
  0
VERTEX
  5
2237
  8
SAPA_FOGBAND
 10
-34.623958084344217
 20
-40.531737782136823
 30
0.0
  0
VERTEX
  5
2238
  8
SAPA_FOGBAND
 10
-34.211921391944031
 20
-40.293848289308031
 30
0.0
 42
0.5773502691896196
  0
VERTEX
  5
2239
  8
SAPA_FOGBAND
 10
-34.211921391944031
 20
-39.947438127794172
 30
0.0
  0
VERTEX
  5
223A
  8
SAPA_FOGBAND
 10
-34.624231954505881
 20
-39.709390511063262
 30
0.0
  0
VERTEX
  5
223B
  8
SAPA_FOGBAND
 10
-34.624231954505881
 20
-38.931895901146632
 30
0.0
  0
VERTEX
  5
223C
  8
SAPA_FOGBAND
 10
-34.211921391944031
 20
-38.693848289307887
 30
0.0
 42
0.5773502691896196
  0
VERTEX
  5
223D
  8
SAPA_FOGBAND
 10
-34.211921391944031
 20
-38.347438127794263
 30
0.0
  0
VERTEX
  5
223E
  8
SAPA_FOGBAND
 10
-34.624231954505881
 20
-38.109390511063353
 30
0.0
  0
VERTEX
  5
223F
  8
SAPA_FOGBAND
 10
-34.624231954505881
 20
-37.331895901146723
 30
0.0
  0
VERTEX
  5
2240
  8
SAPA_FOGBAND
 10
-34.211921391944031
 20
-37.093848289307992
 30
0.0
 42
0.5773502691896196
  0
VERTEX
  5
2241
  8
SAPA_FOGBAND
 10
-34.211921391944031
 20
-36.747438127794133
 30
0.0
  0
VERTEX
  5
2242
  8
SAPA_FOGBAND
 10
-34.624231954505881
 20
-36.509390511063451
 30
0.0
  0
VERTEX
  5
2243
  8
SAPA_FOGBAND
 10
-34.624231954505881
 20
-35.731895901146594
 30
0.0
  0
VERTEX
  5
2244
  8
SAPA_FOGBAND
 10
-34.211921391944031
 20
-35.493848289308083
 30
0.0
 42
0.5773502691896196
  0
VERTEX
  5
2245
  8
SAPA_FOGBAND
 10
-34.211921391944031
 20
-35.147438127794217
 30
0.0
  0
VERTEX
  5
2246
  8
SAPA_FOGBAND
 10
-34.624231954505881
 20
-34.909390511063307
 30
0.0
  0
VERTEX
  5
2247
  8
SAPA_FOGBAND
 10
-34.624231954505881
 20
-34.131895901146677
 30
0.0
  0
VERTEX
  5
2248
  8
SAPA_FOGBAND
 10
-34.211921391944031
 20
-33.89384828930794
 30
0.0
 42
0.5773502691896196
  0
VERTEX
  5
2249
  8
SAPA_FOGBAND
 10
-34.211921391944031
 20
-33.547438127794081
 30
0.0
  0
VERTEX
  5
224A
  8
SAPA_FOGBAND
 10
-34.624231954505881
 20
-33.309390511063398
 30
0.0
  0
VERTEX
  5
224B
  8
SAPA_FOGBAND
 10
-34.624231954505881
 20
-32.531895896981737
 30
0.0
  0
VERTEX
  5
224C
  8
SAPA_FOGBAND
 10
-34.211921391944031
 20
-32.293848285143
 30
0.0
 42
0.5773502691896196
  0
VERTEX
  5
224D
  8
SAPA_FOGBAND
 10
-34.211921391944031
 20
-31.947438123629141
 30
0.0
  0
VERTEX
  5
224E
  8
SAPA_FOGBAND
 10
-35.597562022990303
 20
-31.14743812407416
 30
0.0
 42
0.1316524987190407
  0
SEQEND
  5
224F
  8
SAPA_FOGBAND
  0
POLYLINE
  5
10F7
  8
SAPA_FOGBAND
 66
     1
 10
0.0
 20
0.0
 30
0.0
 70
     1
  0
VERTEX
  5
2250
  8
SAPA_FOGBAND
 10
-39.1333333189122
 20
-34.470643204386093
 30
0.0
 42
-0.9999999999999998
  0
VERTEX
  5
2251
  8
SAPA_FOGBAND
 10
-39.1333333189122
 20
-36.270643204386047
 30
0.0
  0
VERTEX
  5
2252
  8
SAPA_FOGBAND
 10
-39.733333318912223
 20
-36.270643204386047
 30
0.0
 42
-0.9999999999999998
  0
VERTEX
  5
2253
  8
SAPA_FOGBAND
 10
-39.733333318912223
 20
-34.470643204386093
 30
0.0
  0
SEQEND
  5
2254
  8
SAPA_FOGBAND
  0
INSERT
  5
10F8
  8
SAPA_FOGBAND
  6
CONTINUOUS
  2
*U111
 10
0.0
 20
0.0
 30
0.0
1001
ACAD
1002
{
1000
R14_HATCH_DATA
1000
10F8
1011
1.0
1021
0.0
1031
0.0
1021
0.0
1031
0.0
1011
0.0
1021
0.0
1031
0.0
1021
1.0
1031
0.0
1011
0.0
1021
0.0
1031
0.0
1021
0.0
1031
1.0
1040
0.0
1010
0.0
1020
0.0
1030
1.0
1000
SOLID
1070
     1
1070
     0
1071
        1
1071
        1
1071
        1
1070
     2
1040
-36.561800175261332
1040
-35.370643204386191
1040
0.2549509756796394
1040
0.0
1040
6.2831853071795862
1070
     0
1071
        0
1070
     0
1070
     1
1071
        1
1040
-36.479948677932441
1040
-35.60738210595629
1040
0.0
1002
}
  0
CIRCLE
  5
10F9
  8
SAPA_FOGBAND
 10
-36.561800175261332
 20
-35.370643204385964
 30
0.0
 40
0.2549509756796394
  0
SOLID
  5
1104
  8
SAPA_MATT
 10
48.460951611217439
 20
0.648891545376972
 30
0.0
 11
47.560558363309838
 21
0.2138145417070305
 31
0.0
 12
49.315985998273469
 22
-2.269826700180781
 32
0.0
 13
49.315985998273469
 23
-2.269826700180781
 33
0.0
  0
SOLID
  5
1105
  8
SAPA_MATT
 10
49.412544965716869
 20
-10.28932340669955
 30
0.0
 11
50.407442955733998
 21
-10.39020942882302
 31
0.0
 12
50.212652027095842
 22
-7.3550724477099294
 32
0.0
 13
50.212652027095842
 23
-7.3550724477099294
 33
0.0
  0
ARC
  5
1106
  8
SAPA_MATT
 10
35.344388134559438
 20
-7.3550724477099356
 30
0.0
 40
14.868263892536399
 50
0.0000000000000254
 51
19.99999999999995
  0
ARC
  5
1107
  8
SAPA_MATT
 10
35.344388134559438
 20
-7.3550724477099356
 30
0.0
 40
14.868263892536399
 50
31.580387683823801
 51
43.160775367647652
  0
ARC
  5
1108
  8
SAPA_MATT
 10
35.344388134559438
 20
-7.3550724477099356
 30
0.0
 40
14.868263892536399
 50
336.83922463235228
 51
348.4196123161762
  0
LINE
  5
1109
  8
SAPA_MATT
 10
35.344388134559424
 20
-7.3550724477099374
 30
0.0
 11
66.781507407453319
 21
-7.3550724477099356
 31
0.0
  0
VIEWPORT
  5
9BE
 67
     1
  8
0
 10
95.874658040258026
 20
141.5022166313185
 30
0.0
 40
452.56770264810001
 41
285.19473232568839
 68
     1
 69
     1
1001
ACAD
1000
MVIEW
1002
{
1070
    16
1010
0.0
1020
0.0
1030
0.0
1010
0.0
1020
0.0
1030
1.0
1040
0.0
1040
285.19473232568839
1040
95.874658040258026
1040
141.5022166313185
1040
50.0
1040
0.0
1040
0.0
1070
     0
1070
     0
1070
     1
1070
     1
1070
     0
1070
     0
1070
     0
1070
     0
1040
0.0
1040
0.0
1040
0.0
1040
10.0
1040
10.0
1040
10.0
1040
10.0
1070
     0
1002
{
1002
}
1002
}
  0
INSERT
  5
9BF
 67
     1
  8
0
  2
WEB
 10
0.0
 20
0.0
 30
0.0
  0
VIEWPORT
  5
9C0
 67
     1
  8
3D-RAM
 10
96.369180125328342
 20
138.999999827653
 30
0.0
 40
175.0
 41
175.0
 68
     2
 69
     2
1001
ACAD
1000
MVIEW
1002
{
1070
    16
1010
0.0
1020
0.0
1030
0.0
1010
0.0
1020
0.0
1030
1.0
1040
0.0
1040
17.5
1040
1425.350342731407
1040
1538.27922035293
1040
50.0
1040
0.0
1040
0.0
1070
     0
1070
   100
1070
     1
1070
     0
1070
     0
1070
     0
1070
     0
1070
     0
1040
0.0
1040
0.0
1040
0.0
1040
5.0
1040
5.0
1040
10.0
1040
10.0
1070
     0
1002
{
1002
}
1002
}
  0
LINE
  5
9C1
 67
     1
  8
3D-RAM
 10
25.1036710795997
 20
69.587678081293987
 30
0.0
 11
25.1036710795997
 21
79.587678081293987
 31
0.0
  0
LINE
  5
9C2
 67
     1
  8
3D-RAM
 10
30.1036710795997
 20
74.587678081293987
 30
0.0
 11
20.1036710795997
 21
74.587678081293987
 31
0.0
  0
ENDSEC
  0
EOF
