  0
SECTION
  2
HEADER
  9
$ACADVER
  1
AC1009
  9
$INSBASE
 10
0.0
 20
0.0
 30
0.0
  9
$EXTMIN
 10
-133.66935558282319
 20
-172.47933889737371
 30
0.0
  9
$EXTMAX
 10
35.848385281792041
 20
101.0613412791844
 30
0.0
  9
$LIMMIN
 10
0.0
 20
0.0
  9
$LIMMAX
 10
790.0
 20
790.0
  9
$ORTHOMODE
 70
     0
  9
$REGENMODE
 70
     1
  9
$FILLMODE
 70
     1
  9
$QTEXTMODE
 70
     0
  9
$MIRRTEXT
 70
     1
  9
$DRAGMODE
 70
     2
  9
$LTSCALE
 40
4.0
  9
$OSMODE
 70
   167
  9
$ATTMODE
 70
     1
  9
$TEXTSIZE
 40
3.5
  9
$TRACEWID
 40
0.05
  9
$TEXTSTYLE
  7
ISO
  9
$CLAYER
  8
0
  9
$CELTYPE
  6
BYLAYER
  9
$CECOLOR
 62
   256
  9
$DIMSCALE
 40
0.0
  9
$DIMASZ
 40
3.0
  9
$DIMEXO
 40
1.5
  9
$DIMDLI
 40
10.0
  9
$DIMRND
 40
0.0
  9
$DIMDLE
 40
0.0
  9
$DIMEXE
 40
1.5
  9
$DIMTP
 40
0.0
  9
$DIMTM
 40
0.0
  9
$DIMTXT
 40
3.0
  9
$DIMCEN
 40
-5.0
  9
$DIMTSZ
 40
0.0
  9
$DIMTOL
 70
     0
  9
$DIMLIM
 70
     0
  9
$DIMTIH
 70
     0
  9
$DIMTOH
 70
     0
  9
$DIMSE1
 70
     0
  9
$DIMSE2
 70
     0
  9
$DIMTAD
 70
     1
  9
$DIMZIN
 70
     8
  9
$DIMBLK
  1

  9
$DIMASO
 70
     1
  9
$DIMSHO
 70
     1
  9
$DIMPOST
  1

  9
$DIMAPOST
  1

  9
$DIMALT
 70
     0
  9
$DIMALTD
 70
     0
  9
$DIMALTF
 40
25.399999999999999
  9
$DIMLFAC
 40
-1.0
  9
$DIMTOFL
 70
     1
  9
$DIMTVP
 40
0.0
  9
$DIMTIX
 70
     0
  9
$DIMSOXD
 70
     0
  9
$DIMSAH
 70
     0
  9
$DIMBLK1
  1

  9
$DIMBLK2
  1

  9
$DIMSTYLE
  2
MASKIN
  9
$DIMCLRD
 70
   256
  9
$DIMCLRE
 70
   256
  9
$DIMCLRT
 70
     2
  9
$DIMTFAC
 40
1.0
  9
$DIMGAP
 40
1.0
  9
$LUNITS
 70
     2
  9
$LUPREC
 70
     8
  9
$SKETCHINC
 40
0.1
  9
$FILLETRAD
 40
0.0
  9
$AUNITS
 70
     0
  9
$AUPREC
 70
     8
  9
$MENU
  1
ACAD
  9
$ELEVATION
 40
0.0
  9
$PELEVATION
 40
0.0
  9
$THICKNESS
 40
0.0
  9
$LIMCHECK
 70
     0
  9
$BLIPMODE
 70
     0
  9
$CHAMFERA
 40
0.0
  9
$CHAMFERB
 40
0.0
  9
$SKPOLY
 70
     0
  9
$TDCREATE
 40
2454993.5898695718
  9
$TDUPDATE
 40
2455008.434765046
  9
$TDINDWG
 40
0.0170208796
  9
$TDUSRTIMER
 40
0.0170208796
  9
$USRTIMER
 70
     1
  9
$ANGBASE
 50
0.0
  9
$ANGDIR
 70
     0
  9
$PDMODE
 70
     0
  9
$PDSIZE
 40
0.0
  9
$PLINEWID
 40
0.0
  9
$COORDS
 70
     1
  9
$SPLFRAME
 70
     0
  9
$SPLINETYPE
 70
     6
  9
$SPLINESEGS
 70
     8
  9
$ATTDIA
 70
     0
  9
$ATTREQ
 70
     1
  9
$HANDLING
 70
     1
  9
$HANDSEED
  5
1273
  9
$SURFTAB1
 70
     6
  9
$SURFTAB2
 70
     6
  9
$SURFTYPE
 70
     6
  9
$SURFU
 70
     6
  9
$SURFV
 70
     6
  9
$UCSNAME
  2

  9
$UCSORG
 10
0.0
 20
0.0
 30
0.0
  9
$UCSXDIR
 10
1.0
 20
0.0
 30
0.0
  9
$UCSYDIR
 10
0.0
 20
1.0
 30
0.0
  9
$PUCSNAME
  2

  9
$PUCSORG
 10
0.0
 20
0.0
 30
0.0
  9
$PUCSXDIR
 10
1.0
 20
0.0
 30
0.0
  9
$PUCSYDIR
 10
0.0
 20
1.0
 30
0.0
  9
$USERI1
 70
     0
  9
$USERI2
 70
     0
  9
$USERI3
 70
     0
  9
$USERI4
 70
     0
  9
$USERI5
 70
     0
  9
$USERR1
 40
0.0
  9
$USERR2
 40
0.0
  9
$USERR3
 40
0.0
  9
$USERR4
 40
0.0
  9
$USERR5
 40
0.0
  9
$WORLDVIEW
 70
     1
  9
$SHADEDGE
 70
     3
  9
$SHADEDIF
 70
    70
  9
$TILEMODE
 70
     1
  9
$MAXACTVP
 70
    16
  9
$PLIMCHECK
 70
     0
  9
$PEXTMIN
 10
1.0000000000000000E+020
 20
1.0000000000000000E+020
 30
1.0000000000000000E+020
  9
$PEXTMAX
 10
-1.0000000000000000E+020
 20
-1.0000000000000000E+020
 30
-1.0000000000000000E+020
  9
$PLIMMIN
 10
-5.069427490234375
 20
-5.8737497329711914
  9
$PLIMMAX
 10
291.89889526367187
 20
204.0995779037475
  9
$UNITMODE
 70
     0
  9
$VISRETAIN
 70
     1
  9
$PLINEGEN
 70
     0
  9
$PSLTSCALE
 70
     1
  0
ENDSEC
  0
SECTION
  2
TABLES
  0
TABLE
  2
VPORT
 70
     1
  0
VPORT
  2
*ACTIVE
 70
     0
 10
0.0
 20
0.0
 11
1.0
 21
1.0
 12
58.322665652028043
 22
-35.706111911697803
 13
0.0
 23
0.0
 14
1.0
 24
1.0
 15
0.0
 25
0.0
 16
0.0
 26
0.0
 36
1.0
 17
0.0
 27
0.0
 37
0.0
 40
275.7125516490305
 41
2.362776025236593
 42
50.0
 43
0.0
 44
0.0
 50
0.0
 51
0.0
 71
     0
 72
   100
 73
     1
 74
     1
 75
     0
 76
     0
 77
     0
 78
     0
  0
ENDTAB
  0
TABLE
  2
LTYPE
 70
     4
  0
LTYPE
  2
CONTINUOUS
 70
     0
  3
Solid line
 72
    65
 73
     0
 40
0.0
  0
LTYPE
  2
DASHED
 70
     0
  3
__ __ __ __ __ __ __ __ __ __ __ __ __ __ __
 72
    65
 73
     2
 40
0.75
 49
0.5
 49
-0.25
  0
LTYPE
  2
BYGG-01473602$0$NEWDOT
 70
     0
  3
____ . ____ . ____ . ____ . ____ . ____ . ____
 72
    65
 73
     4
 40
2.0
 49
1.0
 49
-0.5
 49
0.0
 49
-0.5
  0
LTYPE
  2
BYGG-014252$0$NEWDOT
 70
     0
  3
____ . ____ . ____ . ____ . ____ . ____ . ____
 72
    65
 73
     4
 40
2.0
 49
1.0
 49
-0.5
 49
0.0
 49
-0.5
  0
ENDTAB
  0
TABLE
  2
LAYER
 70
    41
  0
LAYER
  2
0
 70
     0
 62
     7
  6
CONTINUOUS
  0
LAYER
  2
SAPA_ANSLUTNING
 70
     0
 62
     6
  6
CONTINUOUS
  0
LAYER
  2
SAPA_ARTIKELNR
 70
     0
 62
     4
  6
CONTINUOUS
  0
LAYER
  2
SAPA_PROFIL
 70
     0
 62
     7
  6
CONTINUOUS
  0
LAYER
  2
SAPA_LIGHT
 70
     1
 62
     1
  6
CONTINUOUS
  0
LAYER
  2
SAPA_FOGBAND
 70
     0
 62
     2
  6
CONTINUOUS
  0
LAYER
  2
SAPA_GLAS
 70
     0
 62
     4
  6
CONTINUOUS
  0
ENDTAB
  0
TABLE
  2
STYLE
 70
    18
  0
STYLE
  2
STANDARD
 70
     0
 40
0.0
 41
1.0
 50
0.0
 71
     0
 42
0.2
  3
txt
  4

  0
STYLE
  2
ISO
 70
     0
 40
0.0
 41
1.0
 50
0.0
 71
     0
 42
3.5
  3
txt
  4

  0
STYLE
  2
ANNOTATIVE
 70
     0
 40
0.0
 41
1.0
 50
0.0
 71
     0
 42
0.2
  3
txt
  4

  0
STYLE
  2
BYGG-024116$0$STANDARD
 70
     0
 40
0.0
 41
1.0
 50
0.0
 71
     0
 42
0.2
  3
txt
  4

  0
STYLE
  2
BYGG-024116$0$ISO
 70
     0
 40
0.0
 41
1.0
 50
0.0
 71
     0
 42
3.5
  3
txt
  4

  0
STYLE
  2
BYGG-01473602$0$STANDARD
 70
     0
 40
0.0
 41
1.0
 50
0.0
 71
     0
 42
0.2
  3
txt
  4

  0
STYLE
  2
BYGG-01473602$0$ISO
 70
     0
 40
0.0
 41
1.0
 50
0.0
 71
     0
 42
2.5
  3
isocp3.shx
  4

  0
STYLE
  2
BYGG-024082$0$STANDARD
 70
     0
 40
0.0
 41
1.0
 50
0.0
 71
     0
 42
0.2
  3
txt
  4

  0
STYLE
  2
BYGG-024082$0$ISO
 70
     0
 40
0.0
 41
1.0
 50
0.0
 71
     0
 42
3.5
  3
txt
  4

  0
STYLE
  2
BYGG-014252$0$STANDARD
 70
     0
 40
0.0
 41
1.0
 50
0.0
 71
     0
 42
0.2
  3
txt
  4

  0
STYLE
  2
BYGG-014252$0$ISO
 70
     0
 40
0.0
 41
1.0
 50
0.0
 71
     0
 42
2.5
  3
isocp3.shx
  4

  0
STYLE
  2
BYGG-014014$0$STANDARD
 70
     0
 40
0.0
 41
1.0
 50
0.0
 71
     0
 42
0.2
  3
txt
  4

  0
STYLE
  2
BYGG-024083$0$STANDARD
 70
     0
 40
0.0
 41
1.0
 50
0.0
 71
     0
 42
0.2
  3
txt
  4

  0
STYLE
  2
BYGG-024083$0$ISO
 70
     0
 40
0.0
 41
1.0
 50
0.0
 71
     0
 42
3.5
  3
txt
  4

  0
STYLE
  2
BYGG-024114$0$STANDARD
 70
     0
 40
0.0
 41
1.0
 50
0.0
 71
     0
 42
0.2
  3
txt
  4

  0
STYLE
  2
BYGG-024114$0$ISO
 70
     0
 40
0.0
 41
1.0
 50
0.0
 71
     0
 42
3.5
  3
txt
  4

  0
STYLE
  2
BYGG-013690$0$STANDARD
 70
     0
 40
0.0
 41
1.0
 50
0.0
 71
     0
 42
0.2
  3
txt
  4

  0
STYLE
  2
BYGG-013690$0$ISO
 70
     0
 40
0.0
 41
1.0
 50
0.0
 71
     0
 42
2.5
  3
isocp3.shx
  4

  0
ENDTAB
  0
TABLE
  2
VIEW
 70
     0
  0
ENDTAB
  0
TABLE
  2
UCS
 70
     0
  0
ENDTAB
  0
TABLE
  2
APPID
 70
    17
  0
APPID
  2
ACAD
 70
     0
  0
APPID
  2
ACAD_DSTYLE_DIMTEXT_FILL
 70
     0
  0
APPID
  2
ACAD_DSTYLE_DIMEXT_LENGTH
 70
     0
  0
APPID
  2
ACAD_DSTYLE_DIMEXT_ENABLED
 70
     0
  0
APPID
  2
ACAD_DSTYLE_DIM_LINETYPE
 70
     0
  0
APPID
  2
ACAD_DSTYLE_DIM_EXT1_LINETYPE
 70
     0
  0
APPID
  2
ACAD_DSTYLE_DIM_EXT2_LINETYPE
 70
     0
  0
APPID
  2
ACAD_DSTYLE_DIMJOGGED_JOGA
 70
     0
  0
APPID
  2
ACAD_DSTYLE_DIMARC_LENGTH_
 70
     0
  0
APPID
  2
ACAD_PSEXT
 70
     0
  0
APPID
  2
ACAD_MLEADERVER
 70
     0
  0
APPID
  2
AME_SOL
 70
     0
  0
APPID
  2
AMG_ARCHIVE11
 70
     0
  0
APPID
  2
DCO15
 70
     0
  0
APPID
  2
ACAD_EXEMPT_FROM_CAD_STANDARDS
 70
     0
  0
APPID
  2
ACADANNOTATIVE
 70
     0
  0
APPID
  2
ACAECLAYERSTANDARD
 70
     0
  0
ENDTAB
  0
TABLE
  2
DIMSTYLE
 70
    18
  0
DIMSTYLE
  2
STANDARD
 70
     0
  3

  4

  5

  6

  7

 40
1.0
 41
0.18
 42
0.0625
 43
0.38
 44
0.18
 45
0.0
 46
0.0
 47
0.0
 48
0.0
140
0.18
141
0.09
142
0.0
143
25.399999999999999
144
1.0
145
0.0
146
1.0
147
0.09
 71
     0
 72
     0
 73
     1
 74
     1
 75
     0
 76
     0
 77
     0
 78
     0
170
     0
171
     2
172
     0
173
     0
174
     0
175
     0
176
     0
177
     0
178
     0
  0
DIMSTYLE
  2
MASKIN
 70
     0
  3

  4

  5

  6

  7

 40
0.0
 41
3.0
 42
1.5
 43
10.0
 44
1.5
 45
0.0
 46
0.0
 47
0.0
 48
0.0
140
3.0
141
-5.0
142
0.0
143
25.399999999999999
144
-1.0
145
0.0
146
1.0
147
1.0
 71
     0
 72
     0
 73
     0
 74
     0
 75
     0
 76
     0
 77
     1
 78
     8
170
     0
171
     0
172
     1
173
     0
174
     0
175
     0
176
   256
177
   256
178
     2
  0
DIMSTYLE
  2
ANNOTATIVE
 70
     0
  3

  4

  5

  6

  7

 40
1.0
 41
0.18
 42
0.0625
 43
0.38
 44
0.18
 45
0.0
 46
0.0
 47
0.0
 48
0.0
140
0.18
141
0.09
142
0.0
143
25.399999999999999
144
1.0
145
0.0
146
1.0
147
0.09
 71
     0
 72
     0
 73
     1
 74
     1
 75
     0
 76
     0
 77
     0
 78
     0
170
     0
171
     2
172
     0
173
     0
174
     0
175
     0
176
     0
177
     0
178
     0
  0
DIMSTYLE
  2
BYGG-024116$0$STANDARD
 70
     0
  3

  4

  5

  6

  7

 40
1.0
 41
0.18
 42
0.0625
 43
0.38
 44
0.18
 45
0.0
 46
0.0
 47
0.0
 48
0.0
140
0.18
141
0.09
142
0.0
143
25.399999999999999
144
1.0
145
0.0
146
1.0
147
0.09
 71
     0
 72
     0
 73
     1
 74
     1
 75
     0
 76
     0
 77
     0
 78
     0
170
     0
171
     2
172
     0
173
     0
174
     0
175
     0
176
     0
177
     0
178
     0
  0
DIMSTYLE
  2
BYGG-024116$0$MASKIN
 70
     0
  3

  4

  5

  6

  7

 40
0.0
 41
3.0
 42
1.5
 43
10.0
 44
1.5
 45
0.0
 46
0.0
 47
0.0
 48
0.0
140
3.0
141
-5.0
142
0.0
143
25.399999999999999
144
-1.0
145
0.0
146
1.0
147
1.0
 71
     0
 72
     0
 73
     0
 74
     0
 75
     0
 76
     0
 77
     1
 78
     8
170
     0
171
     0
172
     1
173
     0
174
     0
175
     0
176
   256
177
   256
178
     2
  0
DIMSTYLE
  2
BYGG-01473602$0$STANDARD
 70
     0
  3

  4

  5

  6

  7

 40
1.0
 41
0.18
 42
0.0625
 43
0.38
 44
0.18
 45
0.0
 46
0.0
 47
0.0
 48
0.0
140
0.18
141
0.09
142
0.0
143
25.399999999999999
144
1.0
145
0.0
146
1.0
147
0.09
 71
     0
 72
     0
 73
     1
 74
     1
 75
     0
 76
     0
 77
     0
 78
     0
170
     0
171
     2
172
     0
173
     0
174
     0
175
     0
176
     0
177
     0
178
     0
  0
DIMSTYLE
  2
BYGG-01473602$0$MASKIN
 70
     0
  3

  4

  5

  6

  7

 40
0.0
 41
3.0
 42
1.5
 43
10.0
 44
1.5
 45
0.0
 46
0.0
 47
0.0
 48
0.0
140
3.0
141
-5.0
142
0.0
143
25.399999999999999
144
-1.0
145
0.0
146
1.0
147
1.0
 71
     0
 72
     0
 73
     0
 74
     1
 75
     0
 76
     0
 77
     1
 78
     8
170
     0
171
     0
172
     1
173
     0
174
     0
175
     0
176
   256
177
   256
178
     2
  0
DIMSTYLE
  2
BYGG-024082$0$STANDARD
 70
     0
  3

  4

  5

  6

  7

 40
1.0
 41
0.18
 42
0.0625
 43
0.38
 44
0.18
 45
0.0
 46
0.0
 47
0.0
 48
0.0
140
0.18
141
0.09
142
0.0
143
25.399999999999999
144
1.0
145
0.0
146
1.0
147
0.09
 71
     0
 72
     0
 73
     1
 74
     1
 75
     0
 76
     0
 77
     0
 78
     0
170
     0
171
     2
172
     0
173
     0
174
     0
175
     0
176
     0
177
     0
178
     0
  0
DIMSTYLE
  2
BYGG-024082$0$MASKIN
 70
     0
  3

  4

  5

  6

  7

 40
0.0
 41
3.0
 42
1.5
 43
10.0
 44
1.5
 45
0.0
 46
0.0
 47
0.0
 48
0.0
140
3.0
141
-5.0
142
0.0
143
25.399999999999999
144
-1.0
145
0.0
146
1.0
147
1.0
 71
     0
 72
     0
 73
     0
 74
     0
 75
     0
 76
     0
 77
     1
 78
     8
170
     0
171
     0
172
     1
173
     0
174
     0
175
     0
176
   256
177
   256
178
     2
  0
DIMSTYLE
  2
BYGG-014252$0$STANDARD
 70
     0
  3

  4

  5

  6

  7

 40
1.0
 41
0.18
 42
0.0625
 43
0.38
 44
0.18
 45
0.0
 46
0.0
 47
0.0
 48
0.0
140
0.18
141
0.09
142
0.0
143
25.399999999999999
144
1.0
145
0.0
146
1.0
147
0.09
 71
     0
 72
     0
 73
     1
 74
     1
 75
     0
 76
     0
 77
     0
 78
     0
170
     0
171
     2
172
     0
173
     0
174
     0
175
     0
176
     0
177
     0
178
     0
  0
DIMSTYLE
  2
BYGG-014252$0$MASKIN
 70
     0
  3

  4

  5

  6

  7

 40
0.0
 41
3.0
 42
1.5
 43
10.0
 44
1.5
 45
0.0
 46
0.0
 47
0.0
 48
0.0
140
3.0
141
-5.0
142
0.0
143
25.399999999999999
144
-1.0
145
0.0
146
1.0
147
1.0
 71
     0
 72
     0
 73
     0
 74
     1
 75
     0
 76
     0
 77
     1
 78
     8
170
     0
171
     0
172
     1
173
     0
174
     0
175
     0
176
   256
177
   256
178
     2
  0
DIMSTYLE
  2
BYGG-014014$0$STANDARD
 70
     0
  3

  4

  5

  6

  7

 40
1.0
 41
0.18
 42
0.0625
 43
0.38
 44
0.18
 45
0.0
 46
0.0
 47
0.0
 48
0.0
140
0.18
141
0.09
142
0.0
143
25.399999999999999
144
1.0
145
0.0
146
1.0
147
0.09
 71
     0
 72
     0
 73
     1
 74
     1
 75
     0
 76
     0
 77
     0
 78
     0
170
     0
171
     2
172
     0
173
     0
174
     0
175
     0
176
     0
177
     0
178
     0
  0
DIMSTYLE
  2
BYGG-024083$0$STANDARD
 70
     0
  3

  4

  5

  6

  7

 40
1.0
 41
0.18
 42
0.0625
 43
0.38
 44
0.18
 45
0.0
 46
0.0
 47
0.0
 48
0.0
140
0.18
141
0.09
142
0.0
143
25.399999999999999
144
1.0
145
0.0
146
1.0
147
0.09
 71
     0
 72
     0
 73
     1
 74
     1
 75
     0
 76
     0
 77
     0
 78
     0
170
     0
171
     2
172
     0
173
     0
174
     0
175
     0
176
     0
177
     0
178
     0
  0
DIMSTYLE
  2
BYGG-024083$0$MASKIN
 70
     0
  3

  4

  5

  6

  7

 40
0.0
 41
3.0
 42
1.5
 43
10.0
 44
1.5
 45
0.0
 46
0.0
 47
0.0
 48
0.0
140
3.0
141
-5.0
142
0.0
143
25.399999999999999
144
-1.0
145
0.0
146
1.0
147
1.0
 71
     0
 72
     0
 73
     0
 74
     0
 75
     0
 76
     0
 77
     1
 78
     8
170
     0
171
     0
172
     1
173
     0
174
     0
175
     0
176
   256
177
   256
178
     2
  0
DIMSTYLE
  2
BYGG-024114$0$STANDARD
 70
     0
  3

  4

  5

  6

  7

 40
1.0
 41
0.18
 42
0.0625
 43
0.38
 44
0.18
 45
0.0
 46
0.0
 47
0.0
 48
0.0
140
0.18
141
0.09
142
0.0
143
25.399999999999999
144
1.0
145
0.0
146
1.0
147
0.09
 71
     0
 72
     0
 73
     1
 74
     1
 75
     0
 76
     0
 77
     0
 78
     0
170
     0
171
     2
172
     0
173
     0
174
     0
175
     0
176
     0
177
     0
178
     0
  0
DIMSTYLE
  2
BYGG-024114$0$MASKIN
 70
     0
  3

  4

  5

  6

  7

 40
0.0
 41
3.0
 42
1.5
 43
10.0
 44
1.5
 45
0.0
 46
0.0
 47
0.0
 48
0.0
140
3.0
141
-5.0
142
0.0
143
25.399999999999999
144
-1.0
145
0.0
146
1.0
147
1.0
 71
     0
 72
     0
 73
     0
 74
     0
 75
     0
 76
     0
 77
     1
 78
     8
170
     0
171
     0
172
     1
173
     0
174
     0
175
     0
176
   256
177
   256
178
     2
  0
DIMSTYLE
  2
BYGG-013690$0$STANDARD
 70
     0
  3

  4

  5

  6

  7

 40
1.0
 41
0.18
 42
0.0625
 43
0.38
 44
0.18
 45
0.0
 46
0.0
 47
0.0
 48
0.0
140
0.18
141
0.09
142
0.0
143
25.399999999999999
144
1.0
145
0.0
146
1.0
147
0.09
 71
     0
 72
     0
 73
     1
 74
     1
 75
     0
 76
     0
 77
     0
 78
     0
170
     0
171
     2
172
     0
173
     0
174
     0
175
     0
176
     0
177
     0
178
     0
  0
DIMSTYLE
  2
BYGG-013690$0$MASKIN
 70
     0
  3

  4

  5

  6

  7

 40
0.0
 41
3.0
 42
1.5
 43
10.0
 44
1.5
 45
0.0
 46
0.0
 47
0.0
 48
0.0
140
3.0
141
-5.0
142
0.0
143
25.399999999999999
144
-1.0
145
0.0
146
1.0
147
1.0
 71
     0
 72
     0
 73
     0
 74
     1
 75
     0
 76
     0
 77
     1
 78
     8
170
     0
171
     0
172
     1
173
     0
174
     0
175
     0
176
   256
177
   256
178
     2
  0
ENDTAB
  0
ENDSEC
  0
SECTION
  2
BLOCKS
  0
BLOCK
  8
0
  2
$MODEL_SPACE
 70
     0
 10
0.0
 20
0.0
 30
0.0
  3
$MODEL_SPACE
  1

  0
ENDBLK
  5
37
  8
0
  0
BLOCK
 67
     1
  8
0
  2
$PAPER_SPACE
 70
     0
 10
0.0
 20
0.0
 30
0.0
  3
$PAPER_SPACE
  1

  0
ENDBLK
  5
35
 67
     1
  8
0
  0
BLOCK
  8
0
  2
*U25
 70
     1
 10
0.0
 20
0.0
 30
0.0
  3
*U25
  1

  0
TEXT
  5
B0F
  8
SAPA_ARTIKELNR
 10
-34.046625094073633
 20
75.814196659708955
 30
0.0
 40
3.5
  1
42144
 50
19.999999999999979
  7
ISO
  0
ENDBLK
  5
B11
  8
0
  0
BLOCK
  8
0
  2
*U26
 70
     1
 10
0.0
 20
0.0
 30
0.0
  3
*U26
  1

  0
TEXT
  5
B13
  8
SAPA_ARTIKELNR
 10
-99.708595231684257
 20
-101.7544812670053
 30
0.0
 40
3.5
  1
00887
  7
ISO
  0
ENDBLK
  5
B15
  8
0
  0
BLOCK
  8
0
  2
*U27
 70
     1
 10
0.0
 20
0.0
 30
0.0
  3
*U27
  1

  0
TEXT
  5
B41
  8
SAPA_ARTIKELNR
 10
0.0927882153772389
 20
-18.997127236542159
 30
0.0
 40
3.5
  1
68291
 50
19.999999999999979
  7
ISO
  0
ENDBLK
  5
B43
  8
0
  0
BLOCK
  8
0
  2
*X28
 70
     1
 10
0.0
 20
0.0
 30
0.0
  3
*X28
  1

  0
LINE
  5
B45
  8
0
 62
     0
 10
24.606242603101482
 20
-30.245932956570162
 30
0.0
 11
24.90761348671673
 21
-29.72394327422661
 31
0.0
  0
LINE
  5
B46
  8
0
 62
     0
 10
24.606242887597581
 20
-27.496302463808469
 30
0.0
 11
25.003117887597579
 21
-26.808894799554579
 31
0.0
  0
LINE
  5
B47
  8
0
 62
     0
 10
23.41561788759757
 20
-29.558525456570159
 30
0.0
 11
23.812492887597571
 21
-28.871117792316269
 31
0.0
  0
LINE
  5
B48
  8
0
 62
     0
 10
22.357261252670359
 20
-31.391652920791721
 30
0.0
 11
22.621867887597571
 21
-30.933340785077959
 31
0.0
  0
LINE
  5
B49
  8
0
 62
     0
 10
24.60624317209367
 20
-24.74667197104678
 30
0.0
 11
24.940940913479778
 21
-24.166958477787482
 31
0.0
  0
LINE
  5
B4A
  8
0
 62
     0
 10
23.415618172093669
 20
-26.80889496380847
 30
0.0
 11
23.812493172093671
 21
-26.12148729955457
 31
0.0
  0
LINE
  5
B4B
  8
0
 62
     0
 10
22.224993172093669
 20
-28.871117956570171
 30
0.0
 11
22.62186817209367
 21
-28.18371029231627
 31
0.0
  0
LINE
  5
B4C
  8
0
 62
     0
 10
21.047334152549801
 20
-30.91088321241191
 30
0.0
 11
21.431243172093669
 21
-30.24593328507796
 31
0.0
  0
LINE
  5
B4D
  8
0
 62
     0
 10
23.415618456589769
 20
-24.059264471046781
 30
0.0
 11
23.81249345658977
 21
-23.371856806792881
 31
0.0
  0
LINE
  5
B4E
  8
0
 62
     0
 10
22.224993456589772
 20
-26.121487463808471
 30
0.0
 11
22.62186845658977
 21
-25.434079799554571
 31
0.0
  0
LINE
  5
B4F
  8
0
 62
     0
 10
21.034368456589771
 20
-28.183710456570171
 30
0.0
 11
21.431243456589769
 21
-27.496302792316271
 31
0.0
  0
LINE
  5
B50
  8
0
 62
     0
 10
19.94761335002206
 20
-30.06602551653037
 30
0.0
 11
20.240618456589772
 21
-29.558525785077961
 31
0.0
  0
LINE
  5
B51
  8
0
 62
     0
 10
23.415618741085868
 20
-21.309633978285081
 30
0.0
 11
23.631941960687481
 21
-20.934951171078211
 31
0.0
  0
LINE
  5
B52
  8
0
 62
     0
 10
22.224993741085871
 20
-23.371856971046771
 30
0.0
 11
22.621868741085869
 21
-22.684449306792882
 31
0.0
  0
LINE
  5
B53
  8
0
 62
     0
 10
21.034368741085871
 20
-25.434079963808468
 30
0.0
 11
21.431243741085868
 21
-24.746672299554572
 31
0.0
  0
LINE
  5
B54
  8
0
 62
     0
 10
19.843743741085859
 20
-27.496302956570162
 30
0.0
 11
20.240618741085871
 21
-26.808895292316269
 31
0.0
  0
LINE
  5
B55
  8
0
 62
     0
 10
18.987116193871461
 20
-28.980025391508612
 30
0.0
 11
19.049993741085871
 21
-28.871118285077959
 31
0.0
  0
LINE
  5
B56
  8
0
 62
     0
 10
22.224994025581971
 20
-20.622226478285079
 30
0.0
 11
22.621869025581962
 21
-19.934818814031178
 31
0.0
  0
LINE
  5
B57
  8
0
 62
     0
 10
21.03436902558196
 20
-22.684449471046769
 30
0.0
 11
21.431244025581961
 21
-21.997041806792879
 31
0.0
  0
LINE
  5
B58
  8
0
 62
     0
 10
19.843744025581959
 20
-24.746672463808469
 30
0.0
 11
20.24061902558196
 21
-24.059264799554569
 31
0.0
  0
LINE
  5
B59
  8
0
 62
     0
 10
18.653119025581962
 20
-26.808895456570159
 30
0.0
 11
19.04999402558196
 21
-26.121487792316259
 31
0.0
  0
LINE
  5
B5A
  8
0
 62
     0
 10
21.034369310078059
 20
-19.93481897828508
 30
0.0
 11
21.431244310078071
 21
-19.247411314031179
 31
0.0
  0
LINE
  5
B5B
  8
0
 62
     0
 10
19.843744310078058
 20
-21.99704197104678
 30
0.0
 11
20.24061931007806
 21
-21.30963430679288
 31
0.0
  0
LINE
  5
B5C
  8
0
 62
     0
 10
18.653119310078061
 20
-24.05926496380847
 30
0.0
 11
19.049994310078059
 21
-23.37185729955457
 31
0.0
  0
LINE
  5
B5D
  8
0
 62
     0
 10
17.462494310078061
 20
-26.121487956570171
 30
0.0
 11
17.859369310078058
 21
-25.434080292316271
 31
0.0
  0
LINE
  5
B5E
  8
0
 62
     0
 10
19.843744594574162
 20
-19.247411478285091
 30
0.0
 11
20.240619594574159
 21
-18.560003814031191
 31
0.0
  0
LINE
  5
B5F
  8
0
 62
     0
 10
18.653119594574161
 20
-21.309634471046781
 30
0.0
 11
19.049994594574159
 21
-20.622226806792892
 31
0.0
  0
LINE
  5
B60
  8
0
 62
     0
 10
17.46249459457416
 20
-23.371857463808482
 30
0.0
 11
17.859369594574162
 21
-22.684449799554582
 31
0.0
  0
LINE
  5
B61
  8
0
 62
     0
 10
18.65311987907025
 20
-18.560003978285081
 30
0.0
 11
19.049994879070251
 21
-17.872596314031181
 31
0.0
  0
LINE
  5
B62
  8
0
 62
     0
 10
17.462494879070249
 20
-20.622226971046778
 30
0.0
 11
17.85936987907025
 21
-19.934819306792878
 31
0.0
  0
LINE
  5
B63
  8
0
 62
     0
 10
16.45761078539736
 20
-22.362737277006008
 30
0.0
 11
16.66874487907025
 21
-21.997042299554568
 31
0.0
  0
LINE
  5
B64
  8
0
 62
     0
 10
22.621873008527309
 20
-19.934823413140329
 30
0.0
 11
22.224998008527312
 21
-19.247415748886429
 31
0.0
  0
LINE
  5
B65
  8
0
 62
     0
 10
23.81249800852731
 20
-21.997046405902029
 30
0.0
 11
23.415623008527309
 21
-21.309638741648129
 31
0.0
  0
LINE
  5
B66
  8
0
 62
     0
 10
24.822156286543539
 20
-23.745825841708641
 30
0.0
 11
24.606248008527309
 21
-23.371861734409819
 31
0.0
  0
LINE
  5
B67
  8
0
 62
     0
 10
20.2406232930234
 20
-18.560007920378641
 30
0.0
 11
19.843748293023399
 21
-17.872600256124748
 31
0.0
  0
LINE
  5
B68
  8
0
 62
     0
 10
21.431248293023401
 20
-20.622230913140339
 30
0.0
 11
21.0343732930234
 21
-19.934823248886438
 31
0.0
  0
LINE
  5
B69
  8
0
 62
     0
 10
22.621873293023398
 20
-22.684453905902028
 30
0.0
 11
22.224998293023411
 21
-21.997046241648139
 31
0.0
  0
LINE
  5
B6A
  8
0
 62
     0
 10
23.812498293023399
 20
-24.746676898663729
 30
0.0
 11
23.415623293023408
 21
-24.059269234409829
 31
0.0
  0
LINE
  5
B6B
  8
0
 62
     0
 10
25.00312329302341
 20
-26.808899891425419
 30
0.0
 11
24.606248293023409
 21
-26.121492227171519
 31
0.0
  0
LINE
  5
B6C
  8
0
 62
     0
 10
19.049998577519499
 20
-19.247415420378641
 30
0.0
 11
18.653123577519501
 21
-18.560007756124751
 31
0.0
  0
LINE
  5
B6D
  8
0
 62
     0
 10
20.2406235775195
 20
-21.309638413140341
 30
0.0
 11
19.843748577519499
 21
-20.622230748886441
 31
0.0
  0
LINE
  5
B6E
  8
0
 62
     0
 10
21.431248577519511
 20
-23.371861405902031
 30
0.0
 11
21.034373577519499
 21
-22.684453741648142
 31
0.0
  0
LINE
  5
B6F
  8
0
 62
     0
 10
22.621873577519509
 20
-25.434084398663721
 30
0.0
 11
22.2249985775195
 21
-24.746676734409832
 31
0.0
  0
LINE
  5
B70
  8
0
 62
     0
 10
23.812498577519509
 20
-27.496307391425422
 30
0.0
 11
23.415623577519501
 21
-26.808899727171521
 31
0.0
  0
LINE
  5
B71
  8
0
 62
     0
 10
24.985384416009691
 20
-29.527805255168438
 30
0.0
 11
24.606248577519501
 21
-28.871122719933219
 31
0.0
  0
LINE
  5
B72
  8
0
 62
     0
 10
17.859373862015602
 20
-19.93482292037865
 30
0.0
 11
17.4624988620156
 21
-19.247415256124761
 31
0.0
  0
LINE
  5
B73
  8
0
 62
     0
 10
19.049998862015599
 20
-21.997045913140351
 30
0.0
 11
18.653123862015601
 21
-21.309638248886451
 31
0.0
  0
LINE
  5
B74
  8
0
 62
     0
 10
20.2406238620156
 20
-24.059268905902041
 30
0.0
 11
19.843748862015602
 21
-23.371861241648141
 31
0.0
  0
LINE
  5
B75
  8
0
 62
     0
 10
21.4312488620156
 20
-26.121491898663741
 30
0.0
 11
21.034373862015599
 21
-25.434084234409841
 31
0.0
  0
LINE
  5
B76
  8
0
 62
     0
 10
22.621873862015601
 20
-28.183714891425431
 30
0.0
 11
22.22499886201561
 21
-27.496307227171531
 31
0.0
  0
LINE
  5
B77
  8
0
 62
     0
 10
23.812498862015602
 20
-30.245937884187121
 30
0.0
 11
23.415623862015611
 21
-29.558530219933228
 31
0.0
  0
LINE
  5
B78
  8
0
 62
     0
 10
16.668749146511701
 20
-20.622230420378649
 30
0.0
 11
16.489896054119651
 21
-20.312447777264818
 31
0.0
  0
LINE
  5
B79
  8
0
 62
     0
 10
17.859374146511701
 20
-22.684453413140339
 30
0.0
 11
17.462499146511689
 21
-21.99704574888645
 31
0.0
  0
LINE
  5
B7A
  8
0
 62
     0
 10
19.049999146511698
 20
-24.74667640590204
 30
0.0
 11
18.65312414651169
 21
-24.05926874164814
 31
0.0
  0
LINE
  5
B7B
  8
0
 62
     0
 10
20.240624146511699
 20
-26.80889939866373
 30
0.0
 11
19.843749146511691
 21
-26.12149173440983
 31
0.0
  0
LINE
  5
B7C
  8
0
 62
     0
 10
21.4312491465117
 20
-28.87112239142542
 30
0.0
 11
21.034374146511698
 21
-28.18371472717153
 31
0.0
  0
LINE
  5
B7D
  8
0
 62
     0
 10
22.621874146511701
 20
-30.93334538418712
 30
0.0
 11
22.224999146511699
 21
-30.24593771993322
 31
0.0
  0
LINE
  5
B7E
  8
0
 62
     0
 10
16.668749431007789
 20
-23.371860913140338
 30
0.0
 11
16.561193357998398
 21
-23.18556833002549
 31
0.0
  0
LINE
  5
B7F
  8
0
 62
     0
 10
17.85937443100779
 20
-25.434083905902028
 30
0.0
 11
17.462499431007789
 21
-24.746676241648139
 31
0.0
  0
LINE
  5
B80
  8
0
 62
     0
 10
19.049999431007791
 20
-27.496306898663729
 30
0.0
 11
18.653124431007789
 21
-26.808899234409829
 31
0.0
  0
LINE
  5
B81
  8
0
 62
     0
 10
20.240624431007792
 20
-29.558529891425419
 30
0.0
 11
19.84374943100779
 21
-28.871122227171519
 31
0.0
  0
LINE
  5
B82
  8
0
 62
     0
 10
23.8125
 20
-30.245930000000001
 30
0.0
 11
24.606249999999999
 21
-30.245930000000001
 31
0.0
  0
LINE
  5
B83
  8
0
 62
     0
 10
21.431249999999999
 20
-30.245930000000001
 30
0.0
 11
22.225000000000001
 21
-30.245930000000001
 31
0.0
  0
LINE
  5
B84
  8
0
 62
     0
 10
23.812499999999989
 20
-28.871114999999989
 30
0.0
 11
24.606249999999989
 21
-28.871114999999989
 31
0.0
  0
LINE
  5
B85
  8
0
 62
     0
 10
21.431249999999991
 20
-28.871114999999989
 30
0.0
 11
22.225000000000001
 21
-28.871114999999989
 31
0.0
  0
LINE
  5
B86
  8
0
 62
     0
 10
19.050000000000001
 20
-28.871114999999989
 30
0.0
 11
19.84375
 21
-28.871114999999989
 31
0.0
  0
LINE
  5
B87
  8
0
 62
     0
 10
23.812499999999989
 20
-27.496300000000002
 30
0.0
 11
24.606249999999989
 21
-27.496300000000002
 31
0.0
  0
LINE
  5
B88
  8
0
 62
     0
 10
21.431249999999991
 20
-27.496300000000002
 30
0.0
 11
22.225000000000001
 21
-27.496300000000002
 31
0.0
  0
LINE
  5
B89
  8
0
 62
     0
 10
19.050000000000001
 20
-27.496300000000002
 30
0.0
 11
19.84375
 21
-27.496300000000002
 31
0.0
  0
LINE
  5
B8A
  8
0
 62
     0
 10
23.812499999999989
 20
-26.121485
 30
0.0
 11
24.606249999999989
 21
-26.121485
 31
0.0
  0
LINE
  5
B8B
  8
0
 62
     0
 10
21.431249999999991
 20
-26.121485
 30
0.0
 11
22.224999999999991
 21
-26.121485
 31
0.0
  0
LINE
  5
B8C
  8
0
 62
     0
 10
19.04999999999999
 20
-26.121485
 30
0.0
 11
19.843749999999989
 21
-26.121485
 31
0.0
  0
LINE
  5
B8D
  8
0
 62
     0
 10
17.38937843306428
 20
-26.121485
 30
0.0
 11
17.462499999999991
 21
-26.121485
 31
0.0
  0
LINE
  5
B8E
  8
0
 62
     0
 10
23.812499999999989
 20
-24.746670000000002
 30
0.0
 11
24.606249999999989
 21
-24.746670000000002
 31
0.0
  0
LINE
  5
B8F
  8
0
 62
     0
 10
21.431249999999991
 20
-24.746670000000002
 30
0.0
 11
22.224999999999991
 21
-24.746670000000002
 31
0.0
  0
LINE
  5
B90
  8
0
 62
     0
 10
19.04999999999999
 20
-24.746670000000002
 30
0.0
 11
19.843749999999989
 21
-24.746670000000002
 31
0.0
  0
LINE
  5
B91
  8
0
 62
     0
 10
16.913257667251749
 20
-24.746670000000002
 30
0.0
 11
17.462499999999991
 21
-24.746670000000002
 31
0.0
  0
LINE
  5
B92
  8
0
 62
     0
 10
23.812499999999989
 20
-23.371855
 30
0.0
 11
24.606249999999989
 21
-23.371855
 31
0.0
  0
LINE
  5
B93
  8
0
 62
     0
 10
21.431249999999991
 20
-23.371855
 30
0.0
 11
22.225000000000001
 21
-23.371855
 31
0.0
  0
LINE
  5
B94
  8
0
 62
     0
 10
19.050000000000001
 20
-23.371855
 30
0.0
 11
19.84375
 21
-23.371855
 31
0.0
  0
LINE
  5
B95
  8
0
 62
     0
 10
16.668749999999999
 20
-23.371855
 30
0.0
 11
17.462499999999999
 21
-23.371855
 31
0.0
  0
LINE
  5
B96
  8
0
 62
     0
 10
23.812499999999989
 20
-21.997039999999998
 30
0.0
 11
24.169178977704568
 21
-21.997039999999998
 31
0.0
  0
LINE
  5
B97
  8
0
 62
     0
 10
21.431249999999991
 20
-21.997039999999998
 30
0.0
 11
22.225000000000001
 21
-21.997039999999998
 31
0.0
  0
LINE
  5
B98
  8
0
 62
     0
 10
19.050000000000001
 20
-21.997039999999998
 30
0.0
 11
19.84375
 21
-21.997039999999998
 31
0.0
  0
LINE
  5
B99
  8
0
 62
     0
 10
16.668749999999999
 20
-21.997039999999998
 30
0.0
 11
17.462499999999999
 21
-21.997039999999998
 31
0.0
  0
LINE
  5
B9A
  8
0
 62
     0
 10
21.431249999999991
 20
-20.622225
 30
0.0
 11
22.225000000000001
 21
-20.622225
 31
0.0
  0
LINE
  5
B9B
  8
0
 62
     0
 10
19.050000000000001
 20
-20.622225
 30
0.0
 11
19.84375
 21
-20.622225
 31
0.0
  0
LINE
  5
B9C
  8
0
 62
     0
 10
16.668749999999999
 20
-20.622225
 30
0.0
 11
17.462499999999999
 21
-20.622225
 31
0.0
  0
LINE
  5
B9D
  8
0
 62
     0
 10
21.431249999999991
 20
-19.247409999999999
 30
0.0
 11
22.224999999999991
 21
-19.247409999999999
 31
0.0
  0
LINE
  5
B9E
  8
0
 62
     0
 10
19.04999999999999
 20
-19.247409999999999
 30
0.0
 11
19.843749999999989
 21
-19.247409999999999
 31
0.0
  0
LINE
  5
B9F
  8
0
 62
     0
 10
16.731299649622311
 20
-19.247409999999999
 30
0.0
 11
17.462499999999991
 21
-19.247409999999999
 31
0.0
  0
LINE
  5
BA0
  8
0
 62
     0
 10
19.050000000000001
 20
-17.872595
 30
0.0
 11
19.84375
 21
-17.872595
 31
0.0
  0
ENDBLK
  5
BA2
  8
0
  0
BLOCK
  8
0
  2
*X29
 70
     1
 10
0.0
 20
0.0
 30
0.0
  3
*X29
  1

  0
LINE
  5
BA4
  8
0
 62
     0
 10
30.041137601748058
 20
-13.2031573747434
 30
0.0
 11
29.99617351531478
 21
-13.15819328831012
 31
0.0
  0
LINE
  5
BA5
  8
0
 62
     0
 10
30.003436374209521
 20
-14.2879881623385
 30
0.0
 11
29.173184870157471
 21
-13.45773665828645
 31
0.0
  0
LINE
  5
BA6
  8
0
 62
     0
 10
30.034164843165531
 20
-15.441248646428161
 30
0.0
 11
28.35019622500015
 21
-13.75728002826278
 31
0.0
  0
LINE
  5
BA7
  8
0
 62
     0
 10
30.148692759090778
 20
-16.678308577487051
 30
0.0
 11
27.527207579842852
 21
-14.056823398239111
 31
0.0
  0
LINE
  5
BA8
  8
0
 62
     0
 10
30.37085513619137
 20
-18.023002969721279
 30
0.0
 11
26.704218934685532
 21
-14.356366768215439
 31
0.0
  0
LINE
  5
BA9
  8
0
 62
     0
 10
30.74142407906702
 20
-19.51610392773058
 30
0.0
 11
25.881230289528219
 21
-14.65591013819178
 31
0.0
  0
LINE
  5
BAA
  8
0
 62
     0
 10
31.34234252119877
 20
-21.23955438499598
 30
0.0
 11
25.058241644370899
 21
-14.955453508168111
 31
0.0
  0
LINE
  5
BAB
  8
0
 62
     0
 10
32.402083586877268
 20
-23.421827465808121
 30
0.0
 11
24.235252999213589
 21
-15.254996878144439
 31
0.0
  0
LINE
  5
BAC
  8
0
 62
     0
 10
34.942507031484674
 20
-27.08478292554917
 30
0.0
 11
23.41226435405628
 21
-15.55454024812078
 31
0.0
  0
LINE
  5
BAD
  8
0
 62
     0
 10
34.119518386327357
 20
-27.384326295525501
 30
0.0
 11
22.58927570889897
 21
-15.854083618097111
 31
0.0
  0
LINE
  5
BAE
  8
0
 62
     0
 10
33.296529741170048
 20
-27.683869665501831
 30
0.0
 11
21.766287063741661
 21
-16.153626988073441
 31
0.0
  0
LINE
  5
BAF
  8
0
 62
     0
 10
32.473541096012752
 20
-27.983413035478168
 30
0.0
 11
20.943298418584352
 21
-16.453170358049771
 31
0.0
  0
LINE
  5
BB0
  8
0
 62
     0
 10
21.090893874904062
 20
-17.723297829503139
 30
0.0
 11
20.120309773427032
 21
-16.752713728026102
 31
0.0
  0
LINE
  5
BB1
  8
0
 62
     0
 10
31.650552450855429
 20
-28.282956405454499
 30
0.0
 11
23.91410944558675
 21
-20.54651340018583
 31
0.0
  0
LINE
  5
BB2
  8
0
 62
     0
 10
30.827563805698109
 20
-28.582499775430829
 30
0.0
 11
25.088121527512008
 21
-22.843057497244718
 31
0.0
  0
LINE
  5
BB3
  8
0
 62
     0
 10
30.004575160540799
 20
-28.88204314540717
 30
0.0
 11
25.525220640686811
 21
-24.402688625553171
 31
0.0
  0
LINE
  5
BB4
  8
0
 62
     0
 10
29.181586515383479
 20
-29.181586515383501
 30
0.0
 11
25.700637871115259
 21
-25.700637871115259
 31
0.0
  0
LINE
  5
BB5
  8
0
 62
     0
 10
28.358597870226181
 20
-29.481129885359831
 30
0.0
 11
25.72126585229584
 21
-26.84379786742949
 31
0.0
  0
LINE
  5
BB6
  8
0
 62
     0
 10
27.535609225068871
 20
-29.780673255336151
 30
0.0
 11
25.6327966537389
 21
-27.87786068400619
 31
0.0
  0
LINE
  5
BB7
  8
0
 62
     0
 10
26.712620579911551
 20
-30.080216625312492
 30
0.0
 11
25.459743606419849
 21
-28.82733965182079
 31
0.0
  0
LINE
  5
BB8
  8
0
 62
     0
 10
25.889631934754242
 20
-30.379759995288818
 30
0.0
 11
25.216951688932792
 21
-29.707079749467368
 31
0.0
  0
LINE
  5
BB9
  8
0
 62
     0
 10
25.066643289596922
 20
-30.679303365265149
 30
0.0
 11
24.914081804666679
 21
-30.52674188033491
 31
0.0
  0
LINE
  5
BBA
  8
0
 62
     0
 10
34.489652243547013
 20
-27.249608588803419
 30
0.0
 11
34.910998962545179
 21
-26.82826186980525
 31
0.0
  0
LINE
  5
BBB
  8
0
 62
     0
 10
32.724747398506373
 20
-27.891981418710419
 30
0.0
 11
34.381286178744737
 21
-26.23544263847204
 31
0.0
  0
LINE
  5
BBC
  8
0
 62
     0
 10
30.95984255346573
 20
-28.534354248617412
 30
0.0
 11
33.876229004931119
 21
-25.617967797152019
 31
0.0
  0
LINE
  5
BBD
  8
0
 62
     0
 10
29.194937708425091
 20
-29.176727078524411
 30
0.0
 11
33.396154197627602
 21
-24.9755105893219
 31
0.0
  0
LINE
  5
BBE
  8
0
 62
     0
 10
27.43003286338444
 20
-29.819099908431411
 30
0.0
 11
32.941544037182616
 21
-24.307588734633232
 31
0.0
  0
LINE
  5
BBF
  8
0
 62
     0
 10
25.6651280183438
 20
-30.461472738338411
 30
0.0
 11
32.513051159192273
 21
-23.613549597489929
 31
0.0
  0
LINE
  5
BC0
  8
0
 62
     0
 10
25.177581458364411
 20
-29.826487283184161
 30
0.0
 11
32.111519628286509
 21
-22.892549113262049
 31
0.0
  0
LINE
  5
BC1
  8
0
 62
     0
 10
25.56377260703448
 20
-28.317764119380431
 30
0.0
 11
31.738013932733931
 21
-22.14352279368099
 31
0.0
  0
LINE
  5
BC2
  8
0
 62
     0
 10
25.711951176404661
 20
-27.047053534876611
 30
0.0
 11
31.393858405571081
 21
-21.365146305710201
 31
0.0
  0
LINE
  5
BC3
  8
0
 62
     0
 10
25.714327850849319
 20
-25.922144845298309
 30
0.0
 11
31.080690824016621
 21
-20.555781872131011
 31
0.0
  0
LINE
  5
BC4
  8
0
 62
     0
 10
25.61214266923669
 20
-24.901798011777299
 30
0.0
 11
30.800535885870399
 21
-19.713404795143578
 31
0.0
  0
LINE
  5
BC5
  8
0
 62
     0
 10
25.428021755590549
 20
-23.963386910289788
 30
0.0
 11
30.555907414364931
 21
-18.835501251515421
 31
0.0
  0
LINE
  5
BC6
  8
0
 62
     0
 10
25.175847051617971
 20
-23.09302959912873
 30
0.0
 11
30.349953444925301
 21
-17.9189232058214
 31
0.0
  0
LINE
  5
BC7
  8
0
 62
     0
 10
24.864723718849469
 20
-22.281620916763579
 30
0.0
 11
30.18666764694246
 21
-16.959676988670591
 31
0.0
  0
LINE
  5
BC8
  8
0
 62
     0
 10
24.500856516978281
 20
-21.52295610350113
 30
0.0
 11
30.07120765676509
 21
-15.95260496371432
 31
0.0
  0
LINE
  5
BC9
  8
0
 62
     0
 10
24.088536295423829
 20
-20.812744309921939
 30
0.0
 11
30.010394292245731
 21
-14.89088631310004
 31
0.0
  0
LINE
  5
BCA
  8
0
 62
     0
 10
23.63069535736604
 20
-20.148053232846081
 30
0.0
 11
30.013535451486881
 21
-13.76521313872524
 31
0.0
  0
LINE
  5
BCB
  8
0
 62
     0
 10
23.129231112734288
 20
-19.526985462344179
 30
0.0
 11
29.212955094755969
 21
-13.44326148032251
 31
0.0
  0
LINE
  5
BCC
  8
0
 62
     0
 10
22.58519245213655
 20
-18.948492107808281
 30
0.0
 11
27.448050249715319
 21
-14.08563431022951
 31
0.0
  0
LINE
  5
BCD
  8
0
 62
     0
 10
21.998875247185961
 20
-18.41227729762522
 30
0.0
 11
25.683145404674669
 21
-14.72800714013651
 31
0.0
  0
LINE
  5
BCE
  8
0
 62
     0
 10
21.36984833780398
 20
-17.918772191873561
 30
0.0
 11
23.918240559634022
 21
-15.37037997004351
 31
0.0
  0
LINE
  5
BCF
  8
0
 62
     0
 10
20.69691552336085
 20
-17.469172991183051
 30
0.0
 11
22.153335714593378
 21
-16.012752799950519
 31
0.0
  0
LINE
  5
BD0
  8
0
 62
     0
 10
19.9780054453967
 20
-17.06555105401355
 30
0.0
 11
20.388430869552732
 21
-16.655125629857519
 31
0.0
  0
ENDBLK
  5
BD2
  8
0
  0
BLOCK
  8
0
  2
*U30
 70
     1
 10
0.0
 20
0.0
 30
0.0
  3
*U30
  1

  0
TEXT
  5
CB1
  8
0
 62
     2
 10
538.15888178287003
 20
240.51041478304231
 30
0.0
 40
6.0
  1
50
  7
BYGG-01473602$0$ISO
  0
ENDBLK
  5
CB3
  8
0
  0
BLOCK
  8
0
  2
*U31
 70
     1
 10
0.0
 20
0.0
 30
0.0
  3
*U31
  1

  0
TEXT
  5
CB5
  8
0
 62
     2
 10
582.23843509911433
 20
195.6081336894147
 30
0.0
 40
6.0
  1
58
 50
90.0
  7
BYGG-01473602$0$ISO
  0
ENDBLK
  5
CB7
  8
0
  0
BLOCK
  8
0
  2
*U32
 70
     1
 10
0.0
 20
0.0
 30
0.0
  3
*U32
  1

  0
TEXT
  5
D0F
  8
0
 62
     2
 10
2.924893507843874
 20
11.80837843001756
 30
0.0
 40
3.0
  1
7
 50
90.0
  7
BYGG-014252$0$ISO
  0
ENDBLK
  5
D11
  8
0
  0
BLOCK
  8
0
  2
*U33
 70
     1
 10
0.0
 20
0.0
 30
0.0
  3
*U33
  1

  0
TEXT
  5
D13
  8
0
 62
     2
 10
29.55729736359487
 20
1.4710805811525349
 30
0.0
 40
3.0
  1
47.6
  7
BYGG-014252$0$ISO
  0
ENDBLK
  5
D15
  8
0
  0
BLOCK
  8
0
  2
*U34
 70
     1
 10
0.0
 20
0.0
 30
0.0
  3
*U34
  1

  0
TEXT
  5
DEE
  8
0
 62
     2
 10
639.58702159746713
 20
176.2962703174627
 30
0.0
 40
3.0
  1
30
 50
90.0
  7
BYGG-013690$0$ISO
  0
ENDBLK
  5
DF0
  8
0
  0
BLOCK
  8
0
  2
*U35
 70
     1
 10
0.0
 20
0.0
 30
0.0
  3
*U35
  1

  0
TEXT
  5
DF2
  8
0
 62
     2
 10
658.40267129095673
 20
202.3320694821046
 30
0.0
 40
3.0
  1
23
  7
BYGG-013690$0$ISO
  0
ENDBLK
  5
DF4
  8
0
  0
BLOCK
  8
0
  2
*U36
 70
     1
 10
0.0
 20
0.0
 30
0.0
  3
*U36
  1

  0
TEXT
  5
DF6
  8
0
 62
     2
 10
669.41458073977537
 20
117.9366029717615
 30
0.0
 40
3.0
  1
3
  7
BYGG-013690$0$ISO
  0
ENDBLK
  5
DF8
  8
0
  0
BLOCK
  8
0
  2
*U37
 70
     1
 10
0.0
 20
0.0
 30
0.0
  3
*U37
  1

  0
TEXT
  5
E10
  8
0
 62
     2
 10
6.3810204525808309
 20
-29.818594711796639
 30
0.0
 40
6.0
  1
50
 50
19.999999999999531
  7
BYGG-01473602$0$ISO
  0
ENDBLK
  5
E12
  8
0
  0
BLOCK
  8
0
  2
*U38
 70
     1
 10
0.0
 20
0.0
 30
0.0
  3
*U38
  1

  0
TEXT
  5
E14
  8
0
 62
     2
 10
-41.131757060923647
 20
-3.58453309062459
 30
0.0
 40
6.0
  1
58
 50
289.99999999999949
  7
BYGG-01473602$0$ISO
  0
ENDBLK
  5
E16
  8
0
  0
BLOCK
  8
0
  2
*U39
 70
     1
 10
0.0
 20
0.0
 30
0.0
  3
*U39
  1

  0
TEXT
  5
E18
  8
0
 62
     2
 10
-34.165865061856657
 20
82.688117599102924
 30
0.0
 40
3.0
  1
47.6
 50
20.000000000000028
  7
BYGG-014252$0$ISO
  0
ENDBLK
  5
E1A
  8
0
  0
BLOCK
  8
0
  2
*U40
 70
     1
 10
0.0
 20
0.0
 30
0.0
  3
*U40
  1

  0
TEXT
  5
10E2
  8
0
 62
     2
 10
-117.61210958227279
 20
-93.110418569612207
 30
0.0
 40
3.0
  1
30
 50
90.0
  7
BYGG-013690$0$ISO
  0
ENDBLK
  5
10E4
  8
0
  0
BLOCK
  8
0
  2
*U41
 70
     1
 10
0.0
 20
0.0
 30
0.0
  3
*U41
  1

  0
TEXT
  5
10E6
  8
0
 62
     2
 10
-98.796459888783346
 20
-67.074619404970178
 30
0.0
 40
3.0
  1
23
  7
BYGG-013690$0$ISO
  0
ENDBLK
  5
10E8
  8
0
  0
BLOCK
  8
0
  2
*U42
 70
     1
 10
0.0
 20
0.0
 30
0.0
  3
*U42
  1

  0
TEXT
  5
10EA
  8
0
 62
     2
 10
-87.784550439964434
 20
-151.47008591531321
 30
0.0
 40
3.0
  1
3
  7
BYGG-013690$0$ISO
  0
ENDBLK
  5
10EC
  8
0
  0
BLOCK
  8
0
  2
*U43
 70
     1
 10
0.0
 20
0.0
 30
0.0
  3
*U43
  1

  0
TEXT
  5
10EE
  8
0
 62
     2
 10
2.2675513695410561
 20
82.819718569579834
 30
0.0
 40
3.0
  1
7
 50
290.00000000000011
  7
BYGG-014252$0$ISO
  0
ENDBLK
  5
10F0
  8
0
  0
ENDSEC
  0
SECTION
  2
ENTITIES
  0
LINE
  5
718
  8
SAPA_ANSLUTNING
 10
-87.633093168141244
 20
6.0817320031343343
 30
0.0
 11
-22.542374373848961
 21
29.772816171247658
 31
0.0
  0
LINE
  5
719
  8
SAPA_ANSLUTNING
 10
-88.146123383129733
 20
7.4912709343131993
 30
0.0
 11
-23.055404588837451
 21
31.18235510242652
 31
0.0
  0
LINE
  5
71A
  8
SAPA_ANSLUTNING
 10
-23.05540458883743
 20
31.182355102426509
 30
0.0
 11
-32.950990705337333
 21
58.370254509779997
 31
0.0
  0
LINE
  5
71B
  8
SAPA_ANSLUTNING
 10
-33.464020920325829
 20
59.779793440958848
 30
0.0
 11
-109.8724184056084
 21
31.969411108335631
 31
0.0
  0
LINE
  5
71C
  8
SAPA_ANSLUTNING
 10
-32.950990705337333
 20
58.370254509779997
 30
0.0
 11
-108.3724184056084
 21
30.919099801021058
 31
0.0
  0
POLYLINE
  5
71E
  8
SAPA_ANSLUTNING
 66
     1
 10
0.0
 20
0.0
 30
0.0
 70
     1
  0
VERTEX
  5
B09
  8
SAPA_ANSLUTNING
 10
-83.472418405608437
 20
-63.009237467249989
 30
0.0
  0
VERTEX
  5
B0A
  8
SAPA_ANSLUTNING
 10
-63.472418405608437
 20
-63.009237467249989
 30
0.0
  0
VERTEX
  5
B0B
  8
SAPA_ANSLUTNING
 10
-63.472418405608437
 20
-133.00923746724999
 30
0.0
  0
VERTEX
  5
B0C
  8
SAPA_ANSLUTNING
 10
-83.472418405608437
 20
-133.00923746724999
 30
0.0
  0
SEQEND
  5
B0D
  8
SAPA_ANSLUTNING
  0
LINE
  5
71F
  8
SAPA_ANSLUTNING
 10
-83.472418405608437
 20
-133.00923746724999
 30
0.0
 11
-63.472418405608437
 21
-63.009237467249989
 31
0.0
  0
LINE
  5
720
  8
SAPA_ANSLUTNING
 10
-63.472418405608437
 20
-133.00923746724999
 30
0.0
 11
-83.472418405608437
 21
-63.009237467249989
 31
0.0
  0
LINE
  5
722
  8
SAPA_ANSLUTNING
 10
-108.3724184056084
 20
-133.63055781080959
 30
0.0
 11
-108.3724184056084
 21
30.919099801021058
 31
0.0
  0
LINE
  5
723
  8
SAPA_ANSLUTNING
 10
-109.8724184056084
 20
-133.00923746724999
 30
0.0
 11
-109.8724184056084
 21
31.969411108335631
 31
0.0
  0
LINE
  5
724
  8
SAPA_ANSLUTNING
 10
-109.8724184056084
 20
-133.00923746724999
 30
0.0
 11
-132.3513360981627
 21
-155.48815515980431
 31
0.0
  0
ARC
  5
725
  8
SAPA_ANSLUTNING
 10
-129.16935558282319
 20
-158.67013567514371
 30
0.0
 40
4.5000000000000062
 50
135.00000000000011
 51
315.00000000000011
  0
LINE
  5
726
  8
SAPA_ANSLUTNING
 10
-108.3724184056084
 20
-133.63055781080959
 30
0.0
 11
-131.29067592638279
 21
-156.54881533158411
 31
0.0
  0
ARC
  5
727
  8
SAPA_ANSLUTNING
 10
-129.16935558282319
 20
-158.67013567514371
 30
0.0
 40
3.000000000000004
 50
135.00000000000051
 51
314.99999999999949
  0
LINE
  5
728
  8
SAPA_ANSLUTNING
 10
-111.05610260023469
 20
-144.7995233796745
 30
0.0
 11
-127.0480352392636
 21
-160.79145601870329
 31
0.0
  0
LINE
  5
729
  8
SAPA_ANSLUTNING
 10
-109.99544242845479
 20
-145.8601835514543
 30
0.0
 11
-125.9873750674837
 21
-161.8521161904832
 31
0.0
  0
LINE
  5
72A
  8
SAPA_ANSLUTNING
 10
-111.05610260023469
 20
-144.7995233796745
 30
0.0
 11
-109.99544242845489
 21
-145.8601835514543
 31
0.0
  0
LINE
  5
72B
  8
SAPA_ANSLUTNING
 10
-83.572418405608445
 20
-133.00923746724999
 30
0.0
 11
-83.572418405608445
 21
-56.937517628214742
 31
0.0
  0
LINE
  5
72C
  8
SAPA_ANSLUTNING
 10
-85.072418405608417
 20
-133.00923746724999
 30
0.0
 11
-85.072418405608445
 21
-56.336748718561779
 31
0.0
  0
LINE
  5
72D
  8
SAPA_ANSLUTNING
 10
-84.322418405608474
 20
-121.4206260157289
 30
0.0
 11
-84.322418405608474
 21
-111.4206260157289
 31
0.0
  0
LINE
  5
72E
  8
SAPA_ANSLUTNING
 10
-84.322418405608474
 20
-91.420626015728928
 30
0.0
 11
-84.322418405608431
 21
-81.420626015728928
 31
0.0
  0
LINE
  5
72F
  8
SAPA_ANSLUTNING
 10
-84.322418405608431
 20
-61.420626015728942
 30
0.0
 11
-84.322418405608431
 21
-56.637133173388257
 31
0.0
  0
LINE
  5
730
  8
SAPA_ANSLUTNING
 10
-85.072418405608417
 20
-133.00923746724999
 30
0.0
 11
-83.572418405608445
 21
-133.00923746724999
 31
0.0
  0
LINE
  5
736
  8
SAPA_ANSLUTNING
 10
-85.072418405608417
 20
-61.420626015728942
 30
0.0
 11
-83.572418405608445
 21
-61.420626015728942
 31
0.0
  0
LINE
  5
737
  8
SAPA_ANSLUTNING
 10
-85.072418405608346
 20
-81.420626015728928
 30
0.0
 11
-83.572418405608303
 21
-81.420626015728928
 31
0.0
  0
LINE
  5
738
  8
SAPA_ANSLUTNING
 10
-85.072418405608346
 20
-91.420626015728928
 30
0.0
 11
-83.572418405608303
 21
-91.420626015728928
 31
0.0
  0
LINE
  5
739
  8
SAPA_ANSLUTNING
 10
-85.072418405608346
 20
-111.4206260157289
 30
0.0
 11
-83.572418405608303
 21
-111.4206260157289
 31
0.0
  0
LINE
  5
73A
  8
SAPA_ANSLUTNING
 10
-85.072418405608346
 20
-121.4206260157289
 30
0.0
 11
-83.572418405608303
 21
-121.4206260157289
 31
0.0
  0
LINE
  5
73B
  8
SAPA_PROFIL
 10
-49.729259221672699
 20
19.677840791227489
 30
0.0
 11
-35.351962123648342
 21
24.91074898411021
 31
0.0
  0
LINE
  5
73C
  8
SAPA_PROFIL
 10
-41.178755638530973
 20
-3.8144747284202221
 30
0.0
 11
-27.08336632674235
 21
1.315827421464806
 31
0.0
  0
LINE
  5
73D
  8
SAPA_PROFIL
  6
DASHED
 10
-80.549833730528377
 20
-31.89606611358046
 30
0.0
 11
-31.740408222462982
 21
0.4219953705616178
 31
0.0
  0
LINE
  5
73E
  8
SAPA_PROFIL
 10
-79.997756495777878
 20
-32.729859089606443
 30
0.0
 11
-31.188330987712479
 21
-0.4117976054643578
 31
0.0
  0
LINE
  5
73F
  8
SAPA_PROFIL
 10
-85.518528843282823
 20
-24.39192932934672
 30
0.0
 11
-36.709103335217463
 21
7.9261321547953498
 31
0.0
  0
LINE
  5
740
  8
SAPA_PROFIL
 10
-41.178755638530973
 20
-3.8144747284202221
 30
0.0
 11
-49.729259221672699
 21
19.677840791227489
 31
0.0
  0
LINE
  5
741
  8
SAPA_PROFIL
 10
-36.709103335217449
 20
7.9261321547953543
 30
0.0
 11
-31.188330987712479
 21
-0.4117976054643578
 31
0.0
  0
LINE
  5
742
  8
SAPA_ANSLUTNING
 10
-98.041709499629832
 20
34.679170341666008
 30
0.0
 11
-88.146123383129719
 21
7.4912709343131949
 31
0.0
  0
LINE
  5
743
  8
SAPA_PROFIL
 10
-85.518528843282809
 20
-24.39192932934672
 30
0.0
 11
-79.997756495777878
 21
-32.729859089606407
 31
0.0
  0
LINE
  5
744
  8
SAPA_ANSLUTNING
 10
-23.05540458883744
 20
31.182355102426531
 30
0.0
 11
-22.542374373848961
 21
29.772816171247658
 31
0.0
  0
LINE
  5
745
  8
SAPA_ANSLUTNING
 10
-32.950990705337333
 20
58.370254509779997
 30
0.0
 11
-33.464020920325822
 21
59.779793440958848
 31
0.0
  0
LINE
  5
746
  8
SAPA_ANSLUTNING
 10
-23.05540458883744
 20
31.182355102426531
 30
0.0
 11
-48.647931746873702
 21
52.65703520162927
 31
0.0
  0
LINE
  5
747
  8
SAPA_ANSLUTNING
 10
-54.449286671909931
 20
19.755916486125461
 30
0.0
 11
-48.647931746873702
 21
52.657035201629277
 31
0.0
  0
LINE
  5
748
  8
SAPA_ANSLUTNING
 10
-54.449286671909931
 20
19.755916486125461
 30
0.0
 11
-80.041813829946193
 21
41.2305965853282
 31
0.0
  0
LINE
  5
749
  8
SAPA_ANSLUTNING
 10
-85.843168754982429
 20
8.3294778698243945
 30
0.0
 11
-80.041813829946193
 21
41.230596585328207
 31
0.0
  0
LINE
  5
74A
  8
SAPA_ANSLUTNING
 10
-85.843168754982429
 20
8.3294778698244016
 30
0.0
 11
-89.597940382691746
 21
11.480105357790199
 31
0.0
  0
INSERT
  5
74B
  8
0
  2
*U25
 10
0.0
 20
0.0
 30
0.0
  0
INSERT
  5
74C
  8
0
  2
*U26
 10
0.0
 20
0.0
 30
0.0
  0
LINE
  5
752
  8
SAPA_ANSLUTNING
 10
-88.146123383129719
 20
7.4912709343131949
 30
0.0
 11
-87.633093168141215
 21
6.0817320031343298
 31
0.0
  0
LINE
  5
754
  8
SAPA_ANSLUTNING
 10
-63.472418405608437
 20
-63.009237467249989
 30
0.0
 11
35.848385281792027
 21
-26.859421281639371
 31
0.0
  0
LINE
  5
757
  8
SAPA_ANSLUTNING
 10
-63.472418405608437
 20
-63.009237467249989
 30
0.0
 11
-63.47241840560843
 21
-172.47933889737371
 31
0.0
  0
LINE
  5
75F
  8
SAPA_ANSLUTNING
 10
-64.41161397729887
 20
-47.366232671113707
 30
0.0
 11
-59.28131182741383
 21
-61.461621982902322
 31
0.0
  0
LINE
  5
760
  8
SAPA_ANSLUTNING
 10
-58.114047287112292
 20
-45.096283288827017
 30
0.0
 11
-15.326855286601409
 21
-29.523018992808151
 31
0.0
  0
LINE
  5
761
  8
SAPA_ANSLUTNING
 10
35.848385281792027
 20
-26.859421281639371
 30
0.0
 11
35.848385281792041
 21
-172.47933889737371
 31
0.0
  0
LINE
  5
764
  8
SAPA_ANSLUTNING
 10
-64.404486285074626
 20
-47.385815844552639
 30
0.0
 11
-12.855776161600939
 21
-36.312253090432812
 31
0.0
  0
LINE
  5
765
  8
SAPA_ANSLUTNING
 10
-59.274184135189593
 20
-61.481205156341261
 30
0.0
 11
-12.65463112274905
 21
-36.864894542713706
 31
0.0
  0
LINE
  5
771
  8
SAPA_ANSLUTNING
 10
-17.41968852926502
 20
-30.28474799842051
 30
0.0
 11
-27.59253028856017
 21
-2.0620264224267091
 31
0.0
  0
LINE
  5
772
  8
SAPA_ANSLUTNING
 10
-23.813648027959829
 20
-27.291070072669459
 30
0.0
 11
-32.296294423988307
 21
-3.757491832944126
 31
0.0
  0
LINE
  5
773
  8
SAPA_ANSLUTNING
 10
-66.10002087726977
 20
-42.682051104900928
 30
0.0
 11
-23.813648027959829
 21
-27.291070072669459
 31
0.0
  0
LINE
  5
774
  8
SAPA_ANSLUTNING
 10
-64.404547250720583
 20
-47.385838034233231
 30
0.0
 11
-66.10002087726977
 21
-42.682051104900928
 31
0.0
  0
LINE
  5
775
  8
SAPA_ANSLUTNING
 10
-32.296294423988307
 20
-3.757491832944126
 30
0.0
 11
-27.592530288560258
 21
-2.0620264224267402
 31
0.0
  0
LINE
  5
776
  8
SAPA_ANSLUTNING
 10
-64.404547250720583
 20
-47.385838034233231
 30
0.0
 11
-17.41968852926502
 21
-30.28474799842051
 31
0.0
  0
LINE
  5
777
  8
SAPA_ANSLUTNING
 10
-34.133338989763672
 20
-5.1182504949561638
 30
0.0
 11
-83.572418405608445
 21
-56.937517628214742
 31
0.0
  0
LINE
  5
778
  8
SAPA_ANSLUTNING
 10
-34.646217603662564
 20
-4.5693287171340424
 30
0.0
 11
-35.608324809809773
 21
-5.5777554701248544
 31
0.0
  0
LINE
  5
77A
  8
SAPA_ANSLUTNING
 10
-80.891091916961813
 20
-54.127101754206151
 30
0.0
 11
-81.976384270993194
 21
-53.091659575095733
 31
0.0
  0
LINE
  5
77D
  8
SAPA_ANSLUTNING
 10
-46.376352613280517
 20
-17.95068995315934
 30
0.0
 11
-47.461644967311919
 21
-16.915247774048911
 31
0.0
  0
LINE
  5
77E
  8
SAPA_ANSLUTNING
 10
-32.342853692226932
 20
-3.6283215091179608
 30
0.0
 11
-27.58907233108021
 21
-1.914827457347642
 31
0.0
  0
LINE
  5
77F
  8
SAPA_ANSLUTNING
 10
-26.68658271360702
 20
0.0049414064359844
 30
0.0
 11
-21.5751853652528
 21
-14.17571210614363
 31
0.0
  0
LINE
  5
780
  8
SAPA_ANSLUTNING
 10
-25.671680806601771
 20
-5.022503646865152
 30
0.0
 11
-22.280749985567009
 21
-14.43003191772123
 31
0.0
  0
LINE
  5
781
  8
SAPA_ANSLUTNING
 10
-27.58907233108021
 20
-1.9148274573476409
 30
0.0
 11
-22.986314605881208
 21
-14.684351729298839
 31
0.0
  0
LINE
  5
782
  8
SAPA_ANSLUTNING
 10
-32.721224685352659
 20
-2.967470969143053
 30
0.0
 11
-30.03381006290898
 21
-1.998796009071472
 31
0.0
  0
LINE
  5
783
  8
SAPA_ANSLUTNING
 10
-33.09959567847838
 20
-2.3066204291681438
 30
0.0
 11
-26.68658271360701
 21
0.0049414064359839
 31
0.0
  0
LINE
  5
785
  8
SAPA_ANSLUTNING
 10
-32.342853692226932
 20
-3.6283215091179608
 30
0.0
 11
-34.133338989763672
 21
-5.1182504949561638
 31
0.0
  0
LINE
  5
786
  8
SAPA_ANSLUTNING
 10
-32.721224685352659
 20
-2.967470969143053
 30
0.0
 11
-34.646217603662564
 21
-4.5693287171340424
 31
0.0
  0
LINE
  5
787
  8
SAPA_ANSLUTNING
 10
-33.09959567847838
 20
-2.3066204291681438
 30
0.0
 11
-35.15909621756154
 21
-4.0204069393119903
 31
0.0
  0
LINE
  5
788
  8
SAPA_ANSLUTNING
 10
-35.15909621756154
 20
-4.0204069393119903
 30
0.0
 11
-85.072418405608445
 21
-56.336748718561779
 31
0.0
  0
LINE
  5
78A
  8
SAPA_ANSLUTNING
 10
-30.288129874486589
 20
-1.2932313887572671
 30
0.0
 11
-29.779490251331371
 21
-2.704360629385679
 31
0.0
  0
LINE
  5
78B
  8
SAPA_ANSLUTNING
 10
-35.065678632794068
 20
-6.0954765596800797
 30
0.0
 11
-36.150970986825492
 21
-5.0600343805696211
 31
0.0
  0
LINE
  5
78C
  8
SAPA_ANSLUTNING
 10
-26.37724542691597
 20
-5.276823458442756
 30
0.0
 11
-24.966116186287561
 21
-4.7681838352875436
 31
0.0
  0
LINE
  5
78E
  8
SAPA_ANSLUTNING
 10
-22.986314605881208
 20
-14.684351729298839
 30
0.0
 11
-21.5751853652528
 21
-14.17571210614363
 31
0.0
  0
LINE
  5
78F
  8
SAPA_ANSLUTNING
 10
-46.918998790296037
 20
-17.432968863604291
 30
0.0
 11
-53.821946651032341
 21
-24.66825122381362
 31
0.0
  0
LINE
  5
790
  8
SAPA_ANSLUTNING
 10
-53.2793004740168
 20
-25.185972313368691
 30
0.0
 11
-54.364592828048188
 21
-24.150530134258261
 31
0.0
  0
LINE
  5
791
  8
SAPA_ANSLUTNING
 10
-67.085196195489331
 20
-39.656537033787401
 30
0.0
 11
-68.170488549520726
 21
-38.621094854676969
 31
0.0
  0
LINE
  5
792
  8
SAPA_ANSLUTNING
 10
-73.988144056225593
 20
-46.891819393996748
 30
0.0
 11
-75.073436410256974
 21
-45.856377214886322
 31
0.0
  0
LINE
  5
793
  8
SAPA_ANSLUTNING
 10
-81.433738093977496
 20
-53.609380664650949
 30
0.0
 11
-84.322418405608431
 21
-56.637133173388257
 31
0.0
  0
LINE
  5
794
  8
SAPA_ANSLUTNING
 10
-67.627842372504915
 20
-39.138815944232277
 30
0.0
 11
-74.530790233241206
 21
-46.374098304441617
 31
0.0
  0
POLYLINE
  5
7A0
  8
SAPA_ANSLUTNING
 10
18.34618481644133
 20
-17.33037254139149
 30
0.0
 66
     1
 70
     8
  0
VERTEX
  8
SAPA_ANSLUTNING
  5
11F1
 10
18.3462
 20
-17.3304
 30
0.000000
  70
    32
  0
VERTEX
  8
SAPA_ANSLUTNING
  5
11F2
 10
18.5298
 20
-17.2731
 30
0.000000
  70
    32
  0
VERTEX
  8
SAPA_ANSLUTNING
  5
11F3
 10
18.7190
 20
-17.2327
 30
0.000000
  70
    32
  0
VERTEX
  8
SAPA_ANSLUTNING
  5
11F4
 10
18.9135
 20
-17.2094
 30
0.000000
  70
    32
  0
VERTEX
  8
SAPA_ANSLUTNING
  5
11F5
 10
19.1127
 20
-17.2032
 30
0.000000
  70
    32
  0
VERTEX
  8
SAPA_ANSLUTNING
  5
11F6
 10
19.3162
 20
-17.2141
 30
0.000000
  70
    32
  0
VERTEX
  8
SAPA_ANSLUTNING
  5
11F7
 10
19.5235
 20
-17.2422
 30
0.000000
  70
    32
  0
VERTEX
  8
SAPA_ANSLUTNING
  5
11F8
 10
19.7340
 20
-17.2872
 30
0.000000
  70
    32
  0
VERTEX
  8
SAPA_ANSLUTNING
  5
11F9
 10
19.9474
 20
-17.3491
 30
0.000000
  70
    32
  0
VERTEX
  8
SAPA_ANSLUTNING
  5
11FA
 10
20.1630
 20
-17.4278
 30
0.000000
  70
    32
  0
VERTEX
  8
SAPA_ANSLUTNING
  5
11FB
 10
20.3803
 20
-17.5231
 30
0.000000
  70
    32
  0
VERTEX
  8
SAPA_ANSLUTNING
  5
11FC
 10
20.5989
 20
-17.6348
 30
0.000000
  70
    32
  0
VERTEX
  8
SAPA_ANSLUTNING
  5
11FD
 10
20.8181
 20
-17.7625
 30
0.000000
  70
    32
  0
VERTEX
  8
SAPA_ANSLUTNING
  5
11FE
 10
21.0375
 20
-17.9060
 30
0.000000
  70
    32
  0
VERTEX
  8
SAPA_ANSLUTNING
  5
11FF
 10
21.2566
 20
-18.0649
 30
0.000000
  70
    32
  0
VERTEX
  8
SAPA_ANSLUTNING
  5
1200
 10
21.4747
 20
-18.2388
 30
0.000000
  70
    32
  0
VERTEX
  8
SAPA_ANSLUTNING
  5
1201
 10
21.6915
 20
-18.4274
 30
0.000000
  70
    32
  0
VERTEX
  8
SAPA_ANSLUTNING
  5
1202
 10
21.9063
 20
-18.6301
 30
0.000000
  70
    32
  0
VERTEX
  8
SAPA_ANSLUTNING
  5
1203
 10
22.1186
 20
-18.8466
 30
0.000000
  70
    32
  0
VERTEX
  8
SAPA_ANSLUTNING
  5
1204
 10
22.3280
 20
-19.0761
 30
0.000000
  70
    32
  0
VERTEX
  8
SAPA_ANSLUTNING
  5
1205
 10
22.5339
 20
-19.3183
 30
0.000000
  70
    32
  0
VERTEX
  8
SAPA_ANSLUTNING
  5
1206
 10
22.7358
 20
-19.5725
 30
0.000000
  70
    32
  0
VERTEX
  8
SAPA_ANSLUTNING
  5
1207
 10
22.9333
 20
-19.8381
 30
0.000000
  70
    32
  0
VERTEX
  8
SAPA_ANSLUTNING
  5
1208
 10
23.1258
 20
-20.1145
 30
0.000000
  70
    32
  0
VERTEX
  8
SAPA_ANSLUTNING
  5
1209
 10
23.3129
 20
-20.4010
 30
0.000000
  70
    32
  0
VERTEX
  8
SAPA_ANSLUTNING
  5
120A
 10
23.4942
 20
-20.6969
 30
0.000000
  70
    32
  0
VERTEX
  8
SAPA_ANSLUTNING
  5
120B
 10
23.6692
 20
-21.0015
 30
0.000000
  70
    32
  0
VERTEX
  8
SAPA_ANSLUTNING
  5
120C
 10
23.8375
 20
-21.3141
 30
0.000000
  70
    32
  0
VERTEX
  8
SAPA_ANSLUTNING
  5
120D
 10
23.9987
 20
-21.6339
 30
0.000000
  70
    32
  0
VERTEX
  8
SAPA_ANSLUTNING
  5
120E
 10
24.1524
 20
-21.9601
 30
0.000000
  70
    32
  0
VERTEX
  8
SAPA_ANSLUTNING
  5
120F
 10
24.2983
 20
-22.2920
 30
0.000000
  70
    32
  0
VERTEX
  8
SAPA_ANSLUTNING
  5
1210
 10
24.4359
 20
-22.6287
 30
0.000000
  70
    32
  0
VERTEX
  8
SAPA_ANSLUTNING
  5
1211
 10
24.5649
 20
-22.9695
 30
0.000000
  70
    32
  0
VERTEX
  8
SAPA_ANSLUTNING
  5
1212
 10
24.6851
 20
-23.3135
 30
0.000000
  70
    32
  0
VERTEX
  8
SAPA_ANSLUTNING
  5
1213
 10
24.7962
 20
-23.6599
 30
0.000000
  70
    32
  0
VERTEX
  8
SAPA_ANSLUTNING
  5
1214
 10
24.8978
 20
-24.0079
 30
0.000000
  70
    32
  0
VERTEX
  8
SAPA_ANSLUTNING
  5
1215
 10
24.9897
 20
-24.3566
 30
0.000000
  70
    32
  0
VERTEX
  8
SAPA_ANSLUTNING
  5
1216
 10
25.0718
 20
-24.7052
 30
0.000000
  70
    32
  0
VERTEX
  8
SAPA_ANSLUTNING
  5
1217
 10
25.1438
 20
-25.0528
 30
0.000000
  70
    32
  0
VERTEX
  8
SAPA_ANSLUTNING
  5
1218
 10
25.2055
 20
-25.3987
 30
0.000000
  70
    32
  0
VERTEX
  8
SAPA_ANSLUTNING
  5
1219
 10
25.2568
 20
-25.7419
 30
0.000000
  70
    32
  0
VERTEX
  8
SAPA_ANSLUTNING
  5
121A
 10
25.2976
 20
-26.0816
 30
0.000000
  70
    32
  0
VERTEX
  8
SAPA_ANSLUTNING
  5
121B
 10
25.3278
 20
-26.4171
 30
0.000000
  70
    32
  0
VERTEX
  8
SAPA_ANSLUTNING
  5
121C
 10
25.3473
 20
-26.7475
 30
0.000000
  70
    32
  0
VERTEX
  8
SAPA_ANSLUTNING
  5
121D
 10
25.3560
 20
-27.0720
 30
0.000000
  70
    32
  0
VERTEX
  8
SAPA_ANSLUTNING
  5
121E
 10
25.3539
 20
-27.3899
 30
0.000000
  70
    32
  0
VERTEX
  8
SAPA_ANSLUTNING
  5
121F
 10
25.3411
 20
-27.7004
 30
0.000000
  70
    32
  0
VERTEX
  8
SAPA_ANSLUTNING
  5
1220
 10
25.3176
 20
-28.0026
 30
0.000000
  70
    32
  0
VERTEX
  8
SAPA_ANSLUTNING
  5
1221
 10
25.2833
 20
-28.2960
 30
0.000000
  70
    32
  0
VERTEX
  8
SAPA_ANSLUTNING
  5
1222
 10
25.2385
 20
-28.5798
 30
0.000000
  70
    32
  0
VERTEX
  8
SAPA_ANSLUTNING
  5
1223
 10
25.1832
 20
-28.8533
 30
0.000000
  70
    32
  0
VERTEX
  8
SAPA_ANSLUTNING
  5
1224
 10
25.1176
 20
-29.1158
 30
0.000000
  70
    32
  0
VERTEX
  8
SAPA_ANSLUTNING
  5
1225
 10
25.0417
 20
-29.3667
 30
0.000000
  70
    32
  0
VERTEX
  8
SAPA_ANSLUTNING
  5
1226
 10
24.9559
 20
-29.6055
 30
0.000000
  70
    32
  0
VERTEX
  8
SAPA_ANSLUTNING
  5
1227
 10
24.8602
 20
-29.8315
 30
0.000000
  70
    32
  0
VERTEX
  8
SAPA_ANSLUTNING
  5
1228
 10
24.7549
 20
-30.0442
 30
0.000000
  70
    32
  0
VERTEX
  8
SAPA_ANSLUTNING
  5
1229
 10
24.6404
 20
-30.2431
 30
0.000000
  70
    32
  0
VERTEX
  8
SAPA_ANSLUTNING
  5
122A
 10
24.5168
 20
-30.4277
 30
0.000000
  70
    32
  0
VERTEX
  8
SAPA_ANSLUTNING
  5
122B
 10
24.3844
 20
-30.5975
 30
0.000000
  70
    32
  0
VERTEX
  8
SAPA_ANSLUTNING
  5
122C
 10
24.2436
 20
-30.7522
 30
0.000000
  70
    32
  0
VERTEX
  8
SAPA_ANSLUTNING
  5
122D
 10
24.0948
 20
-30.8914
 30
0.000000
  70
    32
  0
VERTEX
  8
SAPA_ANSLUTNING
  5
122E
 10
23.9382
 20
-31.0147
 30
0.000000
  70
    32
  0
VERTEX
  8
SAPA_ANSLUTNING
  5
122F
 10
23.7742
 20
-31.1218
 30
0.000000
  70
    32
  0
VERTEX
  8
SAPA_ANSLUTNING
  5
1230
 10
23.6033
 20
-31.2126
 30
0.000000
  70
    32
  0
VERTEX
  8
SAPA_ANSLUTNING
  5
1231
 10
23.4259
 20
-31.2867
 30
0.000000
  70
    32
  0
VERTEX
  8
SAPA_ANSLUTNING
  5
1232
 10
23.2423
 20
-31.3440
 30
0.000000
  70
    32
  0
VERTEX
  8
SAPA_ANSLUTNING
  5
1233
 10
23.0530
 20
-31.3843
 30
0.000000
  70
    32
  0
VERTEX
  8
SAPA_ANSLUTNING
  5
1234
 10
22.8586
 20
-31.4076
 30
0.000000
  70
    32
  0
VERTEX
  8
SAPA_ANSLUTNING
  5
1235
 10
22.6593
 20
-31.4138
 30
0.000000
  70
    32
  0
VERTEX
  8
SAPA_ANSLUTNING
  5
1236
 10
22.4558
 20
-31.4029
 30
0.000000
  70
    32
  0
VERTEX
  8
SAPA_ANSLUTNING
  5
1237
 10
22.2486
 20
-31.3749
 30
0.000000
  70
    32
  0
VERTEX
  8
SAPA_ANSLUTNING
  5
1238
 10
22.0380
 20
-31.3299
 30
0.000000
  70
    32
  0
VERTEX
  8
SAPA_ANSLUTNING
  5
1239
 10
21.8247
 20
-31.2679
 30
0.000000
  70
    32
  0
VERTEX
  8
SAPA_ANSLUTNING
  5
123A
 10
21.6091
 20
-31.1892
 30
0.000000
  70
    32
  0
VERTEX
  8
SAPA_ANSLUTNING
  5
123B
 10
21.3917
 20
-31.0939
 30
0.000000
  70
    32
  0
VERTEX
  8
SAPA_ANSLUTNING
  5
123C
 10
21.1732
 20
-30.9823
 30
0.000000
  70
    32
  0
VERTEX
  8
SAPA_ANSLUTNING
  5
123D
 10
20.9539
 20
-30.8546
 30
0.000000
  70
    32
  0
VERTEX
  8
SAPA_ANSLUTNING
  5
123E
 10
20.7345
 20
-30.7111
 30
0.000000
  70
    32
  0
VERTEX
  8
SAPA_ANSLUTNING
  5
123F
 10
20.5155
 20
-30.5522
 30
0.000000
  70
    32
  0
VERTEX
  8
SAPA_ANSLUTNING
  5
1240
 10
20.2973
 20
-30.3782
 30
0.000000
  70
    32
  0
VERTEX
  8
SAPA_ANSLUTNING
  5
1241
 10
20.0806
 20
-30.1896
 30
0.000000
  70
    32
  0
VERTEX
  8
SAPA_ANSLUTNING
  5
1242
 10
19.8658
 20
-29.9869
 30
0.000000
  70
    32
  0
VERTEX
  8
SAPA_ANSLUTNING
  5
1243
 10
19.6535
 20
-29.7705
 30
0.000000
  70
    32
  0
VERTEX
  8
SAPA_ANSLUTNING
  5
1244
 10
19.4441
 20
-29.5409
 30
0.000000
  70
    32
  0
VERTEX
  8
SAPA_ANSLUTNING
  5
1245
 10
19.2382
 20
-29.2987
 30
0.000000
  70
    32
  0
VERTEX
  8
SAPA_ANSLUTNING
  5
1246
 10
19.0363
 20
-29.0445
 30
0.000000
  70
    32
  0
VERTEX
  8
SAPA_ANSLUTNING
  5
1247
 10
18.8388
 20
-28.7789
 30
0.000000
  70
    32
  0
VERTEX
  8
SAPA_ANSLUTNING
  5
1248
 10
18.6463
 20
-28.5025
 30
0.000000
  70
    32
  0
VERTEX
  8
SAPA_ANSLUTNING
  5
1249
 10
18.4591
 20
-28.2160
 30
0.000000
  70
    32
  0
VERTEX
  8
SAPA_ANSLUTNING
  5
124A
 10
18.2778
 20
-27.9201
 30
0.000000
  70
    32
  0
VERTEX
  8
SAPA_ANSLUTNING
  5
124B
 10
18.1028
 20
-27.6155
 30
0.000000
  70
    32
  0
VERTEX
  8
SAPA_ANSLUTNING
  5
124C
 10
17.9345
 20
-27.3030
 30
0.000000
  70
    32
  0
VERTEX
  8
SAPA_ANSLUTNING
  5
124D
 10
17.7733
 20
-26.9832
 30
0.000000
  70
    32
  0
VERTEX
  8
SAPA_ANSLUTNING
  5
124E
 10
17.6196
 20
-26.6570
 30
0.000000
  70
    32
  0
VERTEX
  8
SAPA_ANSLUTNING
  5
124F
 10
17.4738
 20
-26.3251
 30
0.000000
  70
    32
  0
VERTEX
  8
SAPA_ANSLUTNING
  5
1250
 10
17.3362
 20
-25.9883
 30
0.000000
  70
    32
  0
VERTEX
  8
SAPA_ANSLUTNING
  5
1251
 10
17.2071
 20
-25.6475
 30
0.000000
  70
    32
  0
VERTEX
  8
SAPA_ANSLUTNING
  5
1252
 10
17.0869
 20
-25.3035
 30
0.000000
  70
    32
  0
VERTEX
  8
SAPA_ANSLUTNING
  5
1253
 10
16.9759
 20
-24.9571
 30
0.000000
  70
    32
  0
VERTEX
  8
SAPA_ANSLUTNING
  5
1254
 10
16.8743
 20
-24.6091
 30
0.000000
  70
    32
  0
VERTEX
  8
SAPA_ANSLUTNING
  5
1255
 10
16.7823
 20
-24.2604
 30
0.000000
  70
    32
  0
VERTEX
  8
SAPA_ANSLUTNING
  5
1256
 10
16.7002
 20
-23.9119
 30
0.000000
  70
    32
  0
VERTEX
  8
SAPA_ANSLUTNING
  5
1257
 10
16.6283
 20
-23.5642
 30
0.000000
  70
    32
  0
VERTEX
  8
SAPA_ANSLUTNING
  5
1258
 10
16.5665
 20
-23.2184
 30
0.000000
  70
    32
  0
VERTEX
  8
SAPA_ANSLUTNING
  5
1259
 10
16.5152
 20
-22.8752
 30
0.000000
  70
    32
  0
VERTEX
  8
SAPA_ANSLUTNING
  5
125A
 10
16.4744
 20
-22.5354
 30
0.000000
  70
    32
  0
VERTEX
  8
SAPA_ANSLUTNING
  5
125B
 10
16.4443
 20
-22.1999
 30
0.000000
  70
    32
  0
VERTEX
  8
SAPA_ANSLUTNING
  5
125C
 10
16.4248
 20
-21.8695
 30
0.000000
  70
    32
  0
VERTEX
  8
SAPA_ANSLUTNING
  5
125D
 10
16.4161
 20
-21.5450
 30
0.000000
  70
    32
  0
VERTEX
  8
SAPA_ANSLUTNING
  5
125E
 10
16.4181
 20
-21.2271
 30
0.000000
  70
    32
  0
VERTEX
  8
SAPA_ANSLUTNING
  5
125F
 10
16.4309
 20
-20.9167
 30
0.000000
  70
    32
  0
VERTEX
  8
SAPA_ANSLUTNING
  5
1260
 10
16.4545
 20
-20.6144
 30
0.000000
  70
    32
  0
VERTEX
  8
SAPA_ANSLUTNING
  5
1261
 10
16.4887
 20
-20.3210
 30
0.000000
  70
    32
  0
VERTEX
  8
SAPA_ANSLUTNING
  5
1262
 10
16.5335
 20
-20.0373
 30
0.000000
  70
    32
  0
VERTEX
  8
SAPA_ANSLUTNING
  5
1263
 10
16.5888
 20
-19.7638
 30
0.000000
  70
    32
  0
VERTEX
  8
SAPA_ANSLUTNING
  5
1264
 10
16.6545
 20
-19.5013
 30
0.000000
  70
    32
  0
VERTEX
  8
SAPA_ANSLUTNING
  5
1265
 10
16.7303
 20
-19.2503
 30
0.000000
  70
    32
  0
VERTEX
  8
SAPA_ANSLUTNING
  5
1266
 10
16.8162
 20
-19.0116
 30
0.000000
  70
    32
  0
VERTEX
  8
SAPA_ANSLUTNING
  5
1267
 10
16.9119
 20
-18.7855
 30
0.000000
  70
    32
  0
VERTEX
  8
SAPA_ANSLUTNING
  5
1268
 10
17.0171
 20
-18.5729
 30
0.000000
  70
    32
  0
VERTEX
  8
SAPA_ANSLUTNING
  5
1269
 10
17.1317
 20
-18.3740
 30
0.000000
  70
    32
  0
VERTEX
  8
SAPA_ANSLUTNING
  5
126A
 10
17.2553
 20
-18.1894
 30
0.000000
  70
    32
  0
VERTEX
  8
SAPA_ANSLUTNING
  5
126B
 10
17.3876
 20
-18.0195
 30
0.000000
  70
    32
  0
VERTEX
  8
SAPA_ANSLUTNING
  5
126C
 10
17.5284
 20
-17.8649
 30
0.000000
  70
    32
  0
VERTEX
  8
SAPA_ANSLUTNING
  5
126D
 10
17.6773
 20
-17.7257
 30
0.000000
  70
    32
  0
VERTEX
  8
SAPA_ANSLUTNING
  5
126E
 10
17.8339
 20
-17.6024
 30
0.000000
  70
    32
  0
VERTEX
  8
SAPA_ANSLUTNING
  5
126F
 10
17.9978
 20
-17.4952
 30
0.000000
  70
    32
  0
VERTEX
  8
SAPA_ANSLUTNING
  5
1270
 10
18.1687
 20
-17.4045
 30
0.000000
  70
    32
  0
VERTEX
  8
SAPA_ANSLUTNING
  5
1271
 10
18.3462
 20
-17.3304
 30
0.000000
  70
    32
  0
SEQEND
  8
SAPA_ANSLUTNING
  5
1272
  0
POLYLINE
  5
7A2
  8
SAPA_ANSLUTNING
 66
     1
 10
0.0
 20
0.0
 30
0.0
 70
     1
1001
ACAD
1000
ASC_BOUNDS
1002
{
1070
    19
1005
8AE
1002
}
  0
VERTEX
  5
B16
  8
SAPA_ANSLUTNING
 10
24.807303711619412
 20
-30.773695252216129
 30
0.0
  0
VERTEX
  5
B17
  8
SAPA_ANSLUTNING
 10
35.09983609650687
 20
-27.02751982889616
 30
0.0
 42
-0.2115807667690684
  0
VERTEX
  5
B18
  8
SAPA_ANSLUTNING
 10
30.045305358356369
 20
-13.14031075988834
 30
0.0
  0
VERTEX
  5
B19
  8
SAPA_ANSLUTNING
 10
19.672668068791602
 20
-16.915641984129579
 30
0.0
 42
-0.4085368962350935
  0
SEQEND
  5
B1A
  8
SAPA_ANSLUTNING
  0
POLYLINE
  5
7AC
  8
SAPA_ANSLUTNING
 66
     1
 10
0.0
 20
0.0
 30
0.0
  0
VERTEX
  5
B1B
  8
SAPA_ANSLUTNING
 10
21.34934510681574
 20
-31.07348776458181
 30
0.0
 42
-0.7658022177586058
  0
VERTEX
  5
B1C
  8
SAPA_ANSLUTNING
 10
17.501693080112322
 20
-31.4026677089185
 30
0.0
  0
VERTEX
  5
B1D
  8
SAPA_ANSLUTNING
 10
13.741415256758479
 20
-21.071389298377909
 30
0.0
 42
0.9999999999999998
  0
VERTEX
  5
B1E
  8
SAPA_ANSLUTNING
 10
9.9826447736182686
 20
-22.43946987167935
 30
0.0
  0
VERTEX
  5
B1F
  8
SAPA_ANSLUTNING
 10
13.74292322708178
 20
-32.77075001342677
 30
0.0
 42
-0.9999999999999998
  0
VERTEX
  5
B20
  8
SAPA_ANSLUTNING
 10
9.9841527439381323
 20
-34.138830586729441
 30
0.0
  0
VERTEX
  5
B21
  8
SAPA_ANSLUTNING
 10
6.2238749205843291
 20
-23.80755217618885
 30
0.0
 42
0.9999999999999998
  0
VERTEX
  5
B22
  8
SAPA_ANSLUTNING
 10
2.465104437444118
 20
-25.17563274949028
 30
0.0
  0
VERTEX
  5
B23
  8
SAPA_ANSLUTNING
 10
6.225382260797935
 20
-35.506911160030867
 30
0.0
 42
-0.9999999999999998
  0
VERTEX
  5
B24
  8
SAPA_ANSLUTNING
 10
2.4666117776543
 20
-36.874991733333552
 30
0.0
  0
VERTEX
  5
B25
  8
SAPA_ANSLUTNING
 10
-1.2936660457012359
 20
-26.54371332279359
 30
0.0
 42
0.9999999999999998
  0
VERTEX
  5
B26
  8
SAPA_ANSLUTNING
 10
-5.0524365288380224
 20
-27.911793896093769
 30
0.0
  0
VERTEX
  5
B27
  8
SAPA_ANSLUTNING
 10
-1.2921587054842041
 20
-38.24307230663436
 30
0.0
 42
-0.9999999999999998
  0
VERTEX
  5
B28
  8
SAPA_ANSLUTNING
 10
-5.050929188627812
 20
-39.611152879937038
 30
0.0
  0
VERTEX
  5
B29
  8
SAPA_ANSLUTNING
 10
-8.8112070119799526
 20
-29.279874469395839
 30
0.0
 42
0.9999999999999998
  0
VERTEX
  5
B2A
  8
SAPA_ANSLUTNING
 10
-12.56997749512016
 20
-30.647955042697269
 30
0.0
  0
VERTEX
  5
B2B
  8
SAPA_ANSLUTNING
 10
-8.8096996717680351
 20
-40.979233453238479
 30
0.0
 42
-0.4447483860532462
  0
VERTEX
  5
B2C
  8
SAPA_ANSLUTNING
 10
-10.20212971519843
 20
-43.60308678113968
 30
0.0
  0
SEQEND
  5
B2D
  8
SAPA_ANSLUTNING
  0
POLYLINE
  5
7D6
  8
SAPA_LIGHT
 66
     1
 10
0.0
 20
0.0
 30
0.0
 70
     1
  0
VERTEX
  5
B2E
  8
SAPA_LIGHT
 10
-15.796701596994531
 20
-29.694029064471
 30
0.0
  0
VERTEX
  5
B2F
  8
SAPA_LIGHT
 10
-35.633869909883728
 20
24.808142941112671
 30
0.0
  0
VERTEX
  5
B30
  8
SAPA_LIGHT
 10
-16.840017494166439
 20
31.648545807625641
 30
0.0
  0
VERTEX
  5
B31
  8
SAPA_LIGHT
 10
-27.825865195611211
 20
61.831914300912587
 30
0.0
  0
VERTEX
  5
B32
  8
SAPA_LIGHT
 10
-43.704487789237888
 20
56.05256831568574
 30
0.0
  0
VERTEX
  5
B33
  8
SAPA_LIGHT
 10
-47.767526394122008
 20
67.215675136977623
 30
0.0
  0
VERTEX
  5
B34
  8
SAPA_LIGHT
 10
-6.6133549990082372
 20
82.194568540688778
 30
0.0
  0
VERTEX
  5
B35
  8
SAPA_LIGHT
 10
-2.5503163941238038
 20
71.031461719396546
 30
0.0
  0
VERTEX
  5
B36
  8
SAPA_LIGHT
 10
-18.428938987751401
 20
65.252115734169351
 30
0.0
  0
VERTEX
  5
B37
  8
SAPA_LIGHT
 10
-9.2764799523563397
 20
40.10594120193803
 30
0.0
  0
VERTEX
  5
B38
  8
SAPA_LIGHT
 10
9.5173724633621966
 20
46.94634406845158
 30
0.0
  0
VERTEX
  5
B39
  8
SAPA_LIGHT
 10
31.187929442301051
 20
-12.593021898187541
 30
0.0
  0
SEQEND
  5
B3A
  8
SAPA_LIGHT
  0
POLYLINE
  5
7D7
  8
SAPA_LIGHT
 66
     1
 10
0.0
 20
0.0
 30
0.0
  0
VERTEX
  5
B3B
  8
SAPA_LIGHT
 10
24.552454395935658
 20
52.418666361662211
 30
0.0
  0
VERTEX
  5
B3C
  8
SAPA_LIGHT
 10
-3.6383242276406089
 20
42.158062061890902
 30
0.0
  0
VERTEX
  5
B3D
  8
SAPA_LIGHT
 10
-12.790783263035991
 20
67.304236594123381
 30
0.0
  0
VERTEX
  5
B3E
  8
SAPA_LIGHT
 10
15.399995360540769
 20
77.564840893893262
 30
0.0
  0
SEQEND
  5
B3F
  8
SAPA_LIGHT
  0
INSERT
  5
7DA
  8
0
  2
*U27
 10
0.0
 20
0.0
 30
0.0
  0
INSERT
  5
849
  8
SAPA_ANSLUTNING
  6
CONTINUOUS
  2
*X28
 10
0.0
 20
0.0
 30
0.0
1001
ACAD
1000
HATCH
1002
{
1070
    19
1000
HEX
1040
0.25
1040
0.0
1000
ASC_BOUNDS
1070
     1
1070
     1
1070
     1
1005
7A0
1000
ASC_SEEDPOINT
1011
21.067228993791559
1021
0.0
1031
0.0
1021
-24.876555360273638
1031
0.0
1000
R14_HATCH_DATA
1000
849
1011
1.0
1021
0.0
1031
0.0
1021
0.0
1031
0.0
1011
0.0
1021
0.0
1031
0.0
1021
1.0
1031
0.0
1011
0.0
1021
0.0
1031
0.0
1021
0.0
1031
1.0
1040
0.0
1010
0.0
1020
0.0
1030
1.0
1000
HEX
1070
     0
1070
     1
1071
        1
1071
        5
1071
        1
1070
     3
1040
20.88602498579495
1040
-24.308526055714339
1040
-2.5398401693536221
1040
6.9781535143228499
1040
0.5272022705642488
1040
0.0
1040
6.2831853071795862
1070
     0
1071
        1
1005
7A0
1070
     0
1070
     1
1040
0.0
1040
0.25
1070
     0
1070
     3
1040
0.0
1040
0.0
1040
0.0
1040
0.0
1040
1.374814999999999
1070
     2
1040
0.79375
1040
-1.587499999999999
1040
2.0943951023931948
1040
0.0
1040
0.0
1040
-1.190624715503902
1040
-0.6874074999999996
1070
     2
1040
0.7937499999999998
1040
-1.587499999999999
1040
1.047197551196597
1040
0.79375
1040
0.0
1040
-1.190624715503902
1040
0.6874075000000001
1070
     2
1040
0.79375
1040
-1.587499999999999
1040
0.1526455695314226
1071
        1
1040
21.067228993791559
1040
-24.876555360273638
1040
0.0
1002
}
  0
INSERT
  5
8AE
  8
SAPA_ANSLUTNING
  6
CONTINUOUS
  2
*X29
 10
0.0
 20
0.0
 30
0.0
1001
ACAD
1000
HATCH
1002
{
1070
    19
1000
ANSI37
1040
0.25
1040
0.0
1000
ASC_BOUNDS
1070
     1
1070
     1
1070
     1
1005
7A2
1000
ASC_SEEDPOINT
1011
27.634110574148512
1021
0.0
1031
0.0
1021
-21.976287848760201
1031
0.0
1000
R14_HATCH_DATA
1000
8AE
1011
1.0
1021
0.0
1031
0.0
1021
0.0
1031
0.0
1011
0.0
1021
0.0
1031
0.0
1021
1.0
1031
0.0
1011
0.0
1021
0.0
1031
0.0
1021
0.0
1031
1.0
1040
0.0
1010
0.0
1020
0.0
1030
1.0
1000
ANSI37
1070
     0
1070
     1
1071
        1
1071
        7
1070
     1
1070
     1
1071
        4
1040
24.807303711619412
1040
-30.773695252216129
1040
0.0
1040
35.09983609650687
1040
-27.02751982889616
1040
-0.2115807667690684
1040
30.045305358356369
1040
-13.14031075988834
1040
0.0
1040
19.672668068791602
1040
-16.915641984129579
1040
-0.4085368962350935
1071
        1
1005
7A2
1070
     0
1070
     1
1040
0.0
1040
0.25
1070
     0
1070
     2
1040
0.7853981633974483
1040
0.0
1040
0.0
1040
-0.5612660075668221
1040
0.5612660075668221
1070
     0
1040
2.3561944901923439
1040
0.0
1040
0.0
1040
-0.5612660075668221
1040
-0.5612660075668221
1070
     0
1040
0.1526455695314226
1071
        1
1040
27.634110574148512
1040
-21.976287848760201
1040
0.0
1002
}
  0
ARC
  5
9B8
  8
SAPA_FOGBAND
 10
-39.351168325672639
 20
62.80426955091076
 30
0.0
 40
0.1999999999999096
 50
199.99999999995791
 51
289.9999999999734
  0
LINE
  5
9B9
  8
SAPA_FOGBAND
 10
-39.282764297007617
 20
62.616331026753642
 30
0.0
 11
-34.650522324747143
 21
64.302329222574798
 31
0.0
  0
ARC
  5
9BA
  8
SAPA_FOGBAND
 10
-34.308502181421161
 20
63.362636601788971
 30
0.0
 40
1.0000000000000351
 50
50.345472579278592
 51
110.00000000001791
  0
LINE
  5
9BB
  8
SAPA_FOGBAND
 10
-33.670345196067679
 20
64.132542870138963
 30
0.0
 11
-29.59381782628175
 21
61.266163421054941
 31
0.0
  0
ARC
  5
9BC
  8
SAPA_FOGBAND
 10
-30.231974811636231
 20
60.496257152706633
 30
0.0
 40
0.9999999999993701
 50
38.241841344461179
 51
50.345472579172572
  0
ARC
  5
9BD
  8
SAPA_FOGBAND
 10
-30.587027896346221
 20
60.29846730164757
 30
0.0
 40
1.402769144204518
 50
341.85707667743009
 51
35.609435779333332
  0
ARC
  5
9BE
  8
SAPA_FOGBAND
 10
-29.440445776011831
 20
59.934036658192717
 30
0.0
 40
0.2000000000000674
 50
245.81623060075091
 51
338.78447689250982
  0
LINE
  5
9BF
  8
SAPA_FOGBAND
 10
-29.522378702884261
 20
59.751589417889818
 30
0.0
 11
-33.627008549732082
 21
60.640555848262053
 31
0.0
  0
ARC
  5
9C0
  8
SAPA_FOGBAND
 10
-34.047200294017713
 20
59.733120507295958
 30
0.0
 40
1.000000000000024
 50
65.15330630230612
 51
109.9999999999922
  0
LINE
  5
9C1
  8
SAPA_FOGBAND
 10
-34.389220437343262
 20
60.672813128081941
 30
0.0
 11
-34.50072247157587
 21
60.632229706561382
 31
0.0
  0
ARC
  5
9C2
  8
SAPA_FOGBAND
 10
-34.158702328250158
 20
59.692537085775328
 30
0.0
 40
1.0000000000001379
 50
109.9999999999997
 51
157.1058587459722
  0
LINE
  5
9C3
  8
SAPA_FOGBAND
 10
-35.079927518638868
 20
60.08156683861381
 30
0.0
 11
-38.577105074161707
 21
58.148234154680402
 31
0.0
  0
LINE
  5
9C4
  8
SAPA_FOGBAND
 10
-38.577105074161707
 20
58.148234154680402
 30
0.0
 11
-39.220941803491968
 21
58.300759072553809
 31
0.0
  0
LINE
  5
9C5
  8
SAPA_FOGBAND
 10
-39.220941803491968
 20
58.300759072553809
 30
0.0
 11
-36.451184676490321
 21
60.37036077083382
 31
0.0
  0
ARC
  5
9C6
  8
SAPA_FOGBAND
 10
-36.744497651990933
 20
60.433348852270051
 30
0.0
 40
0.3000000000000581
 50
347.87997593854971
 51
116.95295746820589
  0
LINE
  5
9C7
  8
SAPA_FOGBAND
 10
-36.880475288542641
 20
60.700762543688143
 30
0.0
 11
-39.429459369829317
 21
59.404625352122757
 31
0.0
  0
ARC
  5
9C8
  8
SAPA_FOGBAND
 10
-39.293481733277922
 20
59.1372116607047
 30
0.0
 40
0.2999999999998914
 50
116.9529574681557
 51
199.9999999999828
  0
LINE
  5
9C9
  8
SAPA_FOGBAND
 10
-39.575389519513621
 20
59.034605617707129
 30
0.0
 11
-39.495232726546639
 21
58.814376639014469
 31
0.0
  0
ARC
  5
9CA
  8
SAPA_FOGBAND
 10
-39.777140512782452
 20
58.71177059601699
 30
0.0
 40
0.2999999999999596
 50
289.99999999995629
 51
19.999999999956341
  0
LINE
  5
9CB
  8
SAPA_FOGBAND
 10
-39.67453446978498
 20
58.429862809781177
 30
0.0
 11
-43.951753181391602
 21
56.873082513309932
 31
0.0
  0
LINE
  5
9CC
  8
SAPA_FOGBAND
 10
-43.951753181391602
 20
56.873082513309932
 30
0.0
 11
-49.719028827039963
 21
54.218789262662717
 31
0.0
  0
LINE
  5
9CD
  8
SAPA_FOGBAND
 10
-49.719028827039963
 20
54.218789262662717
 30
0.0
 11
-49.719028827039963
 21
54.218789262662717
 31
0.0
  0
LINE
  5
9CE
  8
SAPA_FOGBAND
 10
-49.719028827039963
 20
54.218789262662717
 30
0.0
 11
-50.413854669459909
 21
54.408934725912623
 31
0.0
  0
ARC
  5
9CF
  8
SAPA_FOGBAND
 10
-71.645206442205136
 20
49.870804379464772
 30
0.0
 40
21.710940217765849
 50
12.06522376247934
 51
15.3696643317396
  0
LINE
  5
9D0
  8
SAPA_FOGBAND
 10
-50.710739118881527
 20
55.625194271373303
 30
0.0
 11
-46.458285119969297
 21
58.940477259362602
 31
0.0
  0
LINE
  5
9D1
  8
SAPA_FOGBAND
 10
-46.458285119969297
 20
58.940477259362602
 30
0.0
 11
-47.091022385121747
 21
60.678908607816439
 31
0.0
  0
ARC
  5
9D2
  8
SAPA_FOGBAND
 10
-46.950068492003787
 20
60.73021162931532
 30
0.0
 40
0.1500000000000822
 50
109.9999999999991
 51
200.00000000000421
  0
LINE
  5
9D3
  8
SAPA_FOGBAND
 10
-47.001371513502669
 20
60.871165522433287
 30
0.0
 11
-45.952495138831189
 21
61.252925302238509
 31
0.0
  0
ARC
  5
9D4
  8
SAPA_FOGBAND
 10
-45.901192117332478
 20
61.111971409120862
 30
0.0
 40
0.1499999999997252
 50
26.530215321816438
 51
109.9999999999787
  0
LINE
  5
9D5
  8
SAPA_FOGBAND
 10
-45.766987277578231
 20
61.178971864242101
 30
0.0
 11
-45.436937587282088
 21
60.51786791029275
 31
0.0
  0
ARC
  5
9D6
  8
SAPA_FOGBAND
 10
-45.302732747527713
 20
60.584868365414309
 30
0.0
 40
0.1499999999999876
 50
206.5302153219063
 51
290.00000000006611
  0
LINE
  5
9D7
  8
SAPA_FOGBAND
 10
-45.251429726028697
 20
60.443914472296491
 30
0.0
 11
-42.101842159365418
 21
61.590270596776847
 31
0.0
  0
ARC
  5
9D8
  8
SAPA_FOGBAND
 10
-42.170246188030362
 20
61.77820912093415
 30
0.0
 40
0.2000000000000492
 50
289.99999999993679
 51
19.999999999936861
  0
LINE
  5
9D9
  8
SAPA_FOGBAND
 10
-41.982307663873073
 20
61.846613149599087
 30
0.0
 11
-42.255923778533997
 21
62.59836724622761
 31
0.0
  0
ARC
  5
9DA
  8
SAPA_FOGBAND
 10
-42.06798525437663
 20
62.666771274892703
 30
0.0
 40
0.200000000000167
 50
109.9999999999707
 51
199.99999999996999
  0
LINE
  5
9DB
  8
SAPA_FOGBAND
 10
-42.136389283041723
 20
62.85470979905007
 30
0.0
 11
-41.760512234727273
 21
62.991517856380369
 31
0.0
  0
ARC
  5
9DC
  8
SAPA_FOGBAND
 10
-41.828916263392458
 20
63.179456380537431
 30
0.0
 40
0.1999999999999072
 50
290.00000000002751
 51
20.000000000042249
  0
LINE
  5
9DD
  8
SAPA_FOGBAND
 10
-41.640977739235417
 20
63.247860409202673
 30
0.0
 11
-42.007486117251943
 21
64.254833901844023
 31
0.0
  0
ARC
  5
9DE
  8
SAPA_FOGBAND
 10
-42.101455379330559
 20
64.220631887511502
 30
0.0
 40
0.1000000000000015
 50
19.99999999997198
 51
160.55544447106499
  0
LINE
  5
9DF
  8
SAPA_FOGBAND
 10
-42.195751786407563
 20
64.253921339480073
 30
0.0
 11
-42.622200575279201
 21
63.045953463319563
 31
0.0
  0
ARC
  5
9E0
  8
SAPA_FOGBAND
 10
-42.999386203587292
 20
63.179111271193662
 30
0.0
 40
0.4000000000000126
 50
160.5554444710985
 51
340.55544447109401
  0
LINE
  5
9E1
  8
SAPA_FOGBAND
 10
-43.376571831895397
 20
63.312269079067732
 30
0.0
 11
-42.777361696462407
 21
65.009604406454415
 31
0.0
  0
ARC
  5
9E2
  8
SAPA_FOGBAND
 10
-41.598656607999793
 20
64.593486256847996
 30
0.0
 40
1.2499999999998159
 50
109.999999999991
 51
160.55544447109651
  0
ARC
  5
9E3
  8
SAPA_FOGBAND
 10
-41.598656607999409
 20
64.593486256848124
 30
0.0
 40
1.2499999999998219
 50
59.444555528904282
 51
110.00000000000961
  0
LINE
  5
9E4
  8
SAPA_FOGBAND
 10
-40.963191715639283
 20
65.669908279373345
 30
0.0
 11
-39.413144003202852
 21
64.754838834374169
 31
0.0
  0
ARC
  5
9E5
  8
SAPA_FOGBAND
 10
-39.616492768758143
 20
64.410383787166055
 30
0.0
 40
0.4000000000000063
 50
239.44455552890631
 51
59.444555528901581
  0
LINE
  5
9E6
  8
SAPA_FOGBAND
 10
-39.819841534313412
 20
64.065928739957911
 30
0.0
 11
-40.922987042998692
 21
64.717169821304367
 31
0.0
  0
ARC
  5
9E7
  8
SAPA_FOGBAND
 10
-40.973824234387472
 20
64.631056059502313
 30
0.0
 40
0.1000000000000013
 50
59.444555528929847
 51
200.00000000003391
  0
LINE
  5
9E8
  8
SAPA_FOGBAND
 10
-41.067793496466031
 20
64.596854045169692
 30
0.0
 11
-40.701285118449583
 21
63.589880552528541
 31
0.0
  0
ARC
  5
9E9
  8
SAPA_FOGBAND
 10
-40.513346594292408
 20
63.658284581193577
 30
0.0
 40
0.1999999999999563
 50
199.99999999997681
 51
289.9999999999614
  0
LINE
  5
9EA
  8
SAPA_FOGBAND
 10
-40.444942565627407
 20
63.470346057036387
 30
0.0
 11
-40.069065517312893
 21
63.60715411436648
 31
0.0
  0
ARC
  5
9EB
  8
SAPA_FOGBAND
 10
-40.000661488647523
 20
63.41921559020934
 30
0.0
 40
0.200000000000039
 50
20.000000000065029
 51
110.0000000000657
  0
LINE
  5
9EC
  8
SAPA_FOGBAND
 10
-39.812722964490384
 20
63.487619618874703
 30
0.0
 11
-39.539106849829793
 21
62.735865522245803
 31
0.0
  0
POLYLINE
  5
AAE
  8
SAPA_PROFIL
 66
     1
 10
0.0
 20
0.0
 30
0.0
 70
     1
  0
VERTEX
  5
F7E
  8
SAPA_PROFIL
 10
-88.172418405608482
 20
-107.00923746725
 30
0.0
  0
VERTEX
  5
F7F
  8
SAPA_PROFIL
 10
-88.172418405608482
 20
-131.00923746724999
 30
0.0
 42
0.4142135623730951
  0
VERTEX
  5
F80
  8
SAPA_PROFIL
 10
-86.172418405608497
 20
-133.00923746724999
 30
0.0
  0
VERTEX
  5
F81
  8
SAPA_PROFIL
 10
-85.172418405608468
 20
-133.00923746724999
 30
0.0
  0
VERTEX
  5
F82
  8
SAPA_PROFIL
 10
-85.172418405608468
 20
-103.00923746725
 30
0.0
  0
VERTEX
  5
F83
  8
SAPA_PROFIL
 10
-104.1724184056085
 20
-103.00923746725
 30
0.0
 42
-0.4142135623730951
  0
VERTEX
  5
F84
  8
SAPA_PROFIL
 10
-105.1724184056085
 20
-102.00923746725
 30
0.0
  0
VERTEX
  5
F85
  8
SAPA_PROFIL
 10
-105.1724184056085
 20
-78.009237467249989
 30
0.0
 42
0.4142135623730951
  0
VERTEX
  5
F86
  8
SAPA_PROFIL
 10
-107.1724184056085
 20
-76.009237467249989
 30
0.0
  0
VERTEX
  5
F87
  8
SAPA_PROFIL
 10
-108.1724184056085
 20
-76.009237467249989
 30
0.0
  0
VERTEX
  5
F88
  8
SAPA_PROFIL
 10
-108.1724184056085
 20
-106.00923746725
 30
0.0
  0
VERTEX
  5
F89
  8
SAPA_PROFIL
 10
-89.172418405608482
 20
-106.00923746725
 30
0.0
 42
-0.4142135623730951
  0
SEQEND
  5
F8A
  8
SAPA_PROFIL
  0
POLYLINE
  5
AAF
  8
SAPA_PROFIL
 66
     1
 10
0.0
 20
0.0
 30
0.0
 70
     1
  0
VERTEX
  5
F8B
  8
SAPA_PROFIL
 10
-47.63453102483232
 20
66.463865638611566
 30
0.0
 42
0.5773502691895968
  0
VERTEX
  5
F8C
  8
SAPA_PROFIL
 10
-47.077678535306987
 20
64.933925997674947
 30
0.0
  0
VERTEX
  5
F8D
  8
SAPA_PROFIL
 10
-46.106688215213481
 20
64.762714192825115
 30
0.0
  0
VERTEX
  5
F8E
  8
SAPA_PROFIL
 10
-46.497062552571393
 20
62.548791310521921
 30
0.0
  0
VERTEX
  5
F8F
  8
SAPA_PROFIL
 10
-47.62469369751441
 20
62.138367138531137
 30
0.0
 42
0.4142135623729286
  0
VERTEX
  5
F90
  8
SAPA_PROFIL
 10
-47.803995440752601
 20
61.753853309297789
 30
0.0
  0
VERTEX
  5
F91
  8
SAPA_PROFIL
 10
-47.667187383422302
 20
61.377976260983353
 30
0.0
 42
0.4142135623732059
  0
VERTEX
  5
F92
  8
SAPA_PROFIL
 10
-47.28267355418874
 20
61.198674517745239
 30
0.0
  0
VERTEX
  5
F93
  8
SAPA_PROFIL
 10
-46.058890449512788
 20
61.644095141045518
 30
0.0
 42
-0.4142135623731506
  0
VERTEX
  5
F94
  8
SAPA_PROFIL
 10
-45.674376620279119
 20
61.464793397807462
 30
0.0
  0
VERTEX
  5
F95
  8
SAPA_PROFIL
 10
-45.475991433840207
 20
60.919734577712241
 30
0.0
 42
0.4142135623730951
  0
VERTEX
  5
F96
  8
SAPA_PROFIL
 10
-45.091477604606759
 20
60.740432834474099
 30
0.0
  0
VERTEX
  5
F97
  8
SAPA_PROFIL
 10
-42.828938057623589
 20
61.563929883426098
 30
0.0
  0
VERTEX
  5
F98
  8
SAPA_PROFIL
 10
-42.442107691035098
 20
62.192951547011639
 30
0.0
 42
0.7105995015649727
  0
VERTEX
  5
F99
  8
SAPA_PROFIL
 10
-42.800258344008512
 20
62.632011973417391
 30
0.0
  0
VERTEX
  5
F9A
  8
SAPA_PROFIL
 10
-43.458043178558469
 20
62.392597873089493
 30
0.0
  0
VERTEX
  5
F9B
  8
SAPA_PROFIL
 10
-44.38359763126121
 20
64.935537832365597
 30
0.0
 42
-0.4142135623731506
  0
VERTEX
  5
F9C
  8
SAPA_PROFIL
 10
-44.20429588802309
 20
65.320051661599152
 30
0.0
  0
VERTEX
  5
F9D
  8
SAPA_PROFIL
 10
-40.069648356565473
 20
66.824940292232071
 30
0.0
 42
-0.4142135623730951
  0
VERTEX
  5
F9E
  8
SAPA_PROFIL
 10
-39.685134527331797
 20
66.645638548994015
 30
0.0
  0
VERTEX
  5
F9F
  8
SAPA_PROFIL
 10
-38.759580074629142
 20
64.102698589717761
 30
0.0
  0
VERTEX
  5
FA0
  8
SAPA_PROFIL
 10
-39.417364909179149
 20
63.863284489389947
 30
0.0
 42
0.7105995015650586
  0
VERTEX
  5
FA1
  8
SAPA_PROFIL
 10
-39.409501624691693
 20
63.296729887415992
 30
0.0
  0
VERTEX
  5
FA2
  8
SAPA_PROFIL
 10
-38.708845040359343
 20
63.063521104118081
 30
0.0
  0
VERTEX
  5
FA3
  8
SAPA_PROFIL
 10
-30.763347835276161
 20
65.955445583213773
 30
0.0
  0
VERTEX
  5
FA4
  8
SAPA_PROFIL
 10
-30.421327691950491
 20
65.015752962427882
 30
0.0
  0
VERTEX
  5
FA5
  8
SAPA_PROFIL
 10
-29.481635071164579
 20
65.357773105753552
 30
0.0
  0
VERTEX
  5
FA6
  8
SAPA_PROFIL
 10
-29.823655214490248
 20
66.297465726539457
 30
0.0
  0
VERTEX
  5
FA7
  8
SAPA_PROFIL
 10
-27.051561983171879
 20
67.306425149350162
 30
0.0
  0
VERTEX
  5
FA8
  8
SAPA_PROFIL
 10
-27.393582126497549
 20
68.246117770136067
 30
0.0
  0
VERTEX
  5
FA9
  8
SAPA_PROFIL
 10
-25.608166147004411
 20
68.895956042454685
 30
0.0
  0
VERTEX
  5
FAA
  8
SAPA_PROFIL
 10
-25.309329908274041
 20
69.53681242451043
 30
0.0
  0
VERTEX
  5
FAB
  8
SAPA_PROFIL
 10
-24.668473526217969
 20
69.237976185780539
 30
0.0
  0
VERTEX
  5
FAC
  8
SAPA_PROFIL
 10
-22.883057546724981
 20
69.887814458099228
 30
0.0
  0
VERTEX
  5
FAD
  8
SAPA_PROFIL
 10
-22.541037403399351
 20
68.948121837313423
 30
0.0
  0
VERTEX
  5
FAE
  8
SAPA_PROFIL
 10
-19.768944172080879
 20
69.957081260124156
 30
0.0
  0
VERTEX
  5
FAF
  8
SAPA_PROFIL
 10
-19.426924028755209
 20
69.01738863933825
 30
0.0
  0
VERTEX
  5
FB0
  8
SAPA_PROFIL
 10
-18.487231407969301
 20
69.35940878266392
 30
0.0
  0
VERTEX
  5
FB1
  8
SAPA_PROFIL
 10
-18.829251551294959
 20
70.299101403449839
 30
0.0
  0
VERTEX
  5
FB2
  8
SAPA_PROFIL
 10
-10.8837543462116
 20
73.191025882545361
 30
0.0
  0
VERTEX
  5
FB3
  8
SAPA_PROFIL
 10
-10.496923979623149
 20
73.820047546131335
 30
0.0
 42
0.7105995015650586
  0
VERTEX
  5
FB4
  8
SAPA_PROFIL
 10
-10.855074632596519
 20
74.259107972537009
 30
0.0
  0
VERTEX
  5
FB5
  8
SAPA_PROFIL
 10
-11.51285946714645
 20
74.01969387220899
 30
0.0
  0
VERTEX
  5
FB6
  8
SAPA_PROFIL
 10
-12.438413919849109
 20
76.562633831485243
 30
0.0
 42
-0.4142135623730951
  0
VERTEX
  5
FB7
  8
SAPA_PROFIL
 10
-12.259112176611
 20
76.947147660718784
 30
0.0
  0
VERTEX
  5
FB8
  8
SAPA_PROFIL
 10
-8.1244646451531963
 20
78.452036291351561
 30
0.0
 42
-0.4142135623731506
  0
VERTEX
  5
FB9
  8
SAPA_PROFIL
 10
-7.7399508159197419
 20
78.272734548113405
 30
0.0
  0
VERTEX
  5
FBA
  8
SAPA_PROFIL
 10
-6.8143963632172229
 20
75.729794588837223
 30
0.0
  0
VERTEX
  5
FBB
  8
SAPA_PROFIL
 10
-7.4721811977672266
 20
75.490380488509416
 30
0.0
 42
0.7105995015649949
  0
VERTEX
  5
FBC
  8
SAPA_PROFIL
 10
-7.46431791327959
 20
74.923825886535283
 30
0.0
  0
VERTEX
  5
FBD
  8
SAPA_PROFIL
 10
-6.7636613289475997
 20
74.690617103237727
 30
0.0
  0
VERTEX
  5
FBE
  8
SAPA_PROFIL
 10
-4.5011217819644411
 20
75.514114152189734
 30
0.0
 42
0.4142135623730951
  0
VERTEX
  5
FBF
  8
SAPA_PROFIL
 10
-4.3218200387263259
 20
75.898627981423289
 30
0.0
  0
VERTEX
  5
FC0
  8
SAPA_PROFIL
 10
-4.5202052251652374
 20
76.443686801518496
 30
0.0
 42
-0.4142135623731506
  0
VERTEX
  5
FC1
  8
SAPA_PROFIL
 10
-4.3409034819271248
 20
76.82820063075205
 30
0.0
  0
VERTEX
  5
FC2
  8
SAPA_PROFIL
 10
-3.1171203772508331
 20
77.273621254051733
 30
0.0
 42
0.414213562373206
  0
VERTEX
  5
FC3
  8
SAPA_PROFIL
 10
-2.9378186340128272
 20
77.658135083285259
 30
0.0
  0
VERTEX
  5
FC4
  8
SAPA_PROFIL
 10
-3.0746266913431262
 20
78.03401213159971
 30
0.0
 42
0.4142135623729286
  0
VERTEX
  5
FC5
  8
SAPA_PROFIL
 10
-3.4591405205765011
 20
78.213313874837652
 30
0.0
  0
VERTEX
  5
FC6
  8
SAPA_PROFIL
 10
-4.5867716655196347
 20
77.802889702846826
 30
0.0
  0
VERTEX
  5
FC7
  8
SAPA_PROFIL
 10
-6.3088979549348121
 20
79.247925237135931
 30
0.0
  0
VERTEX
  5
FC8
  8
SAPA_PROFIL
 10
-5.6751290426944987
 20
80.003221635719129
 30
0.0
 42
0.5773502691896019
  0
VERTEX
  5
FC9
  8
SAPA_PROFIL
 10
-6.2319815322189838
 20
81.533161276656074
 30
0.0
  0
VERTEX
  5
FCA
  8
SAPA_PROFIL
 10
-7.4491691607736259
 20
81.747784282744362
 30
0.0
 42
0.1316524948697527
  0
VERTEX
  5
FCB
  8
SAPA_PROFIL
 10
-7.964837471243114
 20
81.702669148662594
 30
0.0
  0
VERTEX
  5
FCC
  8
SAPA_PROFIL
 10
-46.41604392188718
 20
67.707574529003566
 30
0.0
 42
0.1316524948697533
  0
VERTEX
  5
FCD
  8
SAPA_PROFIL
 10
-46.840068214812113
 20
67.410669526089663
 30
0.0
  0
SEQEND
  5
FCE
  8
SAPA_PROFIL
  0
POLYLINE
  5
AB0
  8
SAPA_PROFIL
 62
     4
 66
     1
 10
0.0
 20
0.0
 30
0.0
 70
     1
  0
VERTEX
  5
FCF
  8
SAPA_PROFIL
 62
     4
 10
-17.788169817537291
 20
45.510219846920577
 30
0.0
  0
VERTEX
  5
FD0
  8
SAPA_PROFIL
 62
     4
 10
-17.03572550222081
 20
43.442896081191542
 30
0.0
 42
1.0
  0
VERTEX
  5
FD1
  8
SAPA_PROFIL
 62
     4
 10
-14.874432474413259
 20
44.229542410840573
 30
0.0
  0
VERTEX
  5
FD2
  8
SAPA_PROFIL
 62
     4
 10
-15.626876789729639
 20
46.296866176569651
 30
0.0
 42
1.0
  0
SEQEND
  5
FD3
  8
SAPA_PROFIL
 62
     4
  0
POLYLINE
  5
AB1
  8
SAPA_PROFIL
 62
     4
 66
     1
 10
0.0
 20
0.0
 30
0.0
 70
     1
  0
VERTEX
  5
FD4
  8
SAPA_PROFIL
 62
     4
 10
-25.647898958161029
 20
58.77180564334892
 30
0.0
  0
VERTEX
  5
FD5
  8
SAPA_PROFIL
 62
     4
 10
-26.691345007036961
 20
61.638650101054687
 30
0.0
  0
VERTEX
  5
FD6
  8
SAPA_PROFIL
 62
     4
 10
-27.829535888485282
 20
64.765803846863093
 30
0.0
 42
-0.6681786379192966
  0
VERTEX
  5
FD7
  8
SAPA_PROFIL
 62
     4
 10
-27.14838044722201
 20
65.389967812044191
 30
0.0
  0
VERTEX
  5
FD8
  8
SAPA_PROFIL
 62
     4
 10
-24.397252441944431
 20
64.107095746833579
 30
0.0
 42
0.1989123679837333
  0
VERTEX
  5
FD9
  8
SAPA_PROFIL
 62
     4
 10
-23.632614034771478
 20
64.073710912102001
 30
0.0
  0
VERTEX
  5
FDA
  8
SAPA_PROFIL
 62
     4
 10
-23.08215484197698
 20
64.274061673457396
 30
0.0
 42
0.1989123667755704
  0
VERTEX
  5
FDB
  8
SAPA_PROFIL
 62
     4
 10
-22.517867199248329
 20
64.791136030396018
 30
0.0
  0
VERTEX
  5
FDC
  8
SAPA_PROFIL
 62
     4
 10
-21.234995126109229
 20
67.542264052675932
 30
0.0
 42
-0.6681786379192936
  0
VERTEX
  5
FDD
  8
SAPA_PROFIL
 62
     4
 10
-20.311994922198028
 20
67.501964993468448
 30
0.0
  0
VERTEX
  5
FDE
  8
SAPA_PROFIL
 62
     4
 10
-19.173804040749712
 20
64.374811247660034
 30
0.0
  0
VERTEX
  5
FDF
  8
SAPA_PROFIL
 62
     4
 10
-18.130357991873758
 20
61.50796678995426
 30
0.0
 42
-0.4142135623730951
  0
VERTEX
  5
FE0
  8
SAPA_PROFIL
 62
     4
 10
-18.42919423060388
 20
60.86711040789848
 30
0.0
  0
VERTEX
  5
FE1
  8
SAPA_PROFIL
 62
     4
 10
-25.007042576105238
 20
58.472969404618802
 30
0.0
 42
-0.4142135623730951
  0
SEQEND
  5
FE2
  8
SAPA_PROFIL
 62
     4
  0
POLYLINE
  5
AB2
  8
SAPA_PROFIL
 62
     4
 66
     1
 10
0.0
 20
0.0
 30
0.0
 70
     1
  0
VERTEX
  5
FE3
  8
SAPA_PROFIL
 62
     4
 10
-15.85439172999868
 20
51.119917041574809
 30
0.0
  0
VERTEX
  5
FE4
  8
SAPA_PROFIL
 62
     4
 10
-16.728275861274241
 20
49.312792761734549
 30
0.0
 42
-0.9251773977986363
  0
VERTEX
  5
FE5
  8
SAPA_PROFIL
 62
     4
 10
-18.883049419792389
 20
48.528519324850087
 30
0.0
  0
VERTEX
  5
FE6
  8
SAPA_PROFIL
 62
     4
 10
-20.714080598731009
 20
49.351134945561441
 30
0.0
  0
VERTEX
  5
FE7
  8
SAPA_PROFIL
 62
     4
 10
-21.573160337115532
 20
49.038455491928289
 30
0.0
 42
-0.4142135623730769
  0
VERTEX
  5
FE8
  8
SAPA_PROFIL
 62
     4
 10
-22.214016719171319
 20
49.337291730658407
 30
0.0
  0
VERTEX
  5
FE9
  8
SAPA_PROFIL
 62
     4
 10
-24.963858671509691
 20
56.892420401777102
 30
0.0
 42
-0.4142135623730951
  0
VERTEX
  5
FEA
  8
SAPA_PROFIL
 62
     4
 10
-24.665022432779569
 20
57.533276783832889
 30
0.0
  0
VERTEX
  5
FEB
  8
SAPA_PROFIL
 62
     4
 10
-18.087174087278211
 20
59.927417787112567
 30
0.0
 42
-0.4142135623730951
  0
VERTEX
  5
FEC
  8
SAPA_PROFIL
 62
     4
 10
-17.44631770522242
 20
59.628581548382449
 30
0.0
  0
VERTEX
  5
FED
  8
SAPA_PROFIL
 62
     4
 10
-14.69647575288405
 20
52.073452877263762
 30
0.0
 42
-0.4142135623730951
  0
VERTEX
  5
FEE
  8
SAPA_PROFIL
 62
     4
 10
-14.99531199161417
 20
51.43259649520796
 30
0.0
  0
SEQEND
  5
FEF
  8
SAPA_PROFIL
 62
     4
  0
POLYLINE
  5
AB3
  8
SAPA_PROFIL
 62
     4
 66
     1
 10
0.0
 20
0.0
 30
0.0
 70
     1
  0
VERTEX
  5
FF0
  8
SAPA_PROFIL
 62
     4
 10
-23.205012361455971
 20
49.136225480450641
 30
0.0
 42
-1.0
  0
VERTEX
  5
FF1
  8
SAPA_PROFIL
 62
     4
 10
-24.42661276847771
 20
48.691599294127244
 30
0.0
  0
VERTEX
  5
FF2
  8
SAPA_PROFIL
 62
     4
 10
-24.71732989030453
 20
49.490338021795289
 30
0.0
  0
VERTEX
  5
FF3
  8
SAPA_PROFIL
 62
     4
 10
-24.670345259265179
 20
49.507439028961599
 30
0.0
 42
1.0
  0
VERTEX
  5
FF4
  8
SAPA_PROFIL
 62
     4
 10
-24.84135533092801
 20
49.977285339354552
 30
0.0
  0
VERTEX
  5
FF5
  8
SAPA_PROFIL
 62
     4
 10
-25.264217010281708
 20
49.823376274857978
 30
0.0
 42
0.4142135623730951
  0
VERTEX
  5
FF6
  8
SAPA_PROFIL
 62
     4
 10
-25.443518753519719
 20
49.438862445624459
 30
0.0
  0
VERTEX
  5
FF7
  8
SAPA_PROFIL
 62
     4
 10
-24.862084509866101
 20
47.841384990288482
 30
0.0
 42
0.4225789089359373
  0
VERTEX
  5
FF8
  8
SAPA_PROFIL
 62
     4
 10
-23.594052551487511
 20
47.281300217659563
 30
0.0
  0
VERTEX
  5
FF9
  8
SAPA_PROFIL
 62
     4
 10
-20.774974689129781
 20
48.307360647636571
 30
0.0
  0
VERTEX
  5
FFA
  8
SAPA_PROFIL
 62
     4
 10
-19.685518839635058
 20
47.79933904179542
 30
0.0
  0
VERTEX
  5
FFB
  8
SAPA_PROFIL
 62
     4
 10
-17.582094958182211
 20
42.020229423962107
 30
0.0
 42
0.4142135623730951
  0
VERTEX
  5
FFC
  8
SAPA_PROFIL
 62
     4
 10
-16.300382194070629
 20
41.422556946501871
 30
0.0
  0
VERTEX
  5
FFD
  8
SAPA_PROFIL
 62
     4
 10
-14.13908916626308
 20
42.209203276150888
 30
0.0
 42
0.4142135623730951
  0
VERTEX
  5
FFE
  8
SAPA_PROFIL
 62
     4
 10
-13.54141668880284
 20
43.490916040262469
 30
0.0
  0
VERTEX
  5
FFF
  8
SAPA_PROFIL
 62
     4
 10
-15.64484057025566
 20
49.270025658095669
 30
0.0
  0
VERTEX
  5
1000
  8
SAPA_PROFIL
 62
     4
 10
-15.13681896441444
 20
50.359481507590537
 30
0.0
  0
VERTEX
  5
1001
  8
SAPA_PROFIL
 62
     4
 10
-12.31774110205672
 20
51.385541937567552
 30
0.0
 42
0.4225789089359373
  0
VERTEX
  5
1002
  8
SAPA_PROFIL
 62
     4
 10
-11.706387818863471
 20
52.62966699684781
 30
0.0
  0
VERTEX
  5
1003
  8
SAPA_PROFIL
 62
     4
 10
-12.28782206251709
 20
54.227144452183794
 30
0.0
 42
0.4142135623730951
  0
VERTEX
  5
1004
  8
SAPA_PROFIL
 62
     4
 10
-12.672335891750659
 20
54.4064461954219
 30
0.0
  0
VERTEX
  5
1005
  8
SAPA_PROFIL
 62
     4
 10
-13.09519757110426
 20
54.252537130925369
 30
0.0
 42
1.0
  0
VERTEX
  5
1006
  8
SAPA_PROFIL
 62
     4
 10
-12.92418749944143
 20
53.782690820532409
 30
0.0
  0
VERTEX
  5
1007
  8
SAPA_PROFIL
 62
     4
 10
-12.87720286840206
 20
53.799791827698719
 30
0.0
  0
VERTEX
  5
1008
  8
SAPA_PROFIL
 62
     4
 10
-12.58648574657524
 20
53.001053100030681
 30
0.0
 42
-1.0
  0
VERTEX
  5
1009
  8
SAPA_PROFIL
 62
     4
 10
-13.80808615359698
 20
52.556426913707277
 30
0.0
  0
VERTEX
  5
100A
  8
SAPA_PROFIL
 62
     4
 10
-18.234111419963799
 20
64.716831390985703
 30
0.0
  0
VERTEX
  5
100B
  8
SAPA_PROFIL
 62
     4
 10
-20.097836589356049
 20
69.83737420996016
 30
0.0
  0
VERTEX
  5
100C
  8
SAPA_PROFIL
 62
     4
 10
-21.5073755205349
 20
69.324343994971656
 30
0.0
  0
VERTEX
  5
100D
  8
SAPA_PROFIL
 62
     4
 10
-23.387920060775421
 20
65.291503214099393
 30
0.0
 42
-0.4142135623730951
  0
VERTEX
  5
100E
  8
SAPA_PROFIL
 62
     4
 10
-24.052383085163999
 20
65.04965845145145
 30
0.0
  0
VERTEX
  5
100F
  8
SAPA_PROFIL
 62
     4
 10
-28.085223866036259
 20
66.930202991691971
 30
0.0
  0
VERTEX
  5
1010
  8
SAPA_PROFIL
 62
     4
 10
-29.494762797215149
 20
66.417172776703467
 30
0.0
  0
VERTEX
  5
1011
  8
SAPA_PROFIL
 62
     4
 10
-27.63103762782286
 20
61.296629957729017
 30
0.0
  0
VERTEX
  5
1012
  8
SAPA_PROFIL
 62
     4
 10
-23.30761840445366
 20
49.418133266686397
 30
0.0
  0
SEQEND
  5
1013
  8
SAPA_PROFIL
 62
     4
  0
POLYLINE
  5
AB4
  8
SAPA_PROFIL
  6
CONTINUOUS
 62
     7
 66
     1
 10
0.0
 20
0.0
 30
0.0
 70
   129
  0
VERTEX
  5
1014
  8
SAPA_PROFIL
  6
CONTINUOUS
 62
     7
 10
-30.311586216841761
 20
17.69978471765393
 30
0.0
 42
-0.4040262258351549
  0
VERTEX
  5
1015
  8
SAPA_PROFIL
  6
CONTINUOUS
 62
     7
 10
-30.94618821578803
 20
17.982327731338948
 30
0.0
  0
VERTEX
  5
1016
  8
SAPA_PROFIL
  6
CONTINUOUS
 62
     7
 10
-31.695858081246119
 20
19.837825759736859
 30
0.0
 42
-0.4244748162096148
  0
VERTEX
  5
1017
  8
SAPA_PROFIL
  6
CONTINUOUS
 62
     7
 10
-31.40327622562603
 20
20.49497536683737
 30
0.0
  0
VERTEX
  5
1018
  8
SAPA_PROFIL
  6
CONTINUOUS
 62
     7
 10
-25.765371844913322
 20
22.547004745055801
 30
0.0
 42
0.4142135623731088
  0
VERTEX
  5
1019
  8
SAPA_PROFIL
  6
CONTINUOUS
 62
     7
 10
-25.586070101675318
 20
22.931518574289331
 30
0.0
  0
VERTEX
  5
101A
  8
SAPA_PROFIL
  6
CONTINUOUS
 62
     7
 10
-26.91994866064443
 20
26.596319795354649
 30
0.0
 42
-0.21342176528335
  0
VERTEX
  5
101B
  8
SAPA_PROFIL
  6
CONTINUOUS
 62
     7
 10
-26.902457427581851
 20
26.840643467490231
 30
0.0
 42
0.213421765283341
  0
VERTEX
  5
101C
  8
SAPA_PROFIL
  6
CONTINUOUS
 62
     7
 10
-26.88496619451826
 20
27.08496713962592
 30
0.0
  0
VERTEX
  5
101D
  8
SAPA_PROFIL
  6
CONTINUOUS
 62
     7
 10
-27.074030279813829
 20
27.604416444805398
 30
0.0
 42
0.4142135623730951
  0
VERTEX
  5
101E
  8
SAPA_PROFIL
  6
CONTINUOUS
 62
     7
 10
-27.45854410904747
 20
27.783718188043451
 30
0.0
  0
VERTEX
  5
101F
  8
SAPA_PROFIL
  6
CONTINUOUS
 62
     7
 10
-29.0560215643834
 20
27.202283944389819
 30
0.0
  0
VERTEX
  5
1020
  8
SAPA_PROFIL
  6
CONTINUOUS
 62
     7
 10
-29.448029122344568
 20
26.564843692679631
 30
0.0
 42
0.7105995015649539
  0
VERTEX
  5
1021
  8
SAPA_PROFIL
  6
CONTINUOUS
 62
     7
 10
-29.089878469371168
 20
26.12578326627391
 30
0.0
  0
VERTEX
  5
1022
  8
SAPA_PROFIL
  6
CONTINUOUS
 62
     7
 10
-28.714001421057841
 20
26.262591323603878
 30
0.0
 42
-0.4142135623731206
  0
VERTEX
  5
1023
  8
SAPA_PROFIL
  6
CONTINUOUS
 62
     7
 10
-28.329487591824321
 20
26.083289580365829
 30
0.0
  0
VERTEX
  5
1024
  8
SAPA_PROFIL
  6
CONTINUOUS
 62
     7
 10
-27.508639247842719
 20
23.828027290479611
 30
0.0
 42
-0.4142135623730951
  0
VERTEX
  5
1025
  8
SAPA_PROFIL
  6
CONTINUOUS
 62
     7
 10
-27.68794099108073
 20
23.443513461246202
 30
0.0
  0
VERTEX
  5
1026
  8
SAPA_PROFIL
  6
CONTINUOUS
 62
     7
 10
-32.292434832930667
 20
21.767614758950739
 30
0.0
 42
-0.4142135623731258
  0
VERTEX
  5
1027
  8
SAPA_PROFIL
  6
CONTINUOUS
 62
     7
 10
-32.6769486621642
 20
21.946916502188799
 30
0.0
  0
VERTEX
  5
1028
  8
SAPA_PROFIL
  6
CONTINUOUS
 62
     7
 10
-33.497797006145788
 20
24.202178792075021
 30
0.0
 42
-0.4142135623731257
  0
VERTEX
  5
1029
  8
SAPA_PROFIL
  6
CONTINUOUS
 62
     7
 10
-33.318495262907788
 20
24.58669262130843
 30
0.0
  0
VERTEX
  5
102A
  8
SAPA_PROFIL
  6
CONTINUOUS
 62
     7
 10
-32.472771904201352
 20
24.894510750301212
 30
0.0
 42
0.710599501565072
  0
VERTEX
  5
102B
  8
SAPA_PROFIL
  6
CONTINUOUS
 62
     7
 10
-32.480635188688893
 20
25.461065352275511
 30
0.0
  0
VERTEX
  5
102C
  8
SAPA_PROFIL
  6
CONTINUOUS
 62
     7
 10
-33.190669095841493
 20
25.697395313756829
 30
0.0
  0
VERTEX
  5
102D
  8
SAPA_PROFIL
  6
CONTINUOUS
 62
     7
 10
-35.351962123649059
 20
24.91074898410778
 30
0.0
 42
0.4244748162096024
  0
VERTEX
  5
102E
  8
SAPA_PROFIL
  6
CONTINUOUS
 62
     7
 10
-35.527511237020583
 20
24.51645921984726
 30
0.0
  0
VERTEX
  5
102F
  8
SAPA_PROFIL
  6
CONTINUOUS
 62
     7
 10
-32.431626152793513
 20
16.853874748189071
 30
0.0
 42
0.4040262258351507
  0
VERTEX
  5
1030
  8
SAPA_PROFIL
  6
CONTINUOUS
 62
     7
 10
-29.893218157008508
 20
15.72370269344913
 30
0.0
  0
VERTEX
  5
1031
  8
SAPA_PROFIL
  6
CONTINUOUS
 62
     7
 10
-29.881365377157071
 20
15.728016752508379
 30
0.0
 42
-0.8769764629927435
  0
VERTEX
  5
1032
  8
SAPA_PROFIL
  6
CONTINUOUS
 62
     7
 10
-28.965768797480909
 20
13.96917208743338
 30
0.0
  0
VERTEX
  5
1033
  8
SAPA_PROFIL
  6
CONTINUOUS
 62
     7
 10
-30.947204464022491
 20
12.58175589724231
 30
0.0
 42
0.3394542588633873
  0
VERTEX
  5
1034
  8
SAPA_PROFIL
  6
CONTINUOUS
 62
     7
 10
-31.057039319353009
 20
12.23340424095789
 30
0.0
  0
VERTEX
  5
1035
  8
SAPA_PROFIL
  6
CONTINUOUS
 62
     7
 10
-15.96771166865733
 20
-29.224182754078019
 30
0.0
 42
0.4142135623730951
  0
VERTEX
  5
1036
  8
SAPA_PROFIL
  6
CONTINUOUS
 62
     7
 10
-15.32685528660153
 20
-29.52301899280809
 30
0.0
  0
VERTEX
  5
1037
  8
SAPA_PROFIL
  6
CONTINUOUS
 62
     7
 10
30.718083131907012
 20
-12.76403196985069
 30
0.0
 42
0.4142135623730951
  0
VERTEX
  5
1038
  8
SAPA_PROFIL
  6
CONTINUOUS
 62
     7
 10
31.01691937063714
 20
-12.12317558779494
 30
0.0
  0
VERTEX
  5
1039
  8
SAPA_PROFIL
  6
CONTINUOUS
 62
     7
 10
15.927591719943329
 20
29.334411407241699
 30
0.0
 42
0.3394542588633794
  0
VERTEX
  5
103A
  8
SAPA_PROFIL
  6
CONTINUOUS
 62
     7
 10
15.619537210883321
 20
29.530663773671851
 30
0.0
  0
VERTEX
  5
103B
  8
SAPA_PROFIL
  6
CONTINUOUS
 62
     7
 10
13.20985549259745
 20
29.319843940616408
 30
0.0
 42
-0.8769764629927569
  0
VERTEX
  5
103C
  8
SAPA_PROFIL
  6
CONTINUOUS
 62
     7
 10
12.78067960652413
 20
31.255731259494102
 30
0.0
  0
VERTEX
  5
103D
  8
SAPA_PROFIL
  6
CONTINUOUS
 62
     7
 10
12.79253238637563
 20
31.260045318553349
 30
0.0
 42
0.4040262258351565
  0
VERTEX
  5
103E
  8
SAPA_PROFIL
  6
CONTINUOUS
 62
     7
 10
14.010605132314369
 20
33.757464548875021
 30
0.0
  0
VERTEX
  5
103F
  8
SAPA_PROFIL
  6
CONTINUOUS
 62
     7
 10
11.456776341063399
 20
41.617341376473121
 30
0.0
 42
0.4244748162095171
  0
VERTEX
  5
1040
  8
SAPA_PROFIL
  6
CONTINUOUS
 62
     7
 10
11.06885334317769
 20
41.806544064396853
 30
0.0
  0
VERTEX
  5
1041
  8
SAPA_PROFIL
  6
CONTINUOUS
 62
     7
 10
8.9075603153700627
 20
41.019897734747808
 30
0.0
  0
VERTEX
  5
1042
  8
SAPA_PROFIL
  6
CONTINUOUS
 62
     7
 10
8.5155527574078178
 20
40.382457483037619
 30
0.0
 42
0.710599501565103
  0
VERTEX
  5
1043
  8
SAPA_PROFIL
  6
CONTINUOUS
 62
     7
 10
8.8737034103813812
 20
39.943397056631682
 30
0.0
  0
VERTEX
  5
1044
  8
SAPA_PROFIL
  6
CONTINUOUS
 62
     7
 10
9.7194267690877041
 20
40.251215185624403
 30
0.0
 42
-0.4142135623731159
  0
VERTEX
  5
1045
  8
SAPA_PROFIL
  6
CONTINUOUS
 62
     7
 10
10.10394059832225
 20
40.071913442386688
 30
0.0
  0
VERTEX
  5
1046
  8
SAPA_PROFIL
  6
CONTINUOUS
 62
     7
 10
10.924788942302881
 20
37.816651152500192
 30
0.0
 42
-0.4142135623731019
  0
VERTEX
  5
1047
  8
SAPA_PROFIL
  6
CONTINUOUS
 62
     7
 10
10.74548719906471
 20
37.432137323266659
 30
0.0
  0
VERTEX
  5
1048
  8
SAPA_PROFIL
  6
CONTINUOUS
 62
     7
 10
6.140993357214767
 20
35.75623862097126
 30
0.0
 42
-0.4142135623730951
  0
VERTEX
  5
1049
  8
SAPA_PROFIL
  6
CONTINUOUS
 62
     7
 10
5.7564795279812984
 20
35.935540364209317
 30
0.0
  0
VERTEX
  5
104A
  8
SAPA_PROFIL
  6
CONTINUOUS
 62
     7
 10
4.9356311839997034
 20
38.190802654095528
 30
0.0
 42
-0.4142135623731367
  0
VERTEX
  5
104B
  8
SAPA_PROFIL
  6
CONTINUOUS
 62
     7
 10
5.1149329272377591
 20
38.575316483328997
 30
0.0
  0
VERTEX
  5
104C
  8
SAPA_PROFIL
  6
CONTINUOUS
 62
     7
 10
5.4908099755511444
 20
38.712124540658863
 30
0.0
 42
0.7105995015649319
  0
VERTEX
  5
104D
  8
SAPA_PROFIL
  6
CONTINUOUS
 62
     7
 10
5.482946691063546
 20
39.278679142632882
 30
0.0
  0
VERTEX
  5
104E
  8
SAPA_PROFIL
  6
CONTINUOUS
 62
     7
 10
4.7729127839120897
 20
39.515009104114881
 30
0.0
  0
VERTEX
  5
104F
  8
SAPA_PROFIL
  6
CONTINUOUS
 62
     7
 10
3.1754353285759862
 20
38.933574860461249
 30
0.0
 42
0.4142135623731159
  0
VERTEX
  5
1050
  8
SAPA_PROFIL
  6
CONTINUOUS
 62
     7
 10
2.996133585337986
 20
38.549061031227779
 30
0.0
  0
VERTEX
  5
1051
  8
SAPA_PROFIL
  6
CONTINUOUS
 62
     7
 10
3.1851976706335559
 20
38.029611726048358
 30
0.0
 42
0.2134217652833476
  0
VERTEX
  5
1052
  8
SAPA_PROFIL
  6
CONTINUOUS
 62
     7
 10
3.3556449617271928
 20
37.853692082577709
 30
0.0
 42
-0.2134217652833586
  0
VERTEX
  5
1053
  8
SAPA_PROFIL
  6
CONTINUOUS
 62
     7
 10
3.5260922528199208
 20
37.677772439106718
 30
0.0
  0
VERTEX
  5
1054
  8
SAPA_PROFIL
  6
CONTINUOUS
 62
     7
 10
4.8599708117910154
 20
34.012971218041969
 30
0.0
 42
0.4142135623731019
  0
VERTEX
  5
1055
  8
SAPA_PROFIL
  6
CONTINUOUS
 62
     7
 10
5.2444846410244281
 20
33.833669474803919
 30
0.0
  0
VERTEX
  5
1056
  8
SAPA_PROFIL
  6
CONTINUOUS
 62
     7
 10
10.88238902173714
 20
35.885698853022348
 30
0.0
 42
-0.4244748162095981
  0
VERTEX
  5
1057
  8
SAPA_PROFIL
  6
CONTINUOUS
 62
     7
 10
11.528927351547511
 20
35.570361039816873
 30
0.0
  0
VERTEX
  5
1058
  8
SAPA_PROFIL
  6
CONTINUOUS
 62
     7
 10
12.14733805939159
 20
33.667088585072008
 30
0.0
 42
-0.4040262258351559
  0
VERTEX
  5
1059
  8
SAPA_PROFIL
  6
CONTINUOUS
 62
     7
 10
11.842819872906199
 20
33.042733777492167
 30
0.0
  0
VERTEX
  5
105A
  8
SAPA_PROFIL
  6
CONTINUOUS
 62
     7
 10
-7.3549979303955411
 20
26.055299534224499
 30
0.0
 42
-0.4142135623730951
  0
VERTEX
  5
105B
  8
SAPA_PROFIL
  6
CONTINUOUS
 62
     7
 10
-8.6367106945070873
 20
26.652972011684771
 30
0.0
  0
VERTEX
  5
105C
  8
SAPA_PROFIL
  6
CONTINUOUS
 62
     7
 10
-9.8337811961469583
 20
29.94189618443545
 30
0.0
 42
-0.4142135623730951
  0
VERTEX
  5
105D
  8
SAPA_PROFIL
  6
CONTINUOUS
 62
     7
 10
-9.2361087186867508
 20
31.223608948547049
 30
0.0
  0
VERTEX
  5
105E
  8
SAPA_PROFIL
  6
CONTINUOUS
 62
     7
 10
-7.3567234771159056
 20
31.907649235198051
 30
0.0
 42
0.4142135623730909
  0
VERTEX
  5
105F
  8
SAPA_PROFIL
  6
CONTINUOUS
 62
     7
 10
-6.759050999655642
 20
33.189361999309597
 30
0.0
  0
VERTEX
  5
1060
  8
SAPA_PROFIL
  6
CONTINUOUS
 62
     7
 10
-13.154827679845649
 20
50.76161400800612
 30
0.0
 42
0.4142135623730951
  0
VERTEX
  5
1061
  8
SAPA_PROFIL
  6
CONTINUOUS
 62
     7
 10
-13.53934150907912
 20
50.940915751244177
 30
0.0
  0
VERTEX
  5
1062
  8
SAPA_PROFIL
  6
CONTINUOUS
 62
     7
 10
-15.065650468654489
 20
50.385384721664927
 30
0.0
  0
VERTEX
  5
1063
  8
SAPA_PROFIL
  6
CONTINUOUS
 62
     7
 10
-15.626188339211581
 20
49.183307379047669
 30
0.0
 42
0.1989123673804336
  0
VERTEX
  5
1064
  8
SAPA_PROFIL
  6
CONTINUOUS
 62
     7
 10
-15.63620378933706
 20
48.953915857527022
 30
0.0
  0
VERTEX
  5
1065
  8
SAPA_PROFIL
  6
CONTINUOUS
 62
     7
 10
-15.22577961734544
 20
47.826284712584588
 30
0.0
  0
VERTEX
  5
1066
  8
SAPA_PROFIL
  6
CONTINUOUS
 62
     7
 10
-14.61497941383465
 20
48.048597805746283
 30
0.0
  0
VERTEX
  5
1067
  8
SAPA_PROFIL
  6
CONTINUOUS
 62
     7
 10
-14.729971362759899
 20
46.542185892727559
 30
0.0
 42
0.5450207774087864
  0
VERTEX
  5
1068
  8
SAPA_PROFIL
  6
CONTINUOUS
 62
     7
 10
-14.32823557312372
 20
46.237444038167659
 30
0.0
  0
VERTEX
  5
1069
  8
SAPA_PROFIL
  6
CONTINUOUS
 62
     7
 10
-13.999343155848409
 20
46.357151088331698
 30
0.0
  0
VERTEX
  5
106A
  8
SAPA_PROFIL
  6
CONTINUOUS
 62
     7
 10
-14.11433510477366
 20
44.850739175312867
 30
0.0
 42
0.54502077740915
  0
VERTEX
  5
106B
  8
SAPA_PROFIL
  6
CONTINUOUS
 62
     7
 10
-13.71259931513719
 20
44.545997320753081
 30
0.0
  0
VERTEX
  5
106C
  8
SAPA_PROFIL
  6
CONTINUOUS
 62
     7
 10
-13.38370689786222
 20
44.665704370917062
 30
0.0
  0
VERTEX
  5
106D
  8
SAPA_PROFIL
  6
CONTINUOUS
 62
     7
 10
-13.49869884678748
 20
43.159292457898289
 30
0.0
 42
0.5450207774088274
  0
VERTEX
  5
106E
  8
SAPA_PROFIL
  6
CONTINUOUS
 62
     7
 10
-13.096963057151299
 20
42.854550603338332
 30
0.0
  0
VERTEX
  5
106F
  8
SAPA_PROFIL
  6
CONTINUOUS
 62
     7
 10
-12.76807063987604
 20
42.974257653502427
 30
0.0
  0
VERTEX
  5
1070
  8
SAPA_PROFIL
  6
CONTINUOUS
 62
     7
 10
-12.883062588801289
 20
41.467845740483597
 30
0.0
 42
0.5450207774088203
  0
VERTEX
  5
1071
  8
SAPA_PROFIL
  6
CONTINUOUS
 62
     7
 10
-12.481326799165119
 20
41.163103885923697
 30
0.0
  0
VERTEX
  5
1072
  8
SAPA_PROFIL
  6
CONTINUOUS
 62
     7
 10
-12.152434381889799
 20
41.282810936087792
 30
0.0
  0
VERTEX
  5
1073
  8
SAPA_PROFIL
  6
CONTINUOUS
 62
     7
 10
-12.26742633081505
 20
39.776399023069018
 30
0.0
 42
0.5450207774087519
  0
VERTEX
  5
1074
  8
SAPA_PROFIL
  6
CONTINUOUS
 62
     7
 10
-11.86569054117893
 20
39.471657168509068
 30
0.0
  0
VERTEX
  5
1075
  8
SAPA_PROFIL
  6
CONTINUOUS
 62
     7
 10
-11.536798123903621
 20
39.591364218673171
 30
0.0
  0
VERTEX
  5
1076
  8
SAPA_PROFIL
  6
CONTINUOUS
 62
     7
 10
-11.65179007282887
 20
38.08495230565439
 30
0.0
 42
0.5450207774090911
  0
VERTEX
  5
1077
  8
SAPA_PROFIL
  6
CONTINUOUS
 62
     7
 10
-11.250054283192471
 20
37.780210451094547
 30
0.0
  0
VERTEX
  5
1078
  8
SAPA_PROFIL
  6
CONTINUOUS
 62
     7
 10
-10.921161865917441
 20
37.899917501258528
 30
0.0
  0
VERTEX
  5
1079
  8
SAPA_PROFIL
  6
CONTINUOUS
 62
     7
 10
-11.036153814842629
 20
36.393505588239748
 30
0.0
 42
0.5450207774088274
  0
VERTEX
  5
107A
  8
SAPA_PROFIL
  6
CONTINUOUS
 62
     7
 10
-10.634418025206511
 20
36.088763733679862
 30
0.0
  0
VERTEX
  5
107B
  8
SAPA_PROFIL
  6
CONTINUOUS
 62
     7
 10
-10.3055256079312
 20
36.2084707838439
 30
0.0
  0
VERTEX
  5
107C
  8
SAPA_PROFIL
  6
CONTINUOUS
 62
     7
 10
-10.420517556856449
 20
34.702058870825113
 30
0.0
 42
0.5450207774088348
  0
VERTEX
  5
107D
  8
SAPA_PROFIL
  6
CONTINUOUS
 62
     7
 10
-10.018781767220331
 20
34.397317016265163
 30
0.0
  0
VERTEX
  5
107E
  8
SAPA_PROFIL
  6
CONTINUOUS
 62
     7
 10
-9.6898893499449628
 20
34.517024066429201
 30
0.0
  0
VERTEX
  5
107F
  8
SAPA_PROFIL
  6
CONTINUOUS
 62
     7
 10
-9.6043843141135881
 20
34.28210091123276
 30
0.0
 42
-0.4142135623730951
  0
VERTEX
  5
1080
  8
SAPA_PROFIL
  6
CONTINUOUS
 62
     7
 10
-10.20205679157379
 20
33.000388147121221
 30
0.0
  0
VERTEX
  5
1081
  8
SAPA_PROFIL
  6
CONTINUOUS
 62
     7
 10
-13.39701170224685
 20
31.837519659813609
 30
0.0
 42
-0.4142135623730951
  0
VERTEX
  5
1082
  8
SAPA_PROFIL
  6
CONTINUOUS
 62
     7
 10
-14.6787244663584
 20
32.435192137273823
 30
0.0
  0
VERTEX
  5
1083
  8
SAPA_PROFIL
  6
CONTINUOUS
 62
     7
 10
-15.072047631182899
 20
33.515838651177603
 30
0.0
  0
VERTEX
  5
1084
  8
SAPA_PROFIL
  6
CONTINUOUS
 62
     7
 10
-14.74315521390781
 20
33.635545701341591
 30
0.0
 42
0.5450207774091157
  0
VERTEX
  5
1085
  8
SAPA_PROFIL
  6
CONTINUOUS
 62
     7
 10
-14.631292032919809
 20
34.12722229355888
 30
0.0
  0
VERTEX
  5
1086
  8
SAPA_PROFIL
  6
CONTINUOUS
 62
     7
 10
-15.687683889169129
 20
35.207285368592302
 30
0.0
  0
VERTEX
  5
1087
  8
SAPA_PROFIL
  6
CONTINUOUS
 62
     7
 10
-15.358791471894049
 20
35.32699241875622
 30
0.0
 42
0.5450207774091194
  0
VERTEX
  5
1088
  8
SAPA_PROFIL
  6
CONTINUOUS
 62
     7
 10
-15.24692829090605
 20
35.818669010973558
 30
0.0
  0
VERTEX
  5
1089
  8
SAPA_PROFIL
  6
CONTINUOUS
 62
     7
 10
-16.303320147155318
 20
36.898732086006873
 30
0.0
  0
VERTEX
  5
108A
  8
SAPA_PROFIL
  6
CONTINUOUS
 62
     7
 10
-15.97442772988023
 20
37.018439136170862
 30
0.0
 42
0.5450207774093996
  0
VERTEX
  5
108B
  8
SAPA_PROFIL
  6
CONTINUOUS
 62
     7
 10
-15.862564548892291
 20
37.510115728388257
 30
0.0
  0
VERTEX
  5
108C
  8
SAPA_PROFIL
  6
CONTINUOUS
 62
     7
 10
-16.9189564051415
 20
38.590178803421573
 30
0.0
  0
VERTEX
  5
108D
  8
SAPA_PROFIL
  6
CONTINUOUS
 62
     7
 10
-16.590063987866468
 20
38.70988585358549
 30
0.0
 42
0.5450207774091379
  0
VERTEX
  5
108E
  8
SAPA_PROFIL
  6
CONTINUOUS
 62
     7
 10
-16.478200806878419
 20
39.201562445802828
 30
0.0
  0
VERTEX
  5
108F
  8
SAPA_PROFIL
  6
CONTINUOUS
 62
     7
 10
-17.534592663127739
 20
40.281625520836137
 30
0.0
  0
VERTEX
  5
1090
  8
SAPA_PROFIL
  6
CONTINUOUS
 62
     7
 10
-17.20570024585265
 20
40.401332571000182
 30
0.0
 42
0.5450207774090506
  0
VERTEX
  5
1091
  8
SAPA_PROFIL
  6
CONTINUOUS
 62
     7
 10
-17.093837064864658
 20
40.893009163217407
 30
0.0
  0
VERTEX
  5
1092
  8
SAPA_PROFIL
  6
CONTINUOUS
 62
     7
 10
-18.150228921113921
 20
41.973072238250772
 30
0.0
  0
VERTEX
  5
1093
  8
SAPA_PROFIL
  6
CONTINUOUS
 62
     7
 10
-17.821336503838829
 20
42.092779288414746
 30
0.0
 42
0.5450207774091257
  0
VERTEX
  5
1094
  8
SAPA_PROFIL
  6
CONTINUOUS
 62
     7
 10
-17.70947332285084
 20
42.584455880632099
 30
0.0
  0
VERTEX
  5
1095
  8
SAPA_PROFIL
  6
CONTINUOUS
 62
     7
 10
-18.76586517910016
 20
43.664518955665407
 30
0.0
  0
VERTEX
  5
1096
  8
SAPA_PROFIL
  6
CONTINUOUS
 62
     7
 10
-18.436972761825071
 20
43.784226005829453
 30
0.0
 42
0.545020777409241
  0
VERTEX
  5
1097
  8
SAPA_PROFIL
  6
CONTINUOUS
 62
     7
 10
-18.325109580837079
 20
44.275902598046798
 30
0.0
  0
VERTEX
  5
1098
  8
SAPA_PROFIL
  6
CONTINUOUS
 62
     7
 10
-19.381501437086339
 20
45.355965673080043
 30
0.0
  0
VERTEX
  5
1099
  8
SAPA_PROFIL
  6
CONTINUOUS
 62
     7
 10
-19.052609019811261
 20
45.475672723244017
 30
0.0
 42
0.54502077740936
  0
VERTEX
  5
109A
  8
SAPA_PROFIL
  6
CONTINUOUS
 62
     7
 10
-18.940745838823261
 20
45.96734931546149
 30
0.0
  0
VERTEX
  5
109B
  8
SAPA_PROFIL
  6
CONTINUOUS
 62
     7
 10
-19.997137695072521
 20
47.047412390494678
 30
0.0
  0
VERTEX
  5
109C
  8
SAPA_PROFIL
  6
CONTINUOUS
 62
     7
 10
-19.668245277797439
 20
47.167119440658723
 30
0.0
 42
0.6681786379193133
  0
VERTEX
  5
109D
  8
SAPA_PROFIL
  6
CONTINUOUS
 62
     7
 10
-19.644065842272941
 20
47.720919563005452
 30
0.0
  0
VERTEX
  5
109E
  8
SAPA_PROFIL
  6
CONTINUOUS
 62
     7
 10
-20.846143184890199
 20
48.281457433562537
 30
0.0
  0
VERTEX
  5
109F
  8
SAPA_PROFIL
  6
CONTINUOUS
 62
     7
 10
-22.372452144466649
 20
47.725926403982889
 30
0.0
 42
0.4142135623730811
  0
VERTEX
  5
10A0
  8
SAPA_PROFIL
  6
CONTINUOUS
 62
     7
 10
-22.551753887704649
 20
47.341412574749477
 30
0.0
  0
VERTEX
  5
10A1
  8
SAPA_PROFIL
  6
CONTINUOUS
 62
     7
 10
-16.155977207514749
 20
29.7691605660529
 30
0.0
 42
0.4142135623730951
  0
VERTEX
  5
10A2
  8
SAPA_PROFIL
  6
CONTINUOUS
 62
     7
 10
-14.874264443403201
 20
29.171488088592699
 30
0.0
  0
VERTEX
  5
10A3
  8
SAPA_PROFIL
  6
CONTINUOUS
 62
     7
 10
-12.99487920183134
 20
29.855528375244042
 30
0.0
 42
-0.4142135623731013
  0
VERTEX
  5
10A4
  8
SAPA_PROFIL
  6
CONTINUOUS
 62
     7
 10
-11.71316643771882
 20
29.257855897784111
 30
0.0
  0
VERTEX
  5
10A5
  8
SAPA_PROFIL
  6
CONTINUOUS
 62
     7
 10
-10.516095936078949
 20
25.968931725033428
 30
0.0
 42
-0.4142135623730951
  0
VERTEX
  5
10A6
  8
SAPA_PROFIL
  6
CONTINUOUS
 62
     7
 10
-11.113768413539161
 20
24.687218960921829
 30
0.0
  0
SEQEND
  5
10A7
  8
SAPA_PROFIL
  6
CONTINUOUS
 62
     7
  0
POLYLINE
  5
AB5
  8
SAPA_PROFIL
  6
CONTINUOUS
 62
     7
 66
     1
 10
0.0
 20
0.0
 30
0.0
 70
   129
  0
VERTEX
  5
10A8
  8
SAPA_PROFIL
  6
CONTINUOUS
 62
     7
 10
28.47042229490836
 20
-10.389580293816319
 30
0.0
 42
-0.4142135623730888
  0
VERTEX
  5
10A9
  8
SAPA_PROFIL
  6
CONTINUOUS
 62
     7
 10
27.872749817448099
 20
-11.671293057927921
 30
0.0
  0
VERTEX
  5
10AA
  8
SAPA_PROFIL
  6
CONTINUOUS
 62
     7
 10
-13.84960254544529
 20
-26.856987421587242
 30
0.0
 42
-0.4142135623730951
  0
VERTEX
  5
10AB
  8
SAPA_PROFIL
  6
CONTINUOUS
 62
     7
 10
-15.131315309556779
 20
-26.25931494412697
 30
0.0
  0
VERTEX
  5
10AC
  8
SAPA_PROFIL
  6
CONTINUOUS
 62
     7
 10
-18.38050667115067
 20
-17.332235046660848
 30
0.0
 42
-0.4142135623730992
  0
VERTEX
  5
10AD
  8
SAPA_PROFIL
  6
CONTINUOUS
 62
     7
 10
-17.782834193690459
 20
-16.050522282549249
 30
0.0
  0
VERTEX
  5
10AE
  8
SAPA_PROFIL
  6
CONTINUOUS
 62
     7
 10
-13.64818666223249
 20
-14.54563365191637
 30
0.0
 42
0.4142135623730951
  0
VERTEX
  5
10AF
  8
SAPA_PROFIL
  6
CONTINUOUS
 62
     7
 10
-13.349350423502299
 20
-13.90477726986057
 30
0.0
  0
VERTEX
  5
10B0
  8
SAPA_PROFIL
  6
CONTINUOUS
 62
     7
 10
-14.067592724486239
 20
-11.931422766210121
 30
0.0
 42
0.4142135623730812
  0
VERTEX
  5
10B1
  8
SAPA_PROFIL
  6
CONTINUOUS
 62
     7
 10
-14.452106553719711
 20
-11.752121022972119
 30
0.0
  0
VERTEX
  5
10B2
  8
SAPA_PROFIL
  6
CONTINUOUS
 62
     7
 10
-14.921952864112709
 20
-11.92313109463492
 30
0.0
 42
0.4142135623730258
  0
VERTEX
  5
10B3
  8
SAPA_PROFIL
  6
CONTINUOUS
 62
     7
 10
-15.10125460735077
 20
-12.30764492386839
 30
0.0
  0
VERTEX
  5
10B4
  8
SAPA_PROFIL
  6
CONTINUOUS
 62
     7
 10
-14.98612141834025
 20
-12.623970760905589
 30
0.0
 42
-0.5643553431125478
  0
VERTEX
  5
10B5
  8
SAPA_PROFIL
  6
CONTINUOUS
 62
     7
 10
-19.686644344814621
 20
-12.353075416244449
 30
0.0
  0
VERTEX
  5
10B6
  8
SAPA_PROFIL
  6
CONTINUOUS
 62
     7
 10
-19.462878731776641
 20
-11.873208510512599
 30
0.0
  0
VERTEX
  5
10B7
  8
SAPA_PROFIL
  6
CONTINUOUS
 62
     7
 10
-19.942745637508381
 20
-11.649442897469889
 30
0.0
 42
-0.5643553431119912
  0
VERTEX
  5
10B8
  8
SAPA_PROFIL
  6
CONTINUOUS
 62
     7
 10
-16.51606434099887
 20
-8.4204871278455471
 30
0.0
  0
VERTEX
  5
10B9
  8
SAPA_PROFIL
  6
CONTINUOUS
 62
     7
 10
-16.400931151988289
 20
-8.736812964881949
 30
0.0
 42
0.4142135623730531
  0
VERTEX
  5
10BA
  8
SAPA_PROFIL
  6
CONTINUOUS
 62
     7
 10
-16.016417322754869
 20
-8.9161147081200056
 30
0.0
  0
VERTEX
  5
10BB
  8
SAPA_PROFIL
  6
CONTINUOUS
 62
     7
 10
-15.546571012361881
 20
-8.7451046364571994
 30
0.0
 42
0.4142135623731091
  0
VERTEX
  5
10BC
  8
SAPA_PROFIL
  6
CONTINUOUS
 62
     7
 10
-15.367269269123771
 20
-8.3605908072236712
 30
0.0
  0
VERTEX
  5
10BD
  8
SAPA_PROFIL
  6
CONTINUOUS
 62
     7
 10
-16.085511570107649
 20
-6.3872363035732738
 30
0.0
 42
0.4142135623730951
  0
VERTEX
  5
10BE
  8
SAPA_PROFIL
  6
CONTINUOUS
 62
     7
 10
-16.72636795216351
 20
-6.0884000648431416
 30
0.0
  0
VERTEX
  5
10BF
  8
SAPA_PROFIL
  6
CONTINUOUS
 62
     7
 10
-20.86101548362149
 20
-7.5932886954761321
 30
0.0
 42
-0.4142135623730951
  0
VERTEX
  5
10C0
  8
SAPA_PROFIL
  6
CONTINUOUS
 62
     7
 10
-22.142728247733029
 20
-6.9956162180158676
 30
0.0
  0
VERTEX
  5
10C1
  8
SAPA_PROFIL
  6
CONTINUOUS
 62
     7
 10
-28.638672324401849
 20
10.85184345066881
 30
0.0
 42
-0.3394542588633977
  0
VERTEX
  5
10C2
  8
SAPA_PROFIL
  6
CONTINUOUS
 62
     7
 10
-28.272556139967438
 20
12.013015638283321
 30
0.0
  0
VERTEX
  5
10C3
  8
SAPA_PROFIL
  6
CONTINUOUS
 62
     7
 10
-27.818615924778332
 20
12.330867998855471
 30
0.0
 42
0.4002077966304456
  0
VERTEX
  5
10C4
  8
SAPA_PROFIL
  6
CONTINUOUS
 62
     7
 10
-27.00206928396625
 20
16.389021090623089
 30
0.0
 42
-0.478297483036658
  0
VERTEX
  5
10C5
  8
SAPA_PROFIL
  6
CONTINUOUS
 62
     7
 10
-26.850947731977389
 20
16.830998572748911
 30
0.0
  0
VERTEX
  5
10C6
  8
SAPA_PROFIL
  6
CONTINUOUS
 62
     7
 10
9.7502619613444494
 20
30.152749439253569
 30
0.0
 42
-0.4782974830366494
  0
VERTEX
  5
10C7
  8
SAPA_PROFIL
  6
CONTINUOUS
 62
     7
 10
10.15012543575193
 20
29.911314106262409
 30
0.0
 42
0.400207796630451
  0
VERTEX
  5
10C8
  8
SAPA_PROFIL
  6
CONTINUOUS
 62
     7
 10
13.384166978092709
 20
27.3274545444329
 30
0.0
  0
VERTEX
  5
10C9
  8
SAPA_PROFIL
  6
CONTINUOUS
 62
     7
 10
13.936216916532089
 20
27.375752655746449
 30
0.0
 42
-0.3394542588633866
  0
VERTEX
  5
10CA
  8
SAPA_PROFIL
  6
CONTINUOUS
 62
     7
 10
14.963065280065219
 20
26.721578100980249
 30
0.0
  0
VERTEX
  5
10CB
  8
SAPA_PROFIL
  6
CONTINUOUS
 62
     7
 10
21.459009356732171
 20
8.8741184322947788
 30
0.0
 42
-0.4142135623730992
  0
VERTEX
  5
10CC
  8
SAPA_PROFIL
  6
CONTINUOUS
 62
     7
 10
20.86133687927191
 20
7.5924056681831749
 30
0.0
  0
VERTEX
  5
10CD
  8
SAPA_PROFIL
  6
CONTINUOUS
 62
     7
 10
16.726689347813931
 20
6.087517037550298
 30
0.0
 42
0.4142135623730951
  0
VERTEX
  5
10CE
  8
SAPA_PROFIL
  6
CONTINUOUS
 62
     7
 10
16.427853109083848
 20
5.4466606554944397
 30
0.0
  0
VERTEX
  5
10CF
  8
SAPA_PROFIL
  6
CONTINUOUS
 62
     7
 10
17.146095410067741
 20
3.4733061518440418
 30
0.0
 42
0.4142135623730951
  0
VERTEX
  5
10D0
  8
SAPA_PROFIL
  6
CONTINUOUS
 62
     7
 10
17.53060923930116
 20
3.2940044086059852
 30
0.0
  0
VERTEX
  5
10D1
  8
SAPA_PROFIL
  6
CONTINUOUS
 62
     7
 10
18.000455549694149
 20
3.4650144802688478
 30
0.0
 42
0.4142135623730951
  0
VERTEX
  5
10D2
  8
SAPA_PROFIL
  6
CONTINUOUS
 62
     7
 10
18.179757292932258
 20
3.8495283095023178
 30
0.0
  0
VERTEX
  5
10D3
  8
SAPA_PROFIL
  6
CONTINUOUS
 62
     7
 10
18.0646241039214
 20
4.1658541465391741
 30
0.0
 42
-0.5643553431119912
  0
VERTEX
  5
10D4
  8
SAPA_PROFIL
  6
CONTINUOUS
 62
     7
 10
22.765147030393731
 20
3.894958801881784
 30
0.0
  0
VERTEX
  5
10D5
  8
SAPA_PROFIL
  6
CONTINUOUS
 62
     7
 10
22.541381417358199
 20
3.41509189614652
 30
0.0
  0
VERTEX
  5
10D6
  8
SAPA_PROFIL
  6
CONTINUOUS
 62
     7
 10
23.021248323088741
 20
3.1913262831088209
 30
0.0
 42
-0.5643553431125639
  0
VERTEX
  5
10D7
  8
SAPA_PROFIL
  6
CONTINUOUS
 62
     7
 10
19.594567026580759
 20
-0.0376294865215527
 30
0.0
  0
VERTEX
  5
10D8
  8
SAPA_PROFIL
  6
CONTINUOUS
 62
     7
 10
19.479433837569779
 20
0.2786963505159292
 30
0.0
 42
0.4142135623730396
  0
VERTEX
  5
10D9
  8
SAPA_PROFIL
  6
CONTINUOUS
 62
     7
 10
19.09492000833626
 20
0.457998093753929
 30
0.0
  0
VERTEX
  5
10DA
  8
SAPA_PROFIL
  6
CONTINUOUS
 62
     7
 10
18.625073697943261
 20
0.2869880220910659
 30
0.0
 42
0.4142135623731089
  0
VERTEX
  5
10DB
  8
SAPA_PROFIL
  6
CONTINUOUS
 62
     7
 10
18.445771954705261
 20
-0.0975258071424037
 30
0.0
  0
VERTEX
  5
10DC
  8
SAPA_PROFIL
  6
CONTINUOUS
 62
     7
 10
19.16401425568921
 20
-2.0708803107928011
 30
0.0
 42
0.4142135623730951
  0
VERTEX
  5
10DD
  8
SAPA_PROFIL
  6
CONTINUOUS
 62
     7
 10
19.804870637744951
 20
-2.3697165495229342
 30
0.0
  0
VERTEX
  5
10DE
  8
SAPA_PROFIL
  6
CONTINUOUS
 62
     7
 10
23.93951816920293
 20
-0.8648279188899437
 30
0.0
 42
-0.4142135623730951
  0
VERTEX
  5
10DF
  8
SAPA_PROFIL
  6
CONTINUOUS
 62
     7
 10
25.22123093331453
 20
-1.4625003963502079
 30
0.0
  0
SEQEND
  5
10E0
  8
SAPA_PROFIL
  6
CONTINUOUS
 62
     7
  0
POLYLINE
  5
AE6
  8
SAPA_GLAS
 66
     1
 10
0.0
 20
0.0
 30
0.0
  0
VERTEX
  5
1101
  8
SAPA_GLAS
 10
21.556357940402808
 20
60.650373719746867
 30
0.0
  0
VERTEX
  5
1102
  8
SAPA_GLAS
 10
-6.6344206831743646
 20
50.389769419976602
 30
0.0
  0
VERTEX
  5
1103
  8
SAPA_GLAS
 10
-3.6383242276410028
 20
42.158062061891982
 30
0.0
  0
VERTEX
  5
1104
  8
SAPA_GLAS
 10
24.552454395935658
 20
52.418666361662197
 30
0.0
  0
SEQEND
  5
1105
  8
SAPA_GLAS
  0
POLYLINE
  5
AE7
  8
SAPA_GLAS
 66
     1
 10
0.0
 20
0.0
 30
0.0
  0
VERTEX
  5
1106
  8
SAPA_GLAS
 10
-6.6344206831740768
 20
50.389769419976702
 30
0.0
  0
VERTEX
  5
1107
  8
SAPA_GLAS
 10
-10.73866240308222
 20
61.666080869407679
 30
0.0
  0
VERTEX
  5
1108
  8
SAPA_GLAS
 10
-1.3417361952233711
 20
65.086282302664344
 30
0.0
  0
VERTEX
  5
1109
  8
SAPA_GLAS
 10
2.7625055246851189
 20
53.809970853233501
 30
0.0
  0
VERTEX
  5
110A
  8
SAPA_GLAS
 10
-6.6344206831740768
 20
50.389769419976702
 30
0.0
  0
SEQEND
  5
110B
  8
SAPA_GLAS
  0
POLYLINE
  5
AE8
  8
SAPA_GLAS
 66
     1
 10
0.0
 20
0.0
 30
0.0
  0
VERTEX
  5
110C
  8
SAPA_GLAS
 10
15.399995360540769
 20
77.564840893893219
 30
0.0
  0
VERTEX
  5
110D
  8
SAPA_GLAS
 10
-12.79078326303644
 20
67.304236594123054
 30
0.0
  0
VERTEX
  5
110E
  8
SAPA_GLAS
 10
-10.738662403082429
 20
61.666080869407601
 30
0.0
  0
VERTEX
  5
110F
  8
SAPA_GLAS
 10
17.452116220494752
 20
71.926685169177887
 30
0.0
  0
SEQEND
  5
1110
  8
SAPA_GLAS
  0
LINE
  5
AE9
  8
SAPA_GLAS
 10
-5.1363724554074706
 20
46.27391574093437
 30
0.0
 11
23.054406168169219
 21
56.534520040704471
 31
0.0
  0
POLYLINE
  5
AF0
  8
SAPA_FOGBAND
 66
     1
 10
0.0
 20
0.0
 30
0.0
 70
     1
  0
VERTEX
  5
1181
  8
SAPA_FOGBAND
 10
1.0187553817919861
 20
43.672964445580561
 30
0.0
 42
0.4679153941829814
  0
VERTEX
  5
1182
  8
SAPA_FOGBAND
 10
0.8644952199393998
 20
43.40742467119599
 30
0.0
  0
VERTEX
  5
1183
  8
SAPA_FOGBAND
 10
2.4208938009880749
 20
39.130702611992447
 30
0.0
 42
0.6685323900181767
  0
VERTEX
  5
1184
  8
SAPA_FOGBAND
 10
2.790176467987489
 20
39.114760319624729
 30
0.0
 42
-0.1991665782226247
  0
VERTEX
  5
1185
  8
SAPA_FOGBAND
 10
2.8466465250592838
 20
39.166556421194798
 30
0.0
  0
VERTEX
  5
1186
  8
SAPA_FOGBAND
 10
5.2782520790150063
 20
40.051588464311301
 30
0.0
 42
-0.4142135623731784
  0
VERTEX
  5
1187
  8
SAPA_FOGBAND
 10
5.5345946318372716
 20
39.93205396881919
 30
0.0
  0
VERTEX
  5
1188
  8
SAPA_FOGBAND
 10
5.8082107464978314
 20
39.180299872190389
 30
0.0
 42
0.4142135623731368
  0
VERTEX
  5
1189
  8
SAPA_FOGBAND
 10
6.0645532993200986
 20
39.060765376698278
 30
0.0
  0
VERTEX
  5
118A
  8
SAPA_FOGBAND
 10
6.4404303476345079
 20
39.197573434028691
 30
0.0
 42
-0.4142135623733448
  0
VERTEX
  5
118B
  8
SAPA_FOGBAND
 10
6.6967729004566676
 20
39.078038938536537
 30
0.0
  0
VERTEX
  5
118C
  8
SAPA_FOGBAND
 10
7.0632812784732399
 20
38.071065445895059
 30
0.0
 42
-0.703825529076487
  0
VERTEX
  5
118D
  8
SAPA_FOGBAND
 10
6.9184748250058528
 20
37.950749669760498
 30
0.0
  0
VERTEX
  5
118E
  8
SAPA_FOGBAND
 10
5.8153293163207191
 20
38.601990751106896
 30
0.0
 42
0.9999999999999856
  0
VERTEX
  5
118F
  8
SAPA_FOGBAND
 10
5.4086317852101153
 20
37.913080656690738
 30
0.0
  0
VERTEX
  5
1190
  8
SAPA_FOGBAND
 10
6.958679497646366
 20
36.998011211691733
 30
0.0
 42
0.2242387338110932
  0
VERTEX
  5
1191
  8
SAPA_FOGBAND
 10
8.0216695691640503
 20
36.899817458234573
 30
0.0
 42
0.2242387338111004
  0
VERTEX
  5
1192
  8
SAPA_FOGBAND
 10
8.7728494784697126
 20
37.65831508461072
 30
0.0
  0
VERTEX
  5
1193
  8
SAPA_FOGBAND
 10
9.3720596139027919
 20
39.35565041199721
 30
0.0
 42
1.0000000000000899
  0
VERTEX
  5
1194
  8
SAPA_FOGBAND
 10
8.6176883572865162
 20
39.621966027745231
 30
0.0
  0
VERTEX
  5
1195
  8
SAPA_FOGBAND
 10
8.1912395684149004
 20
38.41399815158497
 30
0.0
 42
-0.7038255290763446
  0
VERTEX
  5
1196
  8
SAPA_FOGBAND
 10
8.0029738992594002
 20
38.413085589220699
 30
0.0
  0
VERTEX
  5
1197
  8
SAPA_FOGBAND
 10
7.6364655212427897
 20
39.420059081862277
 30
0.0
 42
-0.4142135623729703
  0
VERTEX
  5
1198
  8
SAPA_FOGBAND
 10
7.7560000167347587
 20
39.676401634684609
 30
0.0
  0
VERTEX
  5
1199
  8
SAPA_FOGBAND
 10
8.1318770650491032
 20
39.813209692014873
 30
0.0
 42
0.4142135623730117
  0
VERTEX
  5
119A
  8
SAPA_FOGBAND
 10
8.2514115605412144
 20
40.069552244837134
 30
0.0
  0
VERTEX
  5
119B
  8
SAPA_FOGBAND
 10
7.977795445880548
 20
40.821306341465892
 30
0.0
 42
-0.4142135623731784
  0
VERTEX
  5
119C
  8
SAPA_FOGBAND
 10
8.0973299413726245
 20
41.077648894288266
 30
0.0
  0
VERTEX
  5
119D
  8
SAPA_FOGBAND
 10
10.52893549532854
 20
41.962680937404237
 30
0.0
 42
-0.1991665782227297
  0
VERTEX
  5
119E
  8
SAPA_FOGBAND
 10
10.60548796107016
 20
41.959301074625373
 30
0.0
 42
0.6685323900181511
  0
VERTEX
  5
119F
  8
SAPA_FOGBAND
 10
10.878127388061291
 20
42.20888390192335
 30
0.0
  0
VERTEX
  5
11A0
  8
SAPA_FOGBAND
 10
9.3217390732119974
 20
46.485577751334503
 30
0.0
 42
0.4679406819625479
  0
VERTEX
  5
11A1
  8
SAPA_FOGBAND
 10
9.0328775802929364
 20
46.589852094683579
 30
0.0
  0
VERTEX
  5
11A2
  8
SAPA_FOGBAND
 10
8.4186549752563771
 20
46.230859684379773
 30
0.0
 42
0.3624646087620003
  0
VERTEX
  5
11A3
  8
SAPA_FOGBAND
 10
8.3316365818809608
 20
45.989785081490332
 30
0.0
  0
VERTEX
  5
11A4
  8
SAPA_FOGBAND
 10
8.3711463963637627
 20
45.881232758351999
 30
0.0
 42
-0.3515239862759624
  0
VERTEX
  5
11A5
  8
SAPA_FOGBAND
 10
8.2907525899410857
 20
45.644204491549587
 30
0.0
  0
VERTEX
  5
11A6
  8
SAPA_FOGBAND
 10
6.9692903492682321
 20
44.82249403867403
 30
0.0
 42
-0.751570456352482
  0
VERTEX
  5
11A7
  8
SAPA_FOGBAND
 10
6.8264800471235603
 20
44.950994139161892
 30
0.0
  0
VERTEX
  5
11A8
  8
SAPA_FOGBAND
 10
8.0942543732250591
 20
45.649770957263442
 30
0.0
 42
0.7197481174277197
  0
VERTEX
  5
11A9
  8
SAPA_FOGBAND
 10
7.6195690816839337
 20
46.113755573883481
 30
0.0
  0
VERTEX
  5
11AA
  8
SAPA_FOGBAND
 10
5.699904441965681
 20
45.129641572609202
 30
0.0
 42
-0.5053637834253038
  0
VERTEX
  5
11AB
  8
SAPA_FOGBAND
 10
5.4583723292995252
 20
45.130143361495278
 30
0.0
  0
VERTEX
  5
11AC
  8
SAPA_FOGBAND
 10
5.4287996657286177
 20
45.170460325286832
 30
0.0
 42
0.3333333333331249
  0
VERTEX
  5
11AD
  8
SAPA_FOGBAND
 10
5.1991277818990058
 20
45.240108195161312
 30
0.0
  0
VERTEX
  5
11AE
  8
SAPA_FOGBAND
 10
4.8232507335846249
 20
45.103300137831148
 30
0.0
 42
0.3333333333331312
  0
VERTEX
  5
11AF
  8
SAPA_FOGBAND
 10
4.6920806510325397
 20
44.902316532919649
 30
0.0
  0
VERTEX
  5
11B0
  8
SAPA_FOGBAND
 10
4.695341921221174
 20
44.852423005115007
 30
0.0
 42
-0.505363783425254
  0
VERTEX
  5
11B1
  8
SAPA_FOGBAND
 10
4.5106401321573593
 20
44.696784763163699
 30
0.0
  0
VERTEX
  5
11B2
  8
SAPA_FOGBAND
 10
2.4075154157109342
 20
44.216723180071142
 30
0.0
 42
0.7197481174279296
  0
VERTEX
  5
11B3
  8
SAPA_FOGBAND
 10
2.3421289485442371
 20
43.556168518913793
 30
0.0
  0
VERTEX
  5
11B4
  8
SAPA_FOGBAND
 10
3.7624655067949191
 20
43.835784049123554
 30
0.0
 42
-0.7515704563522813
  0
VERTEX
  5
11B5
  8
SAPA_FOGBAND
 10
3.735664740853895
 20
43.645550568450147
 30
0.0
  0
VERTEX
  5
11B6
  8
SAPA_FOGBAND
 10
2.1951806367366742
 20
43.425597739755169
 30
0.0
 42
-0.3515239862759173
  0
VERTEX
  5
11B7
  8
SAPA_FOGBAND
 10
1.9812365750191621
 20
43.555495783737413
 30
0.0
  0
VERTEX
  5
11B8
  8
SAPA_FOGBAND
 10
1.9417267605364379
 20
43.664048106875541
 30
0.0
 42
0.3624646087620678
  0
VERTEX
  5
11B9
  8
SAPA_FOGBAND
 10
1.72010703609459
 20
43.792787621719661
 30
0.0
  0
SEQEND
  5
11BA
  8
SAPA_FOGBAND
  0
POLYLINE
  5
AF1
  8
SAPA_FOGBAND
 66
     1
 10
0.0
 20
0.0
 30
0.0
 70
     1
  0
VERTEX
  5
11BB
  8
SAPA_FOGBAND
 10
-10.037123952461201
 20
73.473709148718243
 30
0.0
 42
-0.4142135623731784
  0
VERTEX
  5
11BC
  8
SAPA_FOGBAND
 10
-10.15665844795306
 20
73.217366595895953
 30
0.0
  0
VERTEX
  5
11BD
  8
SAPA_FOGBAND
 10
-14.788900420213389
 20
71.531368400074385
 30
0.0
 42
0.2663342079579515
  0
VERTEX
  5
11BE
  8
SAPA_FOGBAND
 10
-15.43062309927098
 20
70.771258794660184
 30
0.0
  0
VERTEX
  5
11BF
  8
SAPA_FOGBAND
 10
-16.710951043586569
 20
65.955143461972469
 30
0.0
 42
0.052861208559515
  0
VERTEX
  5
11C0
  8
SAPA_FOGBAND
 10
-16.72673745336267
 20
65.744879604715678
 30
0.0
 42
0.2389362379610746
  0
VERTEX
  5
11C1
  8
SAPA_FOGBAND
 10
-16.06846952057332
 20
64.660802070349291
 30
0.0
 42
0.4294697894411934
  0
VERTEX
  5
11C2
  8
SAPA_FOGBAND
 10
-15.79212718389863
 20
64.748992279788581
 30
0.0
  0
VERTEX
  5
11C3
  8
SAPA_FOGBAND
 10
-13.2192149055311
 20
68.068385281797902
 30
0.0
 42
-0.1982170680849751
  0
VERTEX
  5
11C4
  8
SAPA_FOGBAND
 10
-12.65606130433774
 20
68.583036149066317
 30
0.0
  0
VERTEX
  5
11C5
  8
SAPA_FOGBAND
 10
-12.544559270105291
 20
68.623619570587294
 30
0.0
 42
-0.2084822249037384
  0
VERTEX
  5
11C6
  8
SAPA_FOGBAND
 10
-11.74690319374505
 20
68.574093168284094
 30
0.0
  0
VERTEX
  5
11C7
  8
SAPA_FOGBAND
 10
-7.8251874661019558
 20
69.341016810620559
 30
0.0
  0
VERTEX
  5
11C8
  8
SAPA_FOGBAND
 10
-7.4300210447001032
 20
69.871707948669254
 30
0.0
  0
VERTEX
  5
11C9
  8
SAPA_FOGBAND
 10
-10.88209242926952
 20
69.676749266028622
 30
0.0
 42
-0.6313983151680102
  0
VERTEX
  5
11CA
  8
SAPA_FOGBAND
 10
-10.76561490723291
 20
70.205794394502306
 30
0.0
  0
VERTEX
  5
11CB
  8
SAPA_FOGBAND
 10
-7.9798388889723837
 20
70.851351086123117
 30
0.0
 42
-0.379100851898285
  0
VERTEX
  5
11CC
  8
SAPA_FOGBAND
 10
-7.6302058081013326
 20
70.661701616826434
 30
0.0
  0
VERTEX
  5
11CD
  8
SAPA_FOGBAND
 10
-7.5500490151343573
 20
70.441472638133774
 30
0.0
 42
0.4142135623730951
  0
VERTEX
  5
11CE
  8
SAPA_FOGBAND
 10
-7.1655351859008061
 20
70.262170894896016
 30
0.0
  0
VERTEX
  5
11CF
  8
SAPA_FOGBAND
 10
-2.8883164742941818
 20
71.818951191367262
 30
0.0
  0
VERTEX
  5
11D0
  8
SAPA_FOGBAND
 10
3.2358197999807898
 20
73.492777922970475
 30
0.0
  0
VERTEX
  5
11D1
  8
SAPA_FOGBAND
 10
3.2358197999807898
 20
73.492777922970475
 30
0.0
  0
VERTEX
  5
11D2
  8
SAPA_FOGBAND
 10
3.6458641276869179
 20
74.085063240874888
 30
0.0
 42
-0.0144193411868444
  0
VERTEX
  5
11D3
  8
SAPA_FOGBAND
 10
3.0914942444296698
 20
75.207605752662303
 30
0.0
  0
VERTEX
  5
11D4
  8
SAPA_FOGBAND
 10
-2.297097338340202
 20
75.013835121715601
 30
0.0
  0
VERTEX
  5
11D5
  8
SAPA_FOGBAND
 10
-2.929834603492659
 20
76.752266470169445
 30
0.0
 42
0.4142135623731212
  0
VERTEX
  5
11D6
  8
SAPA_FOGBAND
 10
-3.122091518109511
 20
76.841917341788545
 30
0.0
  0
VERTEX
  5
11D7
  8
SAPA_FOGBAND
 10
-4.1709678927808351
 20
76.460157561982896
 30
0.0
 42
0.3812119866949899
  0
VERTEX
  5
11D8
  8
SAPA_FOGBAND
 10
-4.2655388054107339
 20
76.284263787043344
 30
0.0
  0
VERTEX
  5
11D9
  8
SAPA_FOGBAND
 10
-4.0934221063018077
 20
75.565676925293232
 30
0.0
 42
-0.3812119866949819
  0
VERTEX
  5
11DA
  8
SAPA_FOGBAND
 10
-4.1879930189321346
 20
75.389783150353523
 30
0.0
  0
VERTEX
  5
11DB
  8
SAPA_FOGBAND
 10
-7.337580585595413
 20
74.243427025873174
 30
0.0
 42
-0.4142135623730951
  0
VERTEX
  5
11DC
  8
SAPA_FOGBAND
 10
-7.5939231384179227
 20
74.362961521364952
 30
0.0
  0
VERTEX
  5
11DD
  8
SAPA_FOGBAND
 10
-7.8675392530780153
 20
75.114715617993795
 30
0.0
 42
0.4142135623730951
  0
VERTEX
  5
11DE
  8
SAPA_FOGBAND
 10
-8.1238818059006022
 20
75.234250113485786
 30
0.0
  0
VERTEX
  5
11DF
  8
SAPA_FOGBAND
 10
-8.4997588542150524
 20
75.097442056155501
 30
0.0
 42
-0.4142135623731784
  0
VERTEX
  5
11E0
  8
SAPA_FOGBAND
 10
-8.7561014070372103
 20
75.216976551647633
 30
0.0
  0
VERTEX
  5
11E1
  8
SAPA_FOGBAND
 10
-9.1226097850537453
 20
76.223950044289012
 30
0.0
 42
-0.7038255290761633
  0
VERTEX
  5
11E2
  8
SAPA_FOGBAND
 10
-8.9778033315863972
 20
76.344265820423686
 30
0.0
  0
VERTEX
  5
11E3
  8
SAPA_FOGBAND
 10
-7.8746578229011144
 20
75.693024739077202
 30
0.0
 42
0.9999999999999552
  0
VERTEX
  5
11E4
  8
SAPA_FOGBAND
 10
-7.4679602917905523
 20
76.381934833493474
 30
0.0
  0
VERTEX
  5
11E5
  8
SAPA_FOGBAND
 10
-9.0180080042269886
 20
77.297004278492651
 30
0.0
 42
0.2242387338111004
  0
VERTEX
  5
11E6
  8
SAPA_FOGBAND
 10
-10.08099807574434
 20
77.395198031949576
 30
0.0
 42
0.2242387338111007
  0
VERTEX
  5
11E7
  8
SAPA_FOGBAND
 10
-10.832177985050119
 20
76.636700405573734
 30
0.0
  0
VERTEX
  5
11E8
  8
SAPA_FOGBAND
 10
-11.43138812048312
 20
74.939365078187052
 30
0.0
 42
0.9999999999999548
  0
VERTEX
  5
11E9
  8
SAPA_FOGBAND
 10
-10.677016863866911
 20
74.673049462438883
 30
0.0
  0
VERTEX
  5
11EA
  8
SAPA_FOGBAND
 10
-10.250568074995259
 20
75.881017338599392
 30
0.0
 42
-0.7038255290761636
  0
VERTEX
  5
11EB
  8
SAPA_FOGBAND
 10
-10.062302405839651
 20
75.881929900963343
 30
0.0
  0
VERTEX
  5
11EC
  8
SAPA_FOGBAND
 10
-9.6957940278231973
 20
74.874956408322191
 30
0.0
 42
-0.4142135623730117
  0
VERTEX
  5
11ED
  8
SAPA_FOGBAND
 10
-9.8153285233150598
 20
74.618613855499902
 30
0.0
  0
VERTEX
  5
11EE
  8
SAPA_FOGBAND
 10
-10.19120557162943
 20
74.481805798169376
 30
0.0
 42
0.4142135623730951
  0
VERTEX
  5
11EF
  8
SAPA_FOGBAND
 10
-10.31074006712179
 20
74.225463245347143
 30
0.0
  0
SEQEND
  5
11F0
  8
SAPA_FOGBAND
  0
VIEWPORT
  5
C4
 67
     1
  8
0
 10
143.06236603067589
 20
116.00969601843509
 30
0.0
 40
369.98580003443811
 41
256.8421457311839
 68
     1
 69
     1
1001
ACAD
1000
MVIEW
1002
{
1070
    16
1010
0.0
1020
0.0
1030
0.0
1010
0.0
1020
0.0
1030
1.0
1040
0.0
1040
256.8421457311839
1040
99.112914085388169
1040
143.07606935501099
1040
50.0
1040
0.0
1040
0.0
1070
     0
1070
     0
1070
     1
1070
     1
1070
     0
1070
     0
1070
     0
1070
     0
1040
0.0
1040
0.0
1040
0.0
1040
10.0
1040
10.0
1040
10.0
1040
10.0
1070
     0
1002
{
1002
}
1002
}
  0
ENDSEC
  0
EOF
