  0
SECTION
  2
HEADER
  9
$ACADVER
  1
AC1009
  9
$INSBASE
 10
0.0
 20
0.0
 30
0.0
  9
$EXTMIN
 10
-130.19693717721501
 20
-173.07351899760579
 30
0.0
  9
$EXTMAX
 10
98.361986816269564
 20
108.1786759712333
 30
0.0
  9
$LIMMIN
 10
0.0
 20
0.0
  9
$LIMMAX
 10
790.0
 20
790.0
  9
$ORTHOMODE
 70
     1
  9
$REGENMODE
 70
     1
  9
$FILLMODE
 70
     1
  9
$QTEXTMODE
 70
     0
  9
$MIRRTEXT
 70
     1
  9
$DRAGMODE
 70
     2
  9
$LTSCALE
 40
4.0
  9
$OSMODE
 70
   167
  9
$ATTMODE
 70
     1
  9
$TEXTSIZE
 40
3.5
  9
$TRACEWID
 40
0.05
  9
$TEXTSTYLE
  7
ISO
  9
$CLAYER
  8
0
  9
$CELTYPE
  6
BYLAYER
  9
$CECOLOR
 62
   256
  9
$DIMSCALE
 40
0.0
  9
$DIMASZ
 40
3.0
  9
$DIMEXO
 40
1.5
  9
$DIMDLI
 40
10.0
  9
$DIMRND
 40
0.0
  9
$DIMDLE
 40
0.0
  9
$DIMEXE
 40
1.5
  9
$DIMTP
 40
0.0
  9
$DIMTM
 40
0.0
  9
$DIMTXT
 40
3.0
  9
$DIMCEN
 40
-5.0
  9
$DIMTSZ
 40
0.0
  9
$DIMTOL
 70
     0
  9
$DIMLIM
 70
     0
  9
$DIMTIH
 70
     0
  9
$DIMTOH
 70
     0
  9
$DIMSE1
 70
     0
  9
$DIMSE2
 70
     0
  9
$DIMTAD
 70
     1
  9
$DIMZIN
 70
     8
  9
$DIMBLK
  1

  9
$DIMASO
 70
     1
  9
$DIMSHO
 70
     1
  9
$DIMPOST
  1

  9
$DIMAPOST
  1

  9
$DIMALT
 70
     0
  9
$DIMALTD
 70
     0
  9
$DIMALTF
 40
25.399999999999999
  9
$DIMLFAC
 40
-1.0
  9
$DIMTOFL
 70
     1
  9
$DIMTVP
 40
0.0
  9
$DIMTIX
 70
     0
  9
$DIMSOXD
 70
     0
  9
$DIMSAH
 70
     0
  9
$DIMBLK1
  1

  9
$DIMBLK2
  1

  9
$DIMSTYLE
  2
MASKIN
  9
$DIMCLRD
 70
   256
  9
$DIMCLRE
 70
   256
  9
$DIMCLRT
 70
     2
  9
$DIMTFAC
 40
1.0
  9
$DIMGAP
 40
1.0
  9
$LUNITS
 70
     2
  9
$LUPREC
 70
     8
  9
$SKETCHINC
 40
0.1
  9
$FILLETRAD
 40
0.0
  9
$AUNITS
 70
     0
  9
$AUPREC
 70
     8
  9
$MENU
  1
ACAD
  9
$ELEVATION
 40
0.0
  9
$PELEVATION
 40
0.0
  9
$THICKNESS
 40
0.0
  9
$LIMCHECK
 70
     0
  9
$BLIPMODE
 70
     0
  9
$CHAMFERA
 40
0.0
  9
$CHAMFERB
 40
0.0
  9
$SKPOLY
 70
     0
  9
$TDCREATE
 40
2454993.554922685
  9
$TDUPDATE
 40
2455057.6242341669
  9
$TDINDWG
 40
0.0351953241
  9
$TDUSRTIMER
 40
0.0351951389
  9
$USRTIMER
 70
     1
  9
$ANGBASE
 50
0.0
  9
$ANGDIR
 70
     0
  9
$PDMODE
 70
     0
  9
$PDSIZE
 40
0.0
  9
$PLINEWID
 40
0.0
  9
$COORDS
 70
     1
  9
$SPLFRAME
 70
     0
  9
$SPLINETYPE
 70
     6
  9
$SPLINESEGS
 70
     8
  9
$ATTDIA
 70
     0
  9
$ATTREQ
 70
     1
  9
$HANDLING
 70
     1
  9
$HANDSEED
  5
1484
  9
$SURFTAB1
 70
     6
  9
$SURFTAB2
 70
     6
  9
$SURFTYPE
 70
     6
  9
$SURFU
 70
     6
  9
$SURFV
 70
     6
  9
$UCSNAME
  2

  9
$UCSORG
 10
0.0
 20
0.0
 30
0.0
  9
$UCSXDIR
 10
1.0
 20
0.0
 30
0.0
  9
$UCSYDIR
 10
0.0
 20
1.0
 30
0.0
  9
$PUCSNAME
  2

  9
$PUCSORG
 10
0.0
 20
0.0
 30
0.0
  9
$PUCSXDIR
 10
1.0
 20
0.0
 30
0.0
  9
$PUCSYDIR
 10
0.0
 20
1.0
 30
0.0
  9
$USERI1
 70
     0
  9
$USERI2
 70
     0
  9
$USERI3
 70
     0
  9
$USERI4
 70
     0
  9
$USERI5
 70
     0
  9
$USERR1
 40
0.0
  9
$USERR2
 40
0.0
  9
$USERR3
 40
0.0
  9
$USERR4
 40
0.0
  9
$USERR5
 40
0.0
  9
$WORLDVIEW
 70
     1
  9
$SHADEDGE
 70
     3
  9
$SHADEDIF
 70
    70
  9
$TILEMODE
 70
     1
  9
$MAXACTVP
 70
    16
  9
$PLIMCHECK
 70
     0
  9
$PEXTMIN
 10
1.0000000000000000E+020
 20
1.0000000000000000E+020
 30
1.0000000000000000E+020
  9
$PEXTMAX
 10
-1.0000000000000000E+020
 20
-1.0000000000000000E+020
 30
-1.0000000000000000E+020
  9
$PLIMMIN
 10
-5.069427490234375
 20
-5.8737497329711914
  9
$PLIMMAX
 10
291.89889526367187
 20
204.0995779037475
  9
$UNITMODE
 70
     0
  9
$VISRETAIN
 70
     1
  9
$PLINEGEN
 70
     0
  9
$PSLTSCALE
 70
     1
  0
ENDSEC
  0
SECTION
  2
TABLES
  0
TABLE
  2
VPORT
 70
     1
  0
VPORT
  2
*ACTIVE
 70
     0
 10
0.0
 20
0.0
 11
1.0
 21
1.0
 12
81.629471577949744
 22
-32.431807045217617
 13
0.0
 23
0.0
 14
1.0
 24
1.0
 15
0.0
 25
0.0
 16
0.0
 26
0.0
 36
1.0
 17
0.0
 27
0.0
 37
0.0
 40
283.65460241300269
 41
2.362776025236593
 42
50.0
 43
0.0
 44
0.0
 50
0.0
 51
0.0
 71
     0
 72
  1000
 73
     1
 74
     1
 75
     0
 76
     0
 77
     0
 78
     0
  0
ENDTAB
  0
TABLE
  2
LTYPE
 70
     6
  0
LTYPE
  2
CONTINUOUS
 70
     0
  3
Solid line
 72
    65
 73
     0
 40
0.0
  0
LTYPE
  2
DASHED
 70
     0
  3
__ __ __ __ __ __ __ __ __ __ __ __ __ __ __
 72
    65
 73
     2
 40
0.75
 49
0.5
 49
-0.25
  0
LTYPE
  2
BYGG-01473402$0$NEWDOT
 70
     0
  3
____ . ____ . ____ . ____ . ____ . ____ . ____
 72
    65
 73
     4
 40
2.0
 49
1.0
 49
-0.5
 49
0.0
 49
-0.5
  0
LTYPE
  2
BYGG-014680$0$NEWDOT
 70
     0
  3
____ . ____ . ____ . ____ . ____ . ____ . ____
 72
    65
 73
     4
 40
2.0
 49
1.0
 49
-0.5
 49
0.0
 49
-0.5
  0
LTYPE
  2
BYGG-01458701$0$NEWDOT
 70
     0
  3
____ . ____ . ____ . ____ . ____ . ____ . ____
 72
    65
 73
     4
 40
2.0
 49
1.0
 49
-0.5
 49
0.0
 49
-0.5
  0
LTYPE
  2
BYGG-014252$0$NEWDOT
 70
     0
  3
____ . ____ . ____ . ____ . ____ . ____ . ____
 72
    65
 73
     4
 40
2.0
 49
1.0
 49
-0.5
 49
0.0
 49
-0.5
  0
ENDTAB
  0
TABLE
  2
LAYER
 70
    49
  0
LAYER
  2
0
 70
     0
 62
     7
  6
CONTINUOUS
  0
LAYER
  2
SAPA_ANSLUTNING
 70
     0
 62
     6
  6
CONTINUOUS
  0
LAYER
  2
SAPA_ARTIKELNR
 70
     0
 62
     4
  6
CONTINUOUS
  0
LAYER
  2
SAPA_LIGHT
 70
     1
 62
     1
  6
CONTINUOUS
  0
LAYER
  2
SAPA_PROFIL
 70
     0
 62
     7
  6
CONTINUOUS
  0
LAYER
  2
SAPA_TEXT
 70
     0
 62
     2
  6
CONTINUOUS
  0
LAYER
  2
SAPA_FOGBAND
 70
     0
 62
     2
  6
CONTINUOUS
  0
LAYER
  2
SAPA_FYLLNING
 70
     0
 62
     4
  6
CONTINUOUS
  0
LAYER
  2
SAPA_MATT
 70
     0
 62
     1
  6
CONTINUOUS
  0
ENDTAB
  0
TABLE
  2
STYLE
 70
    25
  0
STYLE
  2
STANDARD
 70
     0
 40
0.0
 41
1.0
 50
0.0
 71
     0
 42
0.2
  3
txt
  4

  0
STYLE
  2
ISO
 70
     0
 40
0.0
 41
1.0
 50
0.0
 71
     0
 42
3.5
  3
txt
  4

  0
STYLE
  2
BYGG-024109$0$STANDARD
 70
     0
 40
0.0
 41
1.0
 50
0.0
 71
     0
 42
0.2
  3
txt
  4

  0
STYLE
  2
BYGG-024109$0$ISO
 70
     0
 40
0.0
 41
1.0
 50
0.0
 71
     0
 42
3.5
  3
txt
  4

  0
STYLE
  2
BYGG-01473402$0$STANDARD
 70
     0
 40
0.0
 41
1.0
 50
0.0
 71
     0
 42
0.2
  3
txt
  4

  0
STYLE
  2
BYGG-01473402$0$ISO
 70
     0
 40
0.0
 41
1.0
 50
0.0
 71
     0
 42
2.5
  3
isocp3.shx
  4

  0
STYLE
  2
BYGG-024110$0$STANDARD
 70
     0
 40
0.0
 41
1.0
 50
0.0
 71
     0
 42
0.2
  3
txt
  4

  0
STYLE
  2
BYGG-024110$0$ISO
 70
     0
 40
0.0
 41
1.0
 50
0.0
 71
     0
 42
3.5
  3
txt
  4

  0
STYLE
  2
BYGG-014680$0$STANDARD
 70
     0
 40
0.0
 41
1.0
 50
0.0
 71
     0
 42
0.2
  3
txt
  4

  0
STYLE
  2
BYGG-014680$0$ISO
 70
     0
 40
0.0
 41
1.0
 50
0.0
 71
     0
 42
8.0
  3
iso
  4

  0
STYLE
  2
BYGG-024111$0$STANDARD
 70
     0
 40
0.0
 41
1.0
 50
0.0
 71
     0
 42
0.2
  3
txt
  4

  0
STYLE
  2
BYGG-024111$0$ISO
 70
     0
 40
0.0
 41
1.0
 50
0.0
 71
     0
 42
3.5
  3
txt
  4

  0
STYLE
  2
BYGG-01458701$0$STANDARD
 70
     0
 40
0.0
 41
1.0
 50
0.0
 71
     0
 42
0.2
  3
txt
  4

  0
STYLE
  2
BYGG-01458701$0$ISO
 70
     0
 40
0.0
 41
1.0
 50
0.0
 71
     0
 42
2.5
  3
isocp3.shx
  4

  0
STYLE
  2
BYGG-024082$0$STANDARD
 70
     0
 40
0.0
 41
1.0
 50
0.0
 71
     0
 42
0.2
  3
txt
  4

  0
STYLE
  2
BYGG-024082$0$ISO
 70
     0
 40
0.0
 41
1.0
 50
0.0
 71
     0
 42
3.5
  3
txt
  4

  0
STYLE
  2
BYGG-014252$0$STANDARD
 70
     0
 40
0.0
 41
1.0
 50
0.0
 71
     0
 42
0.2
  3
txt
  4

  0
STYLE
  2
BYGG-014252$0$ISO
 70
     0
 40
0.0
 41
1.0
 50
0.0
 71
     0
 42
2.5
  3
isocp3.shx
  4

  0
STYLE
  2
BYGG-014014$0$STANDARD
 70
     0
 40
0.0
 41
1.0
 50
0.0
 71
     0
 42
0.2
  3
txt
  4

  0
STYLE
  2
BYGG-024114$0$STANDARD
 70
     0
 40
0.0
 41
1.0
 50
0.0
 71
     0
 42
0.2
  3
txt
  4

  0
STYLE
  2
BYGG-024114$0$ISO
 70
     0
 40
0.0
 41
1.0
 50
0.0
 71
     0
 42
3.5
  3
txt
  4

  0
STYLE
  2
BYGG-013690$0$STANDARD
 70
     0
 40
0.0
 41
1.0
 50
0.0
 71
     0
 42
0.2
  3
txt
  4

  0
STYLE
  2
BYGG-013690$0$ISO
 70
     0
 40
0.0
 41
1.0
 50
0.0
 71
     0
 42
2.5
  3
isocp3.shx
  4

  0
STYLE
  2
BYGG-024093$0$STANDARD
 70
     0
 40
0.0
 41
1.0
 50
0.0
 71
     0
 42
0.2
  3
txt
  4

  0
STYLE
  2
BYGG-024093$0$ISO
 70
     0
 40
0.0
 41
1.0
 50
0.0
 71
     0
 42
3.5
  3
txt
  4

  0
ENDTAB
  0
TABLE
  2
VIEW
 70
     0
  0
ENDTAB
  0
TABLE
  2
UCS
 70
     0
  0
ENDTAB
  0
TABLE
  2
APPID
 70
    17
  0
APPID
  2
ACAD
 70
     0
  0
APPID
  2
ACAD_DSTYLE_DIMTEXT_FILL
 70
     0
  0
APPID
  2
ACAD_DSTYLE_DIMEXT_LENGTH
 70
     0
  0
APPID
  2
ACAD_DSTYLE_DIMEXT_ENABLED
 70
     0
  0
APPID
  2
ACAD_DSTYLE_DIM_LINETYPE
 70
     0
  0
APPID
  2
ACAD_DSTYLE_DIM_EXT1_LINETYPE
 70
     0
  0
APPID
  2
ACAD_DSTYLE_DIM_EXT2_LINETYPE
 70
     0
  0
APPID
  2
ACAD_DSTYLE_DIMJOGGED_JOGA
 70
     0
  0
APPID
  2
ACAD_DSTYLE_DIMARC_LENGTH_
 70
     0
  0
APPID
  2
ACAD_PSEXT
 70
     0
  0
APPID
  2
ACAD_MLEADERVER
 70
     0
  0
APPID
  2
AME_SOL
 70
     0
  0
APPID
  2
AMG_ARCHIVE11
 70
     0
  0
APPID
  2
DCO15
 70
     0
  0
APPID
  2
ACAD_EXEMPT_FROM_CAD_STANDARDS
 70
     0
  0
APPID
  2
ACADANNOTATIVE
 70
     0
  0
APPID
  2
ACAECLAYERSTANDARD
 70
     0
  0
ENDTAB
  0
TABLE
  2
DIMSTYLE
 70
    23
  0
DIMSTYLE
  2
MASKIN
 70
     0
  3

  4

  5

  6

  7

 40
0.0
 41
3.0
 42
1.5
 43
10.0
 44
1.5
 45
0.0
 46
0.0
 47
0.0
 48
0.0
140
3.0
141
-5.0
142
0.0
143
25.399999999999999
144
-1.0
145
0.0
146
1.0
147
1.0
 71
     0
 72
     0
 73
     0
 74
     0
 75
     0
 76
     0
 77
     1
 78
     8
170
     0
171
     0
172
     1
173
     0
174
     0
175
     0
176
   256
177
   256
178
     2
  0
DIMSTYLE
  2
BYGG-024109$0$STANDARD
 70
     0
  3

  4

  5

  6

  7

 40
1.0
 41
0.18
 42
0.0625
 43
0.38
 44
0.18
 45
0.0
 46
0.0
 47
0.0
 48
0.0
140
0.18
141
0.09
142
0.0
143
25.399999999999999
144
1.0
145
0.0
146
1.0
147
0.09
 71
     0
 72
     0
 73
     1
 74
     1
 75
     0
 76
     0
 77
     0
 78
     0
170
     0
171
     2
172
     0
173
     0
174
     0
175
     0
176
     0
177
     0
178
     0
  0
DIMSTYLE
  2
BYGG-024109$0$MASKIN
 70
     0
  3

  4

  5

  6

  7

 40
0.0
 41
3.0
 42
1.5
 43
10.0
 44
1.5
 45
0.0
 46
0.0
 47
0.0
 48
0.0
140
3.0
141
-5.0
142
0.0
143
25.399999999999999
144
-1.0
145
0.0
146
1.0
147
1.0
 71
     0
 72
     0
 73
     0
 74
     0
 75
     0
 76
     0
 77
     1
 78
     8
170
     0
171
     0
172
     1
173
     0
174
     0
175
     0
176
   256
177
   256
178
     2
  0
DIMSTYLE
  2
BYGG-01473402$0$STANDARD
 70
     0
  3

  4

  5

  6

  7

 40
1.0
 41
0.18
 42
0.0625
 43
0.38
 44
0.18
 45
0.0
 46
0.0
 47
0.0
 48
0.0
140
0.18
141
0.09
142
0.0
143
25.399999999999999
144
1.0
145
0.0
146
1.0
147
0.09
 71
     0
 72
     0
 73
     1
 74
     1
 75
     0
 76
     0
 77
     0
 78
     0
170
     0
171
     2
172
     0
173
     0
174
     0
175
     0
176
     0
177
     0
178
     0
  0
DIMSTYLE
  2
BYGG-01473402$0$MASKIN
 70
     0
  3

  4

  5

  6

  7

 40
0.0
 41
3.0
 42
1.5
 43
10.0
 44
1.5
 45
0.0
 46
0.0
 47
0.0
 48
0.0
140
3.0
141
-5.0
142
0.0
143
25.399999999999999
144
-1.0
145
0.0
146
1.0
147
1.0
 71
     0
 72
     0
 73
     0
 74
     1
 75
     0
 76
     0
 77
     1
 78
     8
170
     0
171
     0
172
     1
173
     0
174
     0
175
     0
176
   256
177
   256
178
     2
  0
DIMSTYLE
  2
BYGG-024110$0$STANDARD
 70
     0
  3

  4

  5

  6

  7

 40
1.0
 41
0.18
 42
0.0625
 43
0.38
 44
0.18
 45
0.0
 46
0.0
 47
0.0
 48
0.0
140
0.18
141
0.09
142
0.0
143
25.399999999999999
144
1.0
145
0.0
146
1.0
147
0.09
 71
     0
 72
     0
 73
     1
 74
     1
 75
     0
 76
     0
 77
     0
 78
     0
170
     0
171
     2
172
     0
173
     0
174
     0
175
     0
176
     0
177
     0
178
     0
  0
DIMSTYLE
  2
BYGG-024110$0$MASKIN
 70
     0
  3

  4

  5

  6

  7

 40
0.0
 41
3.0
 42
1.5
 43
10.0
 44
1.5
 45
0.0
 46
0.0
 47
0.0
 48
0.0
140
3.0
141
-5.0
142
0.0
143
25.399999999999999
144
-1.0
145
0.0
146
1.0
147
1.0
 71
     0
 72
     0
 73
     0
 74
     0
 75
     0
 76
     0
 77
     1
 78
     8
170
     0
171
     0
172
     1
173
     0
174
     0
175
     0
176
   256
177
   256
178
     2
  0
DIMSTYLE
  2
BYGG-014680$0$MASKIN
 70
     0
  3

  4

  5

  6

  7

 40
0.0
 41
3.0
 42
1.5
 43
10.0
 44
1.5
 45
0.0
 46
0.0
 47
0.0
 48
0.0
140
3.0
141
-5.0
142
0.0
143
25.399999999999999
144
-1.0
145
0.0
146
1.0
147
1.0
 71
     0
 72
     0
 73
     0
 74
     1
 75
     0
 76
     0
 77
     1
 78
     8
170
     0
171
     0
172
     1
173
     0
174
     0
175
     0
176
   256
177
   256
178
     2
  0
DIMSTYLE
  2
BYGG-024111$0$STANDARD
 70
     0
  3

  4

  5

  6

  7

 40
1.0
 41
0.18
 42
0.0625
 43
0.38
 44
0.18
 45
0.0
 46
0.0
 47
0.0
 48
0.0
140
0.18
141
0.09
142
0.0
143
25.399999999999999
144
1.0
145
0.0
146
1.0
147
0.09
 71
     0
 72
     0
 73
     1
 74
     1
 75
     0
 76
     0
 77
     0
 78
     0
170
     0
171
     2
172
     0
173
     0
174
     0
175
     0
176
     0
177
     0
178
     0
  0
DIMSTYLE
  2
BYGG-024111$0$MASKIN
 70
     0
  3

  4

  5

  6

  7

 40
0.0
 41
3.0
 42
1.5
 43
10.0
 44
1.5
 45
0.0
 46
0.0
 47
0.0
 48
0.0
140
3.0
141
-5.0
142
0.0
143
25.399999999999999
144
-1.0
145
0.0
146
1.0
147
1.0
 71
     0
 72
     0
 73
     0
 74
     0
 75
     0
 76
     0
 77
     1
 78
     8
170
     0
171
     0
172
     1
173
     0
174
     0
175
     0
176
   256
177
   256
178
     2
  0
DIMSTYLE
  2
BYGG-01458701$0$STANDARD
 70
     0
  3

  4

  5

  6

  7

 40
1.0
 41
0.18
 42
0.0625
 43
0.38
 44
0.18
 45
0.0
 46
0.0
 47
0.0
 48
0.0
140
0.18
141
0.09
142
0.0
143
25.399999999999999
144
1.0
145
0.0
146
1.0
147
0.09
 71
     0
 72
     0
 73
     1
 74
     1
 75
     0
 76
     0
 77
     0
 78
     0
170
     0
171
     2
172
     0
173
     0
174
     0
175
     0
176
     0
177
     0
178
     0
  0
DIMSTYLE
  2
BYGG-01458701$0$MASKIN
 70
     0
  3

  4

  5

  6

  7

 40
0.0
 41
3.0
 42
1.5
 43
10.0
 44
1.5
 45
0.0
 46
0.0
 47
0.0
 48
0.0
140
3.0
141
-5.0
142
0.0
143
25.399999999999999
144
-1.0
145
0.0
146
1.0
147
1.0
 71
     0
 72
     0
 73
     0
 74
     1
 75
     0
 76
     0
 77
     1
 78
     8
170
     0
171
     0
172
     1
173
     0
174
     0
175
     0
176
   256
177
   256
178
     2
  0
DIMSTYLE
  2
BYGG-024082$0$STANDARD
 70
     0
  3

  4

  5

  6

  7

 40
1.0
 41
0.18
 42
0.0625
 43
0.38
 44
0.18
 45
0.0
 46
0.0
 47
0.0
 48
0.0
140
0.18
141
0.09
142
0.0
143
25.399999999999999
144
1.0
145
0.0
146
1.0
147
0.09
 71
     0
 72
     0
 73
     1
 74
     1
 75
     0
 76
     0
 77
     0
 78
     0
170
     0
171
     2
172
     0
173
     0
174
     0
175
     0
176
     0
177
     0
178
     0
  0
DIMSTYLE
  2
BYGG-024082$0$MASKIN
 70
     0
  3

  4

  5

  6

  7

 40
0.0
 41
3.0
 42
1.5
 43
10.0
 44
1.5
 45
0.0
 46
0.0
 47
0.0
 48
0.0
140
3.0
141
-5.0
142
0.0
143
25.399999999999999
144
-1.0
145
0.0
146
1.0
147
1.0
 71
     0
 72
     0
 73
     0
 74
     0
 75
     0
 76
     0
 77
     1
 78
     8
170
     0
171
     0
172
     1
173
     0
174
     0
175
     0
176
   256
177
   256
178
     2
  0
DIMSTYLE
  2
BYGG-014252$0$STANDARD
 70
     0
  3

  4

  5

  6

  7

 40
1.0
 41
0.18
 42
0.0625
 43
0.38
 44
0.18
 45
0.0
 46
0.0
 47
0.0
 48
0.0
140
0.18
141
0.09
142
0.0
143
25.399999999999999
144
1.0
145
0.0
146
1.0
147
0.09
 71
     0
 72
     0
 73
     1
 74
     1
 75
     0
 76
     0
 77
     0
 78
     0
170
     0
171
     2
172
     0
173
     0
174
     0
175
     0
176
     0
177
     0
178
     0
  0
DIMSTYLE
  2
BYGG-014252$0$MASKIN
 70
     0
  3

  4

  5

  6

  7

 40
0.0
 41
3.0
 42
1.5
 43
10.0
 44
1.5
 45
0.0
 46
0.0
 47
0.0
 48
0.0
140
3.0
141
-5.0
142
0.0
143
25.399999999999999
144
-1.0
145
0.0
146
1.0
147
1.0
 71
     0
 72
     0
 73
     0
 74
     1
 75
     0
 76
     0
 77
     1
 78
     8
170
     0
171
     0
172
     1
173
     0
174
     0
175
     0
176
   256
177
   256
178
     2
  0
DIMSTYLE
  2
BYGG-014014$0$STANDARD
 70
     0
  3

  4

  5

  6

  7

 40
1.0
 41
0.18
 42
0.0625
 43
0.38
 44
0.18
 45
0.0
 46
0.0
 47
0.0
 48
0.0
140
0.18
141
0.09
142
0.0
143
25.399999999999999
144
1.0
145
0.0
146
1.0
147
0.09
 71
     0
 72
     0
 73
     1
 74
     1
 75
     0
 76
     0
 77
     0
 78
     0
170
     0
171
     2
172
     0
173
     0
174
     0
175
     0
176
     0
177
     0
178
     0
  0
DIMSTYLE
  2
BYGG-024114$0$STANDARD
 70
     0
  3

  4

  5

  6

  7

 40
1.0
 41
0.18
 42
0.0625
 43
0.38
 44
0.18
 45
0.0
 46
0.0
 47
0.0
 48
0.0
140
0.18
141
0.09
142
0.0
143
25.399999999999999
144
1.0
145
0.0
146
1.0
147
0.09
 71
     0
 72
     0
 73
     1
 74
     1
 75
     0
 76
     0
 77
     0
 78
     0
170
     0
171
     2
172
     0
173
     0
174
     0
175
     0
176
     0
177
     0
178
     0
  0
DIMSTYLE
  2
BYGG-024114$0$MASKIN
 70
     0
  3

  4

  5

  6

  7

 40
0.0
 41
3.0
 42
1.5
 43
10.0
 44
1.5
 45
0.0
 46
0.0
 47
0.0
 48
0.0
140
3.0
141
-5.0
142
0.0
143
25.399999999999999
144
-1.0
145
0.0
146
1.0
147
1.0
 71
     0
 72
     0
 73
     0
 74
     0
 75
     0
 76
     0
 77
     1
 78
     8
170
     0
171
     0
172
     1
173
     0
174
     0
175
     0
176
   256
177
   256
178
     2
  0
DIMSTYLE
  2
BYGG-013690$0$STANDARD
 70
     0
  3

  4

  5

  6

  7

 40
1.0
 41
0.18
 42
0.0625
 43
0.38
 44
0.18
 45
0.0
 46
0.0
 47
0.0
 48
0.0
140
0.18
141
0.09
142
0.0
143
25.399999999999999
144
1.0
145
0.0
146
1.0
147
0.09
 71
     0
 72
     0
 73
     1
 74
     1
 75
     0
 76
     0
 77
     0
 78
     0
170
     0
171
     2
172
     0
173
     0
174
     0
175
     0
176
     0
177
     0
178
     0
  0
DIMSTYLE
  2
BYGG-013690$0$MASKIN
 70
     0
  3

  4

  5

  6

  7

 40
0.0
 41
3.0
 42
1.5
 43
10.0
 44
1.5
 45
0.0
 46
0.0
 47
0.0
 48
0.0
140
3.0
141
-5.0
142
0.0
143
25.399999999999999
144
-1.0
145
0.0
146
1.0
147
1.0
 71
     0
 72
     0
 73
     0
 74
     1
 75
     0
 76
     0
 77
     1
 78
     8
170
     0
171
     0
172
     1
173
     0
174
     0
175
     0
176
   256
177
   256
178
     2
  0
DIMSTYLE
  2
BYGG-024093$0$STANDARD
 70
     0
  3

  4

  5

  6

  7

 40
1.0
 41
0.18
 42
0.0625
 43
0.38
 44
0.18
 45
0.0
 46
0.0
 47
0.0
 48
0.0
140
0.18
141
0.09
142
0.0
143
25.399999999999999
144
1.0
145
0.0
146
1.0
147
0.09
 71
     0
 72
     0
 73
     1
 74
     1
 75
     0
 76
     0
 77
     0
 78
     0
170
     0
171
     2
172
     0
173
     0
174
     0
175
     0
176
     0
177
     0
178
     0
  0
DIMSTYLE
  2
BYGG-024093$0$MASKIN
 70
     0
  3

  4

  5

  6

  7

 40
0.0
 41
3.0
 42
1.5
 43
10.0
 44
1.5
 45
0.0
 46
0.0
 47
0.0
 48
0.0
140
3.0
141
-5.0
142
0.0
143
25.399999999999999
144
-1.0
145
0.0
146
1.0
147
1.0
 71
     0
 72
     0
 73
     0
 74
     0
 75
     0
 76
     0
 77
     1
 78
     8
170
     0
171
     0
172
     1
173
     0
174
     0
175
     0
176
   256
177
   256
178
     2
  0
ENDTAB
  0
ENDSEC
  0
SECTION
  2
BLOCKS
  0
BLOCK
  8
0
  2
$MODEL_SPACE
 70
     0
 10
0.0
 20
0.0
 30
0.0
  3
$MODEL_SPACE
  1

  0
ENDBLK
  5
37
  8
0
  0
BLOCK
 67
     1
  8
0
  2
$PAPER_SPACE
 70
     0
 10
0.0
 20
0.0
 30
0.0
  3
$PAPER_SPACE
  1

  0
ENDBLK
  5
35
 67
     1
  8
0
  0
BLOCK
  8
0
  2
*X38
 70
     1
 10
0.0
 20
0.0
 30
0.0
  3
*X38
  1

  0
LINE
  5
C96
  8
0
 62
     0
 10
49.632384637965004
 20
-29.83796091037059
 30
0.0
 11
48.90334573099922
 21
-29.10892200340481
 31
0.0
  0
LINE
  5
C97
  8
0
 62
     0
 10
49.299716071389177
 20
-30.627824358928422
 30
0.0
 11
47.780813715865577
 21
-29.10892200340481
 31
0.0
  0
LINE
  5
C98
  8
0
 62
     0
 10
49.015124527828831
 20
-31.465764830501708
 30
0.0
 11
46.658281700731933
 21
-29.10892200340481
 31
0.0
  0
LINE
  5
C99
  8
0
 62
     0
 10
48.784085601136049
 20
-32.35725791894258
 30
0.0
 11
45.53574968559829
 21
-29.10892200340481
 31
0.0
  0
LINE
  5
C9A
  8
0
 62
     0
 10
48.614291068225633
 20
-33.3099954011658
 30
0.0
 11
44.41321767046464
 21
-29.10892200340481
 31
0.0
  0
LINE
  5
C9B
  8
0
 62
     0
 10
48.516917783095167
 20
-34.335154131168977
 30
0.0
 11
43.290685655330989
 21
-29.10892200340481
 31
0.0
  0
LINE
  5
C9C
  8
0
 62
     0
 10
48.509092351423291
 20
-35.449860714630752
 30
0.0
 11
42.168153640197353
 21
-29.10892200340481
 31
0.0
  0
LINE
  5
C9D
  8
0
 62
     0
 10
48.619302495405627
 20
-36.682602873746731
 30
0.0
 11
41.04562162506371
 21
-29.10892200340481
 31
0.0
  0
LINE
  5
C9E
  8
0
 62
     0
 10
48.901733362355337
 20
-38.087565755830092
 30
0.0
 11
39.923089609930067
 21
-29.10892200340481
 31
0.0
  0
LINE
  5
C9F
  8
0
 62
     0
 10
49.489336096419962
 20
-39.797700505028352
 30
0.0
 11
41.316924833822732
 21
-31.625289242431119
 31
0.0
  0
LINE
  5
CA0
  8
0
 62
     0
 10
49.416771877896537
 20
-40.847668301638564
 30
0.0
 11
41.733251456993642
 21
-33.164147880735669
 31
0.0
  0
LINE
  5
CA1
  8
0
 62
     0
 10
48.294239862762893
 20
-40.847668301638564
 30
0.0
 11
41.848870164818329
 21
-34.402298603694007
 31
0.0
  0
LINE
  5
CA2
  8
0
 62
     0
 10
47.17170784762925
 20
-40.847668301638564
 30
0.0
 11
41.798903759933779
 21
-35.4748642139431
 31
0.0
  0
LINE
  5
CA3
  8
0
 62
     0
 10
46.049175832495607
 20
-40.847668301638564
 30
0.0
 11
41.634580800253467
 21
-36.433073269396438
 31
0.0
  0
LINE
  5
CA4
  8
0
 62
     0
 10
44.926643817361963
 20
-40.847668301638564
 30
0.0
 11
41.381697225160238
 21
-37.302721709436852
 31
0.0
  0
LINE
  5
CA5
  8
0
 62
     0
 10
43.804111802228313
 20
-40.847668301638564
 30
0.0
 11
41.055097779881521
 21
-38.098654279291779
 31
0.0
  0
LINE
  5
CA6
  8
0
 62
     0
 10
42.68157978709467
 20
-40.847668301638564
 30
0.0
 11
40.663899548911402
 21
-38.829988063455289
 31
0.0
  0
LINE
  5
CA7
  8
0
 62
     0
 10
41.559047771961019
 20
-40.847668301638564
 30
0.0
 11
40.213780109779641
 21
-39.502400639457193
 31
0.0
  0
LINE
  5
CA8
  8
0
 62
     0
 10
40.43651575682739
 20
-40.847668301638564
 30
0.0
 11
39.708091123473508
 21
-40.119243668284682
 31
0.0
  0
LINE
  5
CA9
  8
0
 62
     0
 10
39.31398374169374
 20
-40.847668301638564
 30
0.0
 11
39.148412532566219
 21
-40.682097092511043
 31
0.0
  0
LINE
  5
CAA
  8
0
 62
     0
 10
49.666272379375407
 20
-40.847668301638564
 30
0.0
 11
49.883851822873112
 21
-40.630088858140859
 31
0.0
  0
LINE
  5
CAB
  8
0
 62
     0
 10
48.543740364241771
 20
-40.847668301638564
 30
0.0
 11
49.520846665820088
 21
-39.870562000060247
 31
0.0
  0
LINE
  5
CAC
  8
0
 62
     0
 10
47.421208349108127
 20
-40.847668301638564
 30
0.0
 11
49.203085796353037
 21
-39.065790854393661
 31
0.0
  0
LINE
  5
CAD
  8
0
 62
     0
 10
46.29867633397447
 20
-40.847668301638571
 30
0.0
 11
48.93496563904062
 21
-38.211378996572421
 31
0.0
  0
LINE
  5
CAE
  8
0
 62
     0
 10
45.176144318840826
 20
-40.847668301638571
 30
0.0
 11
48.722575038037043
 21
-37.301237582442361
 31
0.0
  0
LINE
  5
CAF
  8
0
 62
     0
 10
44.053612303707183
 20
-40.847668301638571
 30
0.0
 11
48.574545138735118
 21
-36.326735466610643
 31
0.0
  0
LINE
  5
CB0
  8
0
 62
     0
 10
42.93108028857354
 20
-40.847668301638571
 30
0.0
 11
48.503602236258409
 21
-35.275146353953701
 31
0.0
  0
LINE
  5
CB1
  8
0
 62
     0
 10
41.808548273439889
 20
-40.847668301638571
 30
0.0
 11
48.52968933728949
 21
-34.126527237788977
 31
0.0
  0
LINE
  5
CB2
  8
0
 62
     0
 10
40.686016258306253
 20
-40.847668301638571
 30
0.0
 11
48.687177683779659
 21
-32.846506876165158
 31
0.0
  0
LINE
  5
CB3
  8
0
 62
     0
 10
39.56348424317261
 20
-40.847668301638571
 30
0.0
 11
49.045645949812183
 21
-31.365506594999001
 31
0.0
  0
LINE
  5
CB4
  8
0
 62
     0
 10
40.923230272394903
 20
-38.365390257282641
 30
0.0
 11
49.801861427815979
 21
-29.486759101861551
 31
0.0
  0
LINE
  5
CB5
  8
0
 62
     0
 10
41.603332787836777
 20
-36.56275572670711
 30
0.0
 11
49.057166511139087
 21
-29.10892200340481
 31
0.0
  0
LINE
  5
CB6
  8
0
 62
     0
 10
41.823391300846957
 20
-35.220165198563279
 30
0.0
 11
47.934634496005437
 21
-29.10892200340481
 31
0.0
  0
LINE
  5
CB7
  8
0
 62
     0
 10
41.836982949656651
 20
-34.084041534619942
 30
0.0
 11
46.8121024808718
 21
-29.10892200340481
 31
0.0
  0
LINE
  5
CB8
  8
0
 62
     0
 10
41.718523049425301
 20
-33.079969419717663
 30
0.0
 11
45.689570465738157
 21
-29.10892200340481
 31
0.0
  0
LINE
  5
CB9
  8
0
 62
     0
 10
41.502074617383528
 20
-32.173885836625793
 30
0.0
 11
44.567038450604507
 21
-29.10892200340481
 31
0.0
  0
LINE
  5
CBA
  8
0
 62
     0
 10
41.20632902467846
 20
-31.347099414197199
 30
0.0
 11
43.444506435470863
 21
-29.10892200340481
 31
0.0
  0
LINE
  5
CBB
  8
0
 62
     0
 10
40.84251711315455
 20
-30.588379310587481
 30
0.0
 11
42.32197442033722
 21
-29.10892200340481
 31
0.0
  0
LINE
  5
CBC
  8
0
 62
     0
 10
40.417635528591411
 20
-29.890728880016979
 30
0.0
 11
41.19944240520357
 21
-29.108922003404821
 31
0.0
  0
LINE
  5
CBD
  8
0
 62
     0
 10
39.935960132538277
 20
-29.249872260936471
 30
0.0
 11
40.076910390069933
 21
-29.108922003404821
 31
0.0
  0
ENDBLK
  5
CBF
  8
0
  0
BLOCK
  8
0
  2
*X39
 70
     1
 10
0.0
 20
0.0
 30
0.0
  3
*X39
  1

  0
LINE
  5
CC1
  8
0
 62
     0
 10
40.79374630155074
 20
-35.745196405902028
 30
0.0
 11
41.190621301550742
 21
-35.057788741648132
 31
0.0
  0
LINE
  5
CC2
  8
0
 62
     0
 10
39.603121301550743
 20
-37.807419398663718
 30
0.0
 11
39.999996301550738
 21
-37.120011734409822
 31
0.0
  0
LINE
  5
CC3
  8
0
 62
     0
 10
38.412496301550732
 20
-39.869642391425408
 30
0.0
 11
38.80937130155074
 21
-39.182234727171512
 31
0.0
  0
LINE
  5
CC4
  8
0
 62
     0
 10
40.793746586046836
 20
-32.995565913140332
 30
0.0
 11
41.190621586046831
 21
-32.308158248886429
 31
0.0
  0
LINE
  5
CC5
  8
0
 62
     0
 10
39.603121586046832
 20
-35.057788905902022
 30
0.0
 11
39.999996586046841
 21
-34.370381241648118
 31
0.0
  0
LINE
  5
CC6
  8
0
 62
     0
 10
38.412496586046828
 20
-37.120011898663698
 30
0.0
 11
38.809371586046829
 21
-36.432604234409808
 31
0.0
  0
LINE
  5
CC7
  8
0
 62
     0
 10
37.221871586046831
 20
-39.182234891425402
 30
0.0
 11
37.618746586046818
 21
-38.494827227171498
 31
0.0
  0
LINE
  5
CC8
  8
0
 62
     0
 10
39.603121870542942
 20
-32.308158413140333
 30
0.0
 11
39.999996870542951
 21
-31.620750748886429
 31
0.0
  0
LINE
  5
CC9
  8
0
 62
     0
 10
38.412496870542938
 20
-34.370381405902023
 30
0.0
 11
38.80937187054294
 21
-33.682973741648119
 31
0.0
  0
LINE
  5
CCA
  8
0
 62
     0
 10
37.221871870542941
 20
-36.432604398663713
 30
0.0
 11
37.618746870542942
 21
-35.745196734409809
 31
0.0
  0
LINE
  5
CCB
  8
0
 62
     0
 10
36.03124687054293
 20
-38.494827391425403
 30
0.0
 11
36.428121870542931
 21
-37.807419727171499
 31
0.0
  0
LINE
  5
CCC
  8
0
 62
     0
 10
39.603122155039031
 20
-29.558527920378641
 30
0.0
 11
39.77950936696741
 21
-29.253016307513271
 31
0.0
  0
LINE
  5
CCD
  8
0
 62
     0
 10
38.412497155039027
 20
-31.620750913140331
 30
0.0
 11
38.809372155039028
 21
-30.933343248886441
 31
0.0
  0
LINE
  5
CCE
  8
0
 62
     0
 10
37.22187215503903
 20
-33.682973905902017
 30
0.0
 11
37.618747155039017
 21
-32.995566241648127
 31
0.0
  0
LINE
  5
CCF
  8
0
 62
     0
 10
36.031247155039019
 20
-35.745196898663721
 30
0.0
 11
36.42812215503902
 21
-35.057789234409817
 31
0.0
  0
LINE
  5
CD0
  8
0
 62
     0
 10
34.840622155039021
 20
-37.807419891425411
 30
0.0
 11
35.237497155039023
 21
-37.120012227171507
 31
0.0
  0
LINE
  5
CD1
  8
0
 62
     0
 10
38.412497439535137
 20
-28.871120420378631
 30
0.0
 11
38.675653360710783
 21
-28.41532099458982
 31
0.0
  0
LINE
  5
CD2
  8
0
 62
     0
 10
37.221872439535133
 20
-30.933343413140332
 30
0.0
 11
37.618747439535142
 21
-30.245935748886431
 31
0.0
  0
LINE
  5
CD3
  8
0
 62
     0
 10
36.031247439535129
 20
-32.995566405902018
 30
0.0
 11
36.42812243953513
 21
-32.308158741648121
 31
0.0
  0
LINE
  5
CD4
  8
0
 62
     0
 10
34.840622439535132
 20
-35.057789398663708
 30
0.0
 11
35.237497439535133
 21
-34.370381734409811
 31
0.0
  0
LINE
  5
CD5
  8
0
 62
     0
 10
33.908404524164951
 20
-36.672438191810791
 30
0.0
 11
34.046872439535122
 21
-36.432604727171501
 31
0.0
  0
LINE
  5
CD6
  8
0
 62
     0
 10
36.031247724031232
 20
-30.245935913140318
 30
0.0
 11
36.428122724031233
 21
-29.558528248886422
 31
0.0
  0
LINE
  5
CD7
  8
0
 62
     0
 10
34.840622724031228
 20
-32.308158905902012
 30
0.0
 11
35.237497724031229
 21
-31.620751241648112
 31
0.0
  0
LINE
  5
CD8
  8
0
 62
     0
 10
33.67089522448002
 20
-34.334186366135192
 30
0.0
 11
34.046872724031232
 21
-33.682974234409812
 31
0.0
  0
LINE
  5
CD9
  8
0
 62
     0
 10
40.000003129457049
 20
-30.245935420378618
 30
0.0
 11
39.603128129457048
 21
-29.558527756124722
 31
0.0
  0
LINE
  5
CDA
  8
0
 62
     0
 10
41.190628129457053
 20
-32.308158413140312
 30
0.0
 11
40.793753129457059
 21
-31.620750748886419
 31
0.0
  0
LINE
  5
CDB
  8
0
 62
     0
 10
37.618753413953158
 20
-28.871119927616931
 30
0.0
 11
37.226154275248312
 21
-28.191118272372339
 31
0.0
  0
LINE
  5
CDC
  8
0
 62
     0
 10
38.809378413953148
 20
-30.933342920378632
 30
0.0
 11
38.412503413953161
 21
-30.245935256124731
 31
0.0
  0
LINE
  5
CDD
  8
0
 62
     0
 10
40.000003413953152
 20
-32.995565913140318
 30
0.0
 11
39.603128413953151
 21
-32.308158248886421
 31
0.0
  0
LINE
  5
CDE
  8
0
 62
     0
 10
41.190628413953142
 20
-35.057788905902008
 30
0.0
 11
40.793753413953148
 21
-34.370381241648111
 31
0.0
  0
LINE
  5
CDF
  8
0
 62
     0
 10
36.428128698449271
 20
-29.558527427616941
 30
0.0
 11
36.03125369844927
 21
-28.871119763363041
 31
0.0
  0
LINE
  5
CE0
  8
0
 62
     0
 10
37.618753698449268
 20
-31.620750420378631
 30
0.0
 11
37.221878698449267
 21
-30.933342756124741
 31
0.0
  0
LINE
  5
CE1
  8
0
 62
     0
 10
38.809378698449272
 20
-33.682973413140331
 30
0.0
 11
38.412503698449271
 21
-32.995565748886428
 31
0.0
  0
LINE
  5
CE2
  8
0
 62
     0
 10
40.000003698449262
 20
-35.745196405902021
 30
0.0
 11
39.603128698449261
 21
-35.057788741648118
 31
0.0
  0
LINE
  5
CE3
  8
0
 62
     0
 10
41.02418890038949
 20
-37.519137212022692
 30
0.0
 11
40.793753698449251
 21
-37.120011734409808
 31
0.0
  0
LINE
  5
CE4
  8
0
 62
     0
 10
35.237503982945363
 20
-30.24593492761694
 30
0.0
 11
34.970227656112932
 21
-29.78299874988279
 31
0.0
  0
LINE
  5
CE5
  8
0
 62
     0
 10
36.428128982945353
 20
-32.308157920378633
 30
0.0
 11
36.031253982945351
 21
-31.62075025612474
 31
0.0
  0
LINE
  5
CE6
  8
0
 62
     0
 10
37.61875398294535
 20
-34.37038091314033
 30
0.0
 11
37.221878982945348
 21
-33.682973248886427
 31
0.0
  0
LINE
  5
CE7
  8
0
 62
     0
 10
38.809378982945347
 20
-36.43260390590202
 30
0.0
 11
38.412503982945353
 21
-35.745196241648117
 31
0.0
  0
LINE
  5
CE8
  8
0
 62
     0
 10
40.000003982945337
 20
-38.494826898663703
 30
0.0
 11
39.603128982945343
 21
-37.807419234409807
 31
0.0
  0
LINE
  5
CE9
  8
0
 62
     0
 10
35.237504267441437
 20
-32.995565420378618
 30
0.0
 11
34.840629267441443
 21
-32.308157756124729
 31
0.0
  0
LINE
  5
CEA
  8
0
 62
     0
 10
36.428129267441442
 20
-35.057788413140322
 30
0.0
 11
36.031254267441433
 21
-34.370380748886419
 31
0.0
  0
LINE
  5
CEB
  8
0
 62
     0
 10
37.618754267441432
 20
-37.120011405902012
 30
0.0
 11
37.22187926744143
 21
-36.432603741648109
 31
0.0
  0
LINE
  5
CEC
  8
0
 62
     0
 10
38.809379267441443
 20
-39.182234398663702
 30
0.0
 11
38.412504267441442
 21
-38.494826734409799
 31
0.0
  0
LINE
  5
CED
  8
0
 62
     0
 10
34.046879551937543
 20
-33.682972920378631
 30
0.0
 11
33.75532340616148
 21
-33.177982862635538
 31
0.0
  0
LINE
  5
CEE
  8
0
 62
     0
 10
35.237504551937533
 20
-35.745195913140321
 30
0.0
 11
34.840629551937532
 21
-35.057788248886432
 31
0.0
  0
LINE
  5
CEF
  8
0
 62
     0
 10
36.428129551937531
 20
-37.807418905902011
 30
0.0
 11
36.031254551937529
 21
-37.120011241648122
 31
0.0
  0
LINE
  5
CF0
  8
0
 62
     0
 10
37.618754551937542
 20
-39.869641898663701
 30
0.0
 11
37.221879551937533
 21
-39.182234234409812
 31
0.0
  0
LINE
  5
CF1
  8
0
 62
     0
 10
34.046879836433646
 20
-36.432603413140313
 30
0.0
 11
33.776467953552292
 21
-35.964236293019447
 31
0.0
  0
LINE
  5
CF2
  8
0
 62
     0
 10
35.237504836433651
 20
-38.49482640590201
 30
0.0
 11
34.840629836433642
 21
-37.807418741648107
 31
0.0
  0
LINE
  5
CF3
  8
0
 62
     0
 10
36.417200690584622
 20
-40.538119562769857
 30
0.0
 11
36.031254836433639
 21
-39.869641734409797
 31
0.0
  0
LINE
  5
CF4
  8
0
 62
     0
 10
37.618749999999999
 20
-39.869634999999988
 30
0.0
 11
38.412500000000001
 21
-39.869634999999988
 31
0.0
  0
LINE
  5
CF5
  8
0
 62
     0
 10
35.515423309949988
 20
-39.869634999999988
 30
0.0
 11
36.03125
 21
-39.869634999999988
 31
0.0
  0
LINE
  5
CF6
  8
0
 62
     0
 10
40.0
 20
-38.49481999999999
 30
0.0
 11
40.61942784167708
 21
-38.49481999999999
 31
0.0
  0
LINE
  5
CF7
  8
0
 62
     0
 10
37.618750000000013
 20
-38.49481999999999
 30
0.0
 11
38.412500000000009
 21
-38.49481999999999
 31
0.0
  0
LINE
  5
CF8
  8
0
 62
     0
 10
35.237500000000011
 20
-38.49481999999999
 30
0.0
 11
36.031250000000007
 21
-38.49481999999999
 31
0.0
  0
LINE
  5
CF9
  8
0
 62
     0
 10
40.0
 20
-37.120004999999992
 30
0.0
 11
40.79375000000001
 21
-37.120004999999992
 31
0.0
  0
LINE
  5
CFA
  8
0
 62
     0
 10
37.618750000000013
 20
-37.120004999999992
 30
0.0
 11
38.412500000000009
 21
-37.120004999999992
 31
0.0
  0
LINE
  5
CFB
  8
0
 62
     0
 10
35.237500000000011
 20
-37.120004999999992
 30
0.0
 11
36.031250000000007
 21
-37.120004999999992
 31
0.0
  0
LINE
  5
CFC
  8
0
 62
     0
 10
40.0
 20
-35.745189999999987
 30
0.0
 11
40.79375000000001
 21
-35.745189999999987
 31
0.0
  0
LINE
  5
CFD
  8
0
 62
     0
 10
37.618750000000013
 20
-35.745189999999987
 30
0.0
 11
38.412500000000009
 21
-35.745189999999987
 31
0.0
  0
LINE
  5
CFE
  8
0
 62
     0
 10
35.237500000000011
 20
-35.745189999999987
 30
0.0
 11
36.031250000000007
 21
-35.745189999999987
 31
0.0
  0
LINE
  5
CFF
  8
0
 62
     0
 10
40.0
 20
-34.370374999999989
 30
0.0
 11
40.79375000000001
 21
-34.370374999999989
 31
0.0
  0
LINE
  5
D00
  8
0
 62
     0
 10
37.618750000000013
 20
-34.370374999999989
 30
0.0
 11
38.412500000000009
 21
-34.370374999999989
 31
0.0
  0
LINE
  5
D01
  8
0
 62
     0
 10
35.237500000000011
 20
-34.370374999999989
 30
0.0
 11
36.031250000000007
 21
-34.370374999999989
 31
0.0
  0
LINE
  5
D02
  8
0
 62
     0
 10
40.0
 20
-32.99555999999999
 30
0.0
 11
40.79375000000001
 21
-32.99555999999999
 31
0.0
  0
LINE
  5
D03
  8
0
 62
     0
 10
37.618750000000013
 20
-32.99555999999999
 30
0.0
 11
38.412500000000009
 21
-32.99555999999999
 31
0.0
  0
LINE
  5
D04
  8
0
 62
     0
 10
35.237500000000011
 20
-32.99555999999999
 30
0.0
 11
36.031250000000007
 21
-32.99555999999999
 31
0.0
  0
LINE
  5
D05
  8
0
 62
     0
 10
40.0
 20
-31.620744999999989
 30
0.0
 11
40.79375000000001
 21
-31.620744999999989
 31
0.0
  0
LINE
  5
D06
  8
0
 62
     0
 10
37.618750000000013
 20
-31.620744999999989
 30
0.0
 11
38.412500000000009
 21
-31.620744999999989
 31
0.0
  0
LINE
  5
D07
  8
0
 62
     0
 10
35.237500000000011
 20
-31.620744999999989
 30
0.0
 11
36.031250000000007
 21
-31.620744999999989
 31
0.0
  0
LINE
  5
D08
  8
0
 62
     0
 10
40.0
 20
-30.245929999999991
 30
0.0
 11
40.486635590651609
 21
-30.245929999999991
 31
0.0
  0
LINE
  5
D09
  8
0
 62
     0
 10
37.618750000000013
 20
-30.245929999999991
 30
0.0
 11
38.412500000000009
 21
-30.245929999999991
 31
0.0
  0
LINE
  5
D0A
  8
0
 62
     0
 10
35.237500000000011
 20
-30.245929999999991
 30
0.0
 11
36.031250000000007
 21
-30.245929999999991
 31
0.0
  0
LINE
  5
D0B
  8
0
 62
     0
 10
37.618749999999999
 20
-28.871114999999989
 30
0.0
 11
38.412500000000001
 21
-28.871114999999989
 31
0.0
  0
LINE
  5
D0C
  8
0
 62
     0
 10
35.787280161677323
 20
-28.871114999999989
 30
0.0
 11
36.03125
 21
-28.871114999999989
 31
0.0
  0
ENDBLK
  5
D0E
  8
0
  0
BLOCK
  8
0
  2
*U40
 70
     1
 10
0.0
 20
0.0
 30
0.0
  3
*U40
  1

  0
TEXT
  5
D10
  8
SAPA_ARTIKELNR
 10
-7.718729803941148
 20
19.020792428126299
 30
0.0
 40
3.5
  1
68290
 50
19.999999999999979
  7
ISO
  0
ENDBLK
  5
D12
  8
0
  0
BLOCK
  8
0
  2
*U41
 70
     1
 10
0.0
 20
0.0
 30
0.0
  3
*U41
  1

  0
TEXT
  5
D14
  8
SAPA_ARTIKELNR
 10
-30.574206688465448
 20
82.931531351757656
 30
0.0
 40
3.5
  1
42144
 50
19.999999999999979
  7
ISO
  0
ENDBLK
  5
D16
  8
0
  0
BLOCK
  8
0
  2
*U42
 70
     1
 10
0.0
 20
0.0
 30
0.0
  3
*U42
  1

  0
TEXT
  5
D18
  8
SAPA_ARTIKELNR
 10
19.33851486203675
 20
-20.839579227736071
 30
0.0
 40
3.5
  1
68174
  7
ISO
  0
ENDBLK
  5
D1A
  8
0
  0
BLOCK
  8
0
  2
*U43
 70
     1
 10
0.0
 20
0.0
 30
0.0
  3
*U43
  1

  0
TEXT
  5
D1C
  8
SAPA_ARTIKELNR
 10
16.496045157063602
 20
-3.5212818282539038
 30
0.0
 40
3.5
  1
68086
  7
ISO
  0
ENDBLK
  5
D1E
  8
0
  0
BLOCK
  8
0
  2
*U44
 70
     1
 10
0.0
 20
0.0
 30
0.0
  3
*U44
  1

  0
TEXT
  5
D20
  8
SAPA_ARTIKELNR
 10
-96.236176826076075
 20
-79.745243799755372
 30
0.0
 40
3.5
  1
00887
  7
ISO
  0
ENDBLK
  5
D22
  8
0
  0
BLOCK
  8
0
  2
*U45
 70
     1
 10
0.0
 20
0.0
 30
0.0
  3
*U45
  1

  0
TEXT
  5
DF7
  8
0
 62
     2
 10
27.193025901410518
 20
49.229365049884841
 30
0.0
 40
3.0
  1
50
  7
BYGG-01473402$0$ISO
  0
ENDBLK
  5
DF9
  8
0
  0
BLOCK
  8
0
  2
*U46
 70
     1
 10
0.0
 20
0.0
 30
0.0
  3
*U46
  1

  0
TEXT
  5
DFB
  8
0
 62
     2
 10
63.040530869310679
 20
24.927474405712271
 30
0.0
 40
3.0
  1
25
 50
90.0
  7
BYGG-01473402$0$ISO
  0
ENDBLK
  5
DFD
  8
0
  0
BLOCK
  8
0
  2
*U47
 70
     1
 10
0.0
 20
0.0
 30
0.0
  3
*U47
  1

  0
TEXT
  5
E21
  8
0
 62
     2
 10
284.82100775789411
 20
-326.41284250989833
 30
0.0
 40
3.0
  1
60
  7
BYGG-014680$0$ISO
  0
ENDBLK
  5
E23
  8
0
  0
BLOCK
  8
0
  2
*U48
 70
     1
 10
0.0
 20
0.0
 30
0.0
  3
*U48
  1

  0
TEXT
  5
E25
  8
0
 62
     2
 10
327.91011454206352
 20
-292.96547784569952
 30
0.0
 40
3.0
  1
39
 50
90.0
  7
BYGG-014680$0$ISO
  0
ENDBLK
  5
E27
  8
0
  0
BLOCK
  8
0
  2
*U49
 70
     1
 10
0.0
 20
0.0
 30
0.0
  3
*U49
  1

  0
TEXT
  5
E59
  8
0
 62
     2
 10
130.33097964863219
 20
-266.28469737235088
 30
0.0
 40
3.0
  1
50
  7
BYGG-01458701$0$ISO
  0
ENDBLK
  5
E5B
  8
0
  0
BLOCK
  8
0
  2
*U50
 70
     1
 10
0.0
 20
0.0
 30
0.0
  3
*U50
  1

  0
TEXT
  5
E5D
  8
0
 62
     2
 10
95.674012818561607
 20
-298.58820846912988
 30
0.0
 40
3.0
  1
36
 50
90.0
  7
BYGG-01458701$0$ISO
  0
ENDBLK
  5
E5F
  8
0
  0
BLOCK
  8
0
  2
*U51
 70
     1
 10
0.0
 20
0.0
 30
0.0
  3
*U51
  1

  0
TEXT
  5
EC0
  8
0
 62
     2
 10
2.924893507843874
 20
11.80837843001756
 30
0.0
 40
3.0
  1
7
 50
90.0
  7
BYGG-014252$0$ISO
  0
ENDBLK
  5
EC2
  8
0
  0
BLOCK
  8
0
  2
*U52
 70
     1
 10
0.0
 20
0.0
 30
0.0
  3
*U52
  1

  0
TEXT
  5
EC4
  8
0
 62
     2
 10
29.55729736359487
 20
1.4710805811525349
 30
0.0
 40
3.0
  1
47.6
  7
BYGG-014252$0$ISO
  0
ENDBLK
  5
EC6
  8
0
  0
BLOCK
  8
0
  2
*U53
 70
     1
 10
0.0
 20
0.0
 30
0.0
  3
*U53
  1

  0
TEXT
  5
F1E
  8
0
 62
     2
 10
639.58702159746713
 20
176.2962703174627
 30
0.0
 40
3.0
  1
30
 50
90.0
  7
BYGG-013690$0$ISO
  0
ENDBLK
  5
F20
  8
0
  0
BLOCK
  8
0
  2
*U54
 70
     1
 10
0.0
 20
0.0
 30
0.0
  3
*U54
  1

  0
TEXT
  5
F22
  8
0
 62
     2
 10
658.40267129095673
 20
202.3320694821046
 30
0.0
 40
3.0
  1
23
  7
BYGG-013690$0$ISO
  0
ENDBLK
  5
F24
  8
0
  0
BLOCK
  8
0
  2
*U55
 70
     1
 10
0.0
 20
0.0
 30
0.0
  3
*U55
  1

  0
TEXT
  5
F26
  8
0
 62
     2
 10
669.41458073977537
 20
117.9366029717615
 30
0.0
 40
3.0
  1
3
  7
BYGG-013690$0$ISO
  0
ENDBLK
  5
F28
  8
0
  0
BLOCK
  8
0
  2
*U56
 70
     1
 10
0.0
 20
0.0
 30
0.0
  3
*U56
  1

  0
TEXT
  5
FCD
  8
0
 62
     2
 10
0.5328822921663806
 20
9.0502012347750629
 30
0.0
 40
3.0
  1
50
 50
20.000000000000028
  7
BYGG-01473402$0$ISO
  0
ENDBLK
  5
FCF
  8
0
  0
BLOCK
  8
0
  2
*U57
 70
     1
 10
0.0
 20
0.0
 30
0.0
  3
*U57
  1

  0
TEXT
  5
FD1
  8
0
 62
     2
 10
-36.831520680659793
 20
19.183847039255749
 30
0.0
 40
3.0
  1
25
 50
290.0
  7
BYGG-01473402$0$ISO
  0
ENDBLK
  5
FD3
  8
0
  0
BLOCK
  8
0
  2
*U58
 70
     1
 10
0.0
 20
0.0
 30
0.0
  3
*U58
  1

  0
TEXT
  5
FD5
  8
0
 62
     2
 10
21.83267716535433
 20
-46.940665028475003
 30
0.0
 40
3.0
  1
60
 50
180.0
  7
BYGG-014680$0$ISO
  0
ENDBLK
  5
FD7
  8
0
  0
BLOCK
  8
0
  2
*U59
 70
     1
 10
0.0
 20
0.0
 30
0.0
  3
*U59
  1

  0
TEXT
  5
FD9
  8
0
 62
     2
 10
-21.25642961881508
 20
-7.660242942810215
 30
0.0
 40
3.0
  1
39
 50
270.0
  7
BYGG-014680$0$ISO
  0
ENDBLK
  5
FDB
  8
0
  0
BLOCK
  8
0
  2
*U60
 70
     1
 10
0.0
 20
0.0
 30
0.0
  3
*U60
  1

  0
TEXT
  5
FDD
  8
0
 62
     2
 10
-30.69344665624881
 20
89.805452291151624
 30
0.0
 40
3.0
  1
47.6
 50
20.000000000000028
  7
BYGG-014252$0$ISO
  0
ENDBLK
  5
FDF
  8
0
  0
BLOCK
  8
0
  2
*U61
 70
     1
 10
0.0
 20
0.0
 30
0.0
  3
*U61
  1

  0
TEXT
  5
12D3
  8
0
 62
     2
 10
-114.1396911766646
 20
-71.101181102362261
 30
0.0
 40
3.0
  1
30
 50
90.0
  7
BYGG-013690$0$ISO
  0
ENDBLK
  5
12D5
  8
0
  0
BLOCK
  8
0
  2
*U62
 70
     1
 10
0.0
 20
0.0
 30
0.0
  3
*U62
  1

  0
TEXT
  5
12D7
  8
0
 62
     2
 10
-95.324041483175137
 20
-45.06538193772019
 30
0.0
 40
3.0
  1
23
  7
BYGG-013690$0$ISO
  0
ENDBLK
  5
12D9
  8
0
  0
BLOCK
  8
0
  2
*U63
 70
     1
 10
0.0
 20
0.0
 30
0.0
  3
*U63
  1

  0
TEXT
  5
12DB
  8
0
 62
     2
 10
-84.312132034356225
 20
-129.4608484480633
 30
0.0
 40
3.0
  1
3
  7
BYGG-013690$0$ISO
  0
ENDBLK
  5
12DD
  8
0
  0
BLOCK
  8
0
  2
*U64
 70
     1
 10
0.0
 20
0.0
 30
0.0
  3
*U64
  1

  0
TEXT
  5
12DF
  8
0
 62
     2
 10
5.7399697751489178
 20
89.937053261628506
 30
0.0
 40
3.0
  1
7
 50
290.00000000000011
  7
BYGG-014252$0$ISO
  0
ENDBLK
  5
12E1
  8
0
  0
BLOCK
  8
0
  2
*U65
 70
     1
 10
0.0
 20
0.0
 30
0.0
  3
*U65
  1

  0
TEXT
  5
12E3
  8
0
 62
     2
 10
-6.23970341272795
 20
27.657727530293261
 30
0.0
 40
3.0
  1
50
 50
20.000000000000089
  7
BYGG-01458701$0$ISO
  0
ENDBLK
  5
12E5
  8
0
  0
BLOCK
  8
0
  2
*U66
 70
     1
 10
0.0
 20
0.0
 30
0.0
  3
*U66
  1

  0
TEXT
  5
12E7
  8
0
 62
     2
 10
-27.366146327620338
 20
-9.7804309213834788
 30
0.0
 40
3.0
  1
36
 50
290.00000000000011
  7
BYGG-01458701$0$ISO
  0
ENDBLK
  5
12E9
  8
0
  0
ENDSEC
  0
SECTION
  2
ENTITIES
  0
LINE
  5
709
  8
SAPA_ANSLUTNING
 10
-84.160674762533063
 20
13.19906669518303
 30
0.0
 11
-19.06995596824078
 21
36.890150863296363
 31
0.0
  0
LINE
  5
70A
  8
SAPA_ANSLUTNING
 10
-19.582986183229249
 20
38.299689794475213
 30
0.0
 11
-29.478572299729159
 21
65.487589201828683
 31
0.0
  0
LINE
  5
70B
  8
SAPA_ANSLUTNING
 10
-29.991602514717659
 20
66.897128133007556
 30
0.0
 11
-106.4000000000002
 21
39.086745800384328
 31
0.0
  0
LINE
  5
70C
  8
SAPA_ANSLUTNING
 10
-29.478572299729159
 20
65.487589201828683
 30
0.0
 11
-104.9000000000002
 21
38.036434493069763
 31
0.0
  0
LINE
  5
70D
  8
SAPA_ANSLUTNING
 10
-84.673704977521567
 20
14.6086056263619
 30
0.0
 11
-19.58298618322927
 21
38.299689794475221
 31
0.0
  0
LINE
  5
70F
  8
SAPA_ANSLUTNING
 10
-60.00000000000027
 20
-41.0
 30
0.0
 11
98.361986816269564
 21
-41.0
 31
0.0
  0
POLYLINE
  5
710
  8
SAPA_ANSLUTNING
 10
37.5846286308456
 20
-28.164523612396117
 30
0.0
 66
     1
 70
     8
  0
VERTEX
  8
SAPA_ANSLUTNING
  5
1402
 10
37.5846
 20
-28.1645
 30
0.000000
  70
    32
  0
VERTEX
  8
SAPA_ANSLUTNING
  5
1403
 10
37.7767
 20
-28.1721
 30
0.000000
  70
    32
  0
VERTEX
  8
SAPA_ANSLUTNING
  5
1404
 10
37.9684
 20
-28.1950
 30
0.000000
  70
    32
  0
VERTEX
  8
SAPA_ANSLUTNING
  5
1405
 10
38.1591
 20
-28.2330
 30
0.000000
  70
    32
  0
VERTEX
  8
SAPA_ANSLUTNING
  5
1406
 10
38.3484
 20
-28.2862
 30
0.000000
  70
    32
  0
VERTEX
  8
SAPA_ANSLUTNING
  5
1407
 10
38.5359
 20
-28.3542
 30
0.000000
  70
    32
  0
VERTEX
  8
SAPA_ANSLUTNING
  5
1408
 10
38.7211
 20
-28.4371
 30
0.000000
  70
    32
  0
VERTEX
  8
SAPA_ANSLUTNING
  5
1409
 10
38.9036
 20
-28.5346
 30
0.000000
  70
    32
  0
VERTEX
  8
SAPA_ANSLUTNING
  5
140A
 10
39.0828
 20
-28.6464
 30
0.000000
  70
    32
  0
VERTEX
  8
SAPA_ANSLUTNING
  5
140B
 10
39.2585
 20
-28.7723
 30
0.000000
  70
    32
  0
VERTEX
  8
SAPA_ANSLUTNING
  5
140C
 10
39.4301
 20
-28.9121
 30
0.000000
  70
    32
  0
VERTEX
  8
SAPA_ANSLUTNING
  5
140D
 10
39.5973
 20
-29.0652
 30
0.000000
  70
    32
  0
VERTEX
  8
SAPA_ANSLUTNING
  5
140E
 10
39.7597
 20
-29.2315
 30
0.000000
  70
    32
  0
VERTEX
  8
SAPA_ANSLUTNING
  5
140F
 10
39.9168
 20
-29.4104
 30
0.000000
  70
    32
  0
VERTEX
  8
SAPA_ANSLUTNING
  5
1410
 10
40.0683
 20
-29.6016
 30
0.000000
  70
    32
  0
VERTEX
  8
SAPA_ANSLUTNING
  5
1411
 10
40.2138
 20
-29.8045
 30
0.000000
  70
    32
  0
VERTEX
  8
SAPA_ANSLUTNING
  5
1412
 10
40.3530
 20
-30.0188
 30
0.000000
  70
    32
  0
VERTEX
  8
SAPA_ANSLUTNING
  5
1413
 10
40.4855
 20
-30.2438
 30
0.000000
  70
    32
  0
VERTEX
  8
SAPA_ANSLUTNING
  5
1414
 10
40.6110
 20
-30.4791
 30
0.000000
  70
    32
  0
VERTEX
  8
SAPA_ANSLUTNING
  5
1415
 10
40.7292
 20
-30.7241
 30
0.000000
  70
    32
  0
VERTEX
  8
SAPA_ANSLUTNING
  5
1416
 10
40.8398
 20
-30.9781
 30
0.000000
  70
    32
  0
VERTEX
  8
SAPA_ANSLUTNING
  5
1417
 10
40.9426
 20
-31.2406
 30
0.000000
  70
    32
  0
VERTEX
  8
SAPA_ANSLUTNING
  5
1418
 10
41.0374
 20
-31.5110
 30
0.000000
  70
    32
  0
VERTEX
  8
SAPA_ANSLUTNING
  5
1419
 10
41.1237
 20
-31.7886
 30
0.000000
  70
    32
  0
VERTEX
  8
SAPA_ANSLUTNING
  5
141A
 10
41.2016
 20
-32.0726
 30
0.000000
  70
    32
  0
VERTEX
  8
SAPA_ANSLUTNING
  5
141B
 10
41.2708
 20
-32.3625
 30
0.000000
  70
    32
  0
VERTEX
  8
SAPA_ANSLUTNING
  5
141C
 10
41.3311
 20
-32.6576
 30
0.000000
  70
    32
  0
VERTEX
  8
SAPA_ANSLUTNING
  5
141D
 10
41.3823
 20
-32.9571
 30
0.000000
  70
    32
  0
VERTEX
  8
SAPA_ANSLUTNING
  5
141E
 10
41.4244
 20
-33.2603
 30
0.000000
  70
    32
  0
VERTEX
  8
SAPA_ANSLUTNING
  5
141F
 10
41.4573
 20
-33.5664
 30
0.000000
  70
    32
  0
VERTEX
  8
SAPA_ANSLUTNING
  5
1420
 10
41.4808
 20
-33.8748
 30
0.000000
  70
    32
  0
VERTEX
  8
SAPA_ANSLUTNING
  5
1421
 10
41.4949
 20
-34.1847
 30
0.000000
  70
    32
  0
VERTEX
  8
SAPA_ANSLUTNING
  5
1422
 10
41.4996
 20
-34.4953
 30
0.000000
  70
    32
  0
VERTEX
  8
SAPA_ANSLUTNING
  5
1423
 10
41.4949
 20
-34.8060
 30
0.000000
  70
    32
  0
VERTEX
  8
SAPA_ANSLUTNING
  5
1424
 10
41.4808
 20
-35.1159
 30
0.000000
  70
    32
  0
VERTEX
  8
SAPA_ANSLUTNING
  5
1425
 10
41.4573
 20
-35.4243
 30
0.000000
  70
    32
  0
VERTEX
  8
SAPA_ANSLUTNING
  5
1426
 10
41.4244
 20
-35.7304
 30
0.000000
  70
    32
  0
VERTEX
  8
SAPA_ANSLUTNING
  5
1427
 10
41.3823
 20
-36.0336
 30
0.000000
  70
    32
  0
VERTEX
  8
SAPA_ANSLUTNING
  5
1428
 10
41.3311
 20
-36.3331
 30
0.000000
  70
    32
  0
VERTEX
  8
SAPA_ANSLUTNING
  5
1429
 10
41.2708
 20
-36.6281
 30
0.000000
  70
    32
  0
VERTEX
  8
SAPA_ANSLUTNING
  5
142A
 10
41.2016
 20
-36.9180
 30
0.000000
  70
    32
  0
VERTEX
  8
SAPA_ANSLUTNING
  5
142B
 10
41.1237
 20
-37.2021
 30
0.000000
  70
    32
  0
VERTEX
  8
SAPA_ANSLUTNING
  5
142C
 10
41.0374
 20
-37.4797
 30
0.000000
  70
    32
  0
VERTEX
  8
SAPA_ANSLUTNING
  5
142D
 10
40.9426
 20
-37.7500
 30
0.000000
  70
    32
  0
VERTEX
  8
SAPA_ANSLUTNING
  5
142E
 10
40.8398
 20
-38.0125
 30
0.000000
  70
    32
  0
VERTEX
  8
SAPA_ANSLUTNING
  5
142F
 10
40.7292
 20
-38.2666
 30
0.000000
  70
    32
  0
VERTEX
  8
SAPA_ANSLUTNING
  5
1430
 10
40.6110
 20
-38.5116
 30
0.000000
  70
    32
  0
VERTEX
  8
SAPA_ANSLUTNING
  5
1431
 10
40.4855
 20
-38.7468
 30
0.000000
  70
    32
  0
VERTEX
  8
SAPA_ANSLUTNING
  5
1432
 10
40.3530
 20
-38.9719
 30
0.000000
  70
    32
  0
VERTEX
  8
SAPA_ANSLUTNING
  5
1433
 10
40.2138
 20
-39.1861
 30
0.000000
  70
    32
  0
VERTEX
  8
SAPA_ANSLUTNING
  5
1434
 10
40.0683
 20
-39.3891
 30
0.000000
  70
    32
  0
VERTEX
  8
SAPA_ANSLUTNING
  5
1435
 10
39.9168
 20
-39.5803
 30
0.000000
  70
    32
  0
VERTEX
  8
SAPA_ANSLUTNING
  5
1436
 10
39.7597
 20
-39.7592
 30
0.000000
  70
    32
  0
VERTEX
  8
SAPA_ANSLUTNING
  5
1437
 10
39.5973
 20
-39.9254
 30
0.000000
  70
    32
  0
VERTEX
  8
SAPA_ANSLUTNING
  5
1438
 10
39.4301
 20
-40.0786
 30
0.000000
  70
    32
  0
VERTEX
  8
SAPA_ANSLUTNING
  5
1439
 10
39.2585
 20
-40.2183
 30
0.000000
  70
    32
  0
VERTEX
  8
SAPA_ANSLUTNING
  5
143A
 10
39.0828
 20
-40.3442
 30
0.000000
  70
    32
  0
VERTEX
  8
SAPA_ANSLUTNING
  5
143B
 10
38.9036
 20
-40.4561
 30
0.000000
  70
    32
  0
VERTEX
  8
SAPA_ANSLUTNING
  5
143C
 10
38.7211
 20
-40.5535
 30
0.000000
  70
    32
  0
VERTEX
  8
SAPA_ANSLUTNING
  5
143D
 10
38.5359
 20
-40.6364
 30
0.000000
  70
    32
  0
VERTEX
  8
SAPA_ANSLUTNING
  5
143E
 10
38.3484
 20
-40.7045
 30
0.000000
  70
    32
  0
VERTEX
  8
SAPA_ANSLUTNING
  5
143F
 10
38.1591
 20
-40.7576
 30
0.000000
  70
    32
  0
VERTEX
  8
SAPA_ANSLUTNING
  5
1440
 10
37.9684
 20
-40.7957
 30
0.000000
  70
    32
  0
VERTEX
  8
SAPA_ANSLUTNING
  5
1441
 10
37.7767
 20
-40.8185
 30
0.000000
  70
    32
  0
VERTEX
  8
SAPA_ANSLUTNING
  5
1442
 10
37.5846
 20
-40.8261
 30
0.000000
  70
    32
  0
VERTEX
  8
SAPA_ANSLUTNING
  5
1443
 10
37.3925
 20
-40.8185
 30
0.000000
  70
    32
  0
VERTEX
  8
SAPA_ANSLUTNING
  5
1444
 10
37.2009
 20
-40.7957
 30
0.000000
  70
    32
  0
VERTEX
  8
SAPA_ANSLUTNING
  5
1445
 10
37.0102
 20
-40.7576
 30
0.000000
  70
    32
  0
VERTEX
  8
SAPA_ANSLUTNING
  5
1446
 10
36.8208
 20
-40.7045
 30
0.000000
  70
    32
  0
VERTEX
  8
SAPA_ANSLUTNING
  5
1447
 10
36.6334
 20
-40.6364
 30
0.000000
  70
    32
  0
VERTEX
  8
SAPA_ANSLUTNING
  5
1448
 10
36.4482
 20
-40.5535
 30
0.000000
  70
    32
  0
VERTEX
  8
SAPA_ANSLUTNING
  5
1449
 10
36.2657
 20
-40.4561
 30
0.000000
  70
    32
  0
VERTEX
  8
SAPA_ANSLUTNING
  5
144A
 10
36.0864
 20
-40.3442
 30
0.000000
  70
    32
  0
VERTEX
  8
SAPA_ANSLUTNING
  5
144B
 10
35.9107
 20
-40.2183
 30
0.000000
  70
    32
  0
VERTEX
  8
SAPA_ANSLUTNING
  5
144C
 10
35.7391
 20
-40.0786
 30
0.000000
  70
    32
  0
VERTEX
  8
SAPA_ANSLUTNING
  5
144D
 10
35.5719
 20
-39.9254
 30
0.000000
  70
    32
  0
VERTEX
  8
SAPA_ANSLUTNING
  5
144E
 10
35.4096
 20
-39.7592
 30
0.000000
  70
    32
  0
VERTEX
  8
SAPA_ANSLUTNING
  5
144F
 10
35.2525
 20
-39.5803
 30
0.000000
  70
    32
  0
VERTEX
  8
SAPA_ANSLUTNING
  5
1450
 10
35.1010
 20
-39.3891
 30
0.000000
  70
    32
  0
VERTEX
  8
SAPA_ANSLUTNING
  5
1451
 10
34.9555
 20
-39.1861
 30
0.000000
  70
    32
  0
VERTEX
  8
SAPA_ANSLUTNING
  5
1452
 10
34.8163
 20
-38.9719
 30
0.000000
  70
    32
  0
VERTEX
  8
SAPA_ANSLUTNING
  5
1453
 10
34.6838
 20
-38.7468
 30
0.000000
  70
    32
  0
VERTEX
  8
SAPA_ANSLUTNING
  5
1454
 10
34.5583
 20
-38.5116
 30
0.000000
  70
    32
  0
VERTEX
  8
SAPA_ANSLUTNING
  5
1455
 10
34.4401
 20
-38.2666
 30
0.000000
  70
    32
  0
VERTEX
  8
SAPA_ANSLUTNING
  5
1456
 10
34.3294
 20
-38.0125
 30
0.000000
  70
    32
  0
VERTEX
  8
SAPA_ANSLUTNING
  5
1457
 10
34.2266
 20
-37.7500
 30
0.000000
  70
    32
  0
VERTEX
  8
SAPA_ANSLUTNING
  5
1458
 10
34.1319
 20
-37.4797
 30
0.000000
  70
    32
  0
VERTEX
  8
SAPA_ANSLUTNING
  5
1459
 10
34.0455
 20
-37.2021
 30
0.000000
  70
    32
  0
VERTEX
  8
SAPA_ANSLUTNING
  5
145A
 10
33.9676
 20
-36.9180
 30
0.000000
  70
    32
  0
VERTEX
  8
SAPA_ANSLUTNING
  5
145B
 10
33.8985
 20
-36.6281
 30
0.000000
  70
    32
  0
VERTEX
  8
SAPA_ANSLUTNING
  5
145C
 10
33.8382
 20
-36.3331
 30
0.000000
  70
    32
  0
VERTEX
  8
SAPA_ANSLUTNING
  5
145D
 10
33.7870
 20
-36.0336
 30
0.000000
  70
    32
  0
VERTEX
  8
SAPA_ANSLUTNING
  5
145E
 10
33.7449
 20
-35.7304
 30
0.000000
  70
    32
  0
VERTEX
  8
SAPA_ANSLUTNING
  5
145F
 10
33.7120
 20
-35.4243
 30
0.000000
  70
    32
  0
VERTEX
  8
SAPA_ANSLUTNING
  5
1460
 10
33.6885
 20
-35.1159
 30
0.000000
  70
    32
  0
VERTEX
  8
SAPA_ANSLUTNING
  5
1461
 10
33.6743
 20
-34.8060
 30
0.000000
  70
    32
  0
VERTEX
  8
SAPA_ANSLUTNING
  5
1462
 10
33.6696
 20
-34.4953
 30
0.000000
  70
    32
  0
VERTEX
  8
SAPA_ANSLUTNING
  5
1463
 10
33.6743
 20
-34.1847
 30
0.000000
  70
    32
  0
VERTEX
  8
SAPA_ANSLUTNING
  5
1464
 10
33.6885
 20
-33.8748
 30
0.000000
  70
    32
  0
VERTEX
  8
SAPA_ANSLUTNING
  5
1465
 10
33.7120
 20
-33.5664
 30
0.000000
  70
    32
  0
VERTEX
  8
SAPA_ANSLUTNING
  5
1466
 10
33.7449
 20
-33.2603
 30
0.000000
  70
    32
  0
VERTEX
  8
SAPA_ANSLUTNING
  5
1467
 10
33.7870
 20
-32.9571
 30
0.000000
  70
    32
  0
VERTEX
  8
SAPA_ANSLUTNING
  5
1468
 10
33.8382
 20
-32.6576
 30
0.000000
  70
    32
  0
VERTEX
  8
SAPA_ANSLUTNING
  5
1469
 10
33.8985
 20
-32.3625
 30
0.000000
  70
    32
  0
VERTEX
  8
SAPA_ANSLUTNING
  5
146A
 10
33.9676
 20
-32.0726
 30
0.000000
  70
    32
  0
VERTEX
  8
SAPA_ANSLUTNING
  5
146B
 10
34.0455
 20
-31.7886
 30
0.000000
  70
    32
  0
VERTEX
  8
SAPA_ANSLUTNING
  5
146C
 10
34.1319
 20
-31.5110
 30
0.000000
  70
    32
  0
VERTEX
  8
SAPA_ANSLUTNING
  5
146D
 10
34.2266
 20
-31.2406
 30
0.000000
  70
    32
  0
VERTEX
  8
SAPA_ANSLUTNING
  5
146E
 10
34.3294
 20
-30.9781
 30
0.000000
  70
    32
  0
VERTEX
  8
SAPA_ANSLUTNING
  5
146F
 10
34.4401
 20
-30.7241
 30
0.000000
  70
    32
  0
VERTEX
  8
SAPA_ANSLUTNING
  5
1470
 10
34.5583
 20
-30.4791
 30
0.000000
  70
    32
  0
VERTEX
  8
SAPA_ANSLUTNING
  5
1471
 10
34.6838
 20
-30.2438
 30
0.000000
  70
    32
  0
VERTEX
  8
SAPA_ANSLUTNING
  5
1472
 10
34.8163
 20
-30.0188
 30
0.000000
  70
    32
  0
VERTEX
  8
SAPA_ANSLUTNING
  5
1473
 10
34.9555
 20
-29.8045
 30
0.000000
  70
    32
  0
VERTEX
  8
SAPA_ANSLUTNING
  5
1474
 10
35.1010
 20
-29.6016
 30
0.000000
  70
    32
  0
VERTEX
  8
SAPA_ANSLUTNING
  5
1475
 10
35.2525
 20
-29.4104
 30
0.000000
  70
    32
  0
VERTEX
  8
SAPA_ANSLUTNING
  5
1476
 10
35.4096
 20
-29.2315
 30
0.000000
  70
    32
  0
VERTEX
  8
SAPA_ANSLUTNING
  5
1477
 10
35.5719
 20
-29.0652
 30
0.000000
  70
    32
  0
VERTEX
  8
SAPA_ANSLUTNING
  5
1478
 10
35.7391
 20
-28.9121
 30
0.000000
  70
    32
  0
VERTEX
  8
SAPA_ANSLUTNING
  5
1479
 10
35.9107
 20
-28.7723
 30
0.000000
  70
    32
  0
VERTEX
  8
SAPA_ANSLUTNING
  5
147A
 10
36.0864
 20
-28.6464
 30
0.000000
  70
    32
  0
VERTEX
  8
SAPA_ANSLUTNING
  5
147B
 10
36.2657
 20
-28.5346
 30
0.000000
  70
    32
  0
VERTEX
  8
SAPA_ANSLUTNING
  5
147C
 10
36.4482
 20
-28.4371
 30
0.000000
  70
    32
  0
VERTEX
  8
SAPA_ANSLUTNING
  5
147D
 10
36.6334
 20
-28.3542
 30
0.000000
  70
    32
  0
VERTEX
  8
SAPA_ANSLUTNING
  5
147E
 10
36.8208
 20
-28.2862
 30
0.000000
  70
    32
  0
VERTEX
  8
SAPA_ANSLUTNING
  5
147F
 10
37.0102
 20
-28.2330
 30
0.000000
  70
    32
  0
VERTEX
  8
SAPA_ANSLUTNING
  5
1480
 10
37.2009
 20
-28.1950
 30
0.000000
  70
    32
  0
VERTEX
  8
SAPA_ANSLUTNING
  5
1481
 10
37.3925
 20
-28.1721
 30
0.000000
  70
    32
  0
VERTEX
  8
SAPA_ANSLUTNING
  5
1482
 10
37.5846
 20
-28.1645
 30
0.000000
  70
    32
  0
SEQEND
  8
SAPA_ANSLUTNING
  5
1483
  0
POLYLINE
  5
71C
  8
SAPA_ANSLUTNING
 66
     1
 10
0.0
 20
0.0
 30
0.0
 70
     1
1001
ACAD
1000
ASC_BOUNDS
1002
{
1070
    19
1005
840
1002
}
  0
VERTEX
  5
C86
  8
SAPA_ANSLUTNING
 10
39.816280986019159
 20
-29.10892200340481
 30
0.0
  0
VERTEX
  5
C87
  8
SAPA_ANSLUTNING
 10
50.0
 20
-29.10892200340481
 30
0.0
 42
0.2555639183079869
  0
VERTEX
  5
C88
  8
SAPA_ANSLUTNING
 10
50.0
 20
-40.847668301638564
 30
0.0
  0
VERTEX
  5
C89
  8
SAPA_ANSLUTNING
 10
38.96166995449039
 20
-40.847668301638564
 30
0.0
 42
0.4156059628680393
  0
SEQEND
  5
C8A
  8
SAPA_ANSLUTNING
  0
POLYLINE
  5
73D
  8
SAPA_ANSLUTNING
 66
     1
 10
0.0
 20
0.0
 30
0.0
 70
     1
  0
VERTEX
  5
C8B
  8
SAPA_ANSLUTNING
 10
-80.000000000000256
 20
-41.0
 30
0.0
  0
VERTEX
  5
C8C
  8
SAPA_ANSLUTNING
 10
-60.00000000000027
 20
-41.0
 30
0.0
  0
VERTEX
  5
C8D
  8
SAPA_ANSLUTNING
 10
-60.00000000000027
 20
-111.0
 30
0.0
  0
VERTEX
  5
C8E
  8
SAPA_ANSLUTNING
 10
-80.000000000000256
 20
-111.0
 30
0.0
  0
SEQEND
  5
C8F
  8
SAPA_ANSLUTNING
  0
LINE
  5
73E
  8
SAPA_ANSLUTNING
 10
-80.000000000000256
 20
-111.0
 30
0.0
 11
-60.00000000000027
 21
-41.0
 31
0.0
  0
LINE
  5
73F
  8
SAPA_ANSLUTNING
 10
-60.00000000000027
 20
-111.0
 30
0.0
 11
-80.000000000000256
 21
-41.0
 31
0.0
  0
LINE
  5
74B
  8
SAPA_ANSLUTNING
 10
-104.9000000000002
 20
-111.6213203435596
 30
0.0
 11
-104.9000000000002
 21
38.036434493069763
 31
0.0
  0
LINE
  5
74D
  8
SAPA_ANSLUTNING
 10
-106.4000000000002
 20
-111.0
 30
0.0
 11
-106.4000000000002
 21
39.086745800384328
 31
0.0
  0
LINE
  5
74F
  8
SAPA_ANSLUTNING
 10
-106.4000000000002
 20
-111.0
 30
0.0
 11
-128.8789176925545
 21
-133.47891769255429
 31
0.0
  0
LINE
  5
750
  8
SAPA_ANSLUTNING
 10
-104.9000000000002
 20
-111.6213203435596
 30
0.0
 11
-127.81825752077469
 21
-134.53957786433409
 31
0.0
  0
LINE
  5
752
  8
SAPA_ANSLUTNING
 10
-107.5836841946265
 20
-122.79028591242449
 30
0.0
 11
-123.5756168336554
 21
-138.78221855145341
 31
0.0
  0
LINE
  5
753
  8
SAPA_ANSLUTNING
 10
-106.5230240228467
 20
-123.8509460842043
 30
0.0
 11
-122.5149566618756
 21
-139.84287872323321
 31
0.0
  0
ARC
  5
754
  8
SAPA_ANSLUTNING
 10
-125.69693717721501
 20
-136.66089820789369
 30
0.0
 40
3.000000000000004
 50
135.0000000000004
 51
314.99999999999977
  0
ARC
  5
755
  8
SAPA_ANSLUTNING
 10
-125.69693717721501
 20
-136.66089820789369
 30
0.0
 40
4.5000000000000062
 50
135.00000000000031
 51
314.99999999999989
  0
LINE
  5
757
  8
SAPA_ANSLUTNING
 10
-107.5836841946265
 20
-122.79028591242449
 30
0.0
 11
-106.5230240228467
 21
-123.8509460842043
 31
0.0
  0
LINE
  5
759
  8
SAPA_ANSLUTNING
 10
-80.100000000000264
 20
-111.0
 30
0.0
 11
-80.100000000000236
 21
-35.493008466234443
 31
0.0
  0
LINE
  5
75A
  8
SAPA_ANSLUTNING
 10
-81.600000000000264
 20
-111.0
 30
0.0
 11
-81.600000000000264
 21
-34.619956255945382
 31
0.0
  0
LINE
  5
75B
  8
SAPA_ANSLUTNING
 10
-81.600000000000264
 20
-111.0
 30
0.0
 11
-80.100000000000264
 21
-111.0
 31
0.0
  0
LINE
  5
75E
  8
SAPA_ANSLUTNING
 10
-80.100000000000236
 20
-35.493008466234443
 30
0.0
 11
-8.7568988893214783
 21
5.0325661289446657
 31
0.0
  0
LINE
  5
75F
  8
SAPA_ANSLUTNING
 10
-80.850000000000264
 20
-99.411388548478953
 30
0.0
 11
-80.850000000000264
 21
-89.411388548478953
 31
0.0
  0
ARC
  5
761
  8
SAPA_ANSLUTNING
 10
0.0
 20
-0.0000000000000002
 30
0.0
 40
10.100000000000041
 50
0.1169084134508354
 51
150.1141340101089
  0
ARC
  5
764
  8
SAPA_ANSLUTNING
 10
0.0
 20
-0.0000000000000002
 30
0.0
 40
11.400000000000039
 50
0.103576736810676
 51
145.98881995833639
  0
LINE
  5
765
  8
SAPA_ANSLUTNING
 10
10.09997897492782
 20
0.020608396753687
 30
0.0
 11
11.39998137252795
 21
0.020608396753687
 31
0.0
  0
ARC
  5
766
  8
SAPA_ANSLUTNING
 10
0.0
 20
-0.0000000000000002
 30
0.0
 40
10.750000000000041
 50
0.1169084134508354
 51
34.326769817923932
  0
LINE
  5
767
  8
SAPA_ANSLUTNING
 10
-6.4497915563033823
 20
9.4000100468158312
 30
0.0
 11
-5.7142890104091402
 21
8.3280790765649062
 31
0.0
  0
LINE
  5
76D
  8
SAPA_ANSLUTNING
 10
8.3409326200216434
 20
5.6955107785219541
 30
0.0
 11
9.4145180067570973
 21
6.4285963242723021
 31
0.0
  0
ARC
  5
76E
  8
SAPA_ANSLUTNING
 10
0.0
 20
-0.0000000000000002
 30
0.0
 40
10.750000000000041
 50
124.4558612119786
 51
147.9741470624692
  0
LINE
  5
774
  8
SAPA_ANSLUTNING
 10
-81.600000000000264
 20
-39.411388548478961
 30
0.0
 11
-80.100000000000236
 21
-39.411388548478961
 31
0.0
  0
LINE
  5
777
  8
SAPA_ANSLUTNING
 10
-81.600000000000165
 20
-59.411388548478961
 30
0.0
 11
-80.100000000000151
 21
-59.411388548478961
 31
0.0
  0
LINE
  5
778
  8
SAPA_ANSLUTNING
 10
-81.600000000000165
 20
-69.411388548478953
 30
0.0
 11
-80.100000000000151
 21
-69.411388548478953
 31
0.0
  0
LINE
  5
779
  8
SAPA_ANSLUTNING
 10
-81.600000000000165
 20
-89.411388548478953
 30
0.0
 11
-80.100000000000151
 21
-89.411388548478953
 31
0.0
  0
LINE
  5
77A
  8
SAPA_ANSLUTNING
 10
-81.600000000000165
 20
-99.411388548478953
 30
0.0
 11
-80.100000000000151
 21
-99.411388548478953
 31
0.0
  0
LINE
  5
77B
  8
SAPA_ANSLUTNING
 10
-80.850000000000264
 20
-69.411388548478953
 30
0.0
 11
-80.85000000000025
 21
-59.411388548478953
 31
0.0
  0
LINE
  5
77C
  8
SAPA_ANSLUTNING
 10
-80.85000000000025
 20
-39.411388548478961
 30
0.0
 11
-80.850000000000264
 21
-35.05648236108992
 31
0.0
  0
LINE
  5
77E
  8
SAPA_PROFIL
 10
-46.256840816064518
 20
26.795175483276189
 30
0.0
 11
-31.879543718040161
 21
32.028083676158921
 31
0.0
  0
LINE
  5
77F
  8
SAPA_PROFIL
 10
-37.706337232922799
 20
3.3028599636284812
 30
0.0
 11
-23.610947921134169
 21
8.4331621135135073
 31
0.0
  0
LINE
  5
781
  8
SAPA_PROFIL
 10
-37.706337232922799
 20
3.3028599636284799
 30
0.0
 11
-46.256840816064518
 21
26.7951754832762
 31
0.0
  0
LINE
  5
783
  8
SAPA_PROFIL
  6
DASHED
 10
-77.68032660685941
 20
-26.375685818082228
 30
0.0
 11
-28.870901098794018
 21
5.9423756660598421
 31
0.0
  0
LINE
  5
784
  8
SAPA_PROFIL
 10
-77.128249372108911
 20
-27.2094787941082
 30
0.0
 11
-28.318823864043519
 21
5.1085826900338711
 31
0.0
  0
LINE
  5
785
  8
SAPA_PROFIL
 10
-33.839596211548489
 20
13.44651245029358
 30
0.0
 11
-28.318823864043519
 21
5.1085826900338729
 31
0.0
  0
LINE
  5
786
  8
SAPA_PROFIL
 10
-82.649021719613856
 20
-18.871549033848488
 30
0.0
 11
-33.839596211548503
 21
13.44651245029358
 31
0.0
  0
LINE
  5
787
  8
SAPA_ANSLUTNING
 10
-94.569291094021665
 20
41.796505033714709
 30
0.0
 11
-84.673704977521538
 21
14.608605626361889
 31
0.0
  0
LINE
  5
78A
  8
SAPA_ANSLUTNING
 10
-19.58298618322927
 20
38.299689794475228
 30
0.0
 11
-19.06995596824078
 21
36.890150863296363
 31
0.0
  0
LINE
  5
78B
  8
SAPA_ANSLUTNING
 10
-29.478572299729159
 20
65.487589201828683
 30
0.0
 11
-29.991602514717648
 21
66.897128133007556
 31
0.0
  0
LINE
  5
78C
  8
SAPA_ANSLUTNING
 10
-19.58298618322927
 20
38.299689794475228
 30
0.0
 11
-45.175513341265521
 21
59.774369893677971
 31
0.0
  0
LINE
  5
78D
  8
SAPA_ANSLUTNING
 10
-50.976868266301771
 20
26.873251178174161
 30
0.0
 11
-45.175513341265521
 21
59.774369893677978
 31
0.0
  0
LINE
  5
78E
  8
SAPA_ANSLUTNING
 10
-50.976868266301771
 20
26.873251178174169
 30
0.0
 11
-76.569395424338012
 21
48.347931277376901
 31
0.0
  0
LINE
  5
78F
  8
SAPA_ANSLUTNING
 10
-82.370750349374234
 20
15.44681256187309
 30
0.0
 11
-76.569395424338012
 21
48.347931277376908
 31
0.0
  0
LINE
  5
790
  8
SAPA_ANSLUTNING
 10
-82.370750349374234
 20
15.4468125618731
 30
0.0
 11
-86.125521977083594
 21
18.597440049838891
 31
0.0
  0
LINE
  5
794
  8
SAPA_PROFIL
 10
14.54127174878359
 20
48.923878756446882
 30
0.0
 11
29.85826146759338
 21
54.498807092655099
 31
0.0
  0
LINE
  5
795
  8
SAPA_PROFIL
 10
35.344388134559424
 20
-7.3550724477099374
 30
0.0
 11
50.379470067133482
 21
-1.882750154499411
 31
0.0
  0
POLYLINE
  5
7E3
  8
SAPA_ANSLUTNING
 66
     1
 10
0.0
 20
0.0
 30
0.0
  0
VERTEX
  5
C90
  8
SAPA_ANSLUTNING
 10
33.152605253862021
 20
-29.0
 30
0.0
  0
VERTEX
  5
C91
  8
SAPA_ANSLUTNING
 10
-10.0
 20
-28.99999999999995
 30
0.0
  0
VERTEX
  5
C92
  8
SAPA_ANSLUTNING
 10
-10.0
 20
-41.0
 30
0.0
  0
VERTEX
  5
C93
  8
SAPA_ANSLUTNING
 10
33.152605253862021
 20
-41.0
 30
0.0
  0
SEQEND
  5
C94
  8
SAPA_ANSLUTNING
  0
LINE
  5
7E4
  8
SAPA_ANSLUTNING
 10
-10.0
 20
-41.0
 30
0.0
 11
33.152605253862021
 21
-32.369478949227563
 31
0.0
  0
LINE
  5
7E5
  8
SAPA_ANSLUTNING
 10
-10.0
 20
-29.0
 30
0.0
 11
33.152605253862021
 21
-37.630521050772401
 31
0.0
  0
INSERT
  5
840
  8
SAPA_ANSLUTNING
  6
CONTINUOUS
  2
*X38
 10
0.0
 20
0.0
 30
0.0
1001
ACAD
1000
HATCH
1002
{
1070
    19
1000
ANSI37
1040
0.25
1040
0.0
1000
ASC_BOUNDS
1070
     1
1070
     1
1070
     1
1005
71C
1000
ASC_SEEDPOINT
1011
44.745473362661862
1021
0.0
1031
0.0
1021
-34.417348731230497
1031
0.0
1000
R14_HATCH_DATA
1000
840
1011
1.0
1021
0.0
1031
0.0
1021
0.0
1031
0.0
1011
0.0
1021
0.0
1031
0.0
1021
1.0
1031
0.0
1011
0.0
1021
0.0
1031
0.0
1021
0.0
1031
1.0
1040
0.0
1010
0.0
1020
0.0
1030
1.0
1000
ANSI37
1070
     0
1070
     1
1071
        1
1071
        7
1070
     1
1070
     1
1071
        4
1040
38.96166995449039
1040
-40.847668301638564
1040
0.0
1040
50.0
1040
-40.847668301638564
1040
-0.2555639183079869
1040
50.0
1040
-29.10892200340481
1040
0.0
1040
39.816280986019159
1040
-29.10892200340481
1040
-0.4156059628680393
1071
        1
1005
71C
1070
     0
1070
     1
1040
0.0
1040
0.25
1070
     0
1070
     2
1040
0.7853981633974484
1040
40.0
1040
0.0000000000000071
1040
-0.5612660075668221
1040
0.5612660075668221
1070
     0
1040
2.3561944901923439
1040
40.0
1040
0.0000000000000071
1040
-0.5612660075668221
1040
-0.5612660075668221
1070
     0
1040
0.0556364402006135
1071
        1
1040
44.745473362661862
1040
-34.417348731230497
1040
0.0
1002
}
  0
INSERT
  5
896
  8
SAPA_ANSLUTNING
  6
CONTINUOUS
  2
*X39
 10
0.0
 20
0.0
 30
0.0
1001
ACAD
1000
HATCH
1002
{
1070
    19
1000
HEX
1040
0.25
1040
0.0
1000
ASC_BOUNDS
1070
     1
1070
     1
1070
     1
1005
710
1000
ASC_SEEDPOINT
1011
36.618688345708513
1021
0.0
1031
0.0
1021
-34.306078120403519
1031
0.0
1000
R14_HATCH_DATA
1000
896
1011
1.0
1021
0.0
1031
0.0
1021
0.0
1031
0.0
1011
0.0
1021
0.0
1031
0.0
1021
1.0
1031
0.0
1011
0.0
1021
0.0
1031
0.0
1021
0.0
1031
1.0
1040
0.0
1010
0.0
1020
0.0
1030
1.0
1000
HEX
1070
     0
1070
     1
1071
        1
1071
        5
1071
        1
1070
     3
1040
37.5846286308456
1040
-34.495330170724621
1040
0.0
1040
6.3308065583285043
1040
0.6184049131865891
1040
0.0
1040
6.2831853071795862
1070
     0
1071
        1
1005
710
1070
     0
1070
     1
1040
0.0
1040
0.25
1070
     0
1070
     3
1040
0.0000000000000001
1040
40.0
1040
0.0000000000000071
1040
0.0
1040
1.374814999999999
1070
     2
1040
0.79375
1040
-1.587499999999999
1040
2.0943951023931948
1040
40.0
1040
0.0000000000000071
1040
-1.190624715503902
1040
-0.6874074999999996
1070
     2
1040
0.7937499999999997
1040
-1.587499999999999
1040
1.047197551196597
1040
40.793750000000003
1040
0.0000000000000071
1040
-1.190624715503902
1040
0.6874075000000001
1070
     2
1040
0.7937499999999998
1040
-1.587499999999999
1040
0.0556364402006135
1071
        1
1040
36.618688345708513
1040
-34.306078120403519
1040
0.0
1002
}
  0
INSERT
  5
899
  8
0
  2
*U40
 10
0.0
 20
0.0
 30
0.0
  0
INSERT
  5
89A
  8
0
  2
*U41
 10
0.0
 20
0.0
 30
0.0
  0
INSERT
  5
89B
  8
0
  2
*U42
 10
0.0
 20
0.0
 30
0.0
  0
INSERT
  5
89C
  8
0
  2
*U43
 10
0.0
 20
0.0
 30
0.0
  0
INSERT
  5
89D
  8
0
  2
*U44
 10
0.0
 20
0.0
 30
0.0
  0
LINE
  5
8A4
  8
SAPA_PROFIL
 10
-82.649021719613856
 20
-18.871549033848499
 30
0.0
 11
-77.128249372108925
 21
-27.209478794108179
 31
0.0
  0
LINE
  5
8A5
  8
SAPA_ANSLUTNING
 10
-80.850000000000264
 20
-35.05648236108992
 30
0.0
 11
-77.917521486483395
 21
-33.390723865900263
 31
0.0
  0
LINE
  5
8A6
  8
SAPA_ANSLUTNING
 10
-81.600000000000264
 20
-34.619956255945382
 30
0.0
 11
-9.4977709495374736
 21
6.3368316657090578
 31
0.0
  0
LINE
  5
8A7
  8
SAPA_ANSLUTNING
 10
-77.547085456375399
 20
-34.042856634282458
 30
0.0
 11
-78.287957516591391
 21
-32.738591097518068
 31
0.0
  0
LINE
  5
8A8
  8
SAPA_ANSLUTNING
 10
-60.156878299516841
 20
-24.16456249806922
 30
0.0
 11
-60.897750359732818
 21
-22.860296961304829
 31
0.0
  0
LINE
  5
8A9
  8
SAPA_ANSLUTNING
 10
-51.461774721087551
 20
-19.225415429962592
 30
0.0
 11
-52.202646781303542
 21
-17.921149893198201
 31
0.0
  0
LINE
  5
8AA
  8
SAPA_ANSLUTNING
 10
-34.071567564228992
 20
-9.3471212937493533
 30
0.0
 11
-34.812439624444977
 21
-8.042855756984963
 31
0.0
  0
LINE
  5
8AB
  8
SAPA_ANSLUTNING
 10
-25.376463985799699
 20
-4.4079742256427323
 30
0.0
 11
-26.117336046015701
 21
-3.1037086888783421
 31
0.0
  0
LINE
  5
8AC
  8
SAPA_ANSLUTNING
 10
-13.28859484440334
 20
4.1835005918292394
 30
0.0
 11
-12.547722784187339
 21
2.879235055064854
 31
0.0
  0
LINE
  5
8AD
  8
SAPA_ANSLUTNING
 10
-12.918158814295341
 20
3.5313678234470451
 30
0.0
 11
-9.1273349194294742
 21
5.6846988973268617
 31
0.0
  0
LINE
  5
8AE
  8
SAPA_ANSLUTNING
 10
-34.442003594337031
 20
-8.69498852536708
 30
0.0
 11
-25.746900015907752
 21
-3.7558414572604439
 31
0.0
  0
LINE
  5
8AF
  8
SAPA_ANSLUTNING
 10
-60.527314329624851
 20
-23.512429729686989
 30
0.0
 11
-51.832210751195582
 21
-18.573282661580361
 31
0.0
  0
LINE
  5
8B0
  8
SAPA_ANSLUTNING
 10
-84.673704977521538
 20
14.608605626361889
 30
0.0
 11
-84.160674762533048
 21
13.19906669518303
 31
0.0
  0
LINE
  5
8B2
  8
SAPA_ANSLUTNING
 10
-60.00000000000027
 20
-41.0
 30
0.0
 11
-60.00000000000027
 21
-173.07351899760579
 31
0.0
  0
POLYLINE
  5
8B3
  8
SAPA_LIGHT
 66
     1
 10
0.0
 20
0.0
 30
0.0
  0
VERTEX
  5
D23
  8
SAPA_LIGHT
 10
23.373683118161601
 20
25.534169279795972
 30
0.0
  0
VERTEX
  5
D24
  8
SAPA_LIGHT
 10
-23.610947921133839
 20
8.4331621135125374
 30
0.0
  0
VERTEX
  5
D25
  8
SAPA_LIGHT
 10
-32.225652659243131
 20
32.101868856737269
 30
0.0
  0
VERTEX
  5
D26
  8
SAPA_LIGHT
 10
-13.431800243525171
 20
38.942271723250563
 30
0.0
  0
VERTEX
  5
D27
  8
SAPA_LIGHT
 10
-24.353446790002451
 20
68.949248992961458
 30
0.0
  0
VERTEX
  5
D28
  8
SAPA_LIGHT
 10
-40.232069383629842
 20
63.169903007734248
 30
0.0
  0
VERTEX
  5
D29
  8
SAPA_LIGHT
 10
-44.295107988514161
 20
74.333009829026366
 30
0.0
  0
VERTEX
  5
D2A
  8
SAPA_LIGHT
 10
-3.1409365934002831
 20
89.311903232737407
 30
0.0
  0
VERTEX
  5
D2B
  8
SAPA_LIGHT
 10
1.5240574637364761
 20
76.49493739886428
 30
0.0
  0
VERTEX
  5
D2C
  8
SAPA_LIGHT
 10
-14.354565129891069
 20
70.715591413637028
 30
0.0
  0
VERTEX
  5
D2D
  8
SAPA_LIGHT
 10
-5.8040615467484571
 20
47.22327589398688
 30
0.0
  0
VERTEX
  5
D2E
  8
SAPA_LIGHT
 10
12.98979086896982
 20
54.063678760500309
 30
0.0
  0
VERTEX
  5
D2F
  8
SAPA_LIGHT
 10
23.373683118161608
 20
25.534169279795979
 30
0.0
  0
SEQEND
  5
D30
  8
SAPA_LIGHT
  0
POLYLINE
  5
8B5
  8
SAPA_LIGHT
 66
     1
 10
0.0
 20
0.0
 30
0.0
  0
VERTEX
  5
D31
  8
SAPA_LIGHT
 10
19.474369218401659
 20
83.028316573361167
 30
0.0
  0
VERTEX
  5
D32
  8
SAPA_LIGHT
 10
-8.7164094051755718
 20
72.767712273591044
 30
0.0
  0
VERTEX
  5
D33
  8
SAPA_LIGHT
 10
-0.1659058220335301
 20
49.275396753940718
 30
0.0
  0
VERTEX
  5
D34
  8
SAPA_LIGHT
 10
28.024872801543541
 20
59.536001053711082
 30
0.0
  0
SEQEND
  5
D35
  8
SAPA_LIGHT
  0
POLYLINE
  5
8B6
  8
SAPA_LIGHT
 66
     1
 10
0.0
 20
0.0
 30
0.0
  0
VERTEX
  5
D36
  8
SAPA_LIGHT
 10
-23.610947921134191
 20
8.4331621135135055
 30
0.0
  0
VERTEX
  5
D37
  8
SAPA_LIGHT
 10
-10.0
 20
-28.99999999999995
 30
0.0
  0
VERTEX
  5
D38
  8
SAPA_LIGHT
 10
50.0
 20
-28.99999999999994
 30
0.0
  0
VERTEX
  5
D39
  8
SAPA_LIGHT
 10
50.0
 20
-25.99999999999994
 30
0.0
  0
VERTEX
  5
D3A
  8
SAPA_LIGHT
 10
43.071796769724408
 20
-21.99999999999994
 30
0.0
  0
VERTEX
  5
D3B
  8
SAPA_LIGHT
 10
35.587383134146997
 20
-8.0226957221172288
 30
0.0
  0
VERTEX
  5
D3C
  8
SAPA_LIGHT
 10
23.373683118161608
 20
25.534169279795979
 30
0.0
  0
VERTEX
  5
D3D
  8
SAPA_LIGHT
 10
-23.610947921134191
 20
8.4331621135135038
 30
0.0
  0
SEQEND
  5
D3E
  8
SAPA_LIGHT
  0
TEXT
  5
AA5
  8
SAPA_TEXT
 10
52.367137191603803
 20
-5.655470125190277
 30
0.0
 40
3.5
  1
min 20°
  7
ISO
  0
TEXT
  5
AA6
  8
SAPA_TEXT
 10
52.367137191603803
 20
-11.488803458523609
 30
0.0
 40
3.5
  1
max 60°
  7
ISO
  0
ARC
  5
AA8
  8
SAPA_FOGBAND
 10
-35.878749920064458
 20
69.921604242959461
 30
0.0
 40
0.1999999999999072
 50
199.999999999956
 51
289.99999999997408
  0
LINE
  5
AA9
  8
SAPA_FOGBAND
 10
-35.81034589139945
 20
69.733665718802342
 30
0.0
 11
-31.178103919138959
 21
71.419663914623499
 31
0.0
  0
ARC
  5
AAA
  8
SAPA_FOGBAND
 10
-30.836083775812991
 20
70.479971293837664
 30
0.0
 40
1.0000000000000331
 50
50.345472579278429
 51
110.00000000001771
  0
LINE
  5
AAB
  8
SAPA_FOGBAND
 10
-30.197926790459508
 20
71.249877562187663
 30
0.0
 11
-26.121399420673569
 21
68.383498113103641
 31
0.0
  0
ARC
  5
AAC
  8
SAPA_FOGBAND
 10
-26.759556406028061
 20
67.613591844755334
 30
0.0
 40
0.999999999999359
 50
38.241841344460553
 51
50.345472579172032
  0
ARC
  5
AAD
  8
SAPA_FOGBAND
 10
-27.114609490738051
 20
67.415801993696277
 30
0.0
 40
1.402769144204514
 50
341.85707667742992
 51
35.609435779333097
  0
ARC
  5
AAE
  8
SAPA_FOGBAND
 10
-25.96802737040365
 20
67.051371350241425
 30
0.0
 40
0.2000000000000674
 50
245.81623060075091
 51
338.78447689250982
  0
LINE
  5
AAF
  8
SAPA_FOGBAND
 10
-26.04996029727608
 20
66.868924109938519
 30
0.0
 11
-30.154590144123901
 21
67.757890540310754
 31
0.0
  0
ARC
  5
AB0
  8
SAPA_FOGBAND
 10
-30.574781888409539
 20
66.85045519934468
 30
0.0
 40
1.0000000000000091
 50
65.153306302305964
 51
109.9999999999926
  0
LINE
  5
AB1
  8
SAPA_FOGBAND
 10
-30.916802031735092
 20
67.790147820130642
 30
0.0
 11
-31.028304065967699
 21
67.749564398610076
 31
0.0
  0
ARC
  5
AB2
  8
SAPA_FOGBAND
 10
-30.68628392264198
 20
66.809871777824029
 30
0.0
 40
1.0000000000001461
 50
109.9999999999998
 51
157.10585874597189
  0
LINE
  5
AB3
  8
SAPA_FOGBAND
 10
-31.607509113030702
 20
67.198901530662511
 30
0.0
 11
-35.104686668553533
 21
65.265568846729096
 31
0.0
  0
LINE
  5
AB4
  8
SAPA_FOGBAND
 10
-35.104686668553533
 20
65.265568846729096
 30
0.0
 11
-35.748523397883801
 21
65.418093764602517
 31
0.0
  0
LINE
  5
AB5
  8
SAPA_FOGBAND
 10
-35.748523397883801
 20
65.418093764602517
 30
0.0
 11
-32.978766270882147
 21
67.487695462882527
 31
0.0
  0
ARC
  5
AB6
  8
SAPA_FOGBAND
 10
-33.272079246382752
 20
67.550683544318758
 30
0.0
 40
0.3000000000000596
 50
347.87997593854828
 51
116.95295746820651
  0
LINE
  5
AB7
  8
SAPA_FOGBAND
 10
-33.40805688293446
 20
67.818097235736843
 30
0.0
 11
-35.957040964221143
 21
66.521960044171465
 31
0.0
  0
ARC
  5
AB8
  8
SAPA_FOGBAND
 10
-35.821063327669748
 20
66.254546352753422
 30
0.0
 40
0.2999999999998788
 50
116.952957468157
 51
199.99999999998539
  0
LINE
  5
AB9
  8
SAPA_FOGBAND
 10
-36.102971113905447
 20
66.15194030975583
 30
0.0
 11
-36.022814320938458
 21
65.931711331063156
 31
0.0
  0
ARC
  5
ABA
  8
SAPA_FOGBAND
 10
-36.304722107174278
 20
65.829105288065705
 30
0.0
 40
0.2999999999999572
 50
289.99999999995578
 51
19.999999999955062
  0
LINE
  5
ABB
  8
SAPA_FOGBAND
 10
-36.202116064176813
 20
65.547197501829885
 30
0.0
 11
-40.479334775783421
 21
63.990417205358632
 31
0.0
  0
LINE
  5
ABC
  8
SAPA_FOGBAND
 10
-40.479334775783421
 20
63.990417205358632
 30
0.0
 11
-46.246610421431782
 21
61.336123954711432
 31
0.0
  0
LINE
  5
ABD
  8
SAPA_FOGBAND
 10
-46.246610421431782
 20
61.336123954711432
 30
0.0
 11
-46.246610421431782
 21
61.336123954711432
 31
0.0
  0
LINE
  5
ABE
  8
SAPA_FOGBAND
 10
-46.246610421431782
 20
61.336123954711432
 30
0.0
 11
-46.941436263851728
 21
61.526269417961323
 31
0.0
  0
ARC
  5
ABF
  8
SAPA_FOGBAND
 10
-68.172788036596955
 20
56.988139071513473
 30
0.0
 40
21.710940217765859
 50
12.06522376247934
 51
15.369664331739591
  0
LINE
  5
AC0
  8
SAPA_FOGBAND
 10
-47.238320713273353
 20
62.742528963422011
 30
0.0
 11
-42.985866714361123
 21
66.057811951411296
 31
0.0
  0
LINE
  5
AC1
  8
SAPA_FOGBAND
 10
-42.985866714361123
 20
66.057811951411296
 30
0.0
 11
-43.61860397951358
 21
67.796243299865139
 31
0.0
  0
ARC
  5
AC2
  8
SAPA_FOGBAND
 10
-43.477650086395613
 20
67.847546321364021
 30
0.0
 40
0.1500000000000797
 50
109.9999999999981
 51
200.00000000000159
  0
LINE
  5
AC3
  8
SAPA_FOGBAND
 10
-43.528953107894488
 20
67.988500214481988
 30
0.0
 11
-42.480076733223008
 21
68.37025999428721
 31
0.0
  0
ARC
  5
AC4
  8
SAPA_FOGBAND
 10
-42.428773711724311
 20
68.229306101169556
 30
0.0
 40
0.1499999999997319
 50
26.530215321818869
 51
109.9999999999778
  0
LINE
  5
AC5
  8
SAPA_FOGBAND
 10
-42.29456887197005
 20
68.296306556290801
 30
0.0
 11
-41.964519181673921
 21
67.635202602341451
 31
0.0
  0
ARC
  5
AC6
  8
SAPA_FOGBAND
 10
-41.830314341919532
 20
67.702203057463024
 30
0.0
 40
0.1499999999999971
 50
206.53021532190749
 51
290.0000000000627
  0
LINE
  5
AC7
  8
SAPA_FOGBAND
 10
-41.77901132042053
 20
67.561249164345199
 30
0.0
 11
-38.629423753757251
 21
68.707605288825548
 31
0.0
  0
ARC
  5
AC8
  8
SAPA_FOGBAND
 10
-38.697827782422202
 20
68.895543812982851
 30
0.0
 40
0.2000000000000492
 50
289.99999999993679
 51
19.999999999936861
  0
LINE
  5
AC9
  8
SAPA_FOGBAND
 10
-38.509889258264892
 20
68.963947841647794
 30
0.0
 11
-38.783505372925831
 21
69.715701938276311
 31
0.0
  0
ARC
  5
ACA
  8
SAPA_FOGBAND
 10
-38.595566848768463
 20
69.784105966941397
 30
0.0
 40
0.2000000000001579
 50
109.9999999999681
 51
199.99999999996879
  0
LINE
  5
ACB
  8
SAPA_FOGBAND
 10
-38.663970877433549
 20
69.972044491098771
 30
0.0
 11
-38.288093829119099
 21
70.10885254842907
 31
0.0
  0
ARC
  5
ACC
  8
SAPA_FOGBAND
 10
-38.356497857784291
 20
70.296791072586132
 30
0.0
 40
0.1999999999999048
 50
290.00000000002558
 51
20.000000000042949
  0
LINE
  5
ACD
  8
SAPA_FOGBAND
 10
-38.168559333627243
 20
70.365195101251373
 30
0.0
 11
-38.535067711643777
 21
71.372168593892724
 31
0.0
  0
ARC
  5
ACE
  8
SAPA_FOGBAND
 10
-38.629036973722393
 20
71.337966579560202
 30
0.0
 40
0.1000000000000015
 50
19.99999999997198
 51
160.55544447106499
  0
LINE
  5
ACF
  8
SAPA_FOGBAND
 10
-38.723333380799389
 20
71.371256031528773
 30
0.0
 11
-39.149782169671028
 21
70.163288155368264
 31
0.0
  0
ARC
  5
AD0
  8
SAPA_FOGBAND
 10
-39.526967797979133
 20
70.296445963242363
 30
0.0
 40
0.4000000000000126
 50
160.5554444710985
 51
340.55544447109401
  0
LINE
  5
AD1
  8
SAPA_FOGBAND
 10
-39.904153426287237
 20
70.429603771116433
 30
0.0
 11
-39.30494329085424
 21
72.126939098503129
 31
0.0
  0
ARC
  5
AD2
  8
SAPA_FOGBAND
 10
-38.126238202391633
 20
71.710820948896696
 30
0.0
 40
1.2499999999998159
 50
109.999999999991
 51
160.55544447109651
  0
ARC
  5
AD3
  8
SAPA_FOGBAND
 10
-38.126238202391242
 20
71.710820948896824
 30
0.0
 40
1.249999999999825
 50
59.444555528904552
 51
110.0000000000099
  0
LINE
  5
AD4
  8
SAPA_FOGBAND
 10
-37.490773310031109
 20
72.787242971422046
 30
0.0
 11
-35.940725597594671
 21
71.87217352642287
 31
0.0
  0
ARC
  5
AD5
  8
SAPA_FOGBAND
 10
-36.144074363149969
 20
71.527718479214755
 30
0.0
 40
0.4000000000000099
 50
239.44455552890719
 51
59.4445555289007
  0
LINE
  5
AD6
  8
SAPA_FOGBAND
 10
-36.347423128705231
 20
71.183263432006612
 30
0.0
 11
-37.450568637390518
 21
71.834504513353068
 31
0.0
  0
ARC
  5
AD7
  8
SAPA_FOGBAND
 10
-37.501405828779291
 20
71.748390751551014
 30
0.0
 40
0.0999999999999977
 50
59.444555528933357
 51
200.00000000003249
  0
LINE
  5
AD8
  8
SAPA_FOGBAND
 10
-37.595375090857871
 20
71.714188737218393
 30
0.0
 11
-37.228866712841409
 21
70.707215244577242
 31
0.0
  0
ARC
  5
AD9
  8
SAPA_FOGBAND
 10
-37.040928188684241
 20
70.775619273242299
 30
0.0
 40
0.1999999999999612
 50
199.9999999999807
 51
289.99999999995998
  0
LINE
  5
ADA
  8
SAPA_FOGBAND
 10
-36.972524160019248
 20
70.587680749085095
 30
0.0
 11
-36.596647111704719
 21
70.724488806415181
 31
0.0
  0
ARC
  5
ADB
  8
SAPA_FOGBAND
 10
-36.528243083039349
 20
70.536550282258034
 30
0.0
 40
0.2000000000000348
 50
20.00000000006381
 51
110.0000000000683
  0
LINE
  5
ADC
  8
SAPA_FOGBAND
 10
-36.34030455888221
 20
70.604954310923404
 30
0.0
 11
-36.066688444221612
 21
69.853200214294503
 31
0.0
  0
POLYLINE
  5
BFD
  8
SAPA_PROFIL
 66
     1
 10
0.0
 20
0.0
 30
0.0
 70
     1
  0
VERTEX
  5
1159
  8
SAPA_PROFIL
 10
-84.700000000000273
 20
-85.000000000000028
 30
0.0
  0
VERTEX
  5
115A
  8
SAPA_PROFIL
 10
-84.700000000000273
 20
-109.0
 30
0.0
 42
0.4142135623730951
  0
VERTEX
  5
115B
  8
SAPA_PROFIL
 10
-82.700000000000273
 20
-111.0
 30
0.0
  0
VERTEX
  5
115C
  8
SAPA_PROFIL
 10
-81.700000000000287
 20
-111.0
 30
0.0
  0
VERTEX
  5
115D
  8
SAPA_PROFIL
 10
-81.700000000000287
 20
-81.000000000000057
 30
0.0
  0
VERTEX
  5
115E
  8
SAPA_PROFIL
 10
-100.7000000000003
 20
-81.000000000000057
 30
0.0
 42
-0.4142135623730951
  0
VERTEX
  5
115F
  8
SAPA_PROFIL
 10
-101.7000000000003
 20
-80.000000000000057
 30
0.0
  0
VERTEX
  5
1160
  8
SAPA_PROFIL
 10
-101.7000000000003
 20
-56.000000000000028
 30
0.0
 42
0.4142135623730951
  0
VERTEX
  5
1161
  8
SAPA_PROFIL
 10
-103.7000000000003
 20
-54.000000000000028
 30
0.0
  0
VERTEX
  5
1162
  8
SAPA_PROFIL
 10
-104.7000000000003
 20
-54.000000000000028
 30
0.0
  0
VERTEX
  5
1163
  8
SAPA_PROFIL
 10
-104.7000000000003
 20
-84.000000000000028
 30
0.0
  0
VERTEX
  5
1164
  8
SAPA_PROFIL
 10
-85.700000000000259
 20
-84.000000000000028
 30
0.0
 42
-0.4142135623730951
  0
SEQEND
  5
1165
  8
SAPA_PROFIL
  0
POLYLINE
  5
BFE
  8
SAPA_PROFIL
 66
     1
 10
0.0
 20
0.0
 30
0.0
 70
     1
  0
VERTEX
  5
1166
  8
SAPA_PROFIL
 10
-44.162112619224473
 20
73.581200330660295
 30
0.0
 42
0.5773502691895968
  0
VERTEX
  5
1167
  8
SAPA_PROFIL
 10
-43.605260129699133
 20
72.051260689723662
 30
0.0
  0
VERTEX
  5
1168
  8
SAPA_PROFIL
 10
-42.63426980960562
 20
71.880048884873844
 30
0.0
  0
VERTEX
  5
1169
  8
SAPA_PROFIL
 10
-43.024644146963531
 20
69.666126002570635
 30
0.0
  0
VERTEX
  5
116A
  8
SAPA_PROFIL
 10
-44.152275291906548
 20
69.255701830579866
 30
0.0
 42
0.4142135623729286
  0
VERTEX
  5
116B
  8
SAPA_PROFIL
 10
-44.33157703514474
 20
68.871188001346525
 30
0.0
  0
VERTEX
  5
116C
  8
SAPA_PROFIL
 10
-44.194768977814448
 20
68.495310953032075
 30
0.0
 42
0.4142135623732059
  0
VERTEX
  5
116D
  8
SAPA_PROFIL
 10
-43.810255148580879
 20
68.316009209793961
 30
0.0
  0
VERTEX
  5
116E
  8
SAPA_PROFIL
 10
-42.586472043904941
 20
68.76142983309424
 30
0.0
 42
-0.4142135623731506
  0
VERTEX
  5
116F
  8
SAPA_PROFIL
 10
-42.201958214671258
 20
68.582128089856184
 30
0.0
  0
VERTEX
  5
1170
  8
SAPA_PROFIL
 10
-42.00357302823236
 20
68.037069269760977
 30
0.0
 42
0.4142135623730951
  0
VERTEX
  5
1171
  8
SAPA_PROFIL
 10
-41.619059198998897
 20
67.857767526522821
 30
0.0
  0
VERTEX
  5
1172
  8
SAPA_PROFIL
 10
-39.356519652015741
 20
68.681264575474813
 30
0.0
  0
VERTEX
  5
1173
  8
SAPA_PROFIL
 10
-38.969689285427251
 20
69.31028623906036
 30
0.0
 42
0.7105995015649727
  0
VERTEX
  5
1174
  8
SAPA_PROFIL
 10
-39.327839938400651
 20
69.749346665466106
 30
0.0
  0
VERTEX
  5
1175
  8
SAPA_PROFIL
 10
-39.985624772950622
 20
69.5099325651382
 30
0.0
  0
VERTEX
  5
1176
  8
SAPA_PROFIL
 10
-40.911179225653342
 20
72.052872524414312
 30
0.0
 42
-0.4142135623731506
  0
VERTEX
  5
1177
  8
SAPA_PROFIL
 10
-40.731877482415229
 20
72.437386353647881
 30
0.0
  0
VERTEX
  5
1178
  8
SAPA_PROFIL
 10
-36.597229950957619
 20
73.9422749842808
 30
0.0
 42
-0.4142135623730951
  0
VERTEX
  5
1179
  8
SAPA_PROFIL
 10
-36.21271612172395
 20
73.762973241042729
 30
0.0
  0
VERTEX
  5
117A
  8
SAPA_PROFIL
 10
-35.287161669021287
 20
71.220033281766476
 30
0.0
  0
VERTEX
  5
117B
  8
SAPA_PROFIL
 10
-35.944946503571288
 20
70.980619181438669
 30
0.0
 42
0.7105995015650586
  0
VERTEX
  5
117C
  8
SAPA_PROFIL
 10
-35.937083219083839
 20
70.414064579464707
 30
0.0
  0
VERTEX
  5
117D
  8
SAPA_PROFIL
 10
-35.236426634751467
 20
70.18085579616681
 30
0.0
  0
VERTEX
  5
117E
  8
SAPA_PROFIL
 10
-27.290929429668299
 20
73.072780275262502
 30
0.0
  0
VERTEX
  5
117F
  8
SAPA_PROFIL
 10
-26.94890928634263
 20
72.133087654476583
 30
0.0
  0
VERTEX
  5
1180
  8
SAPA_PROFIL
 10
-26.009216665556721
 20
72.475107797802252
 30
0.0
  0
VERTEX
  5
1181
  8
SAPA_PROFIL
 10
-26.351236808882391
 20
73.414800418588172
 30
0.0
  0
VERTEX
  5
1182
  8
SAPA_PROFIL
 10
-23.579143577564029
 20
74.423759841398862
 30
0.0
  0
VERTEX
  5
1183
  8
SAPA_PROFIL
 10
-23.921163720889691
 20
75.363452462184767
 30
0.0
  0
VERTEX
  5
1184
  8
SAPA_PROFIL
 10
-22.13574774139655
 20
76.013290734503386
 30
0.0
  0
VERTEX
  5
1185
  8
SAPA_PROFIL
 10
-21.83691150266618
 20
76.654147116559159
 30
0.0
  0
VERTEX
  5
1186
  8
SAPA_PROFIL
 10
-21.196055120610112
 20
76.355310877829254
 30
0.0
  0
VERTEX
  5
1187
  8
SAPA_PROFIL
 10
-19.41063914111712
 20
77.005149150147915
 30
0.0
  0
VERTEX
  5
1188
  8
SAPA_PROFIL
 10
-19.068618997791489
 20
76.065456529362137
 30
0.0
  0
VERTEX
  5
1189
  8
SAPA_PROFIL
 10
-16.296525766473021
 20
77.07441595217287
 30
0.0
  0
VERTEX
  5
118A
  8
SAPA_PROFIL
 10
-15.95450562314735
 20
76.134723331386965
 30
0.0
  0
VERTEX
  5
118B
  8
SAPA_PROFIL
 10
-15.014813002361439
 20
76.476743474712634
 30
0.0
  0
VERTEX
  5
118C
  8
SAPA_PROFIL
 10
-15.35683314568711
 20
77.416436095498526
 30
0.0
  0
VERTEX
  5
118D
  8
SAPA_PROFIL
 10
-7.4113359406037427
 20
80.308360574594062
 30
0.0
  0
VERTEX
  5
118E
  8
SAPA_PROFIL
 10
-7.0245055740152971
 20
80.937382238180064
 30
0.0
 42
0.7105995015650586
  0
VERTEX
  5
118F
  8
SAPA_PROFIL
 10
-7.3826562269886571
 20
81.376442664585696
 30
0.0
  0
VERTEX
  5
1190
  8
SAPA_PROFIL
 10
-8.0404410615385835
 20
81.13702856425769
 30
0.0
  0
VERTEX
  5
1191
  8
SAPA_PROFIL
 10
-8.9659955142412482
 20
83.679968523533944
 30
0.0
 42
-0.4142135623730951
  0
VERTEX
  5
1192
  8
SAPA_PROFIL
 10
-8.7866937710031365
 20
84.064482352767513
 30
0.0
  0
VERTEX
  5
1193
  8
SAPA_PROFIL
 10
-4.652046239545335
 20
85.569370983400276
 30
0.0
 42
-0.4142135623731506
  0
VERTEX
  5
1194
  8
SAPA_PROFIL
 10
-4.2675324103118806
 20
85.390069240162106
 30
0.0
  0
VERTEX
  5
1195
  8
SAPA_PROFIL
 10
-3.3419779576093629
 20
82.847129280885923
 30
0.0
  0
VERTEX
  5
1196
  8
SAPA_PROFIL
 10
-3.9997627921593661
 20
82.607715180558131
 30
0.0
 42
0.7105995015649949
  0
VERTEX
  5
1197
  8
SAPA_PROFIL
 10
-3.9918995076717301
 20
82.041160578583984
 30
0.0
  0
VERTEX
  5
1198
  8
SAPA_PROFIL
 10
-3.2912429233397411
 20
81.807951795286414
 30
0.0
  0
VERTEX
  5
1199
  8
SAPA_PROFIL
 10
-1.0287033763565789
 20
82.631448844238435
 30
0.0
 42
0.4142135623730951
  0
VERTEX
  5
119A
  8
SAPA_PROFIL
 10
-0.8494016331184672
 20
83.015962673471975
 30
0.0
  0
VERTEX
  5
119B
  8
SAPA_PROFIL
 10
-1.047786819557377
 20
83.561021493567196
 30
0.0
 42
-0.4142135623731506
  0
VERTEX
  5
119C
  8
SAPA_PROFIL
 10
-0.8684850763192635
 20
83.945535322800765
 30
0.0
  0
VERTEX
  5
119D
  8
SAPA_PROFIL
 10
0.3552980283570273
 20
84.390955946100433
 30
0.0
 42
0.414213562373206
  0
VERTEX
  5
119E
  8
SAPA_PROFIL
 10
0.5345997715950324
 20
84.77546977533396
 30
0.0
  0
VERTEX
  5
119F
  8
SAPA_PROFIL
 10
0.3977917142647342
 20
85.15134682364841
 30
0.0
 42
0.4142135623729286
  0
VERTEX
  5
11A0
  8
SAPA_PROFIL
 10
0.0132778850313589
 20
85.330648566886353
 30
0.0
  0
VERTEX
  5
11A1
  8
SAPA_PROFIL
 10
-1.1143532599117729
 20
84.920224394895541
 30
0.0
  0
VERTEX
  5
11A2
  8
SAPA_PROFIL
 10
-2.8364795493269508
 20
86.365259929184646
 30
0.0
  0
VERTEX
  5
11A3
  8
SAPA_PROFIL
 10
-2.2027106370866378
 20
87.120556327767844
 30
0.0
 42
0.5773502691896019
  0
VERTEX
  5
11A4
  8
SAPA_PROFIL
 10
-2.7595631266111198
 20
88.650495968704789
 30
0.0
  0
VERTEX
  5
11A5
  8
SAPA_PROFIL
 10
-3.9767507551657628
 20
88.865118974793063
 30
0.0
 42
0.1316524948697527
  0
VERTEX
  5
11A6
  8
SAPA_PROFIL
 10
-4.4924190656352501
 20
88.820003840711308
 30
0.0
  0
VERTEX
  5
11A7
  8
SAPA_PROFIL
 10
-42.943625516279333
 20
74.82490922105228
 30
0.0
 42
0.1316524948697533
  0
VERTEX
  5
11A8
  8
SAPA_PROFIL
 10
-43.367649809204252
 20
74.528004218138392
 30
0.0
  0
SEQEND
  5
11A9
  8
SAPA_PROFIL
  0
POLYLINE
  5
BFF
  8
SAPA_PROFIL
 62
     4
 66
     1
 10
0.0
 20
0.0
 30
0.0
 70
     1
  0
VERTEX
  5
11AA
  8
SAPA_PROFIL
 62
     4
 10
-14.315751411929471
 20
52.627554538969427
 30
0.0
  0
VERTEX
  5
11AB
  8
SAPA_PROFIL
 62
     4
 10
-13.56330709661299
 20
50.560230773240391
 30
0.0
 42
1.0
  0
VERTEX
  5
11AC
  8
SAPA_PROFIL
 62
     4
 10
-11.402014068805441
 20
51.346877102889408
 30
0.0
  0
VERTEX
  5
11AD
  8
SAPA_PROFIL
 62
     4
 10
-12.154458384121821
 20
53.414200868618487
 30
0.0
 42
1.0
  0
SEQEND
  5
11AE
  8
SAPA_PROFIL
 62
     4
  0
POLYLINE
  5
C00
  8
SAPA_PROFIL
 62
     4
 66
     1
 10
0.0
 20
0.0
 30
0.0
 70
     1
  0
VERTEX
  5
11AF
  8
SAPA_PROFIL
 62
     4
 10
-22.175480552553211
 20
65.889140335397769
 30
0.0
  0
VERTEX
  5
11B0
  8
SAPA_PROFIL
 62
     4
 10
-23.218926601429139
 20
68.755984793103536
 30
0.0
  0
VERTEX
  5
11B1
  8
SAPA_PROFIL
 62
     4
 10
-24.357117482877459
 20
71.88313853891195
 30
0.0
 42
-0.6681786379192966
  0
VERTEX
  5
11B2
  8
SAPA_PROFIL
 62
     4
 10
-23.675962041614191
 20
72.507302504093033
 30
0.0
  0
VERTEX
  5
11B3
  8
SAPA_PROFIL
 62
     4
 10
-20.924834036336598
 20
71.224430438882422
 30
0.0
 42
0.1989123679837333
  0
VERTEX
  5
11B4
  8
SAPA_PROFIL
 62
     4
 10
-20.160195629163649
 20
71.191045604150844
 30
0.0
  0
VERTEX
  5
11B5
  8
SAPA_PROFIL
 62
     4
 10
-19.609736436369161
 20
71.391396365506225
 30
0.0
 42
0.1989123667755704
  0
VERTEX
  5
11B6
  8
SAPA_PROFIL
 62
     4
 10
-19.045448793640499
 20
71.908470722444861
 30
0.0
  0
VERTEX
  5
11B7
  8
SAPA_PROFIL
 62
     4
 10
-17.7625767205014
 20
74.659598744724775
 30
0.0
 42
-0.6681786379192936
  0
VERTEX
  5
11B8
  8
SAPA_PROFIL
 62
     4
 10
-16.839576516590199
 20
74.619299685517291
 30
0.0
  0
VERTEX
  5
11B9
  8
SAPA_PROFIL
 62
     4
 10
-15.701385635141881
 20
71.492145939708877
 30
0.0
  0
VERTEX
  5
11BA
  8
SAPA_PROFIL
 62
     4
 10
-14.657939586265931
 20
68.62530148200311
 30
0.0
 42
-0.4142135623730951
  0
VERTEX
  5
11BB
  8
SAPA_PROFIL
 62
     4
 10
-14.956775824996059
 20
67.984445099947322
 30
0.0
  0
VERTEX
  5
11BC
  8
SAPA_PROFIL
 62
     4
 10
-21.53462417049742
 20
65.590304096667637
 30
0.0
 42
-0.4142135623730951
  0
SEQEND
  5
11BD
  8
SAPA_PROFIL
 62
     4
  0
POLYLINE
  5
C01
  8
SAPA_PROFIL
 62
     4
 66
     1
 10
0.0
 20
0.0
 30
0.0
 70
     1
  0
VERTEX
  5
11BE
  8
SAPA_PROFIL
 62
     4
 10
-12.381973324390859
 20
58.237251733623651
 30
0.0
  0
VERTEX
  5
11BF
  8
SAPA_PROFIL
 62
     4
 10
-13.255857455666421
 20
56.430127453783399
 30
0.0
 42
-0.9251773977986363
  0
VERTEX
  5
11C0
  8
SAPA_PROFIL
 62
     4
 10
-15.41063101418457
 20
55.64585401689893
 30
0.0
  0
VERTEX
  5
11C1
  8
SAPA_PROFIL
 62
     4
 10
-17.24166219312319
 20
56.468469637610291
 30
0.0
  0
VERTEX
  5
11C2
  8
SAPA_PROFIL
 62
     4
 10
-18.100741931507709
 20
56.155790183977132
 30
0.0
 42
-0.4142135623730769
  0
VERTEX
  5
11C3
  8
SAPA_PROFIL
 62
     4
 10
-18.74159831356349
 20
56.45462642270725
 30
0.0
  0
VERTEX
  5
11C4
  8
SAPA_PROFIL
 62
     4
 10
-21.491440265901868
 20
64.009755093825945
 30
0.0
 42
-0.4142135623730951
  0
VERTEX
  5
11C5
  8
SAPA_PROFIL
 62
     4
 10
-21.19260402717175
 20
64.650611475881732
 30
0.0
  0
VERTEX
  5
11C6
  8
SAPA_PROFIL
 62
     4
 10
-14.61475568167039
 20
67.044752479161417
 30
0.0
 42
-0.4142135623730951
  0
VERTEX
  5
11C7
  8
SAPA_PROFIL
 62
     4
 10
-13.973899299614599
 20
66.745916240431299
 30
0.0
  0
VERTEX
  5
11C8
  8
SAPA_PROFIL
 62
     4
 10
-11.224057347276229
 20
59.19078756931259
 30
0.0
 42
-0.4142135623730951
  0
VERTEX
  5
11C9
  8
SAPA_PROFIL
 62
     4
 10
-11.522893586006351
 20
58.54993118725681
 30
0.0
  0
SEQEND
  5
11CA
  8
SAPA_PROFIL
 62
     4
  0
POLYLINE
  5
C02
  8
SAPA_PROFIL
 62
     4
 66
     1
 10
0.0
 20
0.0
 30
0.0
 70
     1
  0
VERTEX
  5
11CB
  8
SAPA_PROFIL
 62
     4
 10
-19.732593955848142
 20
56.25356017249949
 30
0.0
 42
-1.0
  0
VERTEX
  5
11CC
  8
SAPA_PROFIL
 62
     4
 10
-20.954194362869881
 20
55.808933986176093
 30
0.0
  0
VERTEX
  5
11CD
  8
SAPA_PROFIL
 62
     4
 10
-21.244911484696718
 20
56.607672713844138
 30
0.0
  0
VERTEX
  5
11CE
  8
SAPA_PROFIL
 62
     4
 10
-21.197926853657361
 20
56.624773721010442
 30
0.0
 42
1.0
  0
VERTEX
  5
11CF
  8
SAPA_PROFIL
 62
     4
 10
-21.368936925320192
 20
57.094620031403387
 30
0.0
  0
VERTEX
  5
11D0
  8
SAPA_PROFIL
 62
     4
 10
-21.79179860467389
 20
56.940710966906842
 30
0.0
 42
0.4142135623730951
  0
VERTEX
  5
11D1
  8
SAPA_PROFIL
 62
     4
 10
-21.971100347911889
 20
56.556197137673308
 30
0.0
  0
VERTEX
  5
11D2
  8
SAPA_PROFIL
 62
     4
 10
-21.389666104258279
 20
54.958719682337332
 30
0.0
 42
0.4225789089359373
  0
VERTEX
  5
11D3
  8
SAPA_PROFIL
 62
     4
 10
-20.121634145879689
 20
54.398634909708413
 30
0.0
  0
VERTEX
  5
11D4
  8
SAPA_PROFIL
 62
     4
 10
-17.302556283521959
 20
55.424695339685407
 30
0.0
  0
VERTEX
  5
11D5
  8
SAPA_PROFIL
 62
     4
 10
-16.21310043402724
 20
54.91667373384427
 30
0.0
  0
VERTEX
  5
11D6
  8
SAPA_PROFIL
 62
     4
 10
-14.10967655257439
 20
49.13756411601095
 30
0.0
 42
0.4142135623730951
  0
VERTEX
  5
11D7
  8
SAPA_PROFIL
 62
     4
 10
-12.82796378846281
 20
48.539891638550721
 30
0.0
  0
VERTEX
  5
11D8
  8
SAPA_PROFIL
 62
     4
 10
-10.66667076065526
 20
49.32653796819973
 30
0.0
 42
0.4142135623730951
  0
VERTEX
  5
11D9
  8
SAPA_PROFIL
 62
     4
 10
-10.06899828319502
 20
50.608250732311312
 30
0.0
  0
VERTEX
  5
11DA
  8
SAPA_PROFIL
 62
     4
 10
-12.172422164647839
 20
56.387360350144519
 30
0.0
  0
VERTEX
  5
11DB
  8
SAPA_PROFIL
 62
     4
 10
-11.664400558806619
 20
57.47681619963938
 30
0.0
  0
VERTEX
  5
11DC
  8
SAPA_PROFIL
 62
     4
 10
-8.8453226964488945
 20
58.502876629616402
 30
0.0
 42
0.4225789089359373
  0
VERTEX
  5
11DD
  8
SAPA_PROFIL
 62
     4
 10
-8.2339694132556573
 20
59.747001688896653
 30
0.0
  0
VERTEX
  5
11DE
  8
SAPA_PROFIL
 62
     4
 10
-8.8154036569092682
 20
61.344479144232629
 30
0.0
 42
0.4142135623730951
  0
VERTEX
  5
11DF
  8
SAPA_PROFIL
 62
     4
 10
-9.1999174861428425
 20
61.523780887470743
 30
0.0
  0
VERTEX
  5
11E0
  8
SAPA_PROFIL
 62
     4
 10
-9.6227791654964374
 20
61.369871822974218
 30
0.0
 42
1.0
  0
VERTEX
  5
11E1
  8
SAPA_PROFIL
 62
     4
 10
-9.4517690938336028
 20
60.900025512581259
 30
0.0
  0
VERTEX
  5
11E2
  8
SAPA_PROFIL
 62
     4
 10
-9.4047844627942432
 20
60.917126519747569
 30
0.0
  0
VERTEX
  5
11E3
  8
SAPA_PROFIL
 62
     4
 10
-9.1140673409674182
 20
60.118387792079517
 30
0.0
 42
-1.0
  0
VERTEX
  5
11E4
  8
SAPA_PROFIL
 62
     4
 10
-10.335667747989159
 20
59.673761605756127
 30
0.0
  0
VERTEX
  5
11E5
  8
SAPA_PROFIL
 62
     4
 10
-14.76169301435597
 20
71.834166083034546
 30
0.0
  0
VERTEX
  5
11E6
  8
SAPA_PROFIL
 62
     4
 10
-16.62541818374822
 20
76.954708902009003
 30
0.0
  0
VERTEX
  5
11E7
  8
SAPA_PROFIL
 62
     4
 10
-18.034957114927071
 20
76.441678687020499
 30
0.0
  0
VERTEX
  5
11E8
  8
SAPA_PROFIL
 62
     4
 10
-19.915501655167589
 20
72.408837906148236
 30
0.0
 42
-0.4142135623730951
  0
VERTEX
  5
11E9
  8
SAPA_PROFIL
 62
     4
 10
-20.57996467955617
 20
72.166993143500292
 30
0.0
  0
VERTEX
  5
11EA
  8
SAPA_PROFIL
 62
     4
 10
-24.612805460428429
 20
74.047537683740813
 30
0.0
  0
VERTEX
  5
11EB
  8
SAPA_PROFIL
 62
     4
 10
-26.022344391607319
 20
73.534507468752309
 30
0.0
  0
VERTEX
  5
11EC
  8
SAPA_PROFIL
 62
     4
 10
-24.158619222215041
 20
68.413964649777867
 30
0.0
  0
VERTEX
  5
11ED
  8
SAPA_PROFIL
 62
     4
 10
-19.835199998845841
 20
56.535467958735232
 30
0.0
  0
SEQEND
  5
11EE
  8
SAPA_PROFIL
 62
     4
  0
POLYLINE
  5
C03
  8
SAPA_PROFIL
 66
     1
 10
0.0
 20
0.0
 30
0.0
 70
     1
  0
VERTEX
  5
11EF
  8
SAPA_PROFIL
 10
11.90589202440944
 20
10.70731516352958
 30
0.0
 42
-0.4142135623732062
  0
VERTEX
  5
11F0
  8
SAPA_PROFIL
 10
12.29040585364308
 20
10.528013420291639
 30
0.0
  0
VERTEX
  5
11F1
  8
SAPA_PROFIL
 10
16.189435487555521
 20
-0.1844824566678937
 30
0.0
 42
-0.4142135623730117
  0
VERTEX
  5
11F2
  8
SAPA_PROFIL
 10
16.010133744317471
 20
-0.5689962859012782
 30
0.0
  0
VERTEX
  5
11F3
  8
SAPA_PROFIL
 10
15.57073307761064
 20
-0.7289250494994235
 30
0.0
 42
0.2868106387144194
  0
VERTEX
  5
11F4
  8
SAPA_PROFIL
 10
14.91820614462776
 20
-1.5643290658909159
 30
0.0
 42
-0.037344033101038
  0
VERTEX
  5
11F5
  8
SAPA_PROFIL
 10
14.51953465140841
 20
-3.7660474647176718
 30
0.0
 42
0.3617029558070689
  0
VERTEX
  5
11F6
  8
SAPA_PROFIL
 10
16.700937511487581
 20
-8.3955579367919029
 30
0.0
  0
VERTEX
  5
11F7
  8
SAPA_PROFIL
 10
20.054251532469461
 20
-9.9592339449743008
 30
0.0
  0
VERTEX
  5
11F8
  8
SAPA_PROFIL
 10
20.818889937535879
 20
-9.9926187787236245
 30
0.0
  0
VERTEX
  5
11F9
  8
SAPA_PROFIL
 10
27.445224019610631
 20
-7.5808304105447633
 30
0.0
 42
0.4142135623730951
  0
VERTEX
  5
11FA
  8
SAPA_PROFIL
 10
29.835913929451578
 20
-2.4539793540984638
 30
0.0
  0
VERTEX
  5
11FB
  8
SAPA_PROFIL
 10
22.991930163678919
 20
16.349711501475721
 30
0.0
 42
0.4142135623730867
  0
VERTEX
  5
11FC
  8
SAPA_PROFIL
 10
17.865079107232731
 20
18.7404014113167
 30
0.0
  0
VERTEX
  5
11FD
  8
SAPA_PROFIL
 10
12.47106724016421
 20
16.777141648425239
 30
0.0
 42
0.5027747815994277
  0
VERTEX
  5
11FE
  8
SAPA_PROFIL
 10
10.634900741379649
 20
10.62404439121314
 30
0.0
 42
0.2214354817247867
  0
VERTEX
  5
11FF
  8
SAPA_PROFIL
 10
11.476064824606251
 20
10.55087085692298
 30
0.0
  0
SEQEND
  5
1200
  8
SAPA_PROFIL
  0
POLYLINE
  5
C04
  8
SAPA_PROFIL
 66
     1
 10
0.0
 20
0.0
 30
0.0
 70
     1
  0
VERTEX
  5
1201
  8
SAPA_PROFIL
 10
25.250764305501999
 20
-11.784917298699471
 30
0.0
  0
VERTEX
  5
1202
  8
SAPA_PROFIL
 10
24.865091739690001
 20
-12.24454396457093
 30
0.0
  0
VERTEX
  5
1203
  8
SAPA_PROFIL
 10
20.38118004161171
 20
-13.876554355749469
 30
0.0
 42
-0.1989123673796723
  0
VERTEX
  5
1204
  8
SAPA_PROFIL
 10
20.151788520091799
 20
-13.866538905624729
 30
0.0
  0
VERTEX
  5
1205
  8
SAPA_PROFIL
 10
10.11418262878297
 20
-9.1859264089655426
 30
0.0
 42
-0.4663076581549887
  0
VERTEX
  5
1206
  8
SAPA_PROFIL
 10
9.4202485093234412
 20
-6.5961290180370611
 30
0.0
 42
0.9999999999999927
  0
VERTEX
  5
1207
  8
SAPA_PROFIL
 10
-9.4202485093233292
 20
6.5961290180370611
 30
0.0
 42
-0.8070884877514037
  0
VERTEX
  5
1208
  8
SAPA_PROFIL
 10
-12.573752938184009
 20
7.922595189693026
 30
0.0
 42
0.5810002848221991
  0
VERTEX
  5
1209
  8
SAPA_PROFIL
 10
-13.23618825311015
 20
8.4846436166728552
 30
0.0
  0
VERTEX
  5
120A
  8
SAPA_PROFIL
 10
-16.85125865844023
 20
7.1688655943560491
 30
0.0
  0
VERTEX
  5
120B
  8
SAPA_PROFIL
 10
-17.442143310247669
 20
7.2730545009562197
 30
0.0
  0
VERTEX
  5
120C
  8
SAPA_PROFIL
 10
-17.827815876059589
 20
6.8134278350847799
 30
0.0
  0
VERTEX
  5
120D
  8
SAPA_PROFIL
 10
-21.47418479870808
 20
5.486258084087523
 30
0.0
 42
-0.4142135623730784
  0
VERTEX
  5
120E
  8
SAPA_PROFIL
 10
-22.75589756281963
 20
6.0839305615476738
 30
0.0
  0
VERTEX
  5
120F
  8
SAPA_PROFIL
 10
-23.50834187813609
 20
8.1512543272767175
 30
0.0
 42
-0.4142135623731229
  0
VERTEX
  5
1210
  8
SAPA_PROFIL
 10
-23.32904013489804
 20
8.5357681565101302
 30
0.0
  0
VERTEX
  5
1211
  8
SAPA_PROFIL
 10
-11.86479016130974
 20
12.708413905081549
 30
0.0
  0
VERTEX
  5
1212
  8
SAPA_PROFIL
 10
-11.62537606098166
 20
12.050629070533089
 30
0.0
 42
0.4142135623728317
  0
VERTEX
  5
1213
  8
SAPA_PROFIL
 10
-11.240862231748309
 20
11.87132732729512
 30
0.0
  0
VERTEX
  5
1214
  8
SAPA_PROFIL
 10
20.144871302499979
 20
23.294800114371949
 30
0.0
 42
0.4142135623727621
  0
VERTEX
  5
1215
  8
SAPA_PROFIL
 10
20.324173045738149
 20
23.679313943605049
 30
0.0
  0
VERTEX
  5
1216
  8
SAPA_PROFIL
 10
20.084758945410758
 20
24.337098778155969
 30
0.0
  0
VERTEX
  5
1217
  8
SAPA_PROFIL
 10
23.091775331925898
 20
25.431563236798301
 30
0.0
 42
-0.414213562373123
  0
VERTEX
  5
1218
  8
SAPA_PROFIL
 10
23.476289161159311
 20
25.252261493560152
 30
0.0
  0
VERTEX
  5
1219
  8
SAPA_PROFIL
 10
35.587383134147018
 20
-8.0226957221172484
 30
0.0
 42
-0.414213562373123
  0
VERTEX
  5
121A
  8
SAPA_PROFIL
 10
35.40808139090899
 20
-8.4072095513506326
 30
0.0
  0
VERTEX
  5
121B
  8
SAPA_PROFIL
 10
25.84164895730947
 20
-11.88910620529964
 30
0.0
  0
SEQEND
  5
121C
  8
SAPA_PROFIL
  0
CIRCLE
  5
C05
  8
SAPA_PROFIL
 10
0.0
 20
0.0
 30
0.0
 40
5.3499999999999988
  0
POLYLINE
  5
C06
  8
SAPA_PROFIL
 66
     1
 10
0.0
 20
0.0
 30
0.0
 70
     1
  0
VERTEX
  5
121D
  8
SAPA_PROFIL
 10
2.9695236276844521
 20
-9.5489229457893998
 30
0.0
  0
VERTEX
  5
121E
  8
SAPA_PROFIL
 10
1.652257488195346
 20
-9.8625577409058565
 30
0.0
 42
0.8419933402193075
  0
VERTEX
  5
121F
  8
SAPA_PROFIL
 10
3.7500009987113572
 20
-22.0
 30
0.0
  0
VERTEX
  5
1220
  8
SAPA_PROFIL
 10
24.13397459621558
 20
-21.99999999999994
 30
0.0
  0
VERTEX
  5
1221
  8
SAPA_PROFIL
 10
25.0
 20
-22.49999999999994
 30
0.0
  0
VERTEX
  5
1222
  8
SAPA_PROFIL
 10
25.86602540378442
 20
-21.99999999999994
 30
0.0
  0
VERTEX
  5
1223
  8
SAPA_PROFIL
 10
43.071796769724408
 20
-21.99999999999994
 30
0.0
  0
VERTEX
  5
1224
  8
SAPA_PROFIL
 10
50.0
 20
-25.99999999999994
 30
0.0
  0
VERTEX
  5
1225
  8
SAPA_PROFIL
 10
50.0
 20
-29.0
 30
0.0
  0
VERTEX
  5
1226
  8
SAPA_PROFIL
 10
40.0
 20
-29.0
 30
0.0
  0
VERTEX
  5
1227
  8
SAPA_PROFIL
 10
40.0
 20
-28.0
 30
0.0
  0
VERTEX
  5
1228
  8
SAPA_PROFIL
 10
0.0
 20
-28.0
 30
0.0
  0
VERTEX
  5
1229
  8
SAPA_PROFIL
 10
0.0
 20
-29.0
 30
0.0
  0
VERTEX
  5
122A
  8
SAPA_PROFIL
 10
-10.0
 20
-29.0
 30
0.0
  0
VERTEX
  5
122B
  8
SAPA_PROFIL
 10
-10.0
 20
0.0
 30
0.0
 42
-1.9780623748969339
  0
SEQEND
  5
122C
  8
SAPA_PROFIL
  0
POLYLINE
  5
C07
  8
SAPA_PROFIL
  6
CONTINUOUS
 62
     7
 66
     1
 10
0.0
 20
0.0
 30
0.0
 70
   129
  0
VERTEX
  5
122D
  8
SAPA_PROFIL
  6
CONTINUOUS
 62
     7
 10
15.619756464998339
 20
40.784423277121903
 30
0.0
 42
-0.4040262258351265
  0
VERTEX
  5
122E
  8
SAPA_PROFIL
  6
CONTINUOUS
 62
     7
 10
15.31523827851357
 20
40.160068469541443
 30
0.0
  0
VERTEX
  5
122F
  8
SAPA_PROFIL
  6
CONTINUOUS
 62
     7
 10
-3.8825795247877402
 20
33.172634226272912
 30
0.0
 42
-0.4142135623730951
  0
VERTEX
  5
1230
  8
SAPA_PROFIL
  6
CONTINUOUS
 62
     7
 10
-5.1642922888993184
 20
33.770306703733148
 30
0.0
  0
VERTEX
  5
1231
  8
SAPA_PROFIL
  6
CONTINUOUS
 62
     7
 10
-6.361362790539153
 20
37.059230876483831
 30
0.0
 42
-0.4142135623730951
  0
VERTEX
  5
1232
  8
SAPA_PROFIL
  6
CONTINUOUS
 62
     7
 10
-5.7636903130789143
 20
38.340943640595412
 30
0.0
  0
VERTEX
  5
1233
  8
SAPA_PROFIL
  6
CONTINUOUS
 62
     7
 10
-4.8239976922930046
 20
38.682963783921082
 30
0.0
 42
0.4142135623730951
  0
VERTEX
  5
1234
  8
SAPA_PROFIL
  6
CONTINUOUS
 62
     7
 10
-3.6286527373725259
 20
41.246389312144217
 30
0.0
  0
VERTEX
  5
1235
  8
SAPA_PROFIL
  6
CONTINUOUS
 62
     7
 10
-9.6824092742369103
 20
57.878948700054799
 30
0.0
 42
0.4142135623730951
  0
VERTEX
  5
1236
  8
SAPA_PROFIL
  6
CONTINUOUS
 62
     7
 10
-10.06692310347033
 20
58.058250443292877
 30
0.0
  0
VERTEX
  5
1237
  8
SAPA_PROFIL
  6
CONTINUOUS
 62
     7
 10
-11.59323206304672
 20
57.502719413713258
 30
0.0
  0
VERTEX
  5
1238
  8
SAPA_PROFIL
  6
CONTINUOUS
 62
     7
 10
-12.15376993360386
 20
56.300642071096618
 30
0.0
 42
0.198912367380615
  0
VERTEX
  5
1239
  8
SAPA_PROFIL
  6
CONTINUOUS
 62
     7
 10
-12.163785383728509
 20
56.071250549576071
 30
0.0
  0
VERTEX
  5
123A
  8
SAPA_PROFIL
  6
CONTINUOUS
 62
     7
 10
-11.753361211737699
 20
54.943619404632969
 30
0.0
  0
VERTEX
  5
123B
  8
SAPA_PROFIL
  6
CONTINUOUS
 62
     7
 10
-11.14256100822683
 20
55.165932497794657
 30
0.0
  0
VERTEX
  5
123C
  8
SAPA_PROFIL
  6
CONTINUOUS
 62
     7
 10
-11.257552957151431
 20
53.659520584776821
 30
0.0
 42
0.5450207774095396
  0
VERTEX
  5
123D
  8
SAPA_PROFIL
  6
CONTINUOUS
 62
     7
 10
-10.855817167515729
 20
53.354778730216061
 30
0.0
  0
VERTEX
  5
123E
  8
SAPA_PROFIL
  6
CONTINUOUS
 62
     7
 10
-10.52692475024064
 20
53.474485780380043
 30
0.0
  0
VERTEX
  5
123F
  8
SAPA_PROFIL
  6
CONTINUOUS
 62
     7
 10
-10.641916699165231
 20
51.968073867362023
 30
0.0
 42
0.545020777409285
  0
VERTEX
  5
1240
  8
SAPA_PROFIL
  6
CONTINUOUS
 62
     7
 10
-10.240180909529521
 20
51.663332012801398
 30
0.0
  0
VERTEX
  5
1241
  8
SAPA_PROFIL
  6
CONTINUOUS
 62
     7
 10
-9.9112884922544318
 20
51.7830390629654
 30
0.0
  0
VERTEX
  5
1242
  8
SAPA_PROFIL
  6
CONTINUOUS
 62
     7
 10
-10.026280441179059
 20
50.276627149947302
 30
0.0
 42
0.5450207774091322
  0
VERTEX
  5
1243
  8
SAPA_PROFIL
  6
CONTINUOUS
 62
     7
 10
-9.6245446515433137
 20
49.971885295386748
 30
0.0
  0
VERTEX
  5
1244
  8
SAPA_PROFIL
  6
CONTINUOUS
 62
     7
 10
-9.2956522342682248
 20
50.091592345550751
 30
0.0
  0
VERTEX
  5
1245
  8
SAPA_PROFIL
  6
CONTINUOUS
 62
     7
 10
-9.4106441831928311
 20
48.585180432532937
 30
0.0
 42
0.545020777409636
  0
VERTEX
  5
1246
  8
SAPA_PROFIL
  6
CONTINUOUS
 62
     7
 10
-9.0089083935571175
 20
48.280438577972127
 30
0.0
  0
VERTEX
  5
1247
  8
SAPA_PROFIL
  6
CONTINUOUS
 62
     7
 10
-8.6800159762820286
 20
48.40014562813613
 30
0.0
  0
VERTEX
  5
1248
  8
SAPA_PROFIL
  6
CONTINUOUS
 62
     7
 10
-8.7950079252066722
 20
46.893733715118081
 30
0.0
 42
0.5450207774091208
  0
VERTEX
  5
1249
  8
SAPA_PROFIL
  6
CONTINUOUS
 62
     7
 10
-8.3932721355709106
 20
46.588991860557492
 30
0.0
  0
VERTEX
  5
124A
  8
SAPA_PROFIL
  6
CONTINUOUS
 62
     7
 10
-8.0643797182958217
 20
46.708698910721488
 30
0.0
  0
VERTEX
  5
124B
  8
SAPA_PROFIL
  6
CONTINUOUS
 62
     7
 10
-8.1793716672204368
 20
45.202286997703361
 30
0.0
 42
0.5450207774089454
  0
VERTEX
  5
124C
  8
SAPA_PROFIL
  6
CONTINUOUS
 62
     7
 10
-7.7776358775847143
 20
44.897545143142871
 30
0.0
  0
VERTEX
  5
124D
  8
SAPA_PROFIL
  6
CONTINUOUS
 62
     7
 10
-7.4487434603096254
 20
45.017252193306859
 30
0.0
  0
VERTEX
  5
124E
  8
SAPA_PROFIL
  6
CONTINUOUS
 62
     7
 10
-7.5637354092342264
 20
43.510840280288861
 30
0.0
 42
0.5450207774092681
  0
VERTEX
  5
124F
  8
SAPA_PROFIL
  6
CONTINUOUS
 62
     7
 10
-7.1619996195985074
 20
43.206098425728229
 30
0.0
  0
VERTEX
  5
1250
  8
SAPA_PROFIL
  6
CONTINUOUS
 62
     7
 10
-6.8331072023234176
 20
43.325805475892217
 30
0.0
  0
VERTEX
  5
1251
  8
SAPA_PROFIL
  6
CONTINUOUS
 62
     7
 10
-6.9480991512480621
 20
41.819393562874183
 30
0.0
 42
0.5450207774092116
  0
VERTEX
  5
1252
  8
SAPA_PROFIL
  6
CONTINUOUS
 62
     7
 10
-6.5463633616122996
 20
41.514651708313572
 30
0.0
  0
VERTEX
  5
1253
  8
SAPA_PROFIL
  6
CONTINUOUS
 62
     7
 10
-6.2174709443372107
 20
41.634358758477568
 30
0.0
  0
VERTEX
  5
1254
  8
SAPA_PROFIL
  6
CONTINUOUS
 62
     7
 10
-6.1319659085057943
 20
41.399435603281091
 30
0.0
 42
-0.4142135623730951
  0
VERTEX
  5
1255
  8
SAPA_PROFIL
  6
CONTINUOUS
 62
     7
 10
-6.7296383859660329
 20
40.11772283916951
 30
0.0
  0
VERTEX
  5
1256
  8
SAPA_PROFIL
  6
CONTINUOUS
 62
     7
 10
-9.9245932966381574
 20
38.954854351862238
 30
0.0
 42
-0.4142135623730951
  0
VERTEX
  5
1257
  8
SAPA_PROFIL
  6
CONTINUOUS
 62
     7
 10
-11.20630606074973
 20
39.552526829322467
 30
0.0
  0
VERTEX
  5
1258
  8
SAPA_PROFIL
  6
CONTINUOUS
 62
     7
 10
-11.599629225574249
 20
40.633173343226268
 30
0.0
  0
VERTEX
  5
1259
  8
SAPA_PROFIL
  6
CONTINUOUS
 62
     7
 10
-11.270736808299329
 20
40.752880393390242
 30
0.0
 42
0.5450207774097775
  0
VERTEX
  5
125A
  8
SAPA_PROFIL
  6
CONTINUOUS
 62
     7
 10
-11.158873627311459
 20
41.244556985608142
 30
0.0
  0
VERTEX
  5
125B
  8
SAPA_PROFIL
  6
CONTINUOUS
 62
     7
 10
-12.21526548356046
 20
42.324620060640918
 30
0.0
  0
VERTEX
  5
125C
  8
SAPA_PROFIL
  6
CONTINUOUS
 62
     7
 10
-11.886373066285371
 20
42.444327110804913
 30
0.0
 42
0.545020777409251
  0
VERTEX
  5
125D
  8
SAPA_PROFIL
  6
CONTINUOUS
 62
     7
 10
-11.774509885297659
 20
42.936003703022763
 30
0.0
  0
VERTEX
  5
125E
  8
SAPA_PROFIL
  6
CONTINUOUS
 62
     7
 10
-12.83090174154666
 20
44.016066778055539
 30
0.0
  0
VERTEX
  5
125F
  8
SAPA_PROFIL
  6
CONTINUOUS
 62
     7
 10
-12.50200932427151
 20
44.135773828219548
 30
0.0
 42
0.5450207774093077
  0
VERTEX
  5
1260
  8
SAPA_PROFIL
  6
CONTINUOUS
 62
     7
 10
-12.39014614328387
 20
44.627450420437398
 30
0.0
  0
VERTEX
  5
1261
  8
SAPA_PROFIL
  6
CONTINUOUS
 62
     7
 10
-13.446537999532859
 20
45.707513495470188
 30
0.0
  0
VERTEX
  5
1262
  8
SAPA_PROFIL
  6
CONTINUOUS
 62
     7
 10
-13.117645582257831
 20
45.827220545634162
 30
0.0
 42
0.5450207774091775
  0
VERTEX
  5
1263
  8
SAPA_PROFIL
  6
CONTINUOUS
 62
     7
 10
-13.005782401270061
 20
46.318897137852019
 30
0.0
  0
VERTEX
  5
1264
  8
SAPA_PROFIL
  6
CONTINUOUS
 62
     7
 10
-14.06217425751907
 20
47.398960212884823
 30
0.0
  0
VERTEX
  5
1265
  8
SAPA_PROFIL
  6
CONTINUOUS
 62
     7
 10
-13.733281840244141
 20
47.518667263048769
 30
0.0
 42
0.5450207774097434
  0
VERTEX
  5
1266
  8
SAPA_PROFIL
  6
CONTINUOUS
 62
     7
 10
-13.621418659256269
 20
48.010343855266669
 30
0.0
  0
VERTEX
  5
1267
  8
SAPA_PROFIL
  6
CONTINUOUS
 62
     7
 10
-14.67781051550527
 20
49.090406930299451
 30
0.0
  0
VERTEX
  5
1268
  8
SAPA_PROFIL
  6
CONTINUOUS
 62
     7
 10
-14.348918098230181
 20
49.210113980463447
 30
0.0
 42
0.5450207774091265
  0
VERTEX
  5
1269
  8
SAPA_PROFIL
  6
CONTINUOUS
 62
     7
 10
-14.23705491724248
 20
49.701790572681318
 30
0.0
  0
VERTEX
  5
126A
  8
SAPA_PROFIL
  6
CONTINUOUS
 62
     7
 10
-15.293446773491469
 20
50.781853647714101
 30
0.0
  0
VERTEX
  5
126B
  8
SAPA_PROFIL
  6
CONTINUOUS
 62
     7
 10
-14.96455435621654
 20
50.901560697878033
 30
0.0
 42
0.5450207774097152
  0
VERTEX
  5
126C
  8
SAPA_PROFIL
  6
CONTINUOUS
 62
     7
 10
-14.852691175228671
 20
51.393237290095939
 30
0.0
  0
VERTEX
  5
126D
  8
SAPA_PROFIL
  6
CONTINUOUS
 62
     7
 10
-15.909083031477669
 20
52.473300365128722
 30
0.0
  0
VERTEX
  5
126E
  8
SAPA_PROFIL
  6
CONTINUOUS
 62
     7
 10
-15.58019061420258
 20
52.593007415292711
 30
0.0
 42
0.5450207774091775
  0
VERTEX
  5
126F
  8
SAPA_PROFIL
  6
CONTINUOUS
 62
     7
 10
-15.468327433214879
 20
53.084684007510582
 30
0.0
  0
VERTEX
  5
1270
  8
SAPA_PROFIL
  6
CONTINUOUS
 62
     7
 10
-16.524719289463881
 20
54.164747082543357
 30
0.0
  0
VERTEX
  5
1271
  8
SAPA_PROFIL
  6
CONTINUOUS
 62
     7
 10
-16.195826872188889
 20
54.284454132707317
 30
0.0
 42
0.6681786379193241
  0
VERTEX
  5
1272
  8
SAPA_PROFIL
  6
CONTINUOUS
 62
     7
 10
-16.171647436664259
 20
54.838254255054167
 30
0.0
  0
VERTEX
  5
1273
  8
SAPA_PROFIL
  6
CONTINUOUS
 62
     7
 10
-17.37372477928152
 20
55.398792125611209
 30
0.0
  0
VERTEX
  5
1274
  8
SAPA_PROFIL
  6
CONTINUOUS
 62
     7
 10
-18.90003373885791
 20
54.843261096031583
 30
0.0
 42
0.4142135623730951
  0
VERTEX
  5
1275
  8
SAPA_PROFIL
  6
CONTINUOUS
 62
     7
 10
-19.079335482095939
 20
54.458747266798142
 30
0.0
  0
VERTEX
  5
1276
  8
SAPA_PROFIL
  6
CONTINUOUS
 62
     7
 10
-13.02557894523161
 20
37.826187878887538
 30
0.0
 42
0.4142135623730951
  0
VERTEX
  5
1277
  8
SAPA_PROFIL
  6
CONTINUOUS
 62
     7
 10
-10.46215341700845
 20
36.630842923967073
 30
0.0
  0
VERTEX
  5
1278
  8
SAPA_PROFIL
  6
CONTINUOUS
 62
     7
 10
-9.5224607962225463
 20
36.972863067292742
 30
0.0
 42
-0.4142135623730951
  0
VERTEX
  5
1279
  8
SAPA_PROFIL
  6
CONTINUOUS
 62
     7
 10
-8.2407480321109716
 20
36.375190589832499
 30
0.0
  0
VERTEX
  5
127A
  8
SAPA_PROFIL
  6
CONTINUOUS
 62
     7
 10
-7.0436775304711281
 20
33.086266417081823
 30
0.0
 42
-0.41421356237309
  0
VERTEX
  5
127B
  8
SAPA_PROFIL
  6
CONTINUOUS
 62
     7
 10
-7.6413500079313721
 20
31.804553652970242
 30
0.0
  0
VERTEX
  5
127C
  8
SAPA_PROFIL
  6
CONTINUOUS
 62
     7
 10
-26.839167811233441
 20
24.817119409703619
 30
0.0
 42
-0.404026225835172
  0
VERTEX
  5
127D
  8
SAPA_PROFIL
  6
CONTINUOUS
 62
     7
 10
-27.473769810179661
 20
25.09966242338864
 30
0.0
  0
VERTEX
  5
127E
  8
SAPA_PROFIL
  6
CONTINUOUS
 62
     7
 10
-28.223439675637849
 20
26.955160451786501
 30
0.0
 42
-0.4244748162095842
  0
VERTEX
  5
127F
  8
SAPA_PROFIL
  6
CONTINUOUS
 62
     7
 10
-27.930857820017192
 20
27.612310058888259
 30
0.0
  0
VERTEX
  5
1280
  8
SAPA_PROFIL
  6
CONTINUOUS
 62
     7
 10
-22.292953439304402
 20
29.66433943710674
 30
0.0
 42
0.4142135623731155
  0
VERTEX
  5
1281
  8
SAPA_PROFIL
  6
CONTINUOUS
 62
     7
 10
-22.11365169606637
 20
30.048853266340171
 30
0.0
  0
VERTEX
  5
1282
  8
SAPA_PROFIL
  6
CONTINUOUS
 62
     7
 10
-23.447530255036469
 20
33.713654487405222
 30
0.0
 42
-0.2134217652833684
  0
VERTEX
  5
1283
  8
SAPA_PROFIL
  6
CONTINUOUS
 62
     7
 10
-23.430039021972899
 20
33.957978159541021
 30
0.0
 42
0.2134217652833683
  0
VERTEX
  5
1284
  8
SAPA_PROFIL
  6
CONTINUOUS
 62
     7
 10
-23.41254778890935
 20
34.202301831676849
 30
0.0
  0
VERTEX
  5
1285
  8
SAPA_PROFIL
  6
CONTINUOUS
 62
     7
 10
-23.60161187420492
 20
34.721751136856277
 30
0.0
 42
0.4142135623731054
  0
VERTEX
  5
1286
  8
SAPA_PROFIL
  6
CONTINUOUS
 62
     7
 10
-23.98612570343845
 20
34.90105288009434
 30
0.0
  0
VERTEX
  5
1287
  8
SAPA_PROFIL
  6
CONTINUOUS
 62
     7
 10
-25.583603158774441
 20
34.31961863644073
 30
0.0
  0
VERTEX
  5
1288
  8
SAPA_PROFIL
  6
CONTINUOUS
 62
     7
 10
-25.975610716736469
 20
33.682178384729518
 30
0.0
 42
0.7105995015649932
  0
VERTEX
  5
1289
  8
SAPA_PROFIL
  6
CONTINUOUS
 62
     7
 10
-25.617460063763161
 20
33.243117958324547
 30
0.0
  0
VERTEX
  5
128A
  8
SAPA_PROFIL
  6
CONTINUOUS
 62
     7
 10
-25.241583015448771
 20
33.379926015654817
 30
0.0
 42
-0.4142135623731308
  0
VERTEX
  5
128B
  8
SAPA_PROFIL
  6
CONTINUOUS
 62
     7
 10
-24.857069186215341
 20
33.200624272416732
 30
0.0
  0
VERTEX
  5
128C
  8
SAPA_PROFIL
  6
CONTINUOUS
 62
     7
 10
-24.036220842233728
 20
30.945361982530549
 30
0.0
 42
-0.4142135623730951
  0
VERTEX
  5
128D
  8
SAPA_PROFIL
  6
CONTINUOUS
 62
     7
 10
-24.215522585471771
 20
30.560848153297101
 30
0.0
  0
VERTEX
  5
128E
  8
SAPA_PROFIL
  6
CONTINUOUS
 62
     7
 10
-28.707415131647132
 20
28.92593297096704
 30
0.0
 42
-0.4040262258351568
  0
VERTEX
  5
128F
  8
SAPA_PROFIL
  6
CONTINUOUS
 62
     7
 10
-29.088176331014822
 20
29.095458779178049
 30
0.0
  0
VERTEX
  5
1290
  8
SAPA_PROFIL
  6
CONTINUOUS
 62
     7
 10
-29.987780169564981
 20
31.322056413256089
 30
0.0
 42
-0.4244748162096048
  0
VERTEX
  5
1291
  8
SAPA_PROFIL
  6
CONTINUOUS
 62
     7
 10
-29.812231056192459
 20
31.716346177516979
 30
0.0
  0
VERTEX
  5
1292
  8
SAPA_PROFIL
  6
CONTINUOUS
 62
     7
 10
-29.000353498592411
 20
32.011845442352147
 30
0.0
 42
0.710599501565118
  0
VERTEX
  5
1293
  8
SAPA_PROFIL
  6
CONTINUOUS
 62
     7
 10
-29.008216783080108
 20
32.578400044326138
 30
0.0
  0
VERTEX
  5
1294
  8
SAPA_PROFIL
  6
CONTINUOUS
 62
     7
 10
-29.718250690232459
 20
32.814730005807782
 30
0.0
  0
VERTEX
  5
1295
  8
SAPA_PROFIL
  6
CONTINUOUS
 62
     7
 10
-31.879543718040068
 20
32.028083676158737
 30
0.0
 42
0.4142135623733353
  0
VERTEX
  5
1296
  8
SAPA_PROFIL
  6
CONTINUOUS
 62
     7
 10
-32.058845461278047
 20
31.643569846925161
 30
0.0
  0
VERTEX
  5
1297
  8
SAPA_PROFIL
  6
CONTINUOUS
 62
     7
 10
-32.055092831412537
 20
31.633793911897861
 30
0.0
  0
VERTEX
  5
1298
  8
SAPA_PROFIL
  6
CONTINUOUS
 62
     7
 10
-28.959207747184958
 20
23.97120944023882
 30
0.0
 42
0.4040262258351517
  0
VERTEX
  5
1299
  8
SAPA_PROFIL
  6
CONTINUOUS
 62
     7
 10
-26.420799751399532
 20
22.841037385499028
 30
0.0
 42
-0.8769764629929342
  0
VERTEX
  5
129A
  8
SAPA_PROFIL
  6
CONTINUOUS
 62
     7
 10
-25.505203171723341
 20
21.0821927204228
 30
0.0
  0
VERTEX
  5
129B
  8
SAPA_PROFIL
  6
CONTINUOUS
 62
     7
 10
-27.475942007055551
 20
19.702266532081381
 30
0.0
 42
0.3394542588633806
  0
VERTEX
  5
129C
  8
SAPA_PROFIL
  6
CONTINUOUS
 62
     7
 10
-27.585776862385639
 20
19.353914875796718
 30
0.0
  0
VERTEX
  5
129D
  8
SAPA_PROFIL
  6
CONTINUOUS
 62
     7
 10
-23.781957992796919
 20
8.9030084239062912
 30
0.0
 42
0.4142135623730951
  0
VERTEX
  5
129E
  8
SAPA_PROFIL
  6
CONTINUOUS
 62
     7
 10
-23.141101610741138
 20
8.6041721851761732
 30
0.0
  0
VERTEX
  5
129F
  8
SAPA_PROFIL
  6
CONTINUOUS
 62
     7
 10
22.90383680776873
 20
25.363159208132949
 30
0.0
 42
0.4142135623730951
  0
VERTEX
  5
12A0
  8
SAPA_PROFIL
  6
CONTINUOUS
 62
     7
 10
23.202673046498852
 20
26.00401559018874
 30
0.0
  0
VERTEX
  5
12A1
  8
SAPA_PROFIL
  6
CONTINUOUS
 62
     7
 10
19.398854176909751
 20
36.45492204208022
 30
0.0
 42
0.3394542588634147
  0
VERTEX
  5
12A2
  8
SAPA_PROFIL
  6
CONTINUOUS
 62
     7
 10
19.090799667849701
 20
36.651174408510037
 30
0.0
  0
VERTEX
  5
12A3
  8
SAPA_PROFIL
  6
CONTINUOUS
 62
     7
 10
16.694126678056179
 20
36.441492691723923
 30
0.0
 42
-0.87697646299261
  0
VERTEX
  5
12A4
  8
SAPA_PROFIL
  6
CONTINUOUS
 62
     7
 10
16.264950791983122
 20
38.377380010601577
 30
0.0
 42
0.404026225835172
  0
VERTEX
  5
12A5
  8
SAPA_PROFIL
  6
CONTINUOUS
 62
     7
 10
17.483023537920989
 20
40.874799240924077
 30
0.0
  0
VERTEX
  5
12A6
  8
SAPA_PROFIL
  6
CONTINUOUS
 62
     7
 10
14.929194746670399
 20
48.734676068523292
 30
0.0
  0
VERTEX
  5
12A7
  8
SAPA_PROFIL
  6
CONTINUOUS
 62
     7
 10
14.92578557801767
 20
48.744577013207753
 30
0.0
 42
0.4142135623733302
  0
VERTEX
  5
12A8
  8
SAPA_PROFIL
  6
CONTINUOUS
 62
     7
 10
14.54127174878368
 20
48.92387875644669
 30
0.0
  0
VERTEX
  5
12A9
  8
SAPA_PROFIL
  6
CONTINUOUS
 62
     7
 10
12.37997872097624
 20
48.137232426797709
 30
0.0
  0
VERTEX
  5
12AA
  8
SAPA_PROFIL
  6
CONTINUOUS
 62
     7
 10
11.98797116301421
 20
47.499792175086512
 30
0.0
 42
0.7105995015651246
  0
VERTEX
  5
12AB
  8
SAPA_PROFIL
  6
CONTINUOUS
 62
     7
 10
12.346121815987569
 20
47.06073174868154
 30
0.0
  0
VERTEX
  5
12AC
  8
SAPA_PROFIL
  6
CONTINUOUS
 62
     7
 10
13.157999373588471
 20
47.356231013517011
 30
0.0
 42
-0.4244748162093936
  0
VERTEX
  5
12AD
  8
SAPA_PROFIL
  6
CONTINUOUS
 62
     7
 10
13.54592237147479
 20
47.167028325593741
 30
0.0
  0
VERTEX
  5
12AE
  8
SAPA_PROFIL
  6
CONTINUOUS
 62
     7
 10
14.288015220887459
 20
44.883101379899287
 30
0.0
 42
-0.4040262258354259
  0
VERTEX
  5
12AF
  8
SAPA_PROFIL
  6
CONTINUOUS
 62
     7
 10
14.105304308996891
 20
44.508488495351408
 30
0.0
  0
VERTEX
  5
12B0
  8
SAPA_PROFIL
  6
CONTINUOUS
 62
     7
 10
9.6134117628209381
 20
42.873573313021147
 30
0.0
 42
-0.4142135623730951
  0
VERTEX
  5
12B1
  8
SAPA_PROFIL
  6
CONTINUOUS
 62
     7
 10
9.2288979335874082
 20
43.052875056259182
 30
0.0
  0
VERTEX
  5
12B2
  8
SAPA_PROFIL
  6
CONTINUOUS
 62
     7
 10
8.4080495896058025
 20
45.308137346145372
 30
0.0
 42
-0.4142135623731257
  0
VERTEX
  5
12B3
  8
SAPA_PROFIL
  6
CONTINUOUS
 62
     7
 10
8.5873513328439355
 20
45.69265117537887
 30
0.0
  0
VERTEX
  5
12B4
  8
SAPA_PROFIL
  6
CONTINUOUS
 62
     7
 10
8.9632283811582791
 20
45.829459232709141
 30
0.0
 42
0.7105995015649868
  0
VERTEX
  5
12B5
  8
SAPA_PROFIL
  6
CONTINUOUS
 62
     7
 10
8.9553650966707004
 20
46.396013834683103
 30
0.0
  0
VERTEX
  5
12B6
  8
SAPA_PROFIL
  6
CONTINUOUS
 62
     7
 10
8.2453311895182662
 20
46.632343796164783
 30
0.0
  0
VERTEX
  5
12B7
  8
SAPA_PROFIL
  6
CONTINUOUS
 62
     7
 10
6.6478537341821804
 20
46.050909552511129
 30
0.0
 42
0.4142135623731155
  0
VERTEX
  5
12B8
  8
SAPA_PROFIL
  6
CONTINUOUS
 62
     7
 10
6.4685519909441549
 20
45.66639572327766
 30
0.0
  0
VERTEX
  5
12B9
  8
SAPA_PROFIL
  6
CONTINUOUS
 62
     7
 10
6.6576160762397301
 20
45.146946418098231
 30
0.0
 42
0.2134217652833684
  0
VERTEX
  5
12BA
  8
SAPA_PROFIL
  6
CONTINUOUS
 62
     7
 10
6.8280633673332609
 20
44.971026774627582
 30
0.0
 42
-0.2134217652833637
  0
VERTEX
  5
12BB
  8
SAPA_PROFIL
  6
CONTINUOUS
 62
     7
 10
6.9985106584269401
 20
44.795107131156861
 30
0.0
  0
VERTEX
  5
12BC
  8
SAPA_PROFIL
  6
CONTINUOUS
 62
     7
 10
8.3323892173970489
 20
41.13030591009182
 30
0.0
 42
0.4142135623731104
  0
VERTEX
  5
12BD
  8
SAPA_PROFIL
  6
CONTINUOUS
 62
     7
 10
8.7169030466305806
 20
40.951004166853792
 30
0.0
  0
VERTEX
  5
12BE
  8
SAPA_PROFIL
  6
CONTINUOUS
 62
     7
 10
14.35480742734412
 20
43.00303354507254
 30
0.0
 42
-0.424474816209579
  0
VERTEX
  5
12BF
  8
SAPA_PROFIL
  6
CONTINUOUS
 62
     7
 10
15.00134575715459
 20
42.687695731866981
 30
0.0
  0
SEQEND
  5
12C0
  8
SAPA_PROFIL
  6
CONTINUOUS
 62
     7
  0
POLYLINE
  5
C08
  8
SAPA_PROFIL
  6
CONTINUOUS
 62
     7
 66
     1
 10
0.0
 20
0.0
 30
0.0
 70
   129
  0
VERTEX
  5
12C1
  8
SAPA_PROFIL
  6
CONTINUOUS
 62
     7
 10
-22.706147533368529
 20
11.2100913993071
 30
0.0
  0
VERTEX
  5
12C2
  8
SAPA_PROFIL
  6
CONTINUOUS
 62
     7
 10
-25.167409867434621
 20
17.972354085507838
 30
0.0
 42
-0.3394542588633467
  0
VERTEX
  5
12C3
  8
SAPA_PROFIL
  6
CONTINUOUS
 62
     7
 10
-24.801293682999191
 20
19.133526273122548
 30
0.0
  0
VERTEX
  5
12C4
  8
SAPA_PROFIL
  6
CONTINUOUS
 62
     7
 10
-24.35805029902108
 20
19.44388863184497
 30
0.0
 42
0.3394542588633758
  0
VERTEX
  5
12C5
  8
SAPA_PROFIL
  6
CONTINUOUS
 62
     7
 10
-23.259701745716491
 20
22.927405194688919
 30
0.0
  0
VERTEX
  5
12C6
  8
SAPA_PROFIL
  6
CONTINUOUS
 62
     7
 10
-23.499115846044461
 20
23.585190029239069
 30
0.0
 42
-0.4142135623730848
  0
VERTEX
  5
12C7
  8
SAPA_PROFIL
  6
CONTINUOUS
 62
     7
 10
-23.319814102806379
 20
23.969703858472531
 30
0.0
  0
VERTEX
  5
12C8
  8
SAPA_PROFIL
  6
CONTINUOUS
 62
     7
 10
13.163965143389881
 20
37.248713537626969
 30
0.0
 42
-0.4142135623729826
  0
VERTEX
  5
12C9
  8
SAPA_PROFIL
  6
CONTINUOUS
 62
     7
 10
13.54847897262326
 20
37.069411794388998
 30
0.0
  0
VERTEX
  5
12CA
  8
SAPA_PROFIL
  6
CONTINUOUS
 62
     7
 10
13.78789307295127
 20
36.411626959838742
 30
0.0
 42
0.3394542588633709
  0
VERTEX
  5
12CB
  8
SAPA_PROFIL
  6
CONTINUOUS
 62
     7
 10
16.868438163551669
 20
34.449103295540503
 30
0.0
  0
VERTEX
  5
12CC
  8
SAPA_PROFIL
  6
CONTINUOUS
 62
     7
 10
17.407479373497491
 20
34.496263290584587
 30
0.0
 42
-0.3394542588634342
  0
VERTEX
  5
12CD
  8
SAPA_PROFIL
  6
CONTINUOUS
 62
     7
 10
18.434327737031548
 20
33.842088735818763
 30
0.0
  0
VERTEX
  5
12CE
  8
SAPA_PROFIL
  6
CONTINUOUS
 62
     7
 10
20.895590071097939
 20
27.079826049617161
 30
0.0
 42
-0.4142135623730132
  0
VERTEX
  5
12CF
  8
SAPA_PROFIL
  6
CONTINUOUS
 62
     7
 10
20.716288327859921
 20
26.695312220383691
 30
0.0
  0
VERTEX
  5
12D0
  8
SAPA_PROFIL
  6
CONTINUOUS
 62
     7
 10
-22.321633704135049
 20
11.030789656069039
 30
0.0
 42
-0.4142135623730951
  0
SEQEND
  5
12D1
  8
SAPA_PROFIL
  6
CONTINUOUS
 62
     7
  0
ARC
  5
C4F
  8
SAPA_FYLLNING
 10
-21.888437554437129
 20
52.01081951520424
 30
0.0
 40
21.455789953952831
 50
355.1990462279424
 51
44.800953772057973
  0
POLYLINE
  5
C50
  8
SAPA_FYLLNING
 66
     1
 10
0.0
 20
0.0
 30
0.0
 70
     1
  0
VERTEX
  5
1306
  8
SAPA_FYLLNING
 10
-1.4527952263035071
 20
67.430118334325101
 30
0.0
 42
-0.4142135623730951
  0
VERTEX
  5
1307
  8
SAPA_FYLLNING
 10
-1.1539589875733891
 20
68.070974716380888
 30
0.0
  0
VERTEX
  5
1308
  8
SAPA_FYLLNING
 10
1.6651188747843331
 20
69.097035146357896
 30
0.0
 42
-0.4142135623730951
  0
VERTEX
  5
1309
  8
SAPA_FYLLNING
 10
2.3059752568401231
 20
68.798198907627778
 30
0.0
  0
VERTEX
  5
130A
  8
SAPA_FYLLNING
 10
7.4362774067260702
 20
54.702809595836712
 30
0.0
 42
-0.4142135623730951
  0
VERTEX
  5
130B
  8
SAPA_FYLLNING
 10
7.1374411679959504
 20
54.06195321378091
 30
0.0
  0
VERTEX
  5
130C
  8
SAPA_FYLLNING
 10
4.3183633056382273
 20
53.035892783803902
 30
0.0
 42
-0.4142135623730951
  0
VERTEX
  5
130D
  8
SAPA_FYLLNING
 10
3.6775069235824378
 20
53.334729022534027
 30
0.0
  0
SEQEND
  5
130E
  8
SAPA_FYLLNING
  0
POLYLINE
  5
C51
  8
SAPA_FYLLNING
 66
     1
 10
0.0
 20
0.0
 30
0.0
 70
     1
  0
VERTEX
  5
130F
  8
SAPA_FYLLNING
 10
6.3635819787138717
 20
70.807135862986243
 30
0.0
 42
-0.4142135623730951
  0
VERTEX
  5
1310
  8
SAPA_FYLLNING
 10
7.0044383607696634
 20
70.508299624256125
 30
0.0
  0
VERTEX
  5
1311
  8
SAPA_FYLLNING
 10
12.134740510655609
 20
56.412910312465058
 30
0.0
 42
-0.4142135623730951
  0
VERTEX
  5
1312
  8
SAPA_FYLLNING
 10
11.835904271925489
 20
55.772053930409271
 30
0.0
  0
VERTEX
  5
1313
  8
SAPA_FYLLNING
 10
9.0168264095677664
 20
54.745993500432249
 30
0.0
 42
-0.4142135623730951
  0
VERTEX
  5
1314
  8
SAPA_FYLLNING
 10
8.3759700275119773
 20
55.044829739162381
 30
0.0
  0
VERTEX
  5
1315
  8
SAPA_FYLLNING
 10
3.245667877626031
 20
69.140219050953448
 30
0.0
 42
-0.4142135623730951
  0
VERTEX
  5
1316
  8
SAPA_FYLLNING
 10
3.5445041163561468
 20
69.781075433009249
 30
0.0
  0
SEQEND
  5
1317
  8
SAPA_FYLLNING
  0
LINE
  5
C52
  8
SAPA_FYLLNING
 10
-2.9055180620779222
 20
68.497637122178276
 30
0.0
 11
3.250844517785036
 21
51.583169948029493
 31
0.0
1001
ACAD
1000
ASC_BOUNDS
1002
{
1070
    19
1005
0
1002
}
  0
LINE
  5
C53
  8
SAPA_FYLLNING
 10
7.4311007665670639
 20
72.259858698760667
 30
0.0
 11
13.58746334643002
 21
55.345391524611863
 31
0.0
  0
LINE
  5
C54
  8
SAPA_FYLLNING
 10
7.4311007665670639
 20
72.259858698760667
 30
0.0
 11
13.58746334643002
 21
55.345391524611863
 31
0.0
1001
ACAD
1000
ASC_BOUNDS
1002
{
1070
    19
1005
0
1002
}
  0
POLYLINE
  5
C55
  8
SAPA_FYLLNING
 66
     1
 10
0.0
 20
0.0
 30
0.0
  0
VERTEX
  5
1318
  8
SAPA_FYLLNING
 10
27.68285265821865
 20
60.475693674496917
 30
0.0
  0
VERTEX
  5
1319
  8
SAPA_FYLLNING
 10
-0.5079259653585933
 20
50.215089374726809
 30
0.0
  0
VERTEX
  5
131A
  8
SAPA_FYLLNING
 10
-0.1659058220329239
 20
49.27539675394091
 30
0.0
  0
VERTEX
  5
131B
  8
SAPA_FYLLNING
 10
28.024872801544081
 20
59.536001053711651
 30
0.0
  0
SEQEND
  5
131C
  8
SAPA_FYLLNING
  0
POLYLINE
  5
C56
  8
SAPA_FYLLNING
 66
     1
 10
0.0
 20
0.0
 30
0.0
1001
ACAD
1000
ASC_BOUNDS
1002
{
1070
    19
1005
0
1005
0
1002
}
  0
VERTEX
  5
131D
  8
SAPA_FYLLNING
 10
19.474369218401659
 20
83.028316573361167
 30
0.0
  0
VERTEX
  5
131E
  8
SAPA_FYLLNING
 10
-8.7164094051755736
 20
72.767712273591044
 30
0.0
  0
VERTEX
  5
131F
  8
SAPA_FYLLNING
 10
-6.6642885452215523
 20
67.129556548875613
 30
0.0
  0
VERTEX
  5
1320
  8
SAPA_FYLLNING
 10
21.526490078355678
 20
77.390160848645706
 30
0.0
  0
SEQEND
  5
1321
  8
SAPA_FYLLNING
  0
POLYLINE
  5
C5D
  8
SAPA_FOGBAND
 66
     1
 10
0.0
 20
0.0
 30
0.0
 70
     1
  0
VERTEX
  5
1392
  8
SAPA_FOGBAND
 10
4.4911737873999584
 20
50.790299137629439
 30
0.0
 42
0.4679153941829814
  0
VERTEX
  5
1393
  8
SAPA_FOGBAND
 10
4.3369136255473686
 20
50.524759363244883
 30
0.0
  0
VERTEX
  5
1394
  8
SAPA_FOGBAND
 10
5.8933122065961578
 20
46.248037304041382
 30
0.0
 42
0.6685323900181767
  0
VERTEX
  5
1395
  8
SAPA_FOGBAND
 10
6.2625948735954662
 20
46.232095011673607
 30
0.0
 42
-0.1991665782226247
  0
VERTEX
  5
1396
  8
SAPA_FOGBAND
 10
6.319064930667265
 20
46.283891113243683
 30
0.0
  0
VERTEX
  5
1397
  8
SAPA_FOGBAND
 10
8.7506704846229866
 20
47.168923156360187
 30
0.0
 42
-0.4142135623731784
  0
VERTEX
  5
1398
  8
SAPA_FOGBAND
 10
9.0070130374451445
 20
47.04938866086804
 30
0.0
  0
VERTEX
  5
1399
  8
SAPA_FOGBAND
 10
9.2806291521057034
 20
46.297634564239239
 30
0.0
 42
0.4142135623731368
  0
VERTEX
  5
139A
  8
SAPA_FOGBAND
 10
9.5369717049280762
 20
46.17810006874717
 30
0.0
  0
VERTEX
  5
139B
  8
SAPA_FOGBAND
 10
9.9128487532424892
 20
46.314908126077569
 30
0.0
 42
-0.4142135623733448
  0
VERTEX
  5
139C
  8
SAPA_FOGBAND
 10
10.16919130606464
 20
46.195373630585422
 30
0.0
  0
VERTEX
  5
139D
  8
SAPA_FOGBAND
 10
10.535699684081219
 20
45.188400137943937
 30
0.0
 42
-0.703825529076487
  0
VERTEX
  5
139E
  8
SAPA_FOGBAND
 10
10.39089323061383
 20
45.06808436180939
 30
0.0
  0
VERTEX
  5
139F
  8
SAPA_FOGBAND
 10
9.287747721928806
 20
45.719325443155832
 30
0.0
 42
0.9999999999999856
  0
VERTEX
  5
13A0
  8
SAPA_FOGBAND
 10
8.8810501908182022
 20
45.030415348739673
 30
0.0
  0
VERTEX
  5
13A1
  8
SAPA_FOGBAND
 10
10.431097903254351
 20
44.115345903740632
 30
0.0
 42
0.2242387338110932
  0
VERTEX
  5
13A2
  8
SAPA_FOGBAND
 10
11.494087974772031
 20
44.017152150283451
 30
0.0
 42
0.2242387338111004
  0
VERTEX
  5
13A3
  8
SAPA_FOGBAND
 10
12.245267884077689
 20
44.77564977665962
 30
0.0
  0
VERTEX
  5
13A4
  8
SAPA_FOGBAND
 10
12.84447801951077
 20
46.472985104046103
 30
0.0
 42
1.0000000000000899
  0
VERTEX
  5
13A5
  8
SAPA_FOGBAND
 10
12.0901067628946
 20
46.739300719794173
 30
0.0
  0
VERTEX
  5
13A6
  8
SAPA_FOGBAND
 10
11.663657974022881
 20
45.531332843633862
 30
0.0
 42
-0.7038255290763446
  0
VERTEX
  5
13A7
  8
SAPA_FOGBAND
 10
11.47539230486738
 20
45.530420281269592
 30
0.0
  0
VERTEX
  5
13A8
  8
SAPA_FOGBAND
 10
11.108883926850771
 20
46.537393773911177
 30
0.0
 42
-0.4142135623729703
  0
VERTEX
  5
13A9
  8
SAPA_FOGBAND
 10
11.22841842234263
 20
46.793736326733473
 30
0.0
  0
VERTEX
  5
13AA
  8
SAPA_FOGBAND
 10
11.60429547065708
 20
46.930544384063772
 30
0.0
 42
0.4142135623730117
  0
VERTEX
  5
13AB
  8
SAPA_FOGBAND
 10
11.723829966149189
 20
47.18688693688604
 30
0.0
  0
VERTEX
  5
13AC
  8
SAPA_FOGBAND
 10
11.450213851488421
 20
47.938641033514749
 30
0.0
 42
-0.4142135623731784
  0
VERTEX
  5
13AD
  8
SAPA_FOGBAND
 10
11.56974834698071
 20
48.194983586337202
 30
0.0
  0
VERTEX
  5
13AE
  8
SAPA_FOGBAND
 10
14.00135390093641
 20
49.080015629453086
 30
0.0
 42
-0.1991665782227297
  0
VERTEX
  5
13AF
  8
SAPA_FOGBAND
 10
14.07790636667813
 20
49.076635766674272
 30
0.0
 42
0.6685323900181511
  0
VERTEX
  5
13B0
  8
SAPA_FOGBAND
 10
14.350545793669371
 20
49.326218593972293
 30
0.0
  0
VERTEX
  5
13B1
  8
SAPA_FOGBAND
 10
12.79415747882007
 20
53.602912443383431
 30
0.0
 42
0.4679406819625479
  0
VERTEX
  5
13B2
  8
SAPA_FOGBAND
 10
12.505295985901011
 20
53.707186786732521
 30
0.0
  0
VERTEX
  5
13B3
  8
SAPA_FOGBAND
 10
11.89107338086434
 20
53.348194376428673
 30
0.0
 42
0.3624646087620003
  0
VERTEX
  5
13B4
  8
SAPA_FOGBAND
 10
11.80405498748892
 20
53.107119773539232
 30
0.0
  0
VERTEX
  5
13B5
  8
SAPA_FOGBAND
 10
11.84356480197172
 20
52.998567450400891
 30
0.0
 42
-0.3515239862759624
  0
VERTEX
  5
13B6
  8
SAPA_FOGBAND
 10
11.76317099554916
 20
52.761539183598522
 30
0.0
  0
VERTEX
  5
13B7
  8
SAPA_FOGBAND
 10
10.441708754876201
 20
51.939828730722923
 30
0.0
 42
-0.751570456352482
  0
VERTEX
  5
13B8
  8
SAPA_FOGBAND
 10
10.29889845273153
 20
52.068328831210778
 30
0.0
  0
VERTEX
  5
13B9
  8
SAPA_FOGBAND
 10
11.56667277883302
 20
52.767105649312349
 30
0.0
 42
0.7197481174277197
  0
VERTEX
  5
13BA
  8
SAPA_FOGBAND
 10
11.091987487291901
 20
53.23109026593238
 30
0.0
  0
VERTEX
  5
13BB
  8
SAPA_FOGBAND
 10
9.1723228475737564
 20
52.246976264658123
 30
0.0
 42
-0.5053637834253038
  0
VERTEX
  5
13BC
  8
SAPA_FOGBAND
 10
8.9307907349074966
 20
52.247478053544178
 30
0.0
  0
VERTEX
  5
13BD
  8
SAPA_FOGBAND
 10
8.90121807133659
 20
52.287795017335732
 30
0.0
 42
0.3333333333331249
  0
VERTEX
  5
13BE
  8
SAPA_FOGBAND
 10
8.6715461875068662
 20
52.357442887210162
 30
0.0
  0
VERTEX
  5
13BF
  8
SAPA_FOGBAND
 10
8.2956691391925936
 20
52.220634829880048
 30
0.0
 42
0.3333333333331312
  0
VERTEX
  5
13C0
  8
SAPA_FOGBAND
 10
8.1644990566405138
 20
52.019651224968548
 30
0.0
  0
VERTEX
  5
13C1
  8
SAPA_FOGBAND
 10
8.1677603268291428
 20
51.969757697163907
 30
0.0
 42
-0.505363783425254
  0
VERTEX
  5
13C2
  8
SAPA_FOGBAND
 10
7.9830585377653271
 20
51.814119455212598
 30
0.0
  0
VERTEX
  5
13C3
  8
SAPA_FOGBAND
 10
5.8799338213189021
 20
51.334057872120027
 30
0.0
 42
0.7197481174279296
  0
VERTEX
  5
13C4
  8
SAPA_FOGBAND
 10
5.8145473541522072
 20
50.673503210962679
 30
0.0
  0
VERTEX
  5
13C5
  8
SAPA_FOGBAND
 10
7.2348839124029949
 20
50.953118741172467
 30
0.0
 42
-0.7515704563522813
  0
VERTEX
  5
13C6
  8
SAPA_FOGBAND
 10
7.2080831464618633
 20
50.762885260499033
 30
0.0
  0
VERTEX
  5
13C7
  8
SAPA_FOGBAND
 10
5.667599042344647
 20
50.542932431804061
 30
0.0
 42
-0.3515239862759173
  0
VERTEX
  5
13C8
  8
SAPA_FOGBAND
 10
5.4536549806271308
 20
50.672830475786299
 30
0.0
  0
VERTEX
  5
13C9
  8
SAPA_FOGBAND
 10
5.4141451661444071
 20
50.781382798924419
 30
0.0
 42
0.3624646087620678
  0
VERTEX
  5
13CA
  8
SAPA_FOGBAND
 10
5.1925254417025597
 20
50.910122313768547
 30
0.0
  0
SEQEND
  5
13CB
  8
SAPA_FOGBAND
  0
POLYLINE
  5
C5E
  8
SAPA_FOGBAND
 66
     1
 10
0.0
 20
0.0
 30
0.0
 70
     1
  0
VERTEX
  5
13CC
  8
SAPA_FOGBAND
 10
0.3503268874982979
 20
83.959252033837373
 30
0.0
  0
VERTEX
  5
13CD
  8
SAPA_FOGBAND
 10
-0.6985494871730227
 20
83.577492254031725
 30
0.0
 42
0.3812119866950782
  0
VERTEX
  5
13CE
  8
SAPA_FOGBAND
 10
-0.7931203998029224
 20
83.401598479092186
 30
0.0
  0
VERTEX
  5
13CF
  8
SAPA_FOGBAND
 10
-0.6210037006939957
 20
82.683011617342046
 30
0.0
 42
-0.3812119866950766
  0
VERTEX
  5
13D0
  8
SAPA_FOGBAND
 10
-0.7155746133243222
 20
82.507117842402366
 30
0.0
  0
VERTEX
  5
13D1
  8
SAPA_FOGBAND
 10
-3.8651621799875979
 20
81.360761717922003
 30
0.0
 42
-0.4142135623730951
  0
VERTEX
  5
13D2
  8
SAPA_FOGBAND
 10
-4.1215047328101084
 20
81.480296213413794
 30
0.0
  0
VERTEX
  5
13D3
  8
SAPA_FOGBAND
 10
-4.395120847470201
 20
82.232050310042624
 30
0.0
 42
0.4142135623732615
  0
VERTEX
  5
13D4
  8
SAPA_FOGBAND
 10
-4.6514634002927879
 20
82.351584805534628
 30
0.0
  0
VERTEX
  5
13D5
  8
SAPA_FOGBAND
 10
-5.0273404486072373
 20
82.214776748204315
 30
0.0
 42
-0.4142135623733032
  0
VERTEX
  5
13D6
  8
SAPA_FOGBAND
 10
-5.2836830014293987
 20
82.334311243696476
 30
0.0
  0
VERTEX
  5
13D7
  8
SAPA_FOGBAND
 10
-5.6501913794459337
 20
83.34128473633784
 30
0.0
 42
-0.7038255290763713
  0
VERTEX
  5
13D8
  8
SAPA_FOGBAND
 10
-5.505384925978583
 20
83.461600512472515
 30
0.0
  0
VERTEX
  5
13D9
  8
SAPA_FOGBAND
 10
-4.402239417293301
 20
82.810359431126045
 30
0.0
 42
0.9999999999999722
  0
VERTEX
  5
13DA
  8
SAPA_FOGBAND
 10
-3.9955418861827412
 20
83.499269525542303
 30
0.0
  0
VERTEX
  5
13DB
  8
SAPA_FOGBAND
 10
-5.5455895986191761
 20
84.414338970541479
 30
0.0
 42
0.224238733811101
  0
VERTEX
  5
13DC
  8
SAPA_FOGBAND
 10
-6.6085796701365274
 20
84.512532723998419
 30
0.0
 42
0.2242387338111034
  0
VERTEX
  5
13DD
  8
SAPA_FOGBAND
 10
-7.3597595794423087
 20
83.754035097622577
 30
0.0
  0
VERTEX
  5
13DE
  8
SAPA_FOGBAND
 10
-7.9589697148753089
 20
82.056699770235866
 30
0.0
 42
0.9999999999999722
  0
VERTEX
  5
13DF
  8
SAPA_FOGBAND
 10
-7.2045984582590981
 20
81.790384154487697
 30
0.0
  0
VERTEX
  5
13E0
  8
SAPA_FOGBAND
 10
-6.7781496693874557
 20
82.998352030648206
 30
0.0
 42
-0.7038255290763713
  0
VERTEX
  5
13E1
  8
SAPA_FOGBAND
 10
-6.5898840002318408
 20
82.999264593012157
 30
0.0
  0
VERTEX
  5
13E2
  8
SAPA_FOGBAND
 10
-6.2233756222153831
 20
81.992291100371006
 30
0.0
 42
-0.414213562372887
  0
VERTEX
  5
13E3
  8
SAPA_FOGBAND
 10
-6.3429101177072438
 20
81.735948547548716
 30
0.0
  0
VERTEX
  5
13E4
  8
SAPA_FOGBAND
 10
-6.7187871660216141
 20
81.599140490218204
 30
0.0
 42
0.4142135623730951
  0
VERTEX
  5
13E5
  8
SAPA_FOGBAND
 10
-6.838321661513981
 20
81.342797937395972
 30
0.0
  0
VERTEX
  5
13E6
  8
SAPA_FOGBAND
 10
-6.564705546853383
 20
80.591043840767071
 30
0.0
 42
-0.4142135623733032
  0
VERTEX
  5
13E7
  8
SAPA_FOGBAND
 10
-6.6842400423452428
 20
80.334701287944782
 30
0.0
  0
VERTEX
  5
13E8
  8
SAPA_FOGBAND
 10
-11.31648201460558
 20
78.648703092123199
 30
0.0
 42
0.2663342079579414
  0
VERTEX
  5
13E9
  8
SAPA_FOGBAND
 10
-11.958204693663159
 20
77.888593486708999
 30
0.0
  0
VERTEX
  5
13EA
  8
SAPA_FOGBAND
 10
-12.554492351327401
 20
71.193092912449472
 30
0.0
 42
0.0528612085595158
  0
VERTEX
  5
13EB
  8
SAPA_FOGBAND
 10
-12.5702787611035
 20
70.982829055192681
 30
0.0
 42
0.2389362379610816
  0
VERTEX
  5
13EC
  8
SAPA_FOGBAND
 10
-11.91201082831415
 20
69.898751520826295
 30
0.0
 42
0.4294697894412148
  0
VERTEX
  5
13ED
  8
SAPA_FOGBAND
 10
-11.635668491639461
 20
69.986941730265585
 30
0.0
  0
VERTEX
  5
13EE
  8
SAPA_FOGBAND
 10
-9.0627562132719408
 20
73.306334732274905
 30
0.0
 42
-0.1982170680849689
  0
VERTEX
  5
13EF
  8
SAPA_FOGBAND
 10
-8.4996026120785775
 20
73.82098559954332
 30
0.0
  0
VERTEX
  5
13F0
  8
SAPA_FOGBAND
 10
-8.3881005778461226
 20
73.861569021064312
 30
0.0
 42
-0.2084822249037396
  0
VERTEX
  5
13F1
  8
SAPA_FOGBAND
 10
-7.5904445014858899
 20
73.812042618761112
 30
0.0
  0
VERTEX
  5
13F2
  8
SAPA_FOGBAND
 10
-3.6687287738427918
 20
74.578966261097577
 30
0.0
  0
VERTEX
  5
13F3
  8
SAPA_FOGBAND
 10
-3.2735623524409401
 20
75.109657399146286
 30
0.0
  0
VERTEX
  5
13F4
  8
SAPA_FOGBAND
 10
-6.7256337370103561
 20
74.91469871650564
 30
0.0
 42
-0.6313983151680253
  0
VERTEX
  5
13F5
  8
SAPA_FOGBAND
 10
-6.6091562149737531
 20
75.443743844979323
 30
0.0
  0
VERTEX
  5
13F6
  8
SAPA_FOGBAND
 10
-3.823380196713225
 20
76.089300536600135
 30
0.0
 42
-0.3791008518982226
  0
VERTEX
  5
13F7
  8
SAPA_FOGBAND
 10
-3.4737471158421722
 20
75.899651067303466
 30
0.0
  0
VERTEX
  5
13F8
  8
SAPA_FOGBAND
 10
-3.393590322875196
 20
75.679422088610792
 30
0.0
 42
0.414213562373095
  0
VERTEX
  5
13F9
  8
SAPA_FOGBAND
 10
-3.0090764936416452
 20
75.500120345373034
 30
0.0
  0
VERTEX
  5
13FA
  8
SAPA_FOGBAND
 10
1.2681422179649771
 20
77.056900641844294
 30
0.0
  0
VERTEX
  5
13FB
  8
SAPA_FOGBAND
 10
7.3922784922399467
 20
78.730727373447507
 30
0.0
  0
VERTEX
  5
13FC
  8
SAPA_FOGBAND
 10
7.3922784922399467
 20
78.730727373447507
 30
0.0
  0
VERTEX
  5
13FD
  8
SAPA_FOGBAND
 10
7.802322819946073
 20
79.32301269135192
 30
0.0
 42
0.5371060876771919
  0
VERTEX
  5
13FE
  8
SAPA_FOGBAND
 10
7.5153944669503927
 20
81.289498178301585
 30
0.0
  0
VERTEX
  5
13FF
  8
SAPA_FOGBAND
 10
1.17532106726761
 20
82.131169813764444
 30
0.0
  0
VERTEX
  5
1400
  8
SAPA_FOGBAND
 10
0.5425838021151517
 20
83.869601162218274
 30
0.0
 42
0.4142135623730951
  0
SEQEND
  5
1401
  8
SAPA_FOGBAND
  0
SOLID
  5
C69
  8
SAPA_MATT
 10
48.460951611217439
 20
0.648891545376972
 30
0.0
 11
47.560558363309838
 21
0.2138145417070305
 31
0.0
 12
49.315985998273469
 22
-2.269826700180781
 32
0.0
 13
49.315985998273469
 23
-2.269826700180781
 33
0.0
  0
SOLID
  5
C6A
  8
SAPA_MATT
 10
49.412544965716869
 20
-10.28932340669955
 30
0.0
 11
50.407442955733998
 21
-10.39020942882302
 31
0.0
 12
50.212652027095842
 22
-7.3550724477099294
 32
0.0
 13
50.212652027095842
 23
-7.3550724477099294
 33
0.0
  0
ARC
  5
C6B
  8
SAPA_MATT
 10
35.344388134559438
 20
-7.3550724477099356
 30
0.0
 40
14.868263892536399
 50
0.0000000000000254
 51
19.99999999999995
  0
ARC
  5
C6C
  8
SAPA_MATT
 10
35.344388134559438
 20
-7.3550724477099356
 30
0.0
 40
14.868263892536399
 50
31.580387683823801
 51
43.160775367647652
  0
ARC
  5
C6D
  8
SAPA_MATT
 10
35.344388134559438
 20
-7.3550724477099356
 30
0.0
 40
14.868263892536399
 50
336.83922463235228
 51
348.4196123161762
  0
LINE
  5
C6E
  8
SAPA_MATT
 10
35.344388134559424
 20
-7.3550724477099374
 30
0.0
 11
66.781507407453319
 21
-7.3550724477099356
 31
0.0
  0
VIEWPORT
  5
C4
 67
     1
  8
0
 10
143.06236603067589
 20
116.00969601843509
 30
0.0
 40
369.98580003443811
 41
256.8421457311839
 68
     1
 69
     1
1001
ACAD
1000
MVIEW
1002
{
1070
    16
1010
0.0
1020
0.0
1030
0.0
1010
0.0
1020
0.0
1030
1.0
1040
0.0
1040
256.8421457311839
1040
99.112914085388169
1040
143.07606935501099
1040
50.0
1040
0.0
1040
0.0
1070
     0
1070
     0
1070
     1
1070
     1
1070
     0
1070
     0
1070
     0
1070
     0
1040
0.0
1040
0.0
1040
0.0
1040
10.0
1040
10.0
1040
10.0
1040
10.0
1070
     0
1002
{
1002
}
1002
}
  0
ENDSEC
  0
EOF
