  0
SECTION
  2
HEADER
  9
$ACADVER
  1
AC1009
  9
$INSBASE
 10
0.0
 20
0.0
 30
0.0
  9
$EXTMIN
 10
-35.34604306719077
 20
-8.0025660626522779
 30
0.0
  9
$EXTMAX
 10
115.1574056910533
 20
235.4468491538442
 30
0.0
  9
$LIMMIN
 10
0.0
 20
0.0
  9
$LIMMAX
 10
790.0
 20
790.0
  9
$ORTHOMODE
 70
     0
  9
$REGENMODE
 70
     1
  9
$FILLMODE
 70
     1
  9
$QTEXTMODE
 70
     0
  9
$MIRRTEXT
 70
     1
  9
$DRAGMODE
 70
     2
  9
$LTSCALE
 40
4.0
  9
$OSMODE
 70
   167
  9
$ATTMODE
 70
     1
  9
$TEXTSIZE
 40
3.5
  9
$TRACEWID
 40
0.05
  9
$TEXTSTYLE
  7
ISO
  9
$CLAYER
  8
0
  9
$CELTYPE
  6
BYLAYER
  9
$CECOLOR
 62
   256
  9
$DIMSCALE
 40
0.0
  9
$DIMASZ
 40
3.0
  9
$DIMEXO
 40
1.5
  9
$DIMDLI
 40
10.0
  9
$DIMRND
 40
0.0
  9
$DIMDLE
 40
0.0
  9
$DIMEXE
 40
1.5
  9
$DIMTP
 40
0.0
  9
$DIMTM
 40
0.0
  9
$DIMTXT
 40
3.0
  9
$DIMCEN
 40
-5.0
  9
$DIMTSZ
 40
0.0
  9
$DIMTOL
 70
     0
  9
$DIMLIM
 70
     0
  9
$DIMTIH
 70
     0
  9
$DIMTOH
 70
     0
  9
$DIMSE1
 70
     0
  9
$DIMSE2
 70
     0
  9
$DIMTAD
 70
     1
  9
$DIMZIN
 70
     8
  9
$DIMBLK
  1

  9
$DIMASO
 70
     1
  9
$DIMSHO
 70
     1
  9
$DIMPOST
  1

  9
$DIMAPOST
  1

  9
$DIMALT
 70
     0
  9
$DIMALTD
 70
     0
  9
$DIMALTF
 40
25.399999999999999
  9
$DIMLFAC
 40
-1.0
  9
$DIMTOFL
 70
     1
  9
$DIMTVP
 40
0.0
  9
$DIMTIX
 70
     0
  9
$DIMSOXD
 70
     0
  9
$DIMSAH
 70
     0
  9
$DIMBLK1
  1

  9
$DIMBLK2
  1

  9
$DIMSTYLE
  2
MASKIN
  9
$DIMCLRD
 70
   256
  9
$DIMCLRE
 70
   256
  9
$DIMCLRT
 70
     2
  9
$DIMTFAC
 40
1.0
  9
$DIMGAP
 40
1.0
  9
$LUNITS
 70
     2
  9
$LUPREC
 70
     8
  9
$SKETCHINC
 40
0.1
  9
$FILLETRAD
 40
0.0
  9
$AUNITS
 70
     0
  9
$AUPREC
 70
     8
  9
$MENU
  1
ACAD
  9
$ELEVATION
 40
0.0
  9
$PELEVATION
 40
0.0
  9
$THICKNESS
 40
0.0
  9
$LIMCHECK
 70
     0
  9
$BLIPMODE
 70
     0
  9
$CHAMFERA
 40
0.0
  9
$CHAMFERB
 40
0.0
  9
$SKPOLY
 70
     0
  9
$TDCREATE
 40
2457436.6627717591
  9
$TDUPDATE
 40
2457666.6018303009
  9
$TDINDWG
 40
0.005365625
  9
$TDUSRTIMER
 40
0.0053654514
  9
$USRTIMER
 70
     1
  9
$ANGBASE
 50
0.0
  9
$ANGDIR
 70
     0
  9
$PDMODE
 70
     0
  9
$PDSIZE
 40
0.0
  9
$PLINEWID
 40
0.0
  9
$COORDS
 70
     1
  9
$SPLFRAME
 70
     0
  9
$SPLINETYPE
 70
     6
  9
$SPLINESEGS
 70
     8
  9
$ATTDIA
 70
     1
  9
$ATTREQ
 70
     1
  9
$HANDLING
 70
     1
  9
$HANDSEED
  5
183E
  9
$SURFTAB1
 70
     6
  9
$SURFTAB2
 70
     6
  9
$SURFTYPE
 70
     6
  9
$SURFU
 70
     6
  9
$SURFV
 70
     6
  9
$UCSNAME
  2

  9
$UCSORG
 10
0.0
 20
0.0
 30
0.0
  9
$UCSXDIR
 10
1.0
 20
0.0
 30
0.0
  9
$UCSYDIR
 10
0.0
 20
1.0
 30
0.0
  9
$PUCSNAME
  2

  9
$PUCSORG
 10
0.0
 20
0.0
 30
0.0
  9
$PUCSXDIR
 10
1.0
 20
0.0
 30
0.0
  9
$PUCSYDIR
 10
0.0
 20
1.0
 30
0.0
  9
$USERI1
 70
     0
  9
$USERI2
 70
     0
  9
$USERI3
 70
     0
  9
$USERI4
 70
     0
  9
$USERI5
 70
     0
  9
$USERR1
 40
0.0
  9
$USERR2
 40
0.0
  9
$USERR3
 40
0.0
  9
$USERR4
 40
0.0
  9
$USERR5
 40
0.0
  9
$WORLDVIEW
 70
     1
  9
$SHADEDGE
 70
     3
  9
$SHADEDIF
 70
    70
  9
$TILEMODE
 70
     1
  9
$MAXACTVP
 70
    16
  9
$PLIMCHECK
 70
     0
  9
$PEXTMIN
 10
1.0000000000000000E+020
 20
1.0000000000000000E+020
 30
1.0000000000000000E+020
  9
$PEXTMAX
 10
-1.0000000000000000E+020
 20
-1.0000000000000000E+020
 30
-1.0000000000000000E+020
  9
$PLIMMIN
 10
-5.069427490234375
 20
-5.8737497329711914
  9
$PLIMMAX
 10
291.89889526367187
 20
204.0995779037475
  9
$UNITMODE
 70
     0
  9
$VISRETAIN
 70
     1
  9
$PLINEGEN
 70
     0
  9
$PSLTSCALE
 70
     1
  0
ENDSEC
  0
SECTION
  2
TABLES
  0
TABLE
  2
VPORT
 70
     1
  0
VPORT
  2
*ACTIVE
 70
     0
 10
0.0
 20
0.0
 11
1.0
 21
1.0
 12
68.391062389666843
 22
286.91056721011472
 13
0.0
 23
0.0
 14
1.0
 24
1.0
 15
0.0
 25
0.0
 16
0.0
 26
0.0
 36
1.0
 17
0.0
 27
0.0
 37
0.0
 40
329.22981464642919
 41
1.6070763500931089
 42
50.0
 43
0.0
 44
0.0
 50
0.0
 51
0.0
 71
     0
 72
   100
 73
     1
 74
     1
 75
     0
 76
     0
 77
     0
 78
     0
  0
ENDTAB
  0
TABLE
  2
LTYPE
 70
    23
  0
LTYPE
  2
CONTINUOUS
 70
     0
  3
Solid line
 72
    65
 73
     0
 40
0.0
  0
LTYPE
  2
BYGG-014279$0$NEWDOT
 70
     0
  3
____ . ____ . ____ . ____ . ____ . ____ . ____
 72
    65
 73
     4
 40
2.0
 49
1.0
 49
-0.5
 49
0.0
 49
-0.5
  0
LTYPE
  2
BYGG-014279$0$ZIGZAG
 70
     0
  3
Zig zag /\/\/\/\/\/\/\/\/\/\/\/\/\/\/\/\/\/\/\/\/\/\/\/
 72
    65
 73
     4
 40
20.32254
 49
0.00254
 49
-5.0800000000000001
 49
-10.16
 49
-5.0800000000000001
  0
LTYPE
  2
BYGG-01482301$0$NEWDOT
 70
     0
  3
____ . ____ . ____ . ____ . ____ . ____ . ____
 72
    65
 73
     4
 40
2.0
 49
1.0
 49
-0.5
 49
0.0
 49
-0.5
  0
LTYPE
  2
BYGG-01482301$0$ZIGZAG
 70
     0
  3
Zig zag /\/\/\/\/\/\/\/\/\/\/\/\/\/\/\/\/\/\/\/\/\/\/\/
 72
    65
 73
     4
 40
20.32254
 49
0.00254
 49
-5.0800000000000001
 49
-10.16
 49
-5.0800000000000001
  0
LTYPE
  2
BYGG-021480$0$NEWDOT
 70
     0
  3
____ . ____ . ____ . ____ . ____ . ____ . ____
 72
    65
 73
     4
 40
2.0
 49
1.0
 49
-0.5
 49
0.0
 49
-0.5
  0
LTYPE
  2
BYGG-021480$0$DASHDOT
 70
     0
  3
__ . __ . __ . __ . __ . __ . __ . __ . __ . __
 72
    65
 73
     4
 40
1.0
 49
0.5
 49
-0.25
 49
0.0
 49
-0.25
  0
LTYPE
  2
BYGG-021480$0$DASHED
 70
     0
  3
__ __ __ __ __ __ __ __ __ __ __ __ __ __ __
 72
    65
 73
     2
 40
0.75
 49
0.5
 49
-0.25
  0
LTYPE
  2
BYGG-021480$0$PHANTOM
 70
     0
  3
Phantom ______  __  __  ______  __  __  ______
 72
    65
 73
     6
 40
63.5
 49
31.75
 49
-6.3499999999999988
 49
6.3499999999999988
 49
-6.3499999999999988
 49
6.3499999999999988
 49
-6.3499999999999988
  0
LTYPE
  2
BYGG-035293$0$NEWDOT
 70
     0
  3
____ . ____ . ____ . ____ . ____ . ____ . ____
 72
    65
 73
     4
 40
2.0
 49
1.0
 49
-0.5
 49
0.0
 49
-0.5
  0
LTYPE
  2
BYGG-035293$0$DASHDOT
 70
     0
  3
__ . __ . __ . __ . __ . __ . __ . __ . __ . __
 72
    65
 73
     4
 40
1.0
 49
0.5
 49
-0.25
 49
0.0
 49
-0.25
  0
LTYPE
  2
BYGG-035293$0$DASHED
 70
     0
  3
__ __ __ __ __ __ __ __ __ __ __ __ __ __ __
 72
    65
 73
     2
 40
0.75
 49
0.5
 49
-0.25
  0
LTYPE
  2
BYGG-035293$0$PHANTOM
 70
     0
  3
Phantom ______  __  __  ______  __  __  ______
 72
    65
 73
     6
 40
63.5
 49
31.75
 49
-6.3499999999999988
 49
6.3499999999999988
 49
-6.3499999999999988
 49
6.3499999999999988
 49
-6.3499999999999988
  0
LTYPE
  2
BYGG-020805$0$NEWDOT
 70
     0
  3
____ . ____ . ____ . ____ . ____ . ____ . ____
 72
    65
 73
     4
 40
2.0
 49
1.0
 49
-0.5
 49
0.0
 49
-0.5
  0
LTYPE
  2
BYGG-020805$0$DASHDOT
 70
     0
  3
__ . __ . __ . __ . __ . __ . __ . __ . __ . __
 72
    65
 73
     4
 40
1.0
 49
0.5
 49
-0.25
 49
0.0
 49
-0.25
  0
LTYPE
  2
BYGG-020805$0$DASHED
 70
     0
  3
__ __ __ __ __ __ __ __ __ __ __ __ __ __ __
 72
    65
 73
     2
 40
0.75
 49
0.5
 49
-0.25
  0
LTYPE
  2
BYGG-020805$0$PHANTOM
 70
     0
  3
Phantom ______  __  __  ______  __  __  ______
 72
    65
 73
     6
 40
63.5
 49
31.75
 49
-6.3499999999999988
 49
6.3499999999999988
 49
-6.3499999999999988
 49
6.3499999999999988
 49
-6.3499999999999988
  0
LTYPE
  2
BYGG-023714$0$NEWDOT
 70
     0
  3
____ . ____ . ____ . ____ . ____ . ____ . ____
 72
    65
 73
     4
 40
2.0
 49
1.0
 49
-0.5
 49
0.0
 49
-0.5
  0
LTYPE
  2
BYGG-023714$0$DASHDOT
 70
     0
  3
__ . __ . __ . __ . __ . __ . __ . __ . __ . __
 72
    65
 73
     4
 40
1.0
 49
0.5
 49
-0.25
 49
0.0
 49
-0.25
  0
LTYPE
  2
BYGG-023714$0$DASHED
 70
     0
  3
__ __ __ __ __ __ __ __ __ __ __ __ __ __ __
 72
    65
 73
     2
 40
0.75
 49
0.5
 49
-0.25
  0
LTYPE
  2
BYGG-023714$0$PHANTOM
 70
     0
  3
Phantom ______  __  __  ______  __  __  ______
 72
    65
 73
     6
 40
63.5
 49
31.75
 49
-6.3499999999999988
 49
6.3499999999999988
 49
-6.3499999999999988
 49
6.3499999999999988
 49
-6.3499999999999988
  0
LTYPE
  2
BYGG-023714$0$ZIGZAG
 70
     0
  3
Zig zag /\/\/\/\/\/\/\/\/\/\/\/\/\/\/\/\/\/\/\/\/\/\/\/
 72
    65
 73
     4
 40
20.32254
 49
0.00254
 49
-5.0800000000000001
 49
-10.16
 49
-5.0800000000000001
  0
LTYPE
  2
BYGG-035294$0$PHANTOM2
 70
     0
  3
Phantom (.5x) ___ _ _ ___ _ _ ___ _ _ ___ _ _
 72
    65
 73
     6
 40
1.25
 49
0.625
 49
-0.125
 49
0.125
 49
-0.125
 49
0.125
 49
-0.125
  0
ENDTAB
  0
TABLE
  2
LAYER
 70
   140
  0
LAYER
  2
0
 70
     0
 62
     7
  6
CONTINUOUS
  0
LAYER
  2
SAPA_FYLLNING
 70
     0
 62
     4
  6
CONTINUOUS
  0
LAYER
  2
SAPA_ISOLATOR
 70
     0
 62
     4
  6
CONTINUOUS
  0
LAYER
  2
SAPA_FOGBAND
 70
     0
 62
     2
  6
CONTINUOUS
  0
LAYER
  2
SAPA_PROFIL
 70
     0
 62
     7
  6
CONTINUOUS
  0
ENDTAB
  0
TABLE
  2
STYLE
 70
    28
  0
STYLE
  2
STANDARD
 70
     0
 40
0.0
 41
1.0
 50
0.0
 71
     0
 42
0.2
  3
txt
  4

  0
STYLE
  2
ISO
 70
     0
 40
0.0
 41
1.0
 50
0.0
 71
     0
 42
3.5
  3
txt
  4

  0
STYLE
  2

 70
     1
 40
0.0
 41
1.0
 50
0.0
 71
     0
 42
0.2
  3
ltypeshp.shx
  4

  0
STYLE
  2
BYGG-022681$0$STANDARD
 70
     0
 40
0.0
 41
1.0
 50
0.0
 71
     0
 42
0.2
  3
txt
  4

  0
STYLE
  2
BYGG-022681$0$ISO
 70
     0
 40
0.0
 41
1.0
 50
0.0
 71
     0
 42
3.5
  3
txt
  4

  0
STYLE
  2
BYGG-014306$0$STANDARD
 70
     0
 40
0.0
 41
1.0
 50
0.0
 71
     0
 42
0.2
  3
txt
  4

  0
STYLE
  2
BYGG-021582$0$STANDARD
 70
     0
 40
0.0
 41
1.0
 50
0.0
 71
     0
 42
0.2
  3
txt
  4

  0
STYLE
  2
BYGG-021582$0$ISO
 70
     0
 40
0.0
 41
1.0
 50
0.0
 71
     0
 42
3.5
  3
isocp3.shx
  4

  0
STYLE
  2
BYGG-014279$0$STANDARD
 70
     0
 40
0.0
 41
1.0
 50
0.0
 71
     0
 42
0.2
  3
TXT.shx
  4

  0
STYLE
  2
BYGG-014279$0$ISO
 70
     0
 40
0.0
 41
1.0
 50
0.0
 71
     0
 42
3.5
  3
iso
  4

  0
STYLE
  2
BYGG-021667$0$STANDARD
 70
     0
 40
0.0
 41
1.0
 50
0.0
 71
     0
 42
0.2
  3
txt
  4

  0
STYLE
  2
BYGG-021667$0$ISO
 70
     0
 40
0.0
 41
1.0
 50
0.0
 71
     0
 42
3.5
  3
isocp3.shx
  4

  0
STYLE
  2
BYGG-01482301$0$STANDARD
 70
     0
 40
0.0
 41
1.0
 50
0.0
 71
     0
 42
0.2
  3
txt
  4

  0
STYLE
  2
BYGG-01482301$0$ISO
 70
     0
 40
0.0
 41
1.0
 50
0.0
 71
     0
 42
3.5
  3
isocp3.shx
  4

  0
STYLE
  2
BYGG-035294$0$STANDARD
 70
     0
 40
0.0
 41
1.0
 50
0.0
 71
     0
 42
0.2
  3
txt
  4

  0
STYLE
  2
BYGG-035294$0$ISO
 70
     0
 40
0.0
 41
1.0
 50
0.0
 71
     0
 42
3.5
  3
txt
  4

  0
STYLE
  2
BYGG-035294$0$ANNOTATIVE
 70
     0
 40
0.0
 41
1.0
 50
0.0
 71
     0
 42
0.2
  3
txt
  4

  0
STYLE
  2
BYGG-021480$0$STANDARD
 70
     0
 40
0.0
 41
1.0
 50
0.0
 71
     0
 42
0.2
  3
txt
  4

  0
STYLE
  2
BYGG-021480$0$ISO
 70
     0
 40
0.0
 41
1.0
 50
0.0
 71
     0
 42
3.5
  3
txt
  4

  0
STYLE
  2
BYGG-021480$0$ROMANS
 70
     0
 40
0.0
 41
1.0
 50
0.0
 71
     0
 42
3.5
  3
romans.shx
  4

  0
STYLE
  2
BYGG-035293$0$STANDARD
 70
     0
 40
0.0
 41
1.0
 50
0.0
 71
     0
 42
0.2
  3
txt
  4

  0
STYLE
  2
BYGG-035293$0$ISO
 70
     0
 40
0.0
 41
1.0
 50
0.0
 71
     0
 42
3.5
  3
txt
  4

  0
STYLE
  2
BYGG-020805$0$STANDARD
 70
     0
 40
0.0
 41
1.0
 50
0.0
 71
     0
 42
0.2
  3
txt
  4

  0
STYLE
  2
BYGG-020805$0$ISO
 70
     0
 40
0.0
 41
1.0
 50
0.0
 71
     0
 42
3.5
  3
txt
  4

  0
STYLE
  2
BYGG-014117$0$STANDARD
 70
     0
 40
0.0
 41
1.0
 50
0.0
 71
     0
 42
0.2
  3
txt
  4

  0
STYLE
  2
BYGG-014117$0$ISO
 70
     0
 40
0.0
 41
1.0
 50
0.0
 71
     0
 42
3.5
  3
isocp3.shx
  4

  0
STYLE
  2
BYGG-023714$0$STANDARD
 70
     0
 40
0.0
 41
1.0
 50
0.0
 71
     0
 42
0.2
  3
txt
  4

  0
STYLE
  2
BYGG-023714$0$ISO
 70
     0
 40
0.0
 41
1.0
 50
0.0
 71
     0
 42
3.5
  3
txt
  4

  0
ENDTAB
  0
TABLE
  2
VIEW
 70
     0
  0
ENDTAB
  0
TABLE
  2
UCS
 70
     0
  0
ENDTAB
  0
TABLE
  2
APPID
 70
    27
  0
APPID
  2
ACAD
 70
     0
  0
APPID
  2
ACAD_DSTYLE_DIMTEXT_FILL
 70
     0
  0
APPID
  2
ACAD_DSTYLE_DIMEXT_LENGTH
 70
     0
  0
APPID
  2
ACAD_DSTYLE_DIMEXT_ENABLED
 70
     0
  0
APPID
  2
ACAD_DSTYLE_DIM_LINETYPE
 70
     0
  0
APPID
  2
ACAD_DSTYLE_DIM_EXT1_LINETYPE
 70
     0
  0
APPID
  2
ACAD_DSTYLE_DIM_EXT2_LINETYPE
 70
     0
  0
APPID
  2
ACAD_DSTYLE_DIMJOGGED_JOGA
 70
     0
  0
APPID
  2
ACAD_DSTYLE_DIMARC_LENGTH_
 70
     0
  0
APPID
  2
ACAD_PSEXT
 70
     0
  0
APPID
  2
ACAD_MLEADERVER
 70
     0
  0
APPID
  2
ACAD_NAV_VCDISPLAY
 70
     0
  0
APPID
  2
ACAECLAYERSTANDARD
 70
     0
  0
APPID
  2
AMG_ARCHIVE11
 70
     0
  0
APPID
  2
ACADANNOTATIVE
 70
     0
  0
APPID
  2
ACAD_EXEMPT_FROM_CAD_STANDARDS
 70
     0
  0
APPID
  2
DCO15
 70
     0
  0
APPID
  2
ACAD_DSTYLE_DIMJAG
 70
     0
  0
APPID
  2
ACAD_DSTYLE_DIMBREAK
 70
     0
  0
APPID
  2
ACAD_DSTYLE_DIMTALN
 70
     0
  0
APPID
  2
ACDBDYNAMICBLOCKGUID
 70
     0
  0
APPID
  2
ACDBBLOCKREPETAG
 70
     0
  0
APPID
  2
AME_SOL
 70
     0
  0
APPID
  2
ACCMTRANSPARENCY
 70
     0
  0
APPID
  2
ACAUTHENVIRON
 70
     0
  0
APPID
  2
ACDBDYNAMICBLOCKTRUENAME
 70
     0
  0
APPID
  2
AEC_XDATA_BOUND_SPACE
 70
     0
  0
ENDTAB
  0
TABLE
  2
DIMSTYLE
 70
    24
  0
DIMSTYLE
  2
STANDARD
 70
     0
  3

  4

  5

  6

  7

 40
1.0
 41
0.18
 42
0.0625
 43
0.38
 44
0.18
 45
0.0
 46
0.0
 47
0.0
 48
0.0
140
0.18
141
0.09
142
0.0
143
25.399999999999999
144
1.0
145
0.0
146
1.0
147
0.09
 71
     0
 72
     0
 73
     1
 74
     1
 75
     0
 76
     0
 77
     0
 78
     0
170
     0
171
     2
172
     0
173
     0
174
     0
175
     0
176
     0
177
     0
178
     0
  0
DIMSTYLE
  2
MASKIN
 70
     0
  3

  4

  5

  6

  7

 40
0.0
 41
3.0
 42
1.5
 43
10.0
 44
1.5
 45
0.0
 46
0.0
 47
0.0
 48
0.0
140
3.0
141
-5.0
142
0.0
143
25.399999999999999
144
-1.0
145
0.0
146
1.0
147
1.0
 71
     0
 72
     0
 73
     0
 74
     0
 75
     0
 76
     0
 77
     1
 78
     8
170
     0
171
     0
172
     1
173
     0
174
     0
175
     0
176
   256
177
   256
178
     2
  0
DIMSTYLE
  2
BYGG-022681$0$STANDARD
 70
     0
  3

  4

  5

  6

  7

 40
1.0
 41
0.18
 42
0.0625
 43
0.38
 44
0.18
 45
0.0
 46
0.0
 47
0.0
 48
0.0
140
0.18
141
0.09
142
0.0
143
25.399999999999999
144
1.0
145
0.0
146
1.0
147
0.09
 71
     0
 72
     0
 73
     1
 74
     1
 75
     0
 76
     0
 77
     0
 78
     0
170
     0
171
     2
172
     0
173
     0
174
     0
175
     0
176
     0
177
     0
178
     0
  0
DIMSTYLE
  2
BYGG-022681$0$MASKIN
 70
     0
  3

  4

  5

  6

  7

 40
0.0
 41
3.0
 42
1.5
 43
10.0
 44
1.5
 45
0.0
 46
0.0
 47
0.0
 48
0.0
140
3.0
141
-5.0
142
0.0
143
25.399999999999999
144
-1.0
145
0.0
146
1.0
147
1.0
 71
     0
 72
     0
 73
     0
 74
     0
 75
     0
 76
     0
 77
     1
 78
     8
170
     0
171
     0
172
     1
173
     0
174
     0
175
     0
176
   256
177
   256
178
     2
  0
DIMSTYLE
  2
BYGG-014306$0$STANDARD
 70
     0
  3

  4

  5

  6

  7

 40
1.0
 41
0.18
 42
0.0625
 43
0.38
 44
0.18
 45
0.0
 46
0.0
 47
0.0
 48
0.0
140
0.18
141
0.09
142
0.0
143
25.399999999999999
144
1.0
145
0.0
146
1.0
147
0.09
 71
     0
 72
     0
 73
     1
 74
     1
 75
     0
 76
     0
 77
     0
 78
     0
170
     0
171
     2
172
     0
173
     0
174
     0
175
     0
176
     0
177
     0
178
     0
  0
DIMSTYLE
  2
BYGG-021582$0$MASKIN
 70
     0
  3

  4

  5

  6

  7

 40
0.0
 41
3.0
 42
1.5
 43
10.0
 44
1.5
 45
0.0
 46
0.0
 47
0.0
 48
0.0
140
3.0
141
-5.0
142
0.0
143
25.399999999999999
144
-1.0
145
0.0
146
1.0
147
1.0
 71
     0
 72
     0
 73
     0
 74
     0
 75
     0
 76
     0
 77
     1
 78
     8
170
     0
171
     0
172
     1
173
     0
174
     0
175
     0
176
   256
177
   256
178
   256
  0
DIMSTYLE
  2
BYGG-014279$0$STANDARD
 70
     0
  3

  4

  5

  6

  7

 40
1.0
 41
0.18
 42
0.0625
 43
0.38
 44
0.18
 45
0.0
 46
0.0
 47
0.0
 48
0.0
140
0.18
141
0.09
142
0.0
143
25.399999999999999
144
1.0
145
0.0
146
1.0
147
0.09
 71
     0
 72
     0
 73
     1
 74
     1
 75
     0
 76
     0
 77
     0
 78
     0
170
     0
171
     2
172
     0
173
     0
174
     0
175
     0
176
     0
177
     0
178
     0
  0
DIMSTYLE
  2
BYGG-014279$0$MASKIN
 70
     0
  3

  4

  5

  6

  7

 40
0.0
 41
3.0
 42
1.5
 43
10.0
 44
1.5
 45
0.0
 46
0.0
 47
0.0
 48
0.0
140
3.0
141
-5.0
142
0.0
143
25.399999999999999
144
-1.0
145
0.0
146
1.0
147
1.0
 71
     0
 72
     0
 73
     0
 74
     1
 75
     0
 76
     0
 77
     1
 78
     8
170
     0
171
     0
172
     1
173
     0
174
     0
175
     0
176
   256
177
   256
178
     2
  0
DIMSTYLE
  2
BYGG-021667$0$MASKIN
 70
     0
  3

  4

  5

  6

  7

 40
0.0
 41
3.0
 42
1.5
 43
10.0
 44
1.5
 45
0.0
 46
0.0
 47
0.0
 48
0.0
140
3.0
141
-5.0
142
0.0
143
25.399999999999999
144
-1.0
145
0.0
146
1.0
147
1.0
 71
     0
 72
     0
 73
     0
 74
     0
 75
     0
 76
     0
 77
     1
 78
     8
170
     0
171
     0
172
     1
173
     0
174
     0
175
     0
176
   256
177
   256
178
   256
  0
DIMSTYLE
  2
BYGG-01482301$0$STANDARD
 70
     0
  3

  4

  5

  6

  7

 40
1.0
 41
0.18
 42
0.0625
 43
0.38
 44
0.18
 45
0.0
 46
0.0
 47
0.0
 48
0.0
140
0.18
141
0.09
142
0.0
143
25.399999999999999
144
1.0
145
0.0
146
1.0
147
0.09
 71
     0
 72
     0
 73
     1
 74
     1
 75
     0
 76
     0
 77
     0
 78
     0
170
     0
171
     2
172
     0
173
     0
174
     0
175
     0
176
     0
177
     0
178
     0
  0
DIMSTYLE
  2
BYGG-01482301$0$MASKIN
 70
     0
  3

  4

  5

  6

  7

 40
0.0
 41
3.0
 42
1.5
 43
10.0
 44
1.5
 45
0.0
 46
0.0
 47
0.0
 48
0.0
140
3.0
141
-5.0
142
0.0
143
25.399999999999999
144
-1.0
145
0.0
146
1.0
147
1.0
 71
     0
 72
     0
 73
     0
 74
     1
 75
     0
 76
     0
 77
     1
 78
     8
170
     0
171
     0
172
     1
173
     0
174
     0
175
     0
176
   256
177
   256
178
     2
  0
DIMSTYLE
  2
BYGG-035294$0$STANDARD
 70
     0
  3

  4

  5

  6

  7

 40
1.0
 41
0.18
 42
0.0625
 43
0.38
 44
0.18
 45
0.0
 46
0.0
 47
0.0
 48
0.0
140
0.18
141
0.09
142
0.0
143
25.399999999999999
144
1.0
145
0.0
146
1.0
147
0.09
 71
     0
 72
     0
 73
     1
 74
     1
 75
     0
 76
     0
 77
     0
 78
     0
170
     0
171
     2
172
     0
173
     0
174
     0
175
     0
176
     0
177
     0
178
     0
  0
DIMSTYLE
  2
BYGG-035294$0$MASKIN
 70
     0
  3

  4

  5

  6

  7

 40
0.0
 41
3.0
 42
1.5
 43
10.0
 44
1.5
 45
0.0
 46
0.0
 47
0.0
 48
0.0
140
3.0
141
-5.0
142
0.0
143
25.399999999999999
144
-1.0
145
0.0
146
1.0
147
1.0
 71
     0
 72
     0
 73
     0
 74
     0
 75
     0
 76
     0
 77
     1
 78
     8
170
     0
171
     0
172
     1
173
     0
174
     0
175
     0
176
   256
177
   256
178
     2
  0
DIMSTYLE
  2
BYGG-035294$0$ANNOTATIVE
 70
     0
  3

  4

  5

  6

  7

 40
1.0
 41
0.18
 42
0.0625
 43
0.38
 44
0.18
 45
0.0
 46
0.0
 47
0.0
 48
0.0
140
0.18
141
0.09
142
0.0
143
25.399999999999999
144
1.0
145
0.0
146
1.0
147
0.09
 71
     0
 72
     0
 73
     1
 74
     1
 75
     0
 76
     0
 77
     0
 78
     0
170
     0
171
     2
172
     0
173
     0
174
     0
175
     0
176
     0
177
     0
178
     0
  0
DIMSTYLE
  2
BYGG-021480$0$STANDARD
 70
     0
  3

  4

  5

  6

  7

 40
1.0
 41
0.18
 42
0.0625
 43
0.38
 44
0.18
 45
0.0
 46
0.0
 47
0.0
 48
0.0
140
0.18
141
0.09
142
0.0
143
25.399999999999999
144
1.0
145
0.0
146
1.0
147
0.09
 71
     0
 72
     0
 73
     1
 74
     1
 75
     0
 76
     0
 77
     0
 78
     0
170
     0
171
     2
172
     0
173
     0
174
     0
175
     0
176
     0
177
     0
178
     0
  0
DIMSTYLE
  2
BYGG-021480$0$MASKIN
 70
     0
  3

  4

  5

  6

  7

 40
0.0
 41
3.0
 42
1.5
 43
10.0
 44
1.5
 45
0.0
 46
0.0
 47
0.0
 48
0.0
140
3.0
141
-5.0
142
0.0
143
25.399999999999999
144
-1.0
145
0.0
146
1.0
147
1.0
 71
     0
 72
     0
 73
     0
 74
     0
 75
     0
 76
     0
 77
     1
 78
     8
170
     0
171
     0
172
     1
173
     0
174
     0
175
     0
176
   256
177
   256
178
     2
  0
DIMSTYLE
  2
BYGG-021480$0$PRIMO_2_5-1
 70
     0
  3

  4

  5

  6

  7

 40
0.4
 41
3.0
 42
1.0
 43
5.0
 44
1.0
 45
0.0
 46
0.0
 47
0.0
 48
0.0
140
3.0
141
3.0
142
0.0
143
25.399999999999999
144
1.0
145
0.0
146
1.0
147
1.0
 71
     0
 72
     0
 73
     0
 74
     0
 75
     0
 76
     0
 77
     1
 78
     8
170
     0
171
     2
172
     0
173
     0
174
     0
175
     0
176
   256
177
   256
178
     6
  0
DIMSTYLE
  2
BYGG-035293$0$STANDARD
 70
     0
  3

  4

  5

  6

  7

 40
1.0
 41
0.18
 42
0.0625
 43
0.38
 44
0.18
 45
0.0
 46
0.0
 47
0.0
 48
0.0
140
0.18
141
0.09
142
0.0
143
25.399999999999999
144
1.0
145
0.0
146
1.0
147
0.09
 71
     0
 72
     0
 73
     1
 74
     1
 75
     0
 76
     0
 77
     0
 78
     0
170
     0
171
     2
172
     0
173
     0
174
     0
175
     0
176
     0
177
     0
178
     0
  0
DIMSTYLE
  2
BYGG-035293$0$MASKIN
 70
     0
  3

  4

  5

  6

  7

 40
0.0
 41
3.0
 42
1.5
 43
10.0
 44
1.5
 45
0.0
 46
0.0
 47
0.0
 48
0.0
140
3.0
141
-5.0
142
0.0
143
25.399999999999999
144
-1.0
145
0.0
146
1.0
147
1.0
 71
     0
 72
     0
 73
     0
 74
     0
 75
     0
 76
     0
 77
     1
 78
     8
170
     0
171
     0
172
     1
173
     0
174
     0
175
     0
176
   256
177
   256
178
     2
  0
DIMSTYLE
  2
BYGG-020805$0$STANDARD
 70
     0
  3

  4

  5

  6

  7

 40
1.0
 41
0.18
 42
0.0625
 43
0.38
 44
0.18
 45
0.0
 46
0.0
 47
0.0
 48
0.0
140
0.18
141
0.09
142
0.0
143
25.399999999999999
144
1.0
145
0.0
146
1.0
147
0.09
 71
     0
 72
     0
 73
     1
 74
     1
 75
     0
 76
     0
 77
     0
 78
     0
170
     0
171
     2
172
     0
173
     0
174
     0
175
     0
176
     0
177
     0
178
     0
  0
DIMSTYLE
  2
BYGG-020805$0$MASKIN
 70
     0
  3

  4

  5

  6

  7

 40
0.0
 41
3.0
 42
1.5
 43
10.0
 44
1.5
 45
0.0
 46
0.0
 47
0.0
 48
0.0
140
3.0
141
-5.0
142
0.0
143
25.399999999999999
144
-1.0
145
0.0
146
1.0
147
1.0
 71
     0
 72
     0
 73
     0
 74
     0
 75
     0
 76
     0
 77
     1
 78
     8
170
     0
171
     0
172
     1
173
     0
174
     0
175
     0
176
   256
177
   256
178
     2
  0
DIMSTYLE
  2
BYGG-014117$0$MASKIN
 70
     0
  3

  4

  5

  6

  7

 40
0.0
 41
3.0
 42
1.5
 43
10.0
 44
1.5
 45
0.0
 46
0.0
 47
0.0
 48
0.0
140
3.0
141
-5.0
142
0.0
143
25.399999999999999
144
-1.0
145
0.0
146
1.0
147
1.0
 71
     0
 72
     0
 73
     0
 74
     0
 75
     0
 76
     0
 77
     1
 78
     8
170
     0
171
     0
172
     1
173
     0
174
     0
175
     0
176
   256
177
   256
178
   256
  0
DIMSTYLE
  2
BYGG-023714$0$STANDARD
 70
     0
  3

  4

  5

  6

  7

 40
1.0
 41
0.18
 42
0.0625
 43
0.38
 44
0.18
 45
0.0
 46
0.0
 47
0.0
 48
0.0
140
0.18
141
0.09
142
0.0
143
25.399999999999999
144
1.0
145
0.0
146
1.0
147
0.09
 71
     0
 72
     0
 73
     1
 74
     1
 75
     0
 76
     0
 77
     0
 78
     0
170
     0
171
     2
172
     0
173
     0
174
     0
175
     0
176
     0
177
     0
178
     0
  0
DIMSTYLE
  2
BYGG-023714$0$MASKIN
 70
     0
  3

  4

  5

  6

  7

 40
0.0
 41
3.0
 42
1.5
 43
10.0
 44
1.5
 45
0.0
 46
0.0
 47
0.0
 48
0.0
140
3.0
141
-5.0
142
0.0
143
25.399999999999999
144
-1.0
145
0.0
146
1.0
147
1.0
 71
     0
 72
     0
 73
     0
 74
     0
 75
     0
 76
     0
 77
     1
 78
     8
170
     0
171
     0
172
     1
173
     0
174
     0
175
     0
176
   256
177
   256
178
     2
  0
ENDTAB
  0
ENDSEC
  0
SECTION
  2
BLOCKS
  0
BLOCK
  8
0
  2
$MODEL_SPACE
 70
     0
 10
0.0
 20
0.0
 30
0.0
  3
$MODEL_SPACE
  1

  0
ENDBLK
  5
37
  8
0
  0
BLOCK
 67
     1
  8
0
  2
$PAPER_SPACE
 70
     0
 10
0.0
 20
0.0
 30
0.0
  3
$PAPER_SPACE
  1

  0
ENDBLK
  5
35
 67
     1
  8
0
  0
BLOCK
  8
0
  2
*U32
 70
     1
 10
0.0
 20
0.0
 30
0.0
  3
*U32
  1

  0
SOLID
  5
163F
  8
SAPA_FOGBAND
  6
CONTINUOUS
 10
21.150303994108299
 20
27.869589877537841
 30
0.0
 11
20.9700264303351
 21
27.794916465631399
 31
0.0
 12
21.330581557881501
 22
27.794916465631399
 32
0.0
 13
21.330581557881501
 23
27.794916465631399
 33
0.0
210
0.0
220
0.0
230
1.0
  0
SOLID
  5
1640
  8
SAPA_FOGBAND
  6
CONTINUOUS
 10
20.9700264303351
 20
27.794916465631399
 30
0.0
 11
20.895353018428661
 21
27.6146389018582
 31
0.0
 12
21.40525496978794
 22
27.6146389018582
 32
0.0
 13
21.40525496978794
 23
27.6146389018582
 33
0.0
210
0.0
220
0.0
230
1.0
  0
SOLID
  5
1641
  8
SAPA_FOGBAND
  6
CONTINUOUS
 10
-20.9700264303351
 20
27.794916465631399
 30
0.0
 11
-21.330581557881501
 21
27.794916465631399
 31
0.0
 12
-21.40525496978794
 22
27.6146389018582
 32
0.0
 13
-21.40525496978794
 23
27.6146389018582
 33
0.0
210
0.0
220
0.0
230
-1.0
  0
SOLID
  5
1642
  8
SAPA_FOGBAND
  6
CONTINUOUS
 10
-20.9700264303351
 20
27.434361338085001
 30
0.0
 11
-21.330581557881501
 21
27.434361338085001
 31
0.0
 12
-21.150303994108299
 22
27.359687926178559
 32
0.0
 13
-21.150303994108299
 23
27.359687926178559
 33
0.0
210
0.0
220
0.0
230
-1.0
  0
SOLID
  5
1643
  8
SAPA_FOGBAND
  6
CONTINUOUS
 10
20.895353018428661
 20
27.6146389018582
 30
0.0
 11
20.9700264303351
 21
27.434361338085001
 31
0.0
 12
21.330581557881501
 22
27.434361338085001
 32
0.0
 13
21.330581557881501
 23
27.434361338085001
 33
0.0
210
0.0
220
0.0
230
1.0
  0
SOLID
  5
1644
  8
SAPA_FOGBAND
  6
CONTINUOUS
 10
-20.895353018428661
 20
27.6146389018582
 30
0.0
 11
-21.40525496978794
 21
27.6146389018582
 31
0.0
 12
-21.330581557881501
 22
27.434361338085001
 32
0.0
 13
-21.330581557881501
 23
27.434361338085001
 33
0.0
210
0.0
220
0.0
230
-1.0
  0
LINE
  5
1645
  8
SAPA_FOGBAND
  6
CONTINUOUS
 10
21.150303994108299
 20
27.869589877537841
 30
0.0
 11
20.9700264303351
 21
27.794916465631399
 31
0.0
  0
LINE
  5
1646
  8
SAPA_FOGBAND
  6
CONTINUOUS
 10
21.330581557881501
 20
27.794916465631399
 30
0.0
 11
21.150303994108299
 21
27.869589877537841
 31
0.0
  0
LINE
  5
1647
  8
SAPA_FOGBAND
  6
CONTINUOUS
 10
20.9700264303351
 20
27.794916465631399
 30
0.0
 11
20.895353018428661
 21
27.6146389018582
 31
0.0
  0
LINE
  5
1648
  8
SAPA_FOGBAND
  6
CONTINUOUS
 10
21.330581557881501
 20
27.794916465631399
 30
0.0
 11
21.40525496978794
 21
27.6146389018582
 31
0.0
  0
LINE
  5
1649
  8
SAPA_FOGBAND
  6
CONTINUOUS
 10
21.330581557881501
 20
27.434361338085001
 30
0.0
 11
21.150303994108299
 21
27.359687926178559
 31
0.0
  0
LINE
  5
164A
  8
SAPA_FOGBAND
  6
CONTINUOUS
 10
21.150303994108299
 20
27.359687926178559
 30
0.0
 11
20.9700264303351
 21
27.434361338085001
 31
0.0
  0
LINE
  5
164B
  8
SAPA_FOGBAND
  6
CONTINUOUS
 10
20.895353018428661
 20
27.6146389018582
 30
0.0
 11
20.9700264303351
 21
27.434361338085001
 31
0.0
  0
LINE
  5
164C
  8
SAPA_FOGBAND
  6
CONTINUOUS
 10
21.40525496978794
 20
27.6146389018582
 30
0.0
 11
21.330581557881501
 21
27.434361338085001
 31
0.0
  0
ENDBLK
  5
164E
  8
0
  0
BLOCK
  8
0
  2
*U33
 70
     1
 10
0.0
 20
0.0
 30
0.0
  3
*U33
  1

  0
SOLID
  5
16BF
  8
SAPA_FOGBAND
  6
CONTINUOUS
 10
58.661058629754159
 20
27.86958987753767
 30
0.0
 11
58.480781065980963
 21
27.794916465631228
 31
0.0
 12
58.841336193527368
 22
27.794916465631228
 32
0.0
 13
58.841336193527368
 23
27.794916465631228
 33
0.0
210
0.0
220
0.0
230
1.0
  0
SOLID
  5
16C0
  8
SAPA_FOGBAND
  6
CONTINUOUS
 10
58.480781065980963
 20
27.794916465631228
 30
0.0
 11
58.406107654074518
 21
27.614638901858029
 31
0.0
 12
58.916009605433807
 22
27.614638901858029
 32
0.0
 13
58.916009605433807
 23
27.614638901858029
 33
0.0
210
0.0
220
0.0
230
1.0
  0
SOLID
  5
16C1
  8
SAPA_FOGBAND
  6
CONTINUOUS
 10
-58.480781065980963
 20
27.794916465631228
 30
0.0
 11
-58.841336193527368
 21
27.794916465631228
 31
0.0
 12
-58.916009605433807
 22
27.614638901858029
 32
0.0
 13
-58.916009605433807
 23
27.614638901858029
 33
0.0
210
0.0
220
0.0
230
-1.0
  0
SOLID
  5
16C2
  8
SAPA_FOGBAND
  6
CONTINUOUS
 10
-58.480781065980963
 20
27.43436133808483
 30
0.0
 11
-58.841336193527368
 21
27.43436133808483
 31
0.0
 12
-58.661058629754159
 22
27.359687926178388
 32
0.0
 13
-58.661058629754159
 23
27.359687926178388
 33
0.0
210
0.0
220
0.0
230
-1.0
  0
SOLID
  5
16C3
  8
SAPA_FOGBAND
  6
CONTINUOUS
 10
58.406107654074518
 20
27.614638901858029
 30
0.0
 11
58.480781065980963
 21
27.43436133808483
 31
0.0
 12
58.841336193527368
 22
27.43436133808483
 32
0.0
 13
58.841336193527368
 23
27.43436133808483
 33
0.0
210
0.0
220
0.0
230
1.0
  0
SOLID
  5
16C4
  8
SAPA_FOGBAND
  6
CONTINUOUS
 10
-58.406107654074518
 20
27.614638901858029
 30
0.0
 11
-58.916009605433807
 21
27.614638901858029
 31
0.0
 12
-58.841336193527368
 22
27.43436133808483
 32
0.0
 13
-58.841336193527368
 23
27.43436133808483
 33
0.0
210
0.0
220
0.0
230
-1.0
  0
LINE
  5
16C5
  8
SAPA_FOGBAND
  6
CONTINUOUS
 10
58.661058629754159
 20
27.86958987753767
 30
0.0
 11
58.480781065980963
 21
27.794916465631228
 31
0.0
  0
LINE
  5
16C6
  8
SAPA_FOGBAND
  6
CONTINUOUS
 10
58.841336193527368
 20
27.794916465631228
 30
0.0
 11
58.661058629754159
 21
27.86958987753767
 31
0.0
  0
LINE
  5
16C7
  8
SAPA_FOGBAND
  6
CONTINUOUS
 10
58.480781065980963
 20
27.794916465631228
 30
0.0
 11
58.406107654074518
 21
27.614638901858029
 31
0.0
  0
LINE
  5
16C8
  8
SAPA_FOGBAND
  6
CONTINUOUS
 10
58.841336193527368
 20
27.794916465631228
 30
0.0
 11
58.916009605433807
 21
27.614638901858029
 31
0.0
  0
LINE
  5
16C9
  8
SAPA_FOGBAND
  6
CONTINUOUS
 10
58.841336193527368
 20
27.43436133808483
 30
0.0
 11
58.661058629754159
 21
27.359687926178388
 31
0.0
  0
LINE
  5
16CA
  8
SAPA_FOGBAND
  6
CONTINUOUS
 10
58.661058629754159
 20
27.359687926178388
 30
0.0
 11
58.480781065980963
 21
27.43436133808483
 31
0.0
  0
LINE
  5
16CB
  8
SAPA_FOGBAND
  6
CONTINUOUS
 10
58.406107654074518
 20
27.614638901858029
 30
0.0
 11
58.480781065980963
 21
27.43436133808483
 31
0.0
  0
LINE
  5
16CC
  8
SAPA_FOGBAND
  6
CONTINUOUS
 10
58.916009605433807
 20
27.614638901858029
 30
0.0
 11
58.841336193527368
 21
27.43436133808483
 31
0.0
  0
ENDBLK
  5
16CE
  8
0
  0
BLOCK
  8
0
  2
*U34
 70
     1
 10
0.0
 20
0.0
 30
0.0
  3
*U34
  1

  0
SOLID
  5
173F
  8
SAPA_FOGBAND
  6
CONTINUOUS
 10
21.150303994108299
 20
27.869589877537841
 30
0.0
 11
20.9700264303351
 21
27.794916465631399
 31
0.0
 12
21.330581557881501
 22
27.794916465631399
 32
0.0
 13
21.330581557881501
 23
27.794916465631399
 33
0.0
210
0.0
220
0.0
230
1.0
  0
SOLID
  5
1740
  8
SAPA_FOGBAND
  6
CONTINUOUS
 10
20.9700264303351
 20
27.794916465631399
 30
0.0
 11
20.895353018428661
 21
27.6146389018582
 31
0.0
 12
21.40525496978794
 22
27.6146389018582
 32
0.0
 13
21.40525496978794
 23
27.6146389018582
 33
0.0
210
0.0
220
0.0
230
1.0
  0
SOLID
  5
1741
  8
SAPA_FOGBAND
  6
CONTINUOUS
 10
-20.9700264303351
 20
27.794916465631399
 30
0.0
 11
-21.330581557881501
 21
27.794916465631399
 31
0.0
 12
-21.40525496978794
 22
27.6146389018582
 32
0.0
 13
-21.40525496978794
 23
27.6146389018582
 33
0.0
210
0.0
220
0.0
230
-1.0
  0
SOLID
  5
1742
  8
SAPA_FOGBAND
  6
CONTINUOUS
 10
-20.9700264303351
 20
27.434361338085001
 30
0.0
 11
-21.330581557881501
 21
27.434361338085001
 31
0.0
 12
-21.150303994108299
 22
27.359687926178559
 32
0.0
 13
-21.150303994108299
 23
27.359687926178559
 33
0.0
210
0.0
220
0.0
230
-1.0
  0
SOLID
  5
1743
  8
SAPA_FOGBAND
  6
CONTINUOUS
 10
20.895353018428661
 20
27.6146389018582
 30
0.0
 11
20.9700264303351
 21
27.434361338085001
 31
0.0
 12
21.330581557881501
 22
27.434361338085001
 32
0.0
 13
21.330581557881501
 23
27.434361338085001
 33
0.0
210
0.0
220
0.0
230
1.0
  0
SOLID
  5
1744
  8
SAPA_FOGBAND
  6
CONTINUOUS
 10
-20.895353018428661
 20
27.6146389018582
 30
0.0
 11
-21.40525496978794
 21
27.6146389018582
 31
0.0
 12
-21.330581557881501
 22
27.434361338085001
 32
0.0
 13
-21.330581557881501
 23
27.434361338085001
 33
0.0
210
0.0
220
0.0
230
-1.0
  0
LINE
  5
1745
  8
SAPA_FOGBAND
  6
CONTINUOUS
 10
21.150303994108299
 20
27.869589877537841
 30
0.0
 11
20.9700264303351
 21
27.794916465631399
 31
0.0
  0
LINE
  5
1746
  8
SAPA_FOGBAND
  6
CONTINUOUS
 10
21.330581557881501
 20
27.794916465631399
 30
0.0
 11
21.150303994108299
 21
27.869589877537841
 31
0.0
  0
LINE
  5
1747
  8
SAPA_FOGBAND
  6
CONTINUOUS
 10
20.9700264303351
 20
27.794916465631399
 30
0.0
 11
20.895353018428661
 21
27.6146389018582
 31
0.0
  0
LINE
  5
1748
  8
SAPA_FOGBAND
  6
CONTINUOUS
 10
21.330581557881501
 20
27.794916465631399
 30
0.0
 11
21.40525496978794
 21
27.6146389018582
 31
0.0
  0
LINE
  5
1749
  8
SAPA_FOGBAND
  6
CONTINUOUS
 10
21.330581557881501
 20
27.434361338085001
 30
0.0
 11
21.150303994108299
 21
27.359687926178559
 31
0.0
  0
LINE
  5
174A
  8
SAPA_FOGBAND
  6
CONTINUOUS
 10
21.150303994108299
 20
27.359687926178559
 30
0.0
 11
20.9700264303351
 21
27.434361338085001
 31
0.0
  0
LINE
  5
174B
  8
SAPA_FOGBAND
  6
CONTINUOUS
 10
20.895353018428661
 20
27.6146389018582
 30
0.0
 11
20.9700264303351
 21
27.434361338085001
 31
0.0
  0
LINE
  5
174C
  8
SAPA_FOGBAND
  6
CONTINUOUS
 10
21.40525496978794
 20
27.6146389018582
 30
0.0
 11
21.330581557881501
 21
27.434361338085001
 31
0.0
  0
ENDBLK
  5
174E
  8
0
  0
BLOCK
  8
0
  2
*U35
 70
     1
 10
0.0
 20
0.0
 30
0.0
  3
*U35
  1

  0
SOLID
  5
17BF
  8
SAPA_FOGBAND
  6
CONTINUOUS
 10
58.661058629754159
 20
27.86958987753767
 30
0.0
 11
58.480781065980963
 21
27.794916465631228
 31
0.0
 12
58.841336193527368
 22
27.794916465631228
 32
0.0
 13
58.841336193527368
 23
27.794916465631228
 33
0.0
210
0.0
220
0.0
230
1.0
  0
SOLID
  5
17C0
  8
SAPA_FOGBAND
  6
CONTINUOUS
 10
58.480781065980963
 20
27.794916465631228
 30
0.0
 11
58.406107654074518
 21
27.614638901858029
 31
0.0
 12
58.916009605433807
 22
27.614638901858029
 32
0.0
 13
58.916009605433807
 23
27.614638901858029
 33
0.0
210
0.0
220
0.0
230
1.0
  0
SOLID
  5
17C1
  8
SAPA_FOGBAND
  6
CONTINUOUS
 10
-58.480781065980963
 20
27.794916465631228
 30
0.0
 11
-58.841336193527368
 21
27.794916465631228
 31
0.0
 12
-58.916009605433807
 22
27.614638901858029
 32
0.0
 13
-58.916009605433807
 23
27.614638901858029
 33
0.0
210
0.0
220
0.0
230
-1.0
  0
SOLID
  5
17C2
  8
SAPA_FOGBAND
  6
CONTINUOUS
 10
-58.480781065980963
 20
27.43436133808483
 30
0.0
 11
-58.841336193527368
 21
27.43436133808483
 31
0.0
 12
-58.661058629754159
 22
27.359687926178388
 32
0.0
 13
-58.661058629754159
 23
27.359687926178388
 33
0.0
210
0.0
220
0.0
230
-1.0
  0
SOLID
  5
17C3
  8
SAPA_FOGBAND
  6
CONTINUOUS
 10
58.406107654074518
 20
27.614638901858029
 30
0.0
 11
58.480781065980963
 21
27.43436133808483
 31
0.0
 12
58.841336193527368
 22
27.43436133808483
 32
0.0
 13
58.841336193527368
 23
27.43436133808483
 33
0.0
210
0.0
220
0.0
230
1.0
  0
SOLID
  5
17C4
  8
SAPA_FOGBAND
  6
CONTINUOUS
 10
-58.406107654074518
 20
27.614638901858029
 30
0.0
 11
-58.916009605433807
 21
27.614638901858029
 31
0.0
 12
-58.841336193527368
 22
27.43436133808483
 32
0.0
 13
-58.841336193527368
 23
27.43436133808483
 33
0.0
210
0.0
220
0.0
230
-1.0
  0
LINE
  5
17C5
  8
SAPA_FOGBAND
  6
CONTINUOUS
 10
58.661058629754159
 20
27.86958987753767
 30
0.0
 11
58.480781065980963
 21
27.794916465631228
 31
0.0
  0
LINE
  5
17C6
  8
SAPA_FOGBAND
  6
CONTINUOUS
 10
58.841336193527368
 20
27.794916465631228
 30
0.0
 11
58.661058629754159
 21
27.86958987753767
 31
0.0
  0
LINE
  5
17C7
  8
SAPA_FOGBAND
  6
CONTINUOUS
 10
58.480781065980963
 20
27.794916465631228
 30
0.0
 11
58.406107654074518
 21
27.614638901858029
 31
0.0
  0
LINE
  5
17C8
  8
SAPA_FOGBAND
  6
CONTINUOUS
 10
58.841336193527368
 20
27.794916465631228
 30
0.0
 11
58.916009605433807
 21
27.614638901858029
 31
0.0
  0
LINE
  5
17C9
  8
SAPA_FOGBAND
  6
CONTINUOUS
 10
58.841336193527368
 20
27.43436133808483
 30
0.0
 11
58.661058629754159
 21
27.359687926178388
 31
0.0
  0
LINE
  5
17CA
  8
SAPA_FOGBAND
  6
CONTINUOUS
 10
58.661058629754159
 20
27.359687926178388
 30
0.0
 11
58.480781065980963
 21
27.43436133808483
 31
0.0
  0
LINE
  5
17CB
  8
SAPA_FOGBAND
  6
CONTINUOUS
 10
58.406107654074518
 20
27.614638901858029
 30
0.0
 11
58.480781065980963
 21
27.43436133808483
 31
0.0
  0
LINE
  5
17CC
  8
SAPA_FOGBAND
  6
CONTINUOUS
 10
58.916009605433807
 20
27.614638901858029
 30
0.0
 11
58.841336193527368
 21
27.43436133808483
 31
0.0
  0
ENDBLK
  5
17CE
  8
0
  0
ENDSEC
  0
SECTION
  2
ENTITIES
  0
LINE
  5
C12
  8
SAPA_FYLLNING
 10
12.92511210016778
 20
98.752207122612845
 30
0.0
 11
12.92511210016767
 21
188.93442915143871
 31
0.0
  0
ARC
  5
C13
  8
SAPA_FYLLNING
 10
6.9363903064556514
 20
189.55780264091501
 30
0.0
 40
6.0210782447883071
 50
354.05741210644578
 51
183.26943952687321
  0
LINE
  5
C14
  8
SAPA_FYLLNING
 10
0.9251121001667571
 20
189.2144113823494
 30
0.0
 11
0.9251121001659612
 21
98.752207122612845
 31
0.0
  0
ARC
  5
C15
  8
SAPA_FYLLNING
 10
-5.0748878998331
 20
98.752207122612845
 30
0.0
 40
5.9999999999990621
 50
180.0
 51
0.0
  0
LINE
  5
C16
  8
SAPA_FYLLNING
 10
-11.074887899832159
 20
98.752207122612845
 30
0.0
 11
-11.082817608161291
 21
192.23913921705551
 31
0.0
  0
ARC
  5
C17
  8
SAPA_FYLLNING
 10
-17.04409185004365
 20
193.21909052735239
 30
0.0
 40
6.041282575536651
 50
350.66485350050573
 51
183.3763830403874
  0
LINE
  5
C18
  8
SAPA_FYLLNING
 10
-23.07488789983239
 20
192.8632897919185
 30
0.0
 11
-23.074887899832159
 21
98.752207122612845
 31
0.0
  0
ARC
  5
C19
  8
SAPA_FYLLNING
 10
-29.07488789983125
 20
98.752207122612845
 30
0.0
 40
5.9999999999990896
 50
180.0
 51
0.0
  0
LINE
  5
C1A
  8
SAPA_FYLLNING
 10
-35.074887899830337
 20
98.752207122612845
 30
0.0
 11
-35.082817608159473
 21
192.23913921705551
 31
0.0
  0
LINE
  5
C2D
  8
SAPA_FYLLNING
 10
66.886250523694798
 20
98.752207122612845
 30
0.0
 11
66.886250523694912
 21
188.93442915143871
 31
0.0
  0
ARC
  5
C2E
  8
SAPA_FYLLNING
 10
72.874972317406929
 20
189.55780264091501
 30
0.0
 40
6.0210782447883089
 50
356.73056047312667
 51
185.94258789355419
  0
LINE
  5
C2F
  8
SAPA_FYLLNING
 10
78.886250523695821
 20
189.2144113823494
 30
0.0
 11
78.886250523696603
 21
98.752207122612845
 31
0.0
  0
ARC
  5
C30
  8
SAPA_FYLLNING
 10
84.886250523695679
 20
98.752207122612845
 30
0.0
 40
5.9999999999990621
 50
180.0
 51
0.0
  0
LINE
  5
C31
  8
SAPA_FYLLNING
 10
90.886250523694741
 20
98.752207122612845
 30
0.0
 11
90.894180232023871
 21
192.23913921705551
 31
0.0
  0
ARC
  5
C32
  8
SAPA_FYLLNING
 10
96.855454473906235
 20
193.21909052735239
 30
0.0
 40
6.041282575536659
 50
356.6236169596126
 51
189.3351464994943
  0
LINE
  5
C33
  8
SAPA_FYLLNING
 10
102.8862505236949
 20
192.8632897919185
 30
0.0
 11
102.8862505236947
 21
98.752207122612845
 31
0.0
  0
ARC
  5
C34
  8
SAPA_FYLLNING
 10
108.8862505236938
 20
98.752207122612845
 30
0.0
 40
5.9999999999990896
 50
180.0
 51
0.0
  0
LINE
  5
C35
  8
SAPA_FYLLNING
 10
114.88625052369289
 20
98.752207122612845
 30
0.0
 11
114.89418023202199
 21
192.23913921705551
 31
0.0
  0
POLYLINE
  5
D26
  8
SAPA_PROFIL
 62
     4
 66
     1
 10
0.0
 20
0.0
 30
0.0
 70
     1
  0
VERTEX
  5
1119
  8
SAPA_PROFIL
 62
     4
 10
32.905680946677748
 20
78.690589837075962
 30
0.0
 42
-0.414213562373114
  0
VERTEX
  5
111A
  8
SAPA_PROFIL
 62
     4
 10
34.905680946677748
 20
76.690589837075834
 30
0.0
  0
VERTEX
  5
111B
  8
SAPA_PROFIL
 62
     4
 10
34.905680946677471
 20
72.190589837075919
 30
0.0
 42
-0.4142135623730807
  0
VERTEX
  5
111C
  8
SAPA_PROFIL
 62
     4
 10
34.405680946677471
 20
71.690589837075962
 30
0.0
  0
VERTEX
  5
111D
  8
SAPA_PROFIL
 62
     4
 10
33.905680946676839
 20
71.690589837075962
 30
0.0
 42
-0.4142135623730951
  0
VERTEX
  5
111E
  8
SAPA_PROFIL
 62
     4
 10
33.405680946676839
 20
72.190589837075962
 30
0.0
  0
VERTEX
  5
111F
  8
SAPA_PROFIL
 62
     4
 10
33.405680946676839
 20
76.690589837076018
 30
0.0
 42
0.4142135623730847
  0
VERTEX
  5
1120
  8
SAPA_PROFIL
 62
     4
 10
32.905680946676839
 20
77.190589837076018
 30
0.0
  0
VERTEX
  5
1121
  8
SAPA_PROFIL
 62
     4
 10
31.205680946679749
 20
77.190589837076075
 30
0.0
 42
0.4142135623731284
  0
VERTEX
  5
1122
  8
SAPA_PROFIL
 62
     4
 10
30.705680946679749
 20
76.690589837076075
 30
0.0
  0
VERTEX
  5
1123
  8
SAPA_PROFIL
 62
     4
 10
30.705680946681571
 20
48.690589837076061
 30
0.0
 42
0.4142135623730959
  0
VERTEX
  5
1124
  8
SAPA_PROFIL
 62
     4
 10
31.205680946681571
 20
48.190589837076061
 30
0.0
  0
VERTEX
  5
1125
  8
SAPA_PROFIL
 62
     4
 10
32.905680946676839
 20
48.190589837075947
 30
0.0
 42
0.4142135623730951
  0
VERTEX
  5
1126
  8
SAPA_PROFIL
 62
     4
 10
33.405680946676839
 20
48.690589837075947
 30
0.0
  0
VERTEX
  5
1127
  8
SAPA_PROFIL
 62
     4
 10
33.405680946676839
 20
53.190589837075102
 30
0.0
 42
-0.4142135623730951
  0
VERTEX
  5
1128
  8
SAPA_PROFIL
 62
     4
 10
33.905680946676839
 20
53.690589837075102
 30
0.0
  0
VERTEX
  5
1129
  8
SAPA_PROFIL
 62
     4
 10
34.405680946676299
 20
53.690589837075102
 30
0.0
 42
-0.4142135623731129
  0
VERTEX
  5
112A
  8
SAPA_PROFIL
 62
     4
 10
34.905680946676299
 20
53.190589837075059
 30
0.0
  0
VERTEX
  5
112B
  8
SAPA_PROFIL
 62
     4
 10
34.905680946675929
 20
47.190589837075088
 30
0.0
 42
-0.4142135623730951
  0
VERTEX
  5
112C
  8
SAPA_PROFIL
 62
     4
 10
34.405680946675929
 20
46.690589837075088
 30
0.0
  0
VERTEX
  5
112D
  8
SAPA_PROFIL
 62
     4
 10
22.105680946679389
 20
46.690589837075777
 30
0.0
  0
VERTEX
  5
112E
  8
SAPA_PROFIL
 62
     4
 10
21.519296930918571
 20
47.155513256641598
 30
0.0
 42
-0.7105995015669819
  0
VERTEX
  5
112F
  8
SAPA_PROFIL
 62
     4
 10
21.705680946679749
 20
47.690589837076679
 30
0.0
  0
VERTEX
  5
1130
  8
SAPA_PROFIL
 62
     4
 10
22.705680946679749
 20
47.69058983707577
 30
0.0
 42
0.4142135623731117
  0
VERTEX
  5
1131
  8
SAPA_PROFIL
 62
     4
 10
23.205680946679749
 20
48.19058983707577
 30
0.0
  0
VERTEX
  5
1132
  8
SAPA_PROFIL
 62
     4
 10
23.205680946679749
 20
52.190589837075777
 30
0.0
 42
0.4142135623730951
  0
VERTEX
  5
1133
  8
SAPA_PROFIL
 62
     4
 10
22.705680946679749
 20
52.69058983707577
 30
0.0
  0
VERTEX
  5
1134
  8
SAPA_PROFIL
 62
     4
 10
17.105680946679382
 20
52.69058983707577
 30
0.0
 42
0.4142135623730951
  0
VERTEX
  5
1135
  8
SAPA_PROFIL
 62
     4
 10
16.605680946679382
 20
52.190589837075777
 30
0.0
  0
VERTEX
  5
1136
  8
SAPA_PROFIL
 62
     4
 10
16.605680946679382
 20
48.190589837076693
 30
0.0
 42
0.4142135623730784
  0
VERTEX
  5
1137
  8
SAPA_PROFIL
 62
     4
 10
17.105680946679382
 20
47.690589837076679
 30
0.0
  0
VERTEX
  5
1138
  8
SAPA_PROFIL
 62
     4
 10
18.105680946679382
 20
47.69058983707577
 30
0.0
 42
-0.7105995015654651
  0
VERTEX
  5
1139
  8
SAPA_PROFIL
 62
     4
 10
18.29206496243965
 20
47.155513256641598
 30
0.0
  0
VERTEX
  5
113A
  8
SAPA_PROFIL
 62
     4
 10
17.705680946679749
 20
46.690589837075777
 30
0.0
  0
VERTEX
  5
113B
  8
SAPA_PROFIL
 62
     4
 10
15.60568094667938
 20
46.690589837075777
 30
0.0
 42
-0.4142135623730951
  0
VERTEX
  5
113C
  8
SAPA_PROFIL
 62
     4
 10
15.10568094667938
 20
47.190589837075777
 30
0.0
  0
VERTEX
  5
113D
  8
SAPA_PROFIL
 62
     4
 10
15.10568094667938
 20
54.190589837075777
 30
0.0
 42
-0.4142135623730951
  0
VERTEX
  5
113E
  8
SAPA_PROFIL
 62
     4
 10
15.60568094667938
 20
54.690589837075777
 30
0.0
  0
VERTEX
  5
113F
  8
SAPA_PROFIL
 62
     4
 10
17.205680946679749
 20
54.690589837076679
 30
0.0
  0
VERTEX
  5
1140
  8
SAPA_PROFIL
 62
     4
 10
17.205680946679749
 20
54.690589837076679
 30
0.0
 42
0.4142135623730951
  0
VERTEX
  5
1141
  8
SAPA_PROFIL
 62
     4
 10
17.705680946679749
 20
54.190589837076679
 30
0.0
  0
VERTEX
  5
1142
  8
SAPA_PROFIL
 62
     4
 10
24.205680946678839
 20
54.190589837076679
 30
0.0
 42
-0.4142135623730951
  0
VERTEX
  5
1143
  8
SAPA_PROFIL
 62
     4
 10
24.705680946678839
 20
53.690589837076679
 30
0.0
  0
VERTEX
  5
1144
  8
SAPA_PROFIL
 62
     4
 10
24.705680946678839
 20
48.690589837075777
 30
0.0
 42
0.4142135623730951
  0
VERTEX
  5
1145
  8
SAPA_PROFIL
 62
     4
 10
25.205680946678839
 20
48.19058983707577
 30
0.0
  0
VERTEX
  5
1146
  8
SAPA_PROFIL
 62
     4
 10
28.705680946679749
 20
48.190589837075891
 30
0.0
 42
0.4142135623731117
  0
VERTEX
  5
1147
  8
SAPA_PROFIL
 62
     4
 10
29.205680946679749
 20
48.690589837075891
 30
0.0
  0
VERTEX
  5
1148
  8
SAPA_PROFIL
 62
     4
 10
29.20568094667793
 20
94.190589837076502
 30
0.0
 42
0.4142135623724291
  0
VERTEX
  5
1149
  8
SAPA_PROFIL
 62
     4
 10
28.905680946678661
 20
94.490589837076683
 30
0.0
  0
VERTEX
  5
114A
  8
SAPA_PROFIL
 62
     4
 10
27.605680946677879
 20
94.490589837076683
 30
0.0
 42
-0.6681786379194817
  0
VERTEX
  5
114B
  8
SAPA_PROFIL
 62
     4
 10
27.393548912322061
 20
95.002721871432684
 30
0.0
  0
VERTEX
  5
114C
  8
SAPA_PROFIL
 62
     4
 10
29.593548912321261
 20
97.2027218714328
 30
0.0
 42
-0.1989123673797118
  0
VERTEX
  5
114D
  8
SAPA_PROFIL
 62
     4
 10
29.80568094667726
 20
97.290589837076865
 30
0.0
  0
VERTEX
  5
114E
  8
SAPA_PROFIL
 62
     4
 10
30.405680946678661
 20
97.290589837076865
 30
0.0
 42
-0.4142135623724291
  0
VERTEX
  5
114F
  8
SAPA_PROFIL
 62
     4
 10
30.70568094667793
 20
96.990589837076683
 30
0.0
  0
VERTEX
  5
1150
  8
SAPA_PROFIL
 62
     4
 10
30.70568094667793
 20
79.190589837075962
 30
0.0
 42
0.4142135623730951
  0
VERTEX
  5
1151
  8
SAPA_PROFIL
 62
     4
 10
31.20568094667793
 20
78.690589837075962
 30
0.0
  0
SEQEND
  5
1152
  8
SAPA_PROFIL
 62
     4
  0
LINE
  5
D27
  8
SAPA_PROFIL
 62
     4
 10
26.905681311931161
 20
54.75220712261364
 30
0.0
 11
-35.094318688069791
 21
54.752207122613648
 31
0.0
  0
LINE
  5
D28
  8
SAPA_PROFIL
 62
     4
 10
26.905681311931161
 20
62.75220712261364
 30
0.0
 11
26.905681311931161
 21
54.75220712261364
 31
0.0
  0
LINE
  5
D29
  8
SAPA_PROFIL
 62
     4
 10
-35.094318688069791
 20
62.752207122613648
 30
0.0
 11
26.905681311931161
 21
62.75220712261364
 31
0.0
  0
LINE
  5
D2A
  8
SAPA_PROFIL
 62
     4
 10
28.905681311930131
 20
29.752207122613701
 30
0.0
 11
-35.094318688069812
 21
29.752207122613711
 31
0.0
  0
LINE
  5
D2B
  8
SAPA_PROFIL
 62
     4
 10
28.905681311930131
 20
35.752207122613697
 30
0.0
 11
28.905681311930131
 21
29.752207122613701
 31
0.0
  0
LINE
  5
D2C
  8
SAPA_PROFIL
 62
     4
 10
-35.094318688069791
 20
35.752207122613711
 30
0.0
 11
28.905681311930131
 21
35.752207122613697
 31
0.0
  0
POLYLINE
  5
D2D
  8
SAPA_PROFIL
 66
     1
 10
0.0
 20
0.0
 30
0.0
 70
     1
  0
VERTEX
  5
1153
  8
SAPA_PROFIL
 10
27.967306036925649
 20
27.752207122612081
 30
0.0
 42
0.2216946626428728
  0
VERTEX
  5
1154
  8
SAPA_PROFIL
 10
27.201261593807018
 20
27.39499473229856
 30
0.0
  0
VERTEX
  5
1155
  8
SAPA_PROFIL
 10
26.12253590138214
 20
26.10941951292742
 30
0.0
 42
-0.2216946626428911
  0
VERTEX
  5
1156
  8
SAPA_PROFIL
 10
25.356491458263388
 20
25.75220712261395
 30
0.0
  0
VERTEX
  5
1157
  8
SAPA_PROFIL
 10
23.579945380641831
 20
25.752207122613441
 30
0.0
 42
0.1989123673796749
  0
VERTEX
  5
1158
  8
SAPA_PROFIL
 10
23.367813346285558
 20
25.664339156969529
 30
0.0
  0
VERTEX
  5
1159
  8
SAPA_PROFIL
 10
22.797102668167259
 20
25.093628478850778
 30
0.0
 42
0.6681786379193591
  0
VERTEX
  5
115A
  8
SAPA_PROFIL
 10
22.938524024404771
 20
24.752207122613441
 30
0.0
  0
VERTEX
  5
115B
  8
SAPA_PROFIL
 10
23.905681311929971
 20
24.752207122613669
 30
0.0
 42
-0.4142135623730951
  0
VERTEX
  5
115C
  8
SAPA_PROFIL
 10
24.405681311929971
 20
24.2522071226139
 30
0.0
  0
VERTEX
  5
115D
  8
SAPA_PROFIL
 10
24.405681311929971
 20
23.86139819289329
 30
0.0
 42
-0.1763269807084316
  0
VERTEX
  5
115E
  8
SAPA_PROFIL
 10
24.335494644865712
 20
23.66856190998752
 30
0.0
  0
VERTEX
  5
115F
  8
SAPA_PROFIL
 10
22.877350442057761
 20
21.93081331777071
 30
0.0
 42
-0.2216946626429586
  0
VERTEX
  5
1160
  8
SAPA_PROFIL
 10
22.494328220498272
 20
21.75220712261396
 30
0.0
  0
VERTEX
  5
1161
  8
SAPA_PROFIL
 10
19.923772871730911
 20
21.7522071226139
 30
0.0
 42
-0.2216946626429592
  0
VERTEX
  5
1162
  8
SAPA_PROFIL
 10
19.693959538794999
 20
21.85937083970785
 30
0.0
  0
VERTEX
  5
1163
  8
SAPA_PROFIL
 10
18.175867978994269
 20
23.66856190998752
 30
0.0
 42
-0.1763269807084563
  0
VERTEX
  5
1164
  8
SAPA_PROFIL
 10
18.10568131193001
 20
23.86139819289329
 30
0.0
  0
VERTEX
  5
1165
  8
SAPA_PROFIL
 10
18.10568131193001
 20
24.2522071226139
 30
0.0
 42
-0.4142135623730951
  0
VERTEX
  5
1166
  8
SAPA_PROFIL
 10
18.60568131193001
 20
24.752207122613441
 30
0.0
  0
VERTEX
  5
1167
  8
SAPA_PROFIL
 10
19.572838599455441
 20
24.752207122613441
 30
0.0
 42
0.6681786379193841
  0
VERTEX
  5
1168
  8
SAPA_PROFIL
 10
19.714259955692501
 20
25.093628478850778
 30
0.0
  0
VERTEX
  5
1169
  8
SAPA_PROFIL
 10
19.14354927757374
 20
25.664339156969529
 30
0.0
 42
0.1989123673796471
  0
VERTEX
  5
116A
  8
SAPA_PROFIL
 10
18.931417243217918
 20
25.7522071226139
 30
0.0
  0
VERTEX
  5
116B
  8
SAPA_PROFIL
 10
16.60568131193001
 20
25.752207122613441
 30
0.0
 42
0.4142135623730951
  0
VERTEX
  5
116C
  8
SAPA_PROFIL
 10
16.10568131193001
 20
25.252207122613441
 30
0.0
  0
VERTEX
  5
116D
  8
SAPA_PROFIL
 10
16.105681311929441
 20
21.55220712261357
 30
0.0
 42
0.4142135623729843
  0
VERTEX
  5
116E
  8
SAPA_PROFIL
 10
16.405681311929509
 20
21.252207122613381
 30
0.0
  0
VERTEX
  5
116F
  8
SAPA_PROFIL
 10
17.43247623117183
 20
21.252207122613498
 30
0.0
 42
-0.26794919243117
  0
VERTEX
  5
1170
  8
SAPA_PROFIL
 10
17.692283852307511
 20
21.102207122613411
 30
0.0
  0
VERTEX
  5
1171
  8
SAPA_PROFIL
 10
18.562972593078751
 20
19.594129986019109
 30
0.0
 42
-0.4142135623734465
  0
VERTEX
  5
1172
  8
SAPA_PROFIL
 10
18.453164971943512
 20
19.184322364883851
 30
0.0
  0
VERTEX
  5
1173
  8
SAPA_PROFIL
 10
17.905681311929619
 20
18.868232526397861
 30
0.0
 42
0.4663076581550835
  0
VERTEX
  5
1174
  8
SAPA_PROFIL
 10
17.639636868810651
 20
17.359419512927019
 30
0.0
  0
VERTEX
  5
1175
  8
SAPA_PROFIL
 10
20.576526419612879
 20
13.859370839707619
 30
0.0
 42
0.2216946626429129
  0
VERTEX
  5
1176
  8
SAPA_PROFIL
 10
20.80633975254857
 20
13.75220712261361
 30
0.0
  0
VERTEX
  5
1177
  8
SAPA_PROFIL
 10
21.955681311930149
 20
13.75220712261361
 30
0.0
 42
0.4142135623732061
  0
VERTEX
  5
1178
  8
SAPA_PROFIL
 10
22.255681311930111
 20
14.05220712261368
 30
0.0
  0
VERTEX
  5
1179
  8
SAPA_PROFIL
 10
22.255681311929539
 20
17.55894662786207
 30
0.0
 42
-0.1763269807085094
  0
VERTEX
  5
117A
  8
SAPA_PROFIL
 10
22.48963686881056
 20
18.201734237548781
 30
0.0
  0
VERTEX
  5
117B
  8
SAPA_PROFIL
 10
24.79154657986037
 20
20.94504340551984
 30
0.0
 42
-0.2216946626429509
  0
VERTEX
  5
117C
  8
SAPA_PROFIL
 10
25.021359912796061
 20
21.052207122613911
 30
0.0
  0
VERTEX
  5
117D
  8
SAPA_PROFIL
 10
25.881467615349539
 20
21.052207122613911
 30
0.0
 42
0.4142135623731506
  0
VERTEX
  5
117E
  8
SAPA_PROFIL
 10
26.18146761534949
 20
21.352207122613919
 30
0.0
  0
VERTEX
  5
117F
  8
SAPA_PROFIL
 10
26.18146761534949
 20
22.492295722706871
 30
0.0
 42
-0.1763269807084654
  0
VERTEX
  5
1180
  8
SAPA_PROFIL
 10
26.25165428241376
 20
22.685132005612811
 30
0.0
  0
VERTEX
  5
1181
  8
SAPA_PROFIL
 10
27.9381293550944
 20
24.694994732300561
 30
0.0
 42
-0.2216946626429509
  0
VERTEX
  5
1182
  8
SAPA_PROFIL
 10
28.704173798213379
 20
25.052207122614021
 30
0.0
  0
VERTEX
  5
1183
  8
SAPA_PROFIL
 10
51.107188825647007
 20
25.052207122613911
 30
0.0
 42
-0.2216946626429508
  0
VERTEX
  5
1184
  8
SAPA_PROFIL
 10
51.873233268765979
 20
24.69499473230044
 30
0.0
  0
VERTEX
  5
1185
  8
SAPA_PROFIL
 10
53.55970834144663
 20
22.685132005612701
 30
0.0
 42
-0.1763269807084657
  0
VERTEX
  5
1186
  8
SAPA_PROFIL
 10
53.6298950085109
 20
22.492295722706761
 30
0.0
  0
VERTEX
  5
1187
  8
SAPA_PROFIL
 10
53.6298950085109
 20
21.352207122613919
 30
0.0
 42
0.4142135623730951
  0
VERTEX
  5
1188
  8
SAPA_PROFIL
 10
53.929895008510847
 20
21.052207122613972
 30
0.0
  0
VERTEX
  5
1189
  8
SAPA_PROFIL
 10
54.790002711064332
 20
21.052207122613972
 30
0.0
 42
-0.2216946626429889
  0
VERTEX
  5
118A
  8
SAPA_PROFIL
 10
55.019816044000017
 20
20.9450434055199
 30
0.0
  0
VERTEX
  5
118B
  8
SAPA_PROFIL
 10
57.321725755049819
 20
18.20173423754866
 30
0.0
 42
-0.1763269807085052
  0
VERTEX
  5
118C
  8
SAPA_PROFIL
 10
57.555681311930847
 20
17.5589466278619
 30
0.0
  0
VERTEX
  5
118D
  8
SAPA_PROFIL
 10
57.555681311930172
 20
14.05220712261368
 30
0.0
 42
0.4142135623732062
  0
VERTEX
  5
118E
  8
SAPA_PROFIL
 10
57.855681311930127
 20
13.75220712261361
 30
0.0
  0
VERTEX
  5
118F
  8
SAPA_PROFIL
 10
59.005022871311709
 20
13.75220712261361
 30
0.0
 42
0.2216946626429129
  0
VERTEX
  5
1190
  8
SAPA_PROFIL
 10
59.234836204247401
 20
13.859370839707619
 30
0.0
  0
VERTEX
  5
1191
  8
SAPA_PROFIL
 10
62.171725755049742
 20
17.359419512926959
 30
0.0
 42
0.4663076581550919
  0
VERTEX
  5
1192
  8
SAPA_PROFIL
 10
61.905681311930763
 20
18.868232526397861
 30
0.0
  0
VERTEX
  5
1193
  8
SAPA_PROFIL
 10
61.358197651916882
 20
19.184322364883801
 30
0.0
 42
-0.4142135623731708
  0
VERTEX
  5
1194
  8
SAPA_PROFIL
 10
61.248390030781643
 20
19.594129986019109
 30
0.0
  0
VERTEX
  5
1195
  8
SAPA_PROFIL
 10
62.119078771552878
 20
21.102207122613411
 30
0.0
 42
-0.26794919243117
  0
VERTEX
  5
1196
  8
SAPA_PROFIL
 10
62.378886392688557
 20
21.252207122613498
 30
0.0
  0
VERTEX
  5
1197
  8
SAPA_PROFIL
 10
63.40568131193087
 20
21.252207122613498
 30
0.0
 42
0.4142135623729287
  0
VERTEX
  5
1198
  8
SAPA_PROFIL
 10
63.705681311930952
 20
21.55220712261357
 30
0.0
  0
VERTEX
  5
1199
  8
SAPA_PROFIL
 10
63.705681311930377
 20
25.252207122613441
 30
0.0
 42
0.4142135623730951
  0
VERTEX
  5
119A
  8
SAPA_PROFIL
 10
63.205681311930377
 20
25.752207122613441
 30
0.0
  0
VERTEX
  5
119B
  8
SAPA_PROFIL
 10
60.879945380642468
 20
25.7522071226139
 30
0.0
 42
0.1989123673796819
  0
VERTEX
  5
119C
  8
SAPA_PROFIL
 10
60.667813346286643
 20
25.664339156969529
 30
0.0
  0
VERTEX
  5
119D
  8
SAPA_PROFIL
 10
60.097102668167892
 20
25.093628478850778
 30
0.0
 42
0.6681786379193841
  0
VERTEX
  5
119E
  8
SAPA_PROFIL
 10
60.238524024404953
 20
24.752207122613441
 30
0.0
  0
VERTEX
  5
119F
  8
SAPA_PROFIL
 10
61.205681311930377
 20
24.752207122613441
 30
0.0
 42
-0.4142135623730951
  0
VERTEX
  5
11A0
  8
SAPA_PROFIL
 10
61.705681311930377
 20
24.2522071226139
 30
0.0
  0
VERTEX
  5
11A1
  8
SAPA_PROFIL
 10
61.705681311930377
 20
23.86139819289329
 30
0.0
 42
-0.1763269807084561
  0
VERTEX
  5
11A2
  8
SAPA_PROFIL
 10
61.635494644866107
 20
23.66856190998752
 30
0.0
  0
VERTEX
  5
11A3
  8
SAPA_PROFIL
 10
60.117403085065391
 20
21.85937083970785
 30
0.0
 42
-0.2216946626429592
  0
VERTEX
  5
11A4
  8
SAPA_PROFIL
 10
59.887589752129472
 20
21.7522071226139
 30
0.0
  0
VERTEX
  5
11A5
  8
SAPA_PROFIL
 10
57.317034403362108
 20
21.75220712261396
 30
0.0
 42
-0.2216946626429736
  0
VERTEX
  5
11A6
  8
SAPA_PROFIL
 10
56.934012181802622
 20
21.93081331777071
 30
0.0
  0
VERTEX
  5
11A7
  8
SAPA_PROFIL
 10
55.475867978994692
 20
23.66856190998752
 30
0.0
 42
-0.1763269807084407
  0
VERTEX
  5
11A8
  8
SAPA_PROFIL
 10
55.405681311930422
 20
23.86139819289329
 30
0.0
  0
VERTEX
  5
11A9
  8
SAPA_PROFIL
 10
55.405681311930422
 20
24.2522071226139
 30
0.0
 42
-0.4142135623730951
  0
VERTEX
  5
11AA
  8
SAPA_PROFIL
 10
55.905681311930422
 20
24.752207122613441
 30
0.0
  0
VERTEX
  5
11AB
  8
SAPA_PROFIL
 10
56.872838599455619
 20
24.752207122613441
 30
0.0
 42
0.6681786379193591
  0
VERTEX
  5
11AC
  8
SAPA_PROFIL
 10
57.014259955693127
 20
25.093628478850778
 30
0.0
  0
VERTEX
  5
11AD
  8
SAPA_PROFIL
 10
56.443549277574832
 20
25.664339156969529
 30
0.0
 42
0.1989123673796749
  0
VERTEX
  5
11AE
  8
SAPA_PROFIL
 10
56.231417243218559
 20
25.752207122613441
 30
0.0
  0
VERTEX
  5
11AF
  8
SAPA_PROFIL
 10
54.454871165597112
 20
25.75220712261395
 30
0.0
 42
-0.2216946626428804
  0
VERTEX
  5
11B0
  8
SAPA_PROFIL
 10
53.688826722478368
 20
26.109419512927481
 30
0.0
  0
VERTEX
  5
11B1
  8
SAPA_PROFIL
 10
52.610101030053372
 20
27.39499473229861
 30
0.0
 42
0.2216946626428499
  0
VERTEX
  5
11B2
  8
SAPA_PROFIL
 10
51.844056586934741
 20
27.752207122612081
 30
0.0
  0
VERTEX
  5
11B3
  8
SAPA_PROFIL
 10
46.555681311930279
 20
27.7522071226139
 30
0.0
 42
-0.4142135623730951
  0
VERTEX
  5
11B4
  8
SAPA_PROFIL
 10
46.255681311930097
 20
28.05220712261363
 30
0.0
  0
VERTEX
  5
11B5
  8
SAPA_PROFIL
 10
46.255681311930097
 20
28.452207122613711
 30
0.0
 42
0.4142135623730951
  0
VERTEX
  5
11B6
  8
SAPA_PROFIL
 10
45.95568131193037
 20
28.7522071226139
 30
0.0
  0
VERTEX
  5
11B7
  8
SAPA_PROFIL
 10
45.555681311930279
 20
28.7522071226139
 30
0.0
 42
0.4142135623730951
  0
VERTEX
  5
11B8
  8
SAPA_PROFIL
 10
45.255681311930097
 20
28.452207122613711
 30
0.0
  0
VERTEX
  5
11B9
  8
SAPA_PROFIL
 10
45.255681311930097
 20
28.05220712261363
 30
0.0
 42
-0.4142135623730951
  0
VERTEX
  5
11BA
  8
SAPA_PROFIL
 10
44.955681311930377
 20
27.7522071226139
 30
0.0
  0
VERTEX
  5
11BB
  8
SAPA_PROFIL
 10
40.529945380642097
 20
27.7522071226139
 30
0.0
 42
0.1989123673795535
  0
VERTEX
  5
11BC
  8
SAPA_PROFIL
 10
40.317813346286279
 20
27.664339156969991
 30
0.0
  0
VERTEX
  5
11BD
  8
SAPA_PROFIL
 10
39.905681311930202
 20
27.2522071226139
 30
0.0
  0
VERTEX
  5
11BE
  8
SAPA_PROFIL
 10
39.493549277574097
 20
27.664339156969991
 30
0.0
 42
0.1989123673795536
  0
VERTEX
  5
11BF
  8
SAPA_PROFIL
 10
39.281417243218293
 20
27.7522071226139
 30
0.0
  0
VERTEX
  5
11C0
  8
SAPA_PROFIL
 10
34.855681311930468
 20
27.7522071226139
 30
0.0
 42
-0.4142135623730951
  0
VERTEX
  5
11C1
  8
SAPA_PROFIL
 10
34.555681311930293
 20
28.05220712261363
 30
0.0
  0
VERTEX
  5
11C2
  8
SAPA_PROFIL
 10
34.555681311930293
 20
28.452207122613711
 30
0.0
 42
0.4142135623730951
  0
VERTEX
  5
11C3
  8
SAPA_PROFIL
 10
34.255681311930097
 20
28.7522071226139
 30
0.0
  0
VERTEX
  5
11C4
  8
SAPA_PROFIL
 10
33.855681311930013
 20
28.7522071226139
 30
0.0
 42
0.4142135623730951
  0
VERTEX
  5
11C5
  8
SAPA_PROFIL
 10
33.555681311930293
 20
28.452207122613711
 30
0.0
  0
VERTEX
  5
11C6
  8
SAPA_PROFIL
 10
33.555681311930293
 20
28.05220712261363
 30
0.0
 42
-0.414213562373095
  0
VERTEX
  5
11C7
  8
SAPA_PROFIL
 10
33.255681311930111
 20
27.7522071226139
 30
0.0
  0
SEQEND
  5
11C8
  8
SAPA_PROFIL
  0
POLYLINE
  5
D2E
  8
SAPA_PROFIL
 66
     1
 10
0.0
 20
0.0
 30
0.0
 70
     1
  0
VERTEX
  5
11C9
  8
SAPA_PROFIL
 10
-5.0943186880691647
 20
197.05220712261391
 30
0.0
  0
VERTEX
  5
11CA
  8
SAPA_PROFIL
 10
-5.0943186880691647
 20
199.05220712261391
 30
0.0
  0
VERTEX
  5
11CB
  8
SAPA_PROFIL
 10
9.2488270624384086
 20
199.05220712261391
 30
0.0
  0
VERTEX
  5
11CC
  8
SAPA_PROFIL
 10
14.905681311930829
 20
193.39535287312151
 30
0.0
  0
VERTEX
  5
11CD
  8
SAPA_PROFIL
 10
14.905681311930829
 20
174.05220712261391
 30
0.0
  0
VERTEX
  5
11CE
  8
SAPA_PROFIL
 10
12.905681311930829
 20
174.05220712261391
 30
0.0
  0
VERTEX
  5
11CF
  8
SAPA_PROFIL
 10
12.905681311930829
 20
179.35938679958639
 30
0.0
  0
VERTEX
  5
11D0
  8
SAPA_PROFIL
 10
13.3056813119307
 20
180.05220712261391
 30
0.0
  0
VERTEX
  5
11D1
  8
SAPA_PROFIL
 10
12.905681311930829
 20
180.7450274456416
 30
0.0
  0
VERTEX
  5
11D2
  8
SAPA_PROFIL
 10
12.905681311930829
 20
191.73849862362931
 30
0.0
 42
0.1989123673796584
  0
VERTEX
  5
11D3
  8
SAPA_PROFIL
 10
12.319894874303939
 20
193.15271218600239
 30
0.0
  0
VERTEX
  5
11D4
  8
SAPA_PROFIL
 10
9.0061863753190892
 20
196.46642068498701
 30
0.0
 42
0.1989123673796572
  0
VERTEX
  5
11D5
  8
SAPA_PROFIL
 10
7.5919728129459818
 20
197.05220712261391
 30
0.0
  0
VERTEX
  5
11D6
  8
SAPA_PROFIL
 10
1.5985016349583241
 20
197.05220712261391
 30
0.0
  0
VERTEX
  5
11D7
  8
SAPA_PROFIL
 10
0.9056813119308345
 20
197.452207122614
 30
0.0
  0
VERTEX
  5
11D8
  8
SAPA_PROFIL
 10
0.2128609889031168
 20
197.05220712261391
 30
0.0
  0
SEQEND
  5
11D9
  8
SAPA_PROFIL
  0
POLYLINE
  5
D2F
  8
SAPA_PROFIL
 62
     4
 66
     1
 10
0.0
 20
0.0
 30
0.0
 70
     1
  0
VERTEX
  5
11DA
  8
SAPA_PROFIL
 62
     4
 10
46.905681677184802
 20
78.690589837075962
 30
0.0
 42
0.414213562373114
  0
VERTEX
  5
11DB
  8
SAPA_PROFIL
 62
     4
 10
44.905681677184809
 20
76.690589837075834
 30
0.0
  0
VERTEX
  5
11DC
  8
SAPA_PROFIL
 62
     4
 10
44.905681677185079
 20
72.190589837075919
 30
0.0
 42
0.4142135623730807
  0
VERTEX
  5
11DD
  8
SAPA_PROFIL
 62
     4
 10
45.405681677185079
 20
71.690589837075962
 30
0.0
  0
VERTEX
  5
11DE
  8
SAPA_PROFIL
 62
     4
 10
45.905681677185711
 20
71.690589837075962
 30
0.0
 42
0.4142135623730951
  0
VERTEX
  5
11DF
  8
SAPA_PROFIL
 62
     4
 10
46.405681677185719
 20
72.190589837075962
 30
0.0
  0
VERTEX
  5
11E0
  8
SAPA_PROFIL
 62
     4
 10
46.405681677185719
 20
76.690589837076018
 30
0.0
 42
-0.4142135623730847
  0
VERTEX
  5
11E1
  8
SAPA_PROFIL
 62
     4
 10
46.905681677185719
 20
77.190589837076018
 30
0.0
  0
VERTEX
  5
11E2
  8
SAPA_PROFIL
 62
     4
 10
48.605681677182801
 20
77.190589837076075
 30
0.0
 42
-0.4142135623731284
  0
VERTEX
  5
11E3
  8
SAPA_PROFIL
 62
     4
 10
49.105681677182808
 20
76.690589837076075
 30
0.0
  0
VERTEX
  5
11E4
  8
SAPA_PROFIL
 62
     4
 10
49.105681677180989
 20
48.690589837076061
 30
0.0
 42
-0.4142135623730959
  0
VERTEX
  5
11E5
  8
SAPA_PROFIL
 62
     4
 10
48.605681677180989
 20
48.190589837076061
 30
0.0
  0
VERTEX
  5
11E6
  8
SAPA_PROFIL
 62
     4
 10
46.905681677185719
 20
48.190589837075947
 30
0.0
 42
-0.4142135623730951
  0
VERTEX
  5
11E7
  8
SAPA_PROFIL
 62
     4
 10
46.405681677185719
 20
48.690589837075947
 30
0.0
  0
VERTEX
  5
11E8
  8
SAPA_PROFIL
 62
     4
 10
46.405681677185719
 20
53.190589837075102
 30
0.0
 42
0.4142135623730951
  0
VERTEX
  5
11E9
  8
SAPA_PROFIL
 62
     4
 10
45.905681677185711
 20
53.690589837075102
 30
0.0
  0
VERTEX
  5
11EA
  8
SAPA_PROFIL
 62
     4
 10
45.405681677186259
 20
53.690589837075102
 30
0.0
 42
0.4142135623731129
  0
VERTEX
  5
11EB
  8
SAPA_PROFIL
 62
     4
 10
44.905681677186259
 20
53.190589837075059
 30
0.0
  0
VERTEX
  5
11EC
  8
SAPA_PROFIL
 62
     4
 10
44.905681677186621
 20
47.190589837075088
 30
0.0
 42
0.4142135623730951
  0
VERTEX
  5
11ED
  8
SAPA_PROFIL
 62
     4
 10
45.405681677186628
 20
46.690589837075088
 30
0.0
  0
VERTEX
  5
11EE
  8
SAPA_PROFIL
 62
     4
 10
57.705681677183172
 20
46.690589837075777
 30
0.0
  0
VERTEX
  5
11EF
  8
SAPA_PROFIL
 62
     4
 10
58.292065692943993
 20
47.155513256641598
 30
0.0
 42
0.7105995015669819
  0
VERTEX
  5
11F0
  8
SAPA_PROFIL
 62
     4
 10
58.105681677182801
 20
47.690589837076679
 30
0.0
  0
VERTEX
  5
11F1
  8
SAPA_PROFIL
 62
     4
 10
57.105681677182808
 20
47.69058983707577
 30
0.0
 42
-0.4142135623731117
  0
VERTEX
  5
11F2
  8
SAPA_PROFIL
 62
     4
 10
56.605681677182808
 20
48.19058983707577
 30
0.0
  0
VERTEX
  5
11F3
  8
SAPA_PROFIL
 62
     4
 10
56.605681677182808
 20
52.190589837075777
 30
0.0
 42
-0.4142135623730951
  0
VERTEX
  5
11F4
  8
SAPA_PROFIL
 62
     4
 10
57.105681677182808
 20
52.69058983707577
 30
0.0
  0
VERTEX
  5
11F5
  8
SAPA_PROFIL
 62
     4
 10
62.705681677183172
 20
52.69058983707577
 30
0.0
 42
-0.4142135623730951
  0
VERTEX
  5
11F6
  8
SAPA_PROFIL
 62
     4
 10
63.205681677183172
 20
52.190589837075777
 30
0.0
  0
VERTEX
  5
11F7
  8
SAPA_PROFIL
 62
     4
 10
63.205681677183172
 20
48.190589837076693
 30
0.0
 42
-0.4142135623730784
  0
VERTEX
  5
11F8
  8
SAPA_PROFIL
 62
     4
 10
62.705681677183172
 20
47.690589837076679
 30
0.0
  0
VERTEX
  5
11F9
  8
SAPA_PROFIL
 62
     4
 10
61.705681677183172
 20
47.69058983707577
 30
0.0
 42
0.7105995015654651
  0
VERTEX
  5
11FA
  8
SAPA_PROFIL
 62
     4
 10
61.519297661422897
 20
47.155513256641598
 30
0.0
  0
VERTEX
  5
11FB
  8
SAPA_PROFIL
 62
     4
 10
62.105681677182808
 20
46.690589837075777
 30
0.0
  0
VERTEX
  5
11FC
  8
SAPA_PROFIL
 62
     4
 10
64.205681677183179
 20
46.690589837075777
 30
0.0
 42
0.4142135623730951
  0
VERTEX
  5
11FD
  8
SAPA_PROFIL
 62
     4
 10
64.705681677183179
 20
47.190589837075777
 30
0.0
  0
VERTEX
  5
11FE
  8
SAPA_PROFIL
 62
     4
 10
64.705681677183179
 20
54.190589837075777
 30
0.0
 42
0.4142135623730951
  0
VERTEX
  5
11FF
  8
SAPA_PROFIL
 62
     4
 10
64.205681677183179
 20
54.690589837075777
 30
0.0
  0
VERTEX
  5
1200
  8
SAPA_PROFIL
 62
     4
 10
62.605681677182808
 20
54.690589837076679
 30
0.0
  0
VERTEX
  5
1201
  8
SAPA_PROFIL
 62
     4
 10
62.605681677182808
 20
54.690589837076679
 30
0.0
 42
-0.4142135623730951
  0
VERTEX
  5
1202
  8
SAPA_PROFIL
 62
     4
 10
62.105681677182808
 20
54.190589837076679
 30
0.0
  0
VERTEX
  5
1203
  8
SAPA_PROFIL
 62
     4
 10
55.605681677183718
 20
54.190589837076679
 30
0.0
 42
0.4142135623730951
  0
VERTEX
  5
1204
  8
SAPA_PROFIL
 62
     4
 10
55.105681677183711
 20
53.690589837076679
 30
0.0
  0
VERTEX
  5
1205
  8
SAPA_PROFIL
 62
     4
 10
55.105681677183711
 20
48.690589837075777
 30
0.0
 42
-0.4142135623730951
  0
VERTEX
  5
1206
  8
SAPA_PROFIL
 62
     4
 10
54.605681677183711
 20
48.19058983707577
 30
0.0
  0
VERTEX
  5
1207
  8
SAPA_PROFIL
 62
     4
 10
51.105681677182801
 20
48.190589837075891
 30
0.0
 42
-0.4142135623731117
  0
VERTEX
  5
1208
  8
SAPA_PROFIL
 62
     4
 10
50.605681677182801
 20
48.690589837075891
 30
0.0
  0
VERTEX
  5
1209
  8
SAPA_PROFIL
 62
     4
 10
50.605681677184627
 20
94.190589837076502
 30
0.0
 42
-0.4142135623724291
  0
VERTEX
  5
120A
  8
SAPA_PROFIL
 62
     4
 10
50.9056816771839
 20
94.490589837076683
 30
0.0
  0
VERTEX
  5
120B
  8
SAPA_PROFIL
 62
     4
 10
52.205681677184678
 20
94.490589837076683
 30
0.0
 42
0.6681786379194817
  0
VERTEX
  5
120C
  8
SAPA_PROFIL
 62
     4
 10
52.417813711540497
 20
95.002721871432684
 30
0.0
  0
VERTEX
  5
120D
  8
SAPA_PROFIL
 62
     4
 10
50.217813711541297
 20
97.2027218714328
 30
0.0
 42
0.1989123673797118
  0
VERTEX
  5
120E
  8
SAPA_PROFIL
 62
     4
 10
50.005681677185301
 20
97.290589837076865
 30
0.0
  0
VERTEX
  5
120F
  8
SAPA_PROFIL
 62
     4
 10
49.4056816771839
 20
97.290589837076865
 30
0.0
 42
0.4142135623724291
  0
VERTEX
  5
1210
  8
SAPA_PROFIL
 62
     4
 10
49.10568167718462
 20
96.990589837076683
 30
0.0
  0
VERTEX
  5
1211
  8
SAPA_PROFIL
 62
     4
 10
49.10568167718462
 20
79.190589837075962
 30
0.0
 42
-0.4142135623730951
  0
VERTEX
  5
1212
  8
SAPA_PROFIL
 62
     4
 10
48.60568167718462
 20
78.690589837075962
 30
0.0
  0
SEQEND
  5
1213
  8
SAPA_PROFIL
 62
     4
  0
LINE
  5
D30
  8
SAPA_PROFIL
 62
     4
 10
52.905681311931403
 20
54.75220712261364
 30
0.0
 11
114.9056813119323
 21
54.75220712261364
 31
0.0
  0
LINE
  5
D31
  8
SAPA_PROFIL
 62
     4
 10
52.905681311931403
 20
62.75220712261364
 30
0.0
 11
52.905681311931403
 21
54.75220712261364
 31
0.0
  0
LINE
  5
D32
  8
SAPA_PROFIL
 62
     4
 10
114.9056813119323
 20
62.75220712261364
 30
0.0
 11
52.905681311931403
 21
62.75220712261364
 31
0.0
  0
LINE
  5
D33
  8
SAPA_PROFIL
 62
     4
 10
50.905681311932419
 20
29.752207122613701
 30
0.0
 11
114.9056813119323
 21
29.752207122613701
 31
0.0
  0
LINE
  5
D34
  8
SAPA_PROFIL
 62
     4
 10
50.905681311932419
 20
35.752207122613697
 30
0.0
 11
50.905681311932419
 21
29.752207122613701
 31
0.0
  0
LINE
  5
D35
  8
SAPA_PROFIL
 62
     4
 10
114.9056813119323
 20
35.752207122613697
 30
0.0
 11
50.905681311932419
 21
35.752207122613697
 31
0.0
  0
POLYLINE
  5
D36
  8
SAPA_PROFIL
 66
     1
 10
0.0
 20
0.0
 30
0.0
 70
     1
  0
VERTEX
  5
1214
  8
SAPA_PROFIL
 10
51.844056586936901
 20
27.752207122612081
 30
0.0
 42
-0.2216946626428728
  0
VERTEX
  5
1215
  8
SAPA_PROFIL
 10
52.610101030055532
 20
27.39499473229856
 30
0.0
  0
VERTEX
  5
1216
  8
SAPA_PROFIL
 10
53.688826722480407
 20
26.10941951292742
 30
0.0
 42
0.2216946626428911
  0
VERTEX
  5
1217
  8
SAPA_PROFIL
 10
54.454871165599158
 20
25.75220712261395
 30
0.0
  0
VERTEX
  5
1218
  8
SAPA_PROFIL
 10
56.231417243220719
 20
25.752207122613441
 30
0.0
 42
-0.1989123673796749
  0
VERTEX
  5
1219
  8
SAPA_PROFIL
 10
56.443549277576992
 20
25.664339156969529
 30
0.0
  0
VERTEX
  5
121A
  8
SAPA_PROFIL
 10
57.014259955695287
 20
25.093628478850778
 30
0.0
 42
-0.6681786379193591
  0
VERTEX
  5
121B
  8
SAPA_PROFIL
 10
56.872838599457779
 20
24.752207122613441
 30
0.0
  0
VERTEX
  5
121C
  8
SAPA_PROFIL
 10
55.905681311932582
 20
24.752207122613669
 30
0.0
 42
0.4142135623730951
  0
VERTEX
  5
121D
  8
SAPA_PROFIL
 10
55.405681311932582
 20
24.2522071226139
 30
0.0
  0
VERTEX
  5
121E
  8
SAPA_PROFIL
 10
55.405681311932582
 20
23.86139819289329
 30
0.0
 42
0.1763269807084316
  0
VERTEX
  5
121F
  8
SAPA_PROFIL
 10
55.475867978996838
 20
23.66856190998752
 30
0.0
  0
VERTEX
  5
1220
  8
SAPA_PROFIL
 10
56.934012181804789
 20
21.93081331777071
 30
0.0
 42
0.2216946626429586
  0
VERTEX
  5
1221
  8
SAPA_PROFIL
 10
57.317034403364282
 20
21.75220712261396
 30
0.0
  0
VERTEX
  5
1222
  8
SAPA_PROFIL
 10
59.887589752131632
 20
21.7522071226139
 30
0.0
 42
0.2216946626429592
  0
VERTEX
  5
1223
  8
SAPA_PROFIL
 10
60.117403085067551
 20
21.85937083970785
 30
0.0
  0
VERTEX
  5
1224
  8
SAPA_PROFIL
 10
61.635494644868267
 20
23.66856190998752
 30
0.0
 42
0.1763269807084563
  0
VERTEX
  5
1225
  8
SAPA_PROFIL
 10
61.70568131193253
 20
23.86139819289329
 30
0.0
  0
VERTEX
  5
1226
  8
SAPA_PROFIL
 10
61.70568131193253
 20
24.2522071226139
 30
0.0
 42
0.4142135623730951
  0
VERTEX
  5
1227
  8
SAPA_PROFIL
 10
61.205681311932537
 20
24.752207122613441
 30
0.0
  0
VERTEX
  5
1228
  8
SAPA_PROFIL
 10
60.238524024407113
 20
24.752207122613441
 30
0.0
 42
-0.6681786379193841
  0
VERTEX
  5
1229
  8
SAPA_PROFIL
 10
60.097102668170052
 20
25.093628478850778
 30
0.0
  0
VERTEX
  5
122A
  8
SAPA_PROFIL
 10
60.66781334628881
 20
25.664339156969529
 30
0.0
 42
-0.1989123673796471
  0
VERTEX
  5
122B
  8
SAPA_PROFIL
 10
60.879945380644628
 20
25.7522071226139
 30
0.0
  0
VERTEX
  5
122C
  8
SAPA_PROFIL
 10
63.205681311932537
 20
25.752207122613441
 30
0.0
 42
-0.4142135623730951
  0
VERTEX
  5
122D
  8
SAPA_PROFIL
 10
63.705681311932537
 20
25.252207122613441
 30
0.0
  0
VERTEX
  5
122E
  8
SAPA_PROFIL
 10
63.705681311933098
 20
21.55220712261357
 30
0.0
 42
-0.4142135623729843
  0
VERTEX
  5
122F
  8
SAPA_PROFIL
 10
63.405681311933037
 20
21.252207122613381
 30
0.0
  0
VERTEX
  5
1230
  8
SAPA_PROFIL
 10
62.378886392690717
 20
21.252207122613498
 30
0.0
 42
0.26794919243117
  0
VERTEX
  5
1231
  8
SAPA_PROFIL
 10
62.119078771555031
 20
21.102207122613411
 30
0.0
  0
VERTEX
  5
1232
  8
SAPA_PROFIL
 10
61.248390030783789
 20
19.594129986019109
 30
0.0
 42
0.4142135623734465
  0
VERTEX
  5
1233
  8
SAPA_PROFIL
 10
61.358197651919042
 20
19.184322364883851
 30
0.0
  0
VERTEX
  5
1234
  8
SAPA_PROFIL
 10
61.905681311932923
 20
18.868232526397861
 30
0.0
 42
-0.4663076581550835
  0
VERTEX
  5
1235
  8
SAPA_PROFIL
 10
62.171725755051888
 20
17.359419512927019
 30
0.0
  0
VERTEX
  5
1236
  8
SAPA_PROFIL
 10
59.234836204249667
 20
13.859370839707619
 30
0.0
 42
-0.2216946626429129
  0
VERTEX
  5
1237
  8
SAPA_PROFIL
 10
59.00502287131399
 20
13.75220712261361
 30
0.0
  0
VERTEX
  5
1238
  8
SAPA_PROFIL
 10
57.8556813119324
 20
13.75220712261361
 30
0.0
 42
-0.4142135623732061
  0
VERTEX
  5
1239
  8
SAPA_PROFIL
 10
57.555681311932439
 20
14.05220712261368
 30
0.0
  0
VERTEX
  5
123A
  8
SAPA_PROFIL
 10
57.555681311933007
 20
17.55894662786207
 30
0.0
 42
0.1763269807085094
  0
VERTEX
  5
123B
  8
SAPA_PROFIL
 10
57.321725755051993
 20
18.201734237548781
 30
0.0
  0
VERTEX
  5
123C
  8
SAPA_PROFIL
 10
55.019816044002177
 20
20.94504340551984
 30
0.0
 42
0.2216946626429509
  0
VERTEX
  5
123D
  8
SAPA_PROFIL
 10
54.790002711066492
 20
21.052207122613911
 30
0.0
  0
VERTEX
  5
123E
  8
SAPA_PROFIL
 10
53.929895008513007
 20
21.052207122613911
 30
0.0
 42
-0.4142135623731506
  0
VERTEX
  5
123F
  8
SAPA_PROFIL
 10
53.629895008513053
 20
21.352207122613919
 30
0.0
  0
VERTEX
  5
1240
  8
SAPA_PROFIL
 10
53.629895008513053
 20
22.492295722706871
 30
0.0
 42
0.1763269807084654
  0
VERTEX
  5
1241
  8
SAPA_PROFIL
 10
53.559708341448797
 20
22.685132005612811
 30
0.0
  0
VERTEX
  5
1242
  8
SAPA_PROFIL
 10
51.873233268768139
 20
24.694994732300561
 30
0.0
 42
0.2216946626429509
  0
VERTEX
  5
1243
  8
SAPA_PROFIL
 10
51.107188825649168
 20
25.052207122614021
 30
0.0
  0
VERTEX
  5
1244
  8
SAPA_PROFIL
 10
28.704173798215528
 20
25.052207122613911
 30
0.0
 42
0.2216946626429508
  0
VERTEX
  5
1245
  8
SAPA_PROFIL
 10
27.93812935509656
 20
24.69499473230044
 30
0.0
  0
VERTEX
  5
1246
  8
SAPA_PROFIL
 10
26.25165428241591
 20
22.685132005612701
 30
0.0
 42
0.1763269807084657
  0
VERTEX
  5
1247
  8
SAPA_PROFIL
 10
26.18146761535165
 20
22.492295722706761
 30
0.0
  0
VERTEX
  5
1248
  8
SAPA_PROFIL
 10
26.18146761535165
 20
21.352207122613919
 30
0.0
 42
-0.4142135623730951
  0
VERTEX
  5
1249
  8
SAPA_PROFIL
 10
25.881467615351688
 20
21.052207122613972
 30
0.0
  0
VERTEX
  5
124A
  8
SAPA_PROFIL
 10
25.021359912798221
 20
21.052207122613972
 30
0.0
 42
0.2216946626429889
  0
VERTEX
  5
124B
  8
SAPA_PROFIL
 10
24.791546579862519
 20
20.9450434055199
 30
0.0
  0
VERTEX
  5
124C
  8
SAPA_PROFIL
 10
22.48963686881272
 20
18.20173423754866
 30
0.0
 42
0.1763269807085052
  0
VERTEX
  5
124D
  8
SAPA_PROFIL
 10
22.255681311931689
 20
17.5589466278619
 30
0.0
  0
VERTEX
  5
124E
  8
SAPA_PROFIL
 10
22.255681311932381
 20
14.05220712261368
 30
0.0
 42
-0.4142135623732062
  0
VERTEX
  5
124F
  8
SAPA_PROFIL
 10
21.95568131193242
 20
13.75220712261361
 30
0.0
  0
VERTEX
  5
1250
  8
SAPA_PROFIL
 10
20.806339752550841
 20
13.75220712261361
 30
0.0
 42
-0.2216946626429129
  0
VERTEX
  5
1251
  8
SAPA_PROFIL
 10
20.576526419615149
 20
13.859370839707619
 30
0.0
  0
VERTEX
  5
1252
  8
SAPA_PROFIL
 10
17.639636868812811
 20
17.359419512926959
 30
0.0
 42
-0.4663076581550919
  0
VERTEX
  5
1253
  8
SAPA_PROFIL
 10
17.905681311931779
 20
18.868232526397861
 30
0.0
  0
VERTEX
  5
1254
  8
SAPA_PROFIL
 10
18.453164971945661
 20
19.184322364883801
 30
0.0
 42
0.4142135623731708
  0
VERTEX
  5
1255
  8
SAPA_PROFIL
 10
18.562972593080911
 20
19.594129986019109
 30
0.0
  0
VERTEX
  5
1256
  8
SAPA_PROFIL
 10
17.692283852309671
 20
21.102207122613411
 30
0.0
 42
0.26794919243117
  0
VERTEX
  5
1257
  8
SAPA_PROFIL
 10
17.43247623117399
 20
21.252207122613498
 30
0.0
  0
VERTEX
  5
1258
  8
SAPA_PROFIL
 10
16.405681311931669
 20
21.252207122613498
 30
0.0
 42
-0.4142135623729287
  0
VERTEX
  5
1259
  8
SAPA_PROFIL
 10
16.105681311931601
 20
21.55220712261357
 30
0.0
  0
VERTEX
  5
125A
  8
SAPA_PROFIL
 10
16.10568131193217
 20
25.252207122613441
 30
0.0
 42
-0.4142135623730951
  0
VERTEX
  5
125B
  8
SAPA_PROFIL
 10
16.60568131193217
 20
25.752207122613441
 30
0.0
  0
VERTEX
  5
125C
  8
SAPA_PROFIL
 10
18.931417243220078
 20
25.7522071226139
 30
0.0
 42
-0.1989123673796819
  0
VERTEX
  5
125D
  8
SAPA_PROFIL
 10
19.1435492775759
 20
25.664339156969529
 30
0.0
  0
VERTEX
  5
125E
  8
SAPA_PROFIL
 10
19.714259955694651
 20
25.093628478850778
 30
0.0
 42
-0.6681786379193841
  0
VERTEX
  5
125F
  8
SAPA_PROFIL
 10
19.57283859945759
 20
24.752207122613441
 30
0.0
  0
VERTEX
  5
1260
  8
SAPA_PROFIL
 10
18.60568131193217
 20
24.752207122613441
 30
0.0
 42
0.4142135623730951
  0
VERTEX
  5
1261
  8
SAPA_PROFIL
 10
18.10568131193217
 20
24.2522071226139
 30
0.0
  0
VERTEX
  5
1262
  8
SAPA_PROFIL
 10
18.10568131193217
 20
23.86139819289329
 30
0.0
 42
0.1763269807084561
  0
VERTEX
  5
1263
  8
SAPA_PROFIL
 10
18.175867978996429
 20
23.66856190998752
 30
0.0
  0
VERTEX
  5
1264
  8
SAPA_PROFIL
 10
19.693959538797149
 20
21.85937083970785
 30
0.0
 42
0.2216946626429592
  0
VERTEX
  5
1265
  8
SAPA_PROFIL
 10
19.923772871733071
 20
21.7522071226139
 30
0.0
  0
VERTEX
  5
1266
  8
SAPA_PROFIL
 10
22.494328220500432
 20
21.75220712261396
 30
0.0
 42
0.2216946626429736
  0
VERTEX
  5
1267
  8
SAPA_PROFIL
 10
22.877350442059921
 20
21.93081331777071
 30
0.0
  0
VERTEX
  5
1268
  8
SAPA_PROFIL
 10
24.335494644867861
 20
23.66856190998752
 30
0.0
 42
0.1763269807084407
  0
VERTEX
  5
1269
  8
SAPA_PROFIL
 10
24.405681311932131
 20
23.86139819289329
 30
0.0
  0
VERTEX
  5
126A
  8
SAPA_PROFIL
 10
24.405681311932131
 20
24.2522071226139
 30
0.0
 42
0.4142135623730951
  0
VERTEX
  5
126B
  8
SAPA_PROFIL
 10
23.905681311932121
 20
24.752207122613441
 30
0.0
  0
VERTEX
  5
126C
  8
SAPA_PROFIL
 10
22.938524024406931
 20
24.752207122613441
 30
0.0
 42
-0.6681786379193591
  0
VERTEX
  5
126D
  8
SAPA_PROFIL
 10
22.797102668169408
 20
25.093628478850778
 30
0.0
  0
VERTEX
  5
126E
  8
SAPA_PROFIL
 10
23.367813346287718
 20
25.664339156969529
 30
0.0
 42
-0.1989123673796749
  0
VERTEX
  5
126F
  8
SAPA_PROFIL
 10
23.579945380643991
 20
25.752207122613441
 30
0.0
  0
VERTEX
  5
1270
  8
SAPA_PROFIL
 10
25.356491458265431
 20
25.75220712261395
 30
0.0
 42
0.2216946626428804
  0
VERTEX
  5
1271
  8
SAPA_PROFIL
 10
26.122535901384179
 20
26.109419512927481
 30
0.0
  0
VERTEX
  5
1272
  8
SAPA_PROFIL
 10
27.201261593809178
 20
27.39499473229861
 30
0.0
 42
-0.2216946626428499
  0
VERTEX
  5
1273
  8
SAPA_PROFIL
 10
27.967306036927809
 20
27.752207122612081
 30
0.0
  0
VERTEX
  5
1274
  8
SAPA_PROFIL
 10
33.255681311932271
 20
27.7522071226139
 30
0.0
 42
0.4142135623730951
  0
VERTEX
  5
1275
  8
SAPA_PROFIL
 10
33.555681311932453
 20
28.05220712261363
 30
0.0
  0
VERTEX
  5
1276
  8
SAPA_PROFIL
 10
33.555681311932453
 20
28.452207122613711
 30
0.0
 42
-0.4142135623730951
  0
VERTEX
  5
1277
  8
SAPA_PROFIL
 10
33.855681311932173
 20
28.7522071226139
 30
0.0
  0
VERTEX
  5
1278
  8
SAPA_PROFIL
 10
34.255681311932271
 20
28.7522071226139
 30
0.0
 42
-0.4142135623730951
  0
VERTEX
  5
1279
  8
SAPA_PROFIL
 10
34.555681311932453
 20
28.452207122613711
 30
0.0
  0
VERTEX
  5
127A
  8
SAPA_PROFIL
 10
34.555681311932453
 20
28.05220712261363
 30
0.0
 42
0.4142135623730951
  0
VERTEX
  5
127B
  8
SAPA_PROFIL
 10
34.855681311932173
 20
27.7522071226139
 30
0.0
  0
VERTEX
  5
127C
  8
SAPA_PROFIL
 10
39.281417243220453
 20
27.7522071226139
 30
0.0
 42
-0.1989123673795535
  0
VERTEX
  5
127D
  8
SAPA_PROFIL
 10
39.493549277576271
 20
27.664339156969991
 30
0.0
  0
VERTEX
  5
127E
  8
SAPA_PROFIL
 10
39.905681311932348
 20
27.2522071226139
 30
0.0
  0
VERTEX
  5
127F
  8
SAPA_PROFIL
 10
40.317813346288453
 20
27.664339156969991
 30
0.0
 42
-0.1989123673795536
  0
VERTEX
  5
1280
  8
SAPA_PROFIL
 10
40.529945380644257
 20
27.7522071226139
 30
0.0
  0
VERTEX
  5
1281
  8
SAPA_PROFIL
 10
44.955681311932082
 20
27.7522071226139
 30
0.0
 42
0.4142135623730951
  0
VERTEX
  5
1282
  8
SAPA_PROFIL
 10
45.255681311932257
 20
28.05220712261363
 30
0.0
  0
VERTEX
  5
1283
  8
SAPA_PROFIL
 10
45.255681311932257
 20
28.452207122613711
 30
0.0
 42
-0.4142135623730951
  0
VERTEX
  5
1284
  8
SAPA_PROFIL
 10
45.555681311932439
 20
28.7522071226139
 30
0.0
  0
VERTEX
  5
1285
  8
SAPA_PROFIL
 10
45.95568131193253
 20
28.7522071226139
 30
0.0
 42
-0.4142135623730951
  0
VERTEX
  5
1286
  8
SAPA_PROFIL
 10
46.255681311932257
 20
28.452207122613711
 30
0.0
  0
VERTEX
  5
1287
  8
SAPA_PROFIL
 10
46.255681311932257
 20
28.05220712261363
 30
0.0
 42
0.414213562373095
  0
VERTEX
  5
1288
  8
SAPA_PROFIL
 10
46.555681311932439
 20
27.7522071226139
 30
0.0
  0
SEQEND
  5
1289
  8
SAPA_PROFIL
  0
POLYLINE
  5
D37
  8
SAPA_PROFIL
 66
     1
 10
0.0
 20
0.0
 30
0.0
 70
     1
  0
VERTEX
  5
128A
  8
SAPA_PROFIL
 10
84.905681311931744
 20
197.05220712261391
 30
0.0
  0
VERTEX
  5
128B
  8
SAPA_PROFIL
 10
84.905681311931744
 20
199.05220712261391
 30
0.0
  0
VERTEX
  5
128C
  8
SAPA_PROFIL
 10
70.56253556142417
 20
199.05220712261391
 30
0.0
  0
VERTEX
  5
128D
  8
SAPA_PROFIL
 10
64.905681311931744
 20
193.39535287312151
 30
0.0
  0
VERTEX
  5
128E
  8
SAPA_PROFIL
 10
64.905681311931744
 20
174.05220712261391
 30
0.0
  0
VERTEX
  5
128F
  8
SAPA_PROFIL
 10
66.905681311931744
 20
174.05220712261391
 30
0.0
  0
VERTEX
  5
1290
  8
SAPA_PROFIL
 10
66.905681311931744
 20
179.35938679958639
 30
0.0
  0
VERTEX
  5
1291
  8
SAPA_PROFIL
 10
66.50568131193188
 20
180.05220712261391
 30
0.0
  0
VERTEX
  5
1292
  8
SAPA_PROFIL
 10
66.905681311931744
 20
180.7450274456416
 30
0.0
  0
VERTEX
  5
1293
  8
SAPA_PROFIL
 10
66.905681311931744
 20
191.73849862362931
 30
0.0
 42
-0.1989123673796584
  0
VERTEX
  5
1294
  8
SAPA_PROFIL
 10
67.491467749558637
 20
193.15271218600239
 30
0.0
  0
VERTEX
  5
1295
  8
SAPA_PROFIL
 10
70.805176248543489
 20
196.46642068498701
 30
0.0
 42
-0.1989123673796572
  0
VERTEX
  5
1296
  8
SAPA_PROFIL
 10
72.219389810916596
 20
197.05220712261391
 30
0.0
  0
VERTEX
  5
1297
  8
SAPA_PROFIL
 10
78.212860988904254
 20
197.05220712261391
 30
0.0
  0
VERTEX
  5
1298
  8
SAPA_PROFIL
 10
78.905681311931744
 20
197.452207122614
 30
0.0
  0
VERTEX
  5
1299
  8
SAPA_PROFIL
 10
79.598501634959462
 20
197.05220712261391
 30
0.0
  0
SEQEND
  5
129A
  8
SAPA_PROFIL
  0
POLYLINE
  5
D38
  8
SAPA_PROFIL
 66
     1
 10
0.0
 20
0.0
 30
0.0
 70
     1
  0
VERTEX
  5
129B
  8
SAPA_PROFIL
 10
58.178629887112493
 20
92.968618521164672
 30
0.0
 42
-0.1691807452125083
  0
VERTEX
  5
129C
  8
SAPA_PROFIL
 10
57.557349834576598
 20
92.752207122613754
 30
0.0
  0
VERTEX
  5
129D
  8
SAPA_PROFIL
 10
51.20568131193135
 20
92.752207122613754
 30
0.0
 42
-0.4142135623730951
  0
VERTEX
  5
129E
  8
SAPA_PROFIL
 10
50.905681311931403
 20
93.052207122613709
 30
0.0
  0
VERTEX
  5
129F
  8
SAPA_PROFIL
 10
50.905681311931403
 20
93.752207122613754
 30
0.0
 42
-0.4142135623730951
  0
VERTEX
  5
12A0
  8
SAPA_PROFIL
 10
51.20568131193135
 20
94.052207122613709
 30
0.0
  0
VERTEX
  5
12A1
  8
SAPA_PROFIL
 10
54.105681311931221
 20
94.052207122613709
 30
0.0
 42
0.4142135623730951
  0
VERTEX
  5
12A2
  8
SAPA_PROFIL
 10
54.605681311931221
 20
94.552207122613694
 30
0.0
  0
VERTEX
  5
12A3
  8
SAPA_PROFIL
 10
54.605681311931221
 20
97.752207122613754
 30
0.0
 42
0.4142135623730951
  0
VERTEX
  5
12A4
  8
SAPA_PROFIL
 10
54.105681311931221
 20
98.252207122613754
 30
0.0
  0
VERTEX
  5
12A5
  8
SAPA_PROFIL
 10
45.905681311931403
 20
98.252207122613825
 30
0.0
 42
0.4142135623730951
  0
VERTEX
  5
12A6
  8
SAPA_PROFIL
 10
44.905681311931403
 20
97.252207122613825
 30
0.0
  0
VERTEX
  5
12A7
  8
SAPA_PROFIL
 10
44.905681311931403
 20
76.052207122613765
 30
0.0
 42
-0.4142135623730948
  0
VERTEX
  5
12A8
  8
SAPA_PROFIL
 10
44.605681311931221
 20
75.752207122613811
 30
0.0
  0
VERTEX
  5
12A9
  8
SAPA_PROFIL
 10
43.115686652800832
 20
75.752207122613811
 30
0.0
 42
-0.2135746067194863
  0
VERTEX
  5
12AA
  8
SAPA_PROFIL
 10
42.891962950555353
 20
75.852337902738611
 30
0.0
  0
VERTEX
  5
12AB
  8
SAPA_PROFIL
 10
42.143549277575403
 20
76.690075088257856
 30
0.0
 42
-0.6681786379193474
  0
VERTEX
  5
12AC
  8
SAPA_PROFIL
 10
42.355681311931207
 20
77.202207122613629
 30
0.0
  0
VERTEX
  5
12AD
  8
SAPA_PROFIL
 10
42.605681311931221
 20
77.202207122613629
 30
0.0
  0
VERTEX
  5
12AE
  8
SAPA_PROFIL
 10
42.082401008629397
 20
78.578441716190184
 30
0.0
 42
-0.5450207798986705
  0
VERTEX
  5
12AF
  8
SAPA_PROFIL
 10
42.355681311931207
 20
79.002207122613811
 30
0.0
  0
VERTEX
  5
12B0
  8
SAPA_PROFIL
 10
42.605681311931221
 20
79.002207122613811
 30
0.0
  0
VERTEX
  5
12B1
  8
SAPA_PROFIL
 10
42.082401008629397
 20
80.378441716190366
 30
0.0
 42
-0.5450207798987319
  0
VERTEX
  5
12B2
  8
SAPA_PROFIL
 10
42.355681311931207
 20
80.802207122613765
 30
0.0
  0
VERTEX
  5
12B3
  8
SAPA_PROFIL
 10
42.605681311931221
 20
80.802207122613765
 30
0.0
  0
VERTEX
  5
12B4
  8
SAPA_PROFIL
 10
42.082401008629397
 20
82.178441716190093
 30
0.0
 42
-0.5450207798986705
  0
VERTEX
  5
12B5
  8
SAPA_PROFIL
 10
42.355681311931207
 20
82.60220712261372
 30
0.0
  0
VERTEX
  5
12B6
  8
SAPA_PROFIL
 10
42.605681311931221
 20
82.60220712261372
 30
0.0
  0
VERTEX
  5
12B7
  8
SAPA_PROFIL
 10
42.082401008629397
 20
83.978441716190275
 30
0.0
 42
-0.5450207798986705
  0
VERTEX
  5
12B8
  8
SAPA_PROFIL
 10
42.355681311931207
 20
84.402207122613916
 30
0.0
  0
VERTEX
  5
12B9
  8
SAPA_PROFIL
 10
42.605681311931221
 20
84.402207122613916
 30
0.0
  0
VERTEX
  5
12BA
  8
SAPA_PROFIL
 10
42.377918594547282
 20
85.125924417419867
 30
0.0
 42
0.2945484962562833
  0
VERTEX
  5
12BB
  8
SAPA_PROFIL
 10
42.10456378086883
 20
85.302159082368064
 30
0.0
  0
VERTEX
  5
12BC
  8
SAPA_PROFIL
 10
41.169981249679488
 20
85.301951900401775
 30
0.0
 42
-0.3475954753796645
  0
VERTEX
  5
12BD
  8
SAPA_PROFIL
 10
40.878007822609327
 20
85.532705944570637
 30
0.0
 42
0.7905229096113513
  0
VERTEX
  5
12BE
  8
SAPA_PROFIL
 10
38.932017222065731
 20
85.532716149011151
 30
0.0
 42
-0.3476065658631767
  0
VERTEX
  5
12BF
  8
SAPA_PROFIL
 10
38.640029501044182
 20
85.301965170279175
 30
0.0
  0
VERTEX
  5
12C0
  8
SAPA_PROFIL
 10
38.055688649837968
 20
85.302111890988101
 30
0.0
 42
0.4102317530970184
  0
VERTEX
  5
12C1
  8
SAPA_PROFIL
 10
37.755653013345643
 20
85.006260242834571
 30
0.0
 42
-0.0712587206050455
  0
VERTEX
  5
12C2
  8
SAPA_PROFIL
 10
37.742425699475923
 20
84.922216317906134
 30
0.0
  0
VERTEX
  5
12C3
  8
SAPA_PROFIL
 10
37.205681311931357
 20
83.502207122613797
 30
0.0
  0
VERTEX
  5
12C4
  8
SAPA_PROFIL
 10
37.455681311931357
 20
83.502207122613797
 30
0.0
 42
-0.5450200690651181
  0
VERTEX
  5
12C5
  8
SAPA_PROFIL
 10
37.728962311931348
 20
83.078442122613808
 30
0.0
  0
VERTEX
  5
12C6
  8
SAPA_PROFIL
 10
37.205681311931357
 20
81.702207122613629
 30
0.0
  0
VERTEX
  5
12C7
  8
SAPA_PROFIL
 10
37.455681311931357
 20
81.702207122613856
 30
0.0
 42
-0.5450200690652297
  0
VERTEX
  5
12C8
  8
SAPA_PROFIL
 10
37.728962311931348
 20
81.278442122613626
 30
0.0
  0
VERTEX
  5
12C9
  8
SAPA_PROFIL
 10
37.205681311931357
 20
79.902207122613902
 30
0.0
  0
VERTEX
  5
12CA
  8
SAPA_PROFIL
 10
37.455681311931357
 20
79.902207122613902
 30
0.0
 42
-0.5450200690651181
  0
VERTEX
  5
12CB
  8
SAPA_PROFIL
 10
37.728962311931348
 20
79.478442122613899
 30
0.0
  0
VERTEX
  5
12CC
  8
SAPA_PROFIL
 10
37.205681311931357
 20
78.10220712261372
 30
0.0
  0
VERTEX
  5
12CD
  8
SAPA_PROFIL
 10
37.755681311931312
 20
78.10220712261372
 30
0.0
  0
VERTEX
  5
12CE
  8
SAPA_PROFIL
 10
37.755681311931312
 20
76.902207122613902
 30
0.0
 42
-0.1989123673797028
  0
VERTEX
  5
12CF
  8
SAPA_PROFIL
 10
37.667813311931241
 20
76.690075122613791
 30
0.0
  0
VERTEX
  5
12D0
  8
SAPA_PROFIL
 10
36.91939967407189
 20
75.852337911368124
 30
0.0
 42
-0.2135746168025217
  0
VERTEX
  5
12D1
  8
SAPA_PROFIL
 10
36.695675964116852
 20
75.752207122613811
 30
0.0
  0
VERTEX
  5
12D2
  8
SAPA_PROFIL
 10
35.205681311931357
 20
75.752207122613811
 30
0.0
 42
-0.4142135623730951
  0
VERTEX
  5
12D3
  8
SAPA_PROFIL
 10
34.905681311931403
 20
76.052207122613765
 30
0.0
  0
VERTEX
  5
12D4
  8
SAPA_PROFIL
 10
34.905681311931403
 20
97.252207122613825
 30
0.0
 42
0.4142135623730951
  0
VERTEX
  5
12D5
  8
SAPA_PROFIL
 10
33.905681311931403
 20
98.252207122613825
 30
0.0
  0
VERTEX
  5
12D6
  8
SAPA_PROFIL
 10
25.705681311931361
 20
98.252207122613825
 30
0.0
 42
0.4142135623730951
  0
VERTEX
  5
12D7
  8
SAPA_PROFIL
 10
25.205681311931361
 20
97.752207122613811
 30
0.0
  0
VERTEX
  5
12D8
  8
SAPA_PROFIL
 10
25.205681311931361
 20
94.552207122613765
 30
0.0
 42
0.4142135623730951
  0
VERTEX
  5
12D9
  8
SAPA_PROFIL
 10
25.705681311931361
 20
94.052207122613765
 30
0.0
  0
VERTEX
  5
12DA
  8
SAPA_PROFIL
 10
28.605681311931221
 20
94.052207122613765
 30
0.0
 42
-0.4142135623730951
  0
VERTEX
  5
12DB
  8
SAPA_PROFIL
 10
28.905681311931399
 20
93.752207122613811
 30
0.0
  0
VERTEX
  5
12DC
  8
SAPA_PROFIL
 10
28.905681311931399
 20
93.052207122613765
 30
0.0
 42
-0.4142135623730948
  0
VERTEX
  5
12DD
  8
SAPA_PROFIL
 10
28.605681311931221
 20
92.752207122613811
 30
0.0
  0
VERTEX
  5
12DE
  8
SAPA_PROFIL
 10
22.254012789286211
 20
92.752207122613811
 30
0.0
 42
-0.1691807452125083
  0
VERTEX
  5
12DF
  8
SAPA_PROFIL
 10
21.632732736750309
 20
92.968618521164728
 30
0.0
  0
VERTEX
  5
12E0
  8
SAPA_PROFIL
 10
21.319297296430701
 20
93.217130541972736
 30
0.0
 42
-0.7105995019815232
  0
VERTEX
  5
12E1
  8
SAPA_PROFIL
 10
21.505681311931308
 20
93.752207122613811
 30
0.0
  0
VERTEX
  5
12E2
  8
SAPA_PROFIL
 10
23.405681311931399
 20
93.752207122613811
 30
0.0
 42
0.4142135623730951
  0
VERTEX
  5
12E3
  8
SAPA_PROFIL
 10
23.705681311931361
 20
94.052207122613765
 30
0.0
  0
VERTEX
  5
12E4
  8
SAPA_PROFIL
 10
23.705681311931361
 20
97.952207122613856
 30
0.0
 42
0.4142135623730951
  0
VERTEX
  5
12E5
  8
SAPA_PROFIL
 10
23.405681311931399
 20
98.252207122613825
 30
0.0
  0
VERTEX
  5
12E6
  8
SAPA_PROFIL
 10
16.70568131193135
 20
98.252207122613825
 30
0.0
 42
0.4142135623730951
  0
VERTEX
  5
12E7
  8
SAPA_PROFIL
 10
16.405681311931399
 20
97.952207122613629
 30
0.0
  0
VERTEX
  5
12E8
  8
SAPA_PROFIL
 10
16.405681311931399
 20
94.052207122613765
 30
0.0
 42
0.4142135623730951
  0
VERTEX
  5
12E9
  8
SAPA_PROFIL
 10
16.70568131193135
 20
93.752207122613811
 30
0.0
  0
VERTEX
  5
12EA
  8
SAPA_PROFIL
 10
17.905681311931399
 20
93.752207122613811
 30
0.0
 42
-0.7105990647992588
  0
VERTEX
  5
12EB
  8
SAPA_PROFIL
 10
18.092065311931261
 20
93.217131122613694
 30
0.0
  0
VERTEX
  5
12EC
  8
SAPA_PROFIL
 10
17.77863002551657
 20
92.968618906896438
 30
0.0
 42
-0.1691809048716788
  0
VERTEX
  5
12ED
  8
SAPA_PROFIL
 10
17.15734948647696
 20
92.752207122613811
 30
0.0
  0
VERTEX
  5
12EE
  8
SAPA_PROFIL
 10
15.205681311931359
 20
92.752207122613811
 30
0.0
 42
-0.4142135623730951
  0
VERTEX
  5
12EF
  8
SAPA_PROFIL
 10
14.905681311931399
 20
93.052207122613765
 30
0.0
  0
VERTEX
  5
12F0
  8
SAPA_PROFIL
 10
14.905681311931399
 20
212.2522071226137
 30
0.0
 42
-0.4142135623730951
  0
VERTEX
  5
12F1
  8
SAPA_PROFIL
 10
15.405681311931399
 20
212.75220712261361
 30
0.0
  0
VERTEX
  5
12F2
  8
SAPA_PROFIL
 10
64.405681311931403
 20
212.75220712261361
 30
0.0
 42
-0.4142135623730951
  0
VERTEX
  5
12F3
  8
SAPA_PROFIL
 10
64.905681311931403
 20
212.2522071226137
 30
0.0
  0
VERTEX
  5
12F4
  8
SAPA_PROFIL
 10
64.905681311931403
 20
93.052207122613709
 30
0.0
 42
-0.4142135623730948
  0
VERTEX
  5
12F5
  8
SAPA_PROFIL
 10
64.605681311931221
 20
92.752207122613754
 30
0.0
  0
VERTEX
  5
12F6
  8
SAPA_PROFIL
 10
62.654012789286071
 20
92.752207122613754
 30
0.0
 42
-0.1691807452125083
  0
VERTEX
  5
12F7
  8
SAPA_PROFIL
 10
62.032732736750177
 20
92.968618521164672
 30
0.0
  0
VERTEX
  5
12F8
  8
SAPA_PROFIL
 10
61.719297296430788
 20
93.217130541972665
 30
0.0
 42
-0.7105995019815232
  0
VERTEX
  5
12F9
  8
SAPA_PROFIL
 10
61.905681311931403
 20
93.752207122613811
 30
0.0
  0
VERTEX
  5
12FA
  8
SAPA_PROFIL
 10
63.105681311931221
 20
93.752207122613754
 30
0.0
 42
0.4142135623730948
  0
VERTEX
  5
12FB
  8
SAPA_PROFIL
 10
63.405681311931403
 20
94.052207122613709
 30
0.0
  0
VERTEX
  5
12FC
  8
SAPA_PROFIL
 10
63.405681311931403
 20
97.952207122613572
 30
0.0
 42
0.4142135623730951
  0
VERTEX
  5
12FD
  8
SAPA_PROFIL
 10
63.105681311931221
 20
98.252207122613754
 30
0.0
  0
VERTEX
  5
12FE
  8
SAPA_PROFIL
 10
56.405681311931403
 20
98.252207122613754
 30
0.0
 42
0.4142135623730951
  0
VERTEX
  5
12FF
  8
SAPA_PROFIL
 10
56.105681311931221
 20
97.952207122613814
 30
0.0
  0
VERTEX
  5
1300
  8
SAPA_PROFIL
 10
56.105681311931221
 20
94.052207122613709
 30
0.0
 42
0.414213562373095
  0
VERTEX
  5
1301
  8
SAPA_PROFIL
 10
56.405681311931403
 20
93.752207122613754
 30
0.0
  0
VERTEX
  5
1302
  8
SAPA_PROFIL
 10
58.305681311931266
 20
93.752207122613754
 30
0.0
 42
-0.7105995019815232
  0
VERTEX
  5
1303
  8
SAPA_PROFIL
 10
58.492065327431867
 20
93.217130541972736
 30
0.0
  0
SEQEND
  5
1304
  8
SAPA_PROFIL
  0
POLYLINE
  5
D39
  8
SAPA_PROFIL
 66
     1
 10
0.0
 20
0.0
 30
0.0
 70
     1
  0
VERTEX
  5
1305
  8
SAPA_PROFIL
 10
42.605681311931221
 20
95.202207122613615
 30
0.0
  0
VERTEX
  5
1306
  8
SAPA_PROFIL
 10
42.255681311931312
 20
95.202207122613615
 30
0.0
 42
0.545020779898761
  0
VERTEX
  5
1307
  8
SAPA_PROFIL
 10
41.982401008629267
 20
94.778441716190244
 30
0.0
  0
VERTEX
  5
1308
  8
SAPA_PROFIL
 10
42.605681311931221
 20
93.402207122613888
 30
0.0
  0
VERTEX
  5
1309
  8
SAPA_PROFIL
 10
42.255681311931312
 20
93.402207122613888
 30
0.0
 42
0.54502077989874
  0
VERTEX
  5
130A
  8
SAPA_PROFIL
 10
41.982401008629267
 20
92.978441716190275
 30
0.0
  0
VERTEX
  5
130B
  8
SAPA_PROFIL
 10
42.605681311931221
 20
91.60220712261372
 30
0.0
  0
VERTEX
  5
130C
  8
SAPA_PROFIL
 10
42.255681311931312
 20
91.60220712261372
 30
0.0
 42
0.545020779898768
  0
VERTEX
  5
130D
  8
SAPA_PROFIL
 10
41.982401008629267
 20
91.178441716190093
 30
0.0
  0
VERTEX
  5
130E
  8
SAPA_PROFIL
 10
42.605681311931221
 20
89.802207122613765
 30
0.0
  0
VERTEX
  5
130F
  8
SAPA_PROFIL
 10
42.255681311931312
 20
89.802207122613765
 30
0.0
 42
0.5450205149791638
  0
VERTEX
  5
1310
  8
SAPA_PROFIL
 10
41.982401311931419
 20
89.378442122613762
 30
0.0
  0
VERTEX
  5
1311
  8
SAPA_PROFIL
 10
42.605681311931221
 20
88.002207122613811
 30
0.0
  0
VERTEX
  5
1312
  8
SAPA_PROFIL
 10
42.255681311931312
 20
88.002207122613811
 30
0.0
 42
0.5450207798987328
  0
VERTEX
  5
1313
  8
SAPA_PROFIL
 10
41.982401008629267
 20
87.578441716190184
 30
0.0
  0
VERTEX
  5
1314
  8
SAPA_PROFIL
 10
42.333948945441989
 20
86.802207122613765
 30
0.0
  0
VERTEX
  5
1315
  8
SAPA_PROFIL
 10
37.205681311931357
 20
86.802207122613765
 30
0.0
  0
VERTEX
  5
1316
  8
SAPA_PROFIL
 10
37.205681311931357
 20
87.102207122613734
 30
0.0
  0
VERTEX
  5
1317
  8
SAPA_PROFIL
 10
37.828962311931257
 20
88.478442122613899
 30
0.0
 42
0.5450200690651692
  0
VERTEX
  5
1318
  8
SAPA_PROFIL
 10
37.555681311931266
 20
88.902207122613902
 30
0.0
  0
VERTEX
  5
1319
  8
SAPA_PROFIL
 10
37.205681311931357
 20
88.902207122613902
 30
0.0
  0
VERTEX
  5
131A
  8
SAPA_PROFIL
 10
37.828962311931257
 20
90.278442122613626
 30
0.0
 42
0.5450200690651619
  0
VERTEX
  5
131B
  8
SAPA_PROFIL
 10
37.555681311931266
 20
90.702207122613856
 30
0.0
  0
VERTEX
  5
131C
  8
SAPA_PROFIL
 10
37.205681311931357
 20
90.702207122613629
 30
0.0
  0
VERTEX
  5
131D
  8
SAPA_PROFIL
 10
37.828962311931257
 20
92.078442122613808
 30
0.0
 42
0.5450200690651619
  0
VERTEX
  5
131E
  8
SAPA_PROFIL
 10
37.555681311931266
 20
92.502207122613811
 30
0.0
  0
VERTEX
  5
131F
  8
SAPA_PROFIL
 10
37.205681311931357
 20
92.502207122613811
 30
0.0
  0
VERTEX
  5
1320
  8
SAPA_PROFIL
 10
37.828962311931257
 20
93.878442122613748
 30
0.0
 42
0.5450200690651692
  0
VERTEX
  5
1321
  8
SAPA_PROFIL
 10
37.555681311931266
 20
94.302207122613765
 30
0.0
  0
VERTEX
  5
1322
  8
SAPA_PROFIL
 10
37.205681311931357
 20
94.302207122613765
 30
0.0
  0
VERTEX
  5
1323
  8
SAPA_PROFIL
 10
37.828962311931257
 20
95.678442122613717
 30
0.0
 42
0.5450200690651551
  0
VERTEX
  5
1324
  8
SAPA_PROFIL
 10
37.555681311931266
 20
96.102207122613734
 30
0.0
  0
VERTEX
  5
1325
  8
SAPA_PROFIL
 10
37.205681311931357
 20
96.102207122613734
 30
0.0
  0
VERTEX
  5
1326
  8
SAPA_PROFIL
 10
37.205681311931357
 20
97.252207122613825
 30
0.0
 42
-0.4142135623730951
  0
VERTEX
  5
1327
  8
SAPA_PROFIL
 10
38.205681311931357
 20
98.252207122613825
 30
0.0
  0
VERTEX
  5
1328
  8
SAPA_PROFIL
 10
41.605681311931221
 20
98.252207122613825
 30
0.0
 42
-0.4142135623730951
  0
VERTEX
  5
1329
  8
SAPA_PROFIL
 10
42.605681311931221
 20
97.252207122613825
 30
0.0
  0
VERTEX
  5
132A
  8
SAPA_PROFIL
 10
42.605681311931221
 20
97.002207122613825
 30
0.0
  0
VERTEX
  5
132B
  8
SAPA_PROFIL
 10
42.255681311931312
 20
97.002207122613825
 30
0.0
 42
0.5450207798987328
  0
VERTEX
  5
132C
  8
SAPA_PROFIL
 10
41.982401008629267
 20
96.578441716190184
 30
0.0
  0
SEQEND
  5
132D
  8
SAPA_PROFIL
  0
POLYLINE
  5
D3A
  8
SAPA_PROFIL
 66
     1
 10
0.0
 20
0.0
 30
0.0
 70
     1
  0
VERTEX
  5
132E
  8
SAPA_PROFIL
 10
62.705681311931357
 20
208.25220712261361
 30
0.0
  0
VERTEX
  5
132F
  8
SAPA_PROFIL
 10
62.705681311931357
 20
206.0764711913256
 30
0.0
 42
-0.1989123673796407
  0
VERTEX
  5
1330
  8
SAPA_PROFIL
 10
62.617813346287221
 20
205.86433915696949
 30
0.0
  0
VERTEX
  5
1331
  8
SAPA_PROFIL
 10
61.093549277575221
 20
204.34007508825781
 30
0.0
 42
0.1989123673796753
  0
VERTEX
  5
1332
  8
SAPA_PROFIL
 10
61.005681311931312
 20
204.1279430539017
 30
0.0
  0
VERTEX
  5
1333
  8
SAPA_PROFIL
 10
61.005681311931312
 20
203.55220712261359
 30
0.0
 42
0.4142135623730951
  0
VERTEX
  5
1334
  8
SAPA_PROFIL
 10
61.305681311931259
 20
203.25220712261361
 30
0.0
  0
VERTEX
  5
1335
  8
SAPA_PROFIL
 10
62.405681311931403
 20
203.25220712261361
 30
0.0
 42
-0.4142135623730951
  0
VERTEX
  5
1336
  8
SAPA_PROFIL
 10
62.705681311931357
 20
202.95220712261349
 30
0.0
  0
VERTEX
  5
1337
  8
SAPA_PROFIL
 10
62.70568131193113
 20
200.55220712261359
 30
0.0
 42
-0.4142135623730951
  0
VERTEX
  5
1338
  8
SAPA_PROFIL
 10
62.405681311931403
 20
200.25220712261361
 30
0.0
  0
VERTEX
  5
1339
  8
SAPA_PROFIL
 10
61.305681311931259
 20
200.25220712261361
 30
0.0
 42
0.4142135623730951
  0
VERTEX
  5
133A
  8
SAPA_PROFIL
 10
61.005681311931312
 20
199.9522071226134
 30
0.0
  0
VERTEX
  5
133B
  8
SAPA_PROFIL
 10
61.005681311931312
 20
199.37647119132549
 30
0.0
 42
0.198912367379658
  0
VERTEX
  5
133C
  8
SAPA_PROFIL
 10
61.093549277575221
 20
199.1643391569695
 30
0.0
  0
VERTEX
  5
133D
  8
SAPA_PROFIL
 10
62.617813346287221
 20
197.6400750882575
 30
0.0
 42
-0.198912367379658
  0
VERTEX
  5
133E
  8
SAPA_PROFIL
 10
62.705681311931357
 20
197.4279430539014
 30
0.0
  0
VERTEX
  5
133F
  8
SAPA_PROFIL
 10
62.705681311931357
 20
158.2522071226137
 30
0.0
 42
-0.4142135623730951
  0
VERTEX
  5
1340
  8
SAPA_PROFIL
 10
61.70568131193135
 20
157.2522071226137
 30
0.0
  0
VERTEX
  5
1341
  8
SAPA_PROFIL
 10
57.505681311931312
 20
157.2522071226137
 30
0.0
 42
0.4142135623730951
  0
VERTEX
  5
1342
  8
SAPA_PROFIL
 10
57.205681311931357
 20
156.9522071226136
 30
0.0
  0
VERTEX
  5
1343
  8
SAPA_PROFIL
 10
57.205681311931357
 20
154.65220712261379
 30
0.0
 42
0.4142135623730951
  0
VERTEX
  5
1344
  8
SAPA_PROFIL
 10
57.505681311931312
 20
154.35220712261361
 30
0.0
  0
VERTEX
  5
1345
  8
SAPA_PROFIL
 10
58.005681311931312
 20
154.35220712261361
 30
0.0
 42
0.4142135623730951
  0
VERTEX
  5
1346
  8
SAPA_PROFIL
 10
58.305681311931266
 20
154.65220712261379
 30
0.0
  0
VERTEX
  5
1347
  8
SAPA_PROFIL
 10
58.305681311931266
 20
154.98883404724819
 30
0.0
 42
-0.5535245743249297
  0
VERTEX
  5
1348
  8
SAPA_PROFIL
 10
62.616235523462592
 20
153.21631472473831
 30
0.0
  0
VERTEX
  5
1349
  8
SAPA_PROFIL
 10
62.328904616634652
 20
152.92898381791039
 30
0.0
 42
0.4142135623729421
  0
VERTEX
  5
134A
  8
SAPA_PROFIL
 10
62.328904616634652
 20
152.57543042731709
 30
0.0
  0
VERTEX
  5
134B
  8
SAPA_PROFIL
 10
62.616235523462592
 20
152.28809952048911
 30
0.0
 42
-0.5535245743249292
  0
VERTEX
  5
134C
  8
SAPA_PROFIL
 10
58.305681311931266
 20
150.5155801979792
 30
0.0
  0
VERTEX
  5
134D
  8
SAPA_PROFIL
 10
58.305681311931266
 20
150.85220712261361
 30
0.0
 42
0.4142135623730951
  0
VERTEX
  5
134E
  8
SAPA_PROFIL
 10
58.005681311931312
 20
151.15220712261379
 30
0.0
  0
VERTEX
  5
134F
  8
SAPA_PROFIL
 10
57.505681311931312
 20
151.15220712261379
 30
0.0
 42
0.4142135623730951
  0
VERTEX
  5
1350
  8
SAPA_PROFIL
 10
57.205681311931357
 20
150.85220712261361
 30
0.0
  0
VERTEX
  5
1351
  8
SAPA_PROFIL
 10
57.205681311931357
 20
149.7522071226137
 30
0.0
 42
0.4142135623730951
  0
VERTEX
  5
1352
  8
SAPA_PROFIL
 10
58.70568131193135
 20
148.2522071226137
 30
0.0
  0
VERTEX
  5
1353
  8
SAPA_PROFIL
 10
61.339655908146817
 20
148.2522071226137
 30
0.0
 42
0.267949192431143
  0
VERTEX
  5
1354
  8
SAPA_PROFIL
 10
61.772668610039091
 20
148.5022071226137
 30
0.0
 42
-0.767326987978956
  0
VERTEX
  5
1355
  8
SAPA_PROFIL
 10
62.705681311931357
 20
148.2522071226137
 30
0.0
  0
VERTEX
  5
1356
  8
SAPA_PROFIL
 10
62.705681311931357
 20
113.2522071226137
 30
0.0
 42
-0.4142135623730951
  0
VERTEX
  5
1357
  8
SAPA_PROFIL
 10
61.70568131193135
 20
112.2522071226137
 30
0.0
  0
VERTEX
  5
1358
  8
SAPA_PROFIL
 10
57.505681311931312
 20
112.2522071226137
 30
0.0
 42
0.4142135623730951
  0
VERTEX
  5
1359
  8
SAPA_PROFIL
 10
57.205681311931357
 20
111.9522071226138
 30
0.0
  0
VERTEX
  5
135A
  8
SAPA_PROFIL
 10
57.205681311931357
 20
109.6522071226138
 30
0.0
 42
0.4142135623730951
  0
VERTEX
  5
135B
  8
SAPA_PROFIL
 10
57.505681311931312
 20
109.35220712261361
 30
0.0
  0
VERTEX
  5
135C
  8
SAPA_PROFIL
 10
58.005681311931312
 20
109.35220712261361
 30
0.0
 42
0.4142135623730951
  0
VERTEX
  5
135D
  8
SAPA_PROFIL
 10
58.305681311931266
 20
109.6522071226138
 30
0.0
  0
VERTEX
  5
135E
  8
SAPA_PROFIL
 10
58.305681311931266
 20
109.9888340472482
 30
0.0
 42
-0.5535245743249297
  0
VERTEX
  5
135F
  8
SAPA_PROFIL
 10
62.616235523462592
 20
108.2163147247383
 30
0.0
  0
VERTEX
  5
1360
  8
SAPA_PROFIL
 10
62.328904616634652
 20
107.92898381791041
 30
0.0
 42
0.4142135623730243
  0
VERTEX
  5
1361
  8
SAPA_PROFIL
 10
62.328904616634652
 20
107.5754304273171
 30
0.0
  0
VERTEX
  5
1362
  8
SAPA_PROFIL
 10
62.616235523462592
 20
107.2880995204891
 30
0.0
 42
-0.5535245743249292
  0
VERTEX
  5
1363
  8
SAPA_PROFIL
 10
58.305681311931266
 20
105.5155801979792
 30
0.0
  0
VERTEX
  5
1364
  8
SAPA_PROFIL
 10
58.305681311931266
 20
105.85220712261361
 30
0.0
 42
0.4142135623730951
  0
VERTEX
  5
1365
  8
SAPA_PROFIL
 10
58.005681311931312
 20
106.1522071226138
 30
0.0
  0
VERTEX
  5
1366
  8
SAPA_PROFIL
 10
57.505681311931312
 20
106.1522071226138
 30
0.0
 42
0.4142135623730951
  0
VERTEX
  5
1367
  8
SAPA_PROFIL
 10
57.205681311931357
 20
105.85220712261361
 30
0.0
  0
VERTEX
  5
1368
  8
SAPA_PROFIL
 10
57.205681311931357
 20
104.7522071226137
 30
0.0
 42
0.4142135623730951
  0
VERTEX
  5
1369
  8
SAPA_PROFIL
 10
58.70568131193135
 20
103.2522071226137
 30
0.0
  0
VERTEX
  5
136A
  8
SAPA_PROFIL
 10
61.686066069660683
 20
103.2522071226137
 30
0.0
 42
0.2679491924311188
  0
VERTEX
  5
136B
  8
SAPA_PROFIL
 10
61.945873690795914
 20
103.4022071226138
 30
0.0
 42
-0.7673269879789557
  0
VERTEX
  5
136C
  8
SAPA_PROFIL
 10
62.505681311931312
 20
103.2522071226137
 30
0.0
  0
VERTEX
  5
136D
  8
SAPA_PROFIL
 10
62.505681311930857
 20
101.2522071226137
 30
0.0
 42
-0.4142137811865366
  0
VERTEX
  5
136E
  8
SAPA_PROFIL
 10
61.505682059006631
 20
100.2522071226137
 30
0.0
  0
VERTEX
  5
136F
  8
SAPA_PROFIL
 10
18.30568131193127
 20
100.2522071226138
 30
0.0
 42
-0.4142140000000124
  0
VERTEX
  5
1370
  8
SAPA_PROFIL
 10
17.305681311931259
 20
101.2522071226138
 30
0.0
  0
VERTEX
  5
1371
  8
SAPA_PROFIL
 10
17.305681311931259
 20
103.2522071226138
 30
0.0
 42
-0.7673269879789457
  0
VERTEX
  5
1372
  8
SAPA_PROFIL
 10
17.865488933066441
 20
103.4022071226139
 30
0.0
 42
0.2679491924311191
  0
VERTEX
  5
1373
  8
SAPA_PROFIL
 10
18.125296554201888
 20
103.2522071226138
 30
0.0
  0
VERTEX
  5
1374
  8
SAPA_PROFIL
 10
21.105681311931221
 20
103.2522071226138
 30
0.0
 42
0.4142135623730951
  0
VERTEX
  5
1375
  8
SAPA_PROFIL
 10
22.605681311931221
 20
104.7522071226138
 30
0.0
  0
VERTEX
  5
1376
  8
SAPA_PROFIL
 10
22.605681311931221
 20
105.85220712261371
 30
0.0
 42
0.4142135623730951
  0
VERTEX
  5
1377
  8
SAPA_PROFIL
 10
22.30568131193127
 20
106.1522071226139
 30
0.0
  0
VERTEX
  5
1378
  8
SAPA_PROFIL
 10
21.80568131193127
 20
106.1522071226139
 30
0.0
 42
0.4142135623730951
  0
VERTEX
  5
1379
  8
SAPA_PROFIL
 10
21.505681311931308
 20
105.85220712261371
 30
0.0
  0
VERTEX
  5
137A
  8
SAPA_PROFIL
 10
21.505681311931308
 20
105.5155801979793
 30
0.0
 42
-0.5535245743249307
  0
VERTEX
  5
137B
  8
SAPA_PROFIL
 10
17.195127100399979
 20
107.2880995204892
 30
0.0
  0
VERTEX
  5
137C
  8
SAPA_PROFIL
 10
17.48245800722793
 20
107.5754304273171
 30
0.0
 42
0.4142135623730951
  0
VERTEX
  5
137D
  8
SAPA_PROFIL
 10
17.48245800722793
 20
107.92898381791041
 30
0.0
  0
VERTEX
  5
137E
  8
SAPA_PROFIL
 10
17.195127100399979
 20
108.2163147247384
 30
0.0
 42
-0.553524574324932
  0
VERTEX
  5
137F
  8
SAPA_PROFIL
 10
21.505681311931308
 20
109.9888340472483
 30
0.0
  0
VERTEX
  5
1380
  8
SAPA_PROFIL
 10
21.505681311931308
 20
109.6522071226139
 30
0.0
 42
0.4142135623730951
  0
VERTEX
  5
1381
  8
SAPA_PROFIL
 10
21.80568131193127
 20
109.35220712261371
 30
0.0
  0
VERTEX
  5
1382
  8
SAPA_PROFIL
 10
22.30568131193127
 20
109.35220712261371
 30
0.0
 42
0.4142135623730951
  0
VERTEX
  5
1383
  8
SAPA_PROFIL
 10
22.605681311931221
 20
109.6522071226139
 30
0.0
  0
VERTEX
  5
1384
  8
SAPA_PROFIL
 10
22.605681311931221
 20
111.9522071226138
 30
0.0
 42
0.4142135623730951
  0
VERTEX
  5
1385
  8
SAPA_PROFIL
 10
22.30568131193127
 20
112.2522071226138
 30
0.0
  0
VERTEX
  5
1386
  8
SAPA_PROFIL
 10
18.105681311931221
 20
112.2522071226138
 30
0.0
 42
-0.4142135623730951
  0
VERTEX
  5
1387
  8
SAPA_PROFIL
 10
17.105681311931221
 20
113.2522071226138
 30
0.0
  0
VERTEX
  5
1388
  8
SAPA_PROFIL
 10
17.105681311931221
 20
148.2522071226137
 30
0.0
 42
-0.7673269879789505
  0
VERTEX
  5
1389
  8
SAPA_PROFIL
 10
18.038694013823712
 20
148.5022071226137
 30
0.0
 42
0.2679491924311202
  0
VERTEX
  5
138A
  8
SAPA_PROFIL
 10
18.471706715715751
 20
148.2522071226137
 30
0.0
  0
VERTEX
  5
138B
  8
SAPA_PROFIL
 10
21.105681311931221
 20
148.2522071226137
 30
0.0
 42
0.4142135623730951
  0
VERTEX
  5
138C
  8
SAPA_PROFIL
 10
22.605681311931221
 20
149.7522071226137
 30
0.0
  0
VERTEX
  5
138D
  8
SAPA_PROFIL
 10
22.605681311931221
 20
150.85220712261361
 30
0.0
 42
0.4142135623730951
  0
VERTEX
  5
138E
  8
SAPA_PROFIL
 10
22.30568131193127
 20
151.15220712261379
 30
0.0
  0
VERTEX
  5
138F
  8
SAPA_PROFIL
 10
21.80568131193127
 20
151.15220712261379
 30
0.0
 42
0.4142135623730951
  0
VERTEX
  5
1390
  8
SAPA_PROFIL
 10
21.505681311931308
 20
150.85220712261361
 30
0.0
  0
VERTEX
  5
1391
  8
SAPA_PROFIL
 10
21.505681311931308
 20
150.5155801979792
 30
0.0
 42
-0.5535245743249307
  0
VERTEX
  5
1392
  8
SAPA_PROFIL
 10
17.195127100399979
 20
152.28809952048911
 30
0.0
  0
VERTEX
  5
1393
  8
SAPA_PROFIL
 10
17.48245800722793
 20
152.57543042731709
 30
0.0
 42
0.4142135623731068
  0
VERTEX
  5
1394
  8
SAPA_PROFIL
 10
17.48245800722793
 20
152.92898381791039
 30
0.0
  0
VERTEX
  5
1395
  8
SAPA_PROFIL
 10
17.195127100399979
 20
153.21631472473831
 30
0.0
 42
-0.553524574324932
  0
VERTEX
  5
1396
  8
SAPA_PROFIL
 10
21.505681311931308
 20
154.98883404724819
 30
0.0
  0
VERTEX
  5
1397
  8
SAPA_PROFIL
 10
21.505681311931308
 20
154.65220712261379
 30
0.0
 42
0.4142135623730951
  0
VERTEX
  5
1398
  8
SAPA_PROFIL
 10
21.80568131193127
 20
154.35220712261361
 30
0.0
  0
VERTEX
  5
1399
  8
SAPA_PROFIL
 10
22.30568131193127
 20
154.35220712261361
 30
0.0
 42
0.4142135623730951
  0
VERTEX
  5
139A
  8
SAPA_PROFIL
 10
22.605681311931221
 20
154.65220712261379
 30
0.0
  0
VERTEX
  5
139B
  8
SAPA_PROFIL
 10
22.605681311931221
 20
156.9522071226136
 30
0.0
 42
0.4142135623730951
  0
VERTEX
  5
139C
  8
SAPA_PROFIL
 10
22.30568131193127
 20
157.2522071226137
 30
0.0
  0
VERTEX
  5
139D
  8
SAPA_PROFIL
 10
18.105681311931221
 20
157.2522071226137
 30
0.0
 42
-0.4142135623730951
  0
VERTEX
  5
139E
  8
SAPA_PROFIL
 10
17.105681311931221
 20
158.2522071226137
 30
0.0
  0
VERTEX
  5
139F
  8
SAPA_PROFIL
 10
17.105681311931221
 20
197.4279430539014
 30
0.0
 42
-0.198912367379658
  0
VERTEX
  5
13A0
  8
SAPA_PROFIL
 10
17.19354927757535
 20
197.6400750882575
 30
0.0
  0
VERTEX
  5
13A1
  8
SAPA_PROFIL
 10
18.71781334628735
 20
199.16433915696919
 30
0.0
 42
0.1989123673797102
  0
VERTEX
  5
13A2
  8
SAPA_PROFIL
 10
18.80568131193149
 20
199.37647119132549
 30
0.0
  0
VERTEX
  5
13A3
  8
SAPA_PROFIL
 10
18.80568131193127
 20
199.9522071226134
 30
0.0
 42
0.4142135623730951
  0
VERTEX
  5
13A4
  8
SAPA_PROFIL
 10
18.505681311931308
 20
200.25220712261361
 30
0.0
  0
VERTEX
  5
13A5
  8
SAPA_PROFIL
 10
17.405681311931399
 20
200.25220712261361
 30
0.0
 42
-0.4142135623730951
  0
VERTEX
  5
13A6
  8
SAPA_PROFIL
 10
17.105681311931221
 20
200.55220712261359
 30
0.0
  0
VERTEX
  5
13A7
  8
SAPA_PROFIL
 10
17.105681311931221
 20
202.95220712261349
 30
0.0
 42
-0.4142135623730951
  0
VERTEX
  5
13A8
  8
SAPA_PROFIL
 10
17.405681311931399
 20
203.25220712261361
 30
0.0
  0
VERTEX
  5
13A9
  8
SAPA_PROFIL
 10
18.505681311931308
 20
203.25220712261361
 30
0.0
 42
0.4142135623730951
  0
VERTEX
  5
13AA
  8
SAPA_PROFIL
 10
18.80568131193127
 20
203.55220712261359
 30
0.0
  0
VERTEX
  5
13AB
  8
SAPA_PROFIL
 10
18.80568131193127
 20
204.1279430539017
 30
0.0
 42
0.1989123673796752
  0
VERTEX
  5
13AC
  8
SAPA_PROFIL
 10
18.71781334628713
 20
204.34007508825749
 30
0.0
  0
VERTEX
  5
13AD
  8
SAPA_PROFIL
 10
17.19354927757535
 20
205.86433915696949
 30
0.0
 42
-0.1989123673797102
  0
VERTEX
  5
13AE
  8
SAPA_PROFIL
 10
17.105681311931221
 20
206.0764711913256
 30
0.0
  0
VERTEX
  5
13AF
  8
SAPA_PROFIL
 10
17.105681311931221
 20
208.25220712261361
 30
0.0
 42
-0.4142135623730951
  0
VERTEX
  5
13B0
  8
SAPA_PROFIL
 10
18.105681311931221
 20
209.25220712261361
 30
0.0
  0
VERTEX
  5
13B1
  8
SAPA_PROFIL
 10
61.70568131193135
 20
209.25220712261361
 30
0.0
 42
-0.4142135623730951
  0
SEQEND
  5
13B2
  8
SAPA_PROFIL
  0
POLYLINE
  5
D3B
  8
SAPA_PROFIL
 66
     1
 10
0.0
 20
0.0
 30
0.0
 70
     1
  0
VERTEX
  5
13B3
  8
SAPA_PROFIL
 10
62.705681311930903
 20
21.153732051407591
 30
0.0
  0
VERTEX
  5
13B4
  8
SAPA_PROFIL
 10
63.705681311930903
 20
21.153732051407591
 30
0.0
  0
VERTEX
  5
13B5
  8
SAPA_PROFIL
 10
63.705681311930903
 20
23.753732051407749
 30
0.0
 42
-0.4142135623730951
  0
VERTEX
  5
13B6
  8
SAPA_PROFIL
 10
64.205681311930903
 20
24.253732051407749
 30
0.0
  0
VERTEX
  5
13B7
  8
SAPA_PROFIL
 10
64.605681311930994
 20
24.253732051407749
 30
0.0
 42
-0.4142135623730951
  0
VERTEX
  5
13B8
  8
SAPA_PROFIL
 10
64.905681311930948
 20
23.953732051407801
 30
0.0
  0
VERTEX
  5
13B9
  8
SAPA_PROFIL
 10
64.905681311930948
 20
6.2522071236051033
 30
0.0
 42
-0.4142135623730951
  0
VERTEX
  5
13BA
  8
SAPA_PROFIL
 10
64.405681311930948
 20
5.7522071236051033
 30
0.0
  0
VERTEX
  5
13BB
  8
SAPA_PROFIL
 10
15.40568131193095
 20
5.7522071236051033
 30
0.0
 42
-0.4142135623730951
  0
VERTEX
  5
13BC
  8
SAPA_PROFIL
 10
14.90568131193095
 20
6.2522071236051033
 30
0.0
  0
VERTEX
  5
13BD
  8
SAPA_PROFIL
 10
14.90568131193095
 20
23.953732051407801
 30
0.0
 42
-0.4142135623730951
  0
VERTEX
  5
13BE
  8
SAPA_PROFIL
 10
15.205681311930899
 20
24.253732051407749
 30
0.0
  0
VERTEX
  5
13BF
  8
SAPA_PROFIL
 10
15.60568131193099
 20
24.253732051407749
 30
0.0
 42
-0.4142135623730951
  0
VERTEX
  5
13C0
  8
SAPA_PROFIL
 10
16.10568131193099
 20
23.753732051407749
 30
0.0
  0
VERTEX
  5
13C1
  8
SAPA_PROFIL
 10
16.10568131193099
 20
21.153732051407591
 30
0.0
  0
VERTEX
  5
13C2
  8
SAPA_PROFIL
 10
17.10568131193099
 20
21.153732051407591
 30
0.0
  0
VERTEX
  5
13C3
  8
SAPA_PROFIL
 10
17.685342090352151
 20
20.149699291774599
 30
0.0
 42
-0.4155392929676362
  0
VERTEX
  5
13C4
  8
SAPA_PROFIL
 10
17.38936866404628
 20
19.055080319982611
 30
0.0
  0
VERTEX
  5
13C5
  8
SAPA_PROFIL
 10
16.10568131193099
 20
18.31394308168365
 30
0.0
  0
VERTEX
  5
13C6
  8
SAPA_PROFIL
 10
16.10568131193099
 20
8.1522071236049651
 30
0.0
 42
0.4142135623730951
  0
VERTEX
  5
13C7
  8
SAPA_PROFIL
 10
17.10568131193099
 20
7.152207123604966
 30
0.0
  0
VERTEX
  5
13C8
  8
SAPA_PROFIL
 10
62.705681311930903
 20
7.152207123604966
 30
0.0
 42
0.4142135623730951
  0
VERTEX
  5
13C9
  8
SAPA_PROFIL
 10
63.705681311930903
 20
8.1522071236049651
 30
0.0
  0
VERTEX
  5
13CA
  8
SAPA_PROFIL
 10
63.705681311930903
 20
18.31394308168365
 30
0.0
  0
VERTEX
  5
13CB
  8
SAPA_PROFIL
 10
62.421993959815609
 20
19.055080319982611
 30
0.0
 42
-0.4155392929676362
  0
VERTEX
  5
13CC
  8
SAPA_PROFIL
 10
62.126020533509738
 20
20.149699291774599
 30
0.0
  0
SEQEND
  5
13CD
  8
SAPA_PROFIL
  0
LINE
  5
D6A
  8
SAPA_FYLLNING
 10
65.905681311931403
 20
200.75220712261361
 30
0.0
 11
114.9056813119314
 21
200.75220712261361
 31
0.0
  0
POLYLINE
  5
D6B
  8
SAPA_FYLLNING
 66
     1
 10
0.0
 20
0.0
 30
0.0
  0
VERTEX
  5
140E
  8
SAPA_FYLLNING
 10
114.9056813119314
 20
199.25220712261361
 30
0.0
  0
VERTEX
  5
140F
  8
SAPA_FYLLNING
 10
65.905681311931403
 20
199.25220712261361
 30
0.0
  0
VERTEX
  5
1410
  8
SAPA_FYLLNING
 10
65.905681311931403
 20
210.75220712261361
 30
0.0
  0
VERTEX
  5
1411
  8
SAPA_FYLLNING
 10
114.9056813119314
 20
210.75220712261361
 30
0.0
  0
SEQEND
  5
1412
  8
SAPA_FYLLNING
  0
POLYLINE
  5
D6C
  8
SAPA_FYLLNING
 66
     1
 10
0.0
 20
0.0
 30
0.0
  0
VERTEX
  5
1413
  8
SAPA_FYLLNING
 10
50.605681677184521
 20
90.269448452690554
 30
0.0
 42
-0.9999999999999998
  0
VERTEX
  5
1414
  8
SAPA_FYLLNING
 10
55.571199003042473
 20
90.269448466679023
 30
0.0
  0
VERTEX
  5
1415
  8
SAPA_FYLLNING
 10
55.571199157612902
 20
65.193586590479754
 30
0.0
 42
0.9999999999999998
  0
VERTEX
  5
1416
  8
SAPA_FYLLNING
 10
60.536716381614717
 20
65.193586590479754
 30
0.0
  0
VERTEX
  5
1417
  8
SAPA_FYLLNING
 10
60.53671622704428
 20
90.269448466679023
 30
0.0
 42
-1.0
  0
VERTEX
  5
1418
  8
SAPA_FYLLNING
 10
65.502233451042457
 20
90.269448487661066
 30
0.0
  0
VERTEX
  5
1419
  8
SAPA_FYLLNING
 10
65.502233605612901
 20
65.19358661845672
 30
0.0
 42
0.9999999999999998
  0
VERTEX
  5
141A
  8
SAPA_FYLLNING
 10
70.467750829614715
 20
65.19358661845672
 30
0.0
  0
VERTEX
  5
141B
  8
SAPA_FYLLNING
 10
70.467750573188141
 20
90.26944849465508
 30
0.0
 42
-0.9999999999999998
  0
VERTEX
  5
141C
  8
SAPA_FYLLNING
 10
75.433267899046086
 20
90.269448508643094
 30
0.0
  0
VERTEX
  5
141D
  8
SAPA_FYLLNING
 10
75.43326805361653
 20
65.193586632444735
 30
0.0
 42
0.9999999999999998
  0
VERTEX
  5
141E
  8
SAPA_FYLLNING
 10
80.398785277618344
 20
65.193586632444735
 30
0.0
  0
VERTEX
  5
141F
  8
SAPA_FYLLNING
 10
80.398785123047901
 20
90.269448508643094
 30
0.0
 42
-1.0
  0
VERTEX
  5
1420
  8
SAPA_FYLLNING
 10
85.364302347046078
 20
90.269448529625151
 30
0.0
  0
VERTEX
  5
1421
  8
SAPA_FYLLNING
 10
85.364302501616521
 20
65.193586660420806
 30
0.0
 42
0.9999999999999998
  0
VERTEX
  5
1422
  8
SAPA_FYLLNING
 10
90.329819725618336
 20
65.193586660420806
 30
0.0
  0
VERTEX
  5
1423
  8
SAPA_FYLLNING
 10
90.329819469191776
 20
90.269448536619166
 30
0.0
 42
-0.9999999999999998
  0
VERTEX
  5
1424
  8
SAPA_FYLLNING
 10
95.295336795049707
 20
90.269448550607194
 30
0.0
  0
VERTEX
  5
1425
  8
SAPA_FYLLNING
 10
95.29533694962015
 20
65.193586674408834
 30
0.0
 42
0.9999999999999998
  0
VERTEX
  5
1426
  8
SAPA_FYLLNING
 10
100.26085417362189
 20
65.193586674408834
 30
0.0
  0
VERTEX
  5
1427
  8
SAPA_FYLLNING
 10
100.26085401905149
 20
90.269448550607194
 30
0.0
 42
-1.0000000000000011
  0
VERTEX
  5
1428
  8
SAPA_FYLLNING
 10
105.2263712430497
 20
90.269448571589209
 30
0.0
  0
VERTEX
  5
1429
  8
SAPA_FYLLNING
 10
105.2263713976201
 20
65.193586702384891
 30
0.0
 42
0.9999999999999998
  0
VERTEX
  5
142A
  8
SAPA_FYLLNING
 10
110.1918886216219
 20
65.193586702384891
 30
0.0
  0
VERTEX
  5
142B
  8
SAPA_FYLLNING
 10
110.1918883651954
 20
90.269448578583251
 30
0.0
 42
-0.9999999999999998
  0
VERTEX
  5
142C
  8
SAPA_FYLLNING
 10
115.1574056910533
 20
90.269448592571266
 30
0.0
  0
SEQEND
  5
142D
  8
SAPA_FYLLNING
  0
LINE
  5
D6D
  8
SAPA_FYLLNING
 10
13.90568131193117
 20
200.75220712261361
 30
0.0
 11
-35.094318688068832
 21
200.75220712261361
 31
0.0
  0
POLYLINE
  5
D6E
  8
SAPA_FYLLNING
 66
     1
 10
0.0
 20
0.0
 30
0.0
  0
VERTEX
  5
142E
  8
SAPA_FYLLNING
 10
-35.094318688068832
 20
199.25220712261361
 30
0.0
  0
VERTEX
  5
142F
  8
SAPA_FYLLNING
 10
13.90568131193117
 20
199.25220712261361
 30
0.0
  0
VERTEX
  5
1430
  8
SAPA_FYLLNING
 10
13.90568131193117
 20
210.75220712261361
 30
0.0
  0
VERTEX
  5
1431
  8
SAPA_FYLLNING
 10
-35.094318688068832
 20
210.75220712261361
 30
0.0
  0
SEQEND
  5
1432
  8
SAPA_FYLLNING
  0
POLYLINE
  5
D6F
  8
SAPA_FYLLNING
 66
     1
 10
0.0
 20
0.0
 30
0.0
  0
VERTEX
  5
1433
  8
SAPA_FYLLNING
 10
29.205680946678051
 20
90.269448452690554
 30
0.0
 42
0.9999999999999998
  0
VERTEX
  5
1434
  8
SAPA_FYLLNING
 10
24.240163620820098
 20
90.269448466679023
 30
0.0
  0
VERTEX
  5
1435
  8
SAPA_FYLLNING
 10
24.240163466249658
 20
65.193586590479754
 30
0.0
 42
-0.9999999999999998
  0
VERTEX
  5
1436
  8
SAPA_FYLLNING
 10
19.27464624224784
 20
65.193586590479754
 30
0.0
  0
VERTEX
  5
1437
  8
SAPA_FYLLNING
 10
19.274646396818291
 20
90.269448466679023
 30
0.0
 42
1.0
  0
VERTEX
  5
1438
  8
SAPA_FYLLNING
 10
14.309129172820111
 20
90.269448487661066
 30
0.0
  0
VERTEX
  5
1439
  8
SAPA_FYLLNING
 10
14.30912901824966
 20
65.19358661845672
 30
0.0
 42
-0.9999999999999998
  0
VERTEX
  5
143A
  8
SAPA_FYLLNING
 10
9.3436117942478472
 20
65.19358661845672
 30
0.0
  0
VERTEX
  5
143B
  8
SAPA_FYLLNING
 10
9.3436120506744302
 20
90.26944849465508
 30
0.0
 42
0.9999999999999998
  0
VERTEX
  5
143C
  8
SAPA_FYLLNING
 10
4.3780947248164841
 20
90.269448508643094
 30
0.0
  0
VERTEX
  5
143D
  8
SAPA_FYLLNING
 10
4.3780945702460343
 20
65.193586632444735
 30
0.0
 42
-0.9999999999999998
  0
VERTEX
  5
143E
  8
SAPA_FYLLNING
 10
-0.5874226537557803
 20
65.193586632444735
 30
0.0
  0
VERTEX
  5
143F
  8
SAPA_FYLLNING
 10
-0.5874224991853297
 20
90.269448508643094
 30
0.0
 42
1.0
  0
VERTEX
  5
1440
  8
SAPA_FYLLNING
 10
-5.5529397231835063
 20
90.269448529625151
 30
0.0
  0
VERTEX
  5
1441
  8
SAPA_FYLLNING
 10
-5.552939877753956
 20
65.193586660420806
 30
0.0
 42
-0.9999999999999998
  0
VERTEX
  5
1442
  8
SAPA_FYLLNING
 10
-10.51845710175577
 20
65.19358666042082
 30
0.0
  0
VERTEX
  5
1443
  8
SAPA_FYLLNING
 10
-10.51845684532919
 20
90.26944853661918
 30
0.0
 42
0.9999999999999998
  0
VERTEX
  5
1444
  8
SAPA_FYLLNING
 10
-15.48397417118713
 20
90.269448550607208
 30
0.0
  0
VERTEX
  5
1445
  8
SAPA_FYLLNING
 10
-15.483974325757581
 20
65.193586674408849
 30
0.0
 42
-0.9999999999999998
  0
VERTEX
  5
1446
  8
SAPA_FYLLNING
 10
-20.449491549759401
 20
65.193586674408849
 30
0.0
  0
VERTEX
  5
1447
  8
SAPA_FYLLNING
 10
-20.44949139518895
 20
90.269448550607208
 30
0.0
 42
1.0000000000000011
  0
VERTEX
  5
1448
  8
SAPA_FYLLNING
 10
-25.41500861918713
 20
90.269448571589237
 30
0.0
  0
VERTEX
  5
1449
  8
SAPA_FYLLNING
 10
-25.415008773757581
 20
65.193586702384906
 30
0.0
 42
-0.9999999999999998
  0
VERTEX
  5
144A
  8
SAPA_FYLLNING
 10
-30.380525997759388
 20
65.193586702384906
 30
0.0
  0
VERTEX
  5
144B
  8
SAPA_FYLLNING
 10
-30.380525741332821
 20
90.269448578583265
 30
0.0
 42
0.9999999999999998
  0
VERTEX
  5
144C
  8
SAPA_FYLLNING
 10
-35.34604306719077
 20
90.269448592571266
 30
0.0
  0
SEQEND
  5
144D
  8
SAPA_FYLLNING
  0
POLYLINE
  5
D88
  8
SAPA_ISOLATOR
 66
     1
 10
0.0
 20
0.0
 30
0.0
 70
     1
  0
VERTEX
  5
1546
  8
SAPA_ISOLATOR
 10
31.071733925784581
 20
70.017129067942278
 30
0.0
 42
-0.2133140774071598
  0
VERTEX
  5
1547
  8
SAPA_ISOLATOR
 10
30.405681311930131
 20
71.507291599680215
 30
0.0
  0
VERTEX
  5
1548
  8
SAPA_ISOLATOR
 10
30.405681311930131
 20
71.679148508339154
 30
0.0
 42
0.9999999999999998
  0
VERTEX
  5
1549
  8
SAPA_ISOLATOR
 10
29.905681311930131
 20
71.679148508339154
 30
0.0
  0
VERTEX
  5
154A
  8
SAPA_ISOLATOR
 10
29.905681311930131
 20
70.72002396905259
 30
0.0
 42
0.2072397715914422
  0
VERTEX
  5
154B
  8
SAPA_ISOLATOR
 10
30.695360378227381
 20
68.896619926132189
 30
0.0
 42
0.1421101772925093
  0
VERTEX
  5
154C
  8
SAPA_ISOLATOR
 10
34.905681311930131
 20
66.752207122613754
 30
0.0
  0
VERTEX
  5
154D
  8
SAPA_ISOLATOR
 10
34.905681311930131
 20
68.56437236715874
 30
0.0
 42
-0.1860725815673001
  0
SEQEND
  5
154E
  8
SAPA_ISOLATOR
  0
POLYLINE
  5
D89
  8
SAPA_ISOLATOR
 66
     1
 10
0.0
 20
0.0
 30
0.0
 70
     1
  0
VERTEX
  5
154F
  8
SAPA_ISOLATOR
 10
48.739628698075798
 20
70.017129067942278
 30
0.0
 42
0.2133140774071598
  0
VERTEX
  5
1550
  8
SAPA_ISOLATOR
 10
49.405681311930252
 20
71.507291599680215
 30
0.0
  0
VERTEX
  5
1551
  8
SAPA_ISOLATOR
 10
49.405681311930252
 20
71.679148508339154
 30
0.0
 42
-0.9999999999999998
  0
VERTEX
  5
1552
  8
SAPA_ISOLATOR
 10
49.905681311930252
 20
71.679148508339154
 30
0.0
  0
VERTEX
  5
1553
  8
SAPA_ISOLATOR
 10
49.905681311930252
 20
70.72002396905259
 30
0.0
 42
-0.2072397715914422
  0
VERTEX
  5
1554
  8
SAPA_ISOLATOR
 10
49.116002245632991
 20
68.896619926132189
 30
0.0
 42
-0.1421101772925093
  0
VERTEX
  5
1555
  8
SAPA_ISOLATOR
 10
44.905681311930252
 20
66.752207122613754
 30
0.0
  0
VERTEX
  5
1556
  8
SAPA_ISOLATOR
 10
44.905681311930252
 20
68.56437236715874
 30
0.0
 42
0.1860725815673001
  0
SEQEND
  5
1557
  8
SAPA_ISOLATOR
  0
POLYLINE
  5
D8A
  8
SAPA_ISOLATOR
 66
     1
 10
0.0
 20
0.0
 30
0.0
 70
     1
  0
VERTEX
  5
1558
  8
SAPA_ISOLATOR
 10
48.739628698075798
 20
53.017129067942278
 30
0.0
 42
0.2133140774071598
  0
VERTEX
  5
1559
  8
SAPA_ISOLATOR
 10
49.405681311930252
 20
54.507291599680229
 30
0.0
  0
VERTEX
  5
155A
  8
SAPA_ISOLATOR
 10
49.405681311930252
 20
54.679148508339154
 30
0.0
 42
-0.9999999999999998
  0
VERTEX
  5
155B
  8
SAPA_ISOLATOR
 10
49.905681311930252
 20
54.679148508339154
 30
0.0
  0
VERTEX
  5
155C
  8
SAPA_ISOLATOR
 10
49.905681311930252
 20
53.72002396905259
 30
0.0
 42
-0.2072397715914422
  0
VERTEX
  5
155D
  8
SAPA_ISOLATOR
 10
49.116002245632991
 20
51.896619926132189
 30
0.0
 42
-0.1421101772925093
  0
VERTEX
  5
155E
  8
SAPA_ISOLATOR
 10
44.905681311930252
 20
49.752207122613747
 30
0.0
  0
VERTEX
  5
155F
  8
SAPA_ISOLATOR
 10
44.905681311930252
 20
51.564372367158732
 30
0.0
 42
0.1860725815673001
  0
SEQEND
  5
1560
  8
SAPA_ISOLATOR
  0
POLYLINE
  5
D8B
  8
SAPA_ISOLATOR
 66
     1
 10
0.0
 20
0.0
 30
0.0
 70
     1
  0
VERTEX
  5
1561
  8
SAPA_ISOLATOR
 10
48.739628698075741
 20
36.017129067942733
 30
0.0
 42
0.2133140774071598
  0
VERTEX
  5
1562
  8
SAPA_ISOLATOR
 10
49.405681311930181
 20
37.507291599680691
 30
0.0
  0
VERTEX
  5
1563
  8
SAPA_ISOLATOR
 10
49.405681311930181
 20
37.679148508339608
 30
0.0
 42
-0.9999999999999998
  0
VERTEX
  5
1564
  8
SAPA_ISOLATOR
 10
49.905681311930181
 20
37.679148508339608
 30
0.0
  0
VERTEX
  5
1565
  8
SAPA_ISOLATOR
 10
49.905681311930181
 20
36.720023969053052
 30
0.0
 42
-0.2072397715914422
  0
VERTEX
  5
1566
  8
SAPA_ISOLATOR
 10
49.116002245632941
 20
34.896619926132637
 30
0.0
 42
-0.1421101772925093
  0
VERTEX
  5
1567
  8
SAPA_ISOLATOR
 10
44.905681311930181
 20
32.752207122614209
 30
0.0
  0
VERTEX
  5
1568
  8
SAPA_ISOLATOR
 10
44.905681311930181
 20
34.564372367159187
 30
0.0
 42
0.1860725815673001
  0
SEQEND
  5
1569
  8
SAPA_ISOLATOR
  0
POLYLINE
  5
D8C
  8
SAPA_ISOLATOR
 66
     1
 10
0.0
 20
0.0
 30
0.0
 70
     1
  0
VERTEX
  5
156A
  8
SAPA_ISOLATOR
 10
31.071733925784581
 20
53.017129067942278
 30
0.0
 42
-0.2133140774071598
  0
VERTEX
  5
156B
  8
SAPA_ISOLATOR
 10
30.405681311930131
 20
54.507291599680229
 30
0.0
  0
VERTEX
  5
156C
  8
SAPA_ISOLATOR
 10
30.405681311930131
 20
54.679148508339154
 30
0.0
 42
0.9999999999999998
  0
VERTEX
  5
156D
  8
SAPA_ISOLATOR
 10
29.905681311930131
 20
54.679148508339154
 30
0.0
  0
VERTEX
  5
156E
  8
SAPA_ISOLATOR
 10
29.905681311930131
 20
53.72002396905259
 30
0.0
 42
0.2072397715914422
  0
VERTEX
  5
156F
  8
SAPA_ISOLATOR
 10
30.695360378227381
 20
51.896619926132189
 30
0.0
 42
0.1421101772925093
  0
VERTEX
  5
1570
  8
SAPA_ISOLATOR
 10
34.905681311930131
 20
49.752207122613747
 30
0.0
  0
VERTEX
  5
1571
  8
SAPA_ISOLATOR
 10
34.905681311930131
 20
51.564372367158732
 30
0.0
 42
-0.1860725815673001
  0
SEQEND
  5
1572
  8
SAPA_ISOLATOR
  0
POLYLINE
  5
D8D
  8
SAPA_ISOLATOR
 66
     1
 10
0.0
 20
0.0
 30
0.0
 70
     1
  0
VERTEX
  5
1573
  8
SAPA_ISOLATOR
 10
31.071733925784631
 20
36.017129067942733
 30
0.0
 42
-0.2133140774071598
  0
VERTEX
  5
1574
  8
SAPA_ISOLATOR
 10
30.405681311930191
 20
37.507291599680691
 30
0.0
  0
VERTEX
  5
1575
  8
SAPA_ISOLATOR
 10
30.405681311930191
 20
37.679148508339608
 30
0.0
 42
0.9999999999999998
  0
VERTEX
  5
1576
  8
SAPA_ISOLATOR
 10
29.905681311930191
 20
37.679148508339608
 30
0.0
  0
VERTEX
  5
1577
  8
SAPA_ISOLATOR
 10
29.905681311930191
 20
36.720023969053052
 30
0.0
 42
0.2072397715914422
  0
VERTEX
  5
1578
  8
SAPA_ISOLATOR
 10
30.695360378227441
 20
34.896619926132637
 30
0.0
 42
0.1421101772925093
  0
VERTEX
  5
1579
  8
SAPA_ISOLATOR
 10
34.905681311930188
 20
32.752207122614209
 30
0.0
  0
VERTEX
  5
157A
  8
SAPA_ISOLATOR
 10
34.905681311930188
 20
34.564372367159187
 30
0.0
 42
-0.1860725815673001
  0
SEQEND
  5
157B
  8
SAPA_ISOLATOR
  0
POLYLINE
  5
D8E
  8
SAPA_ISOLATOR
 66
     1
 10
0.0
 20
0.0
 30
0.0
 70
     1
  0
VERTEX
  5
157C
  8
SAPA_ISOLATOR
 10
43.317813346324478
 20
27.84007508803461
 30
0.0
 42
0.1989123671061558
  0
VERTEX
  5
157D
  8
SAPA_ISOLATOR
 10
43.529945380457178
 20
27.752207122613871
 30
0.0
  0
VERTEX
  5
157E
  8
SAPA_ISOLATOR
 10
44.605681311930269
 20
27.752207122613981
 30
0.0
 42
0.4142135623730605
  0
VERTEX
  5
157F
  8
SAPA_ISOLATOR
 10
44.905681311930252
 20
28.052207122613989
 30
0.0
  0
VERTEX
  5
1580
  8
SAPA_ISOLATOR
 10
44.905681311930252
 20
75.252207122613854
 30
0.0
 42
0.4142135623730951
  0
VERTEX
  5
1581
  8
SAPA_ISOLATOR
 10
44.405681311930131
 20
75.752207122613754
 30
0.0
  0
VERTEX
  5
1582
  8
SAPA_ISOLATOR
 10
43.179945380642131
 20
75.752207122613868
 30
0.0
 42
-0.1989123673796248
  0
VERTEX
  5
1583
  8
SAPA_ISOLATOR
 10
42.967813346286142
 20
75.84007508825789
 30
0.0
  0
VERTEX
  5
1584
  8
SAPA_ISOLATOR
 10
42.293549277574279
 20
76.514339156969754
 30
0.0
 42
-0.1989123673796571
  0
VERTEX
  5
1585
  8
SAPA_ISOLATOR
 10
42.205681311930249
 20
76.7264711913258
 30
0.0
  0
VERTEX
  5
1586
  8
SAPA_ISOLATOR
 10
42.205681311930249
 20
81.157240080829183
 30
0.0
 42
0.0912836897734216
  0
VERTEX
  5
1587
  8
SAPA_ISOLATOR
 10
40.987039644120358
 20
83.276797114431133
 30
0.0
 42
0.4396415083054796
  0
VERTEX
  5
1588
  8
SAPA_ISOLATOR
 10
38.824322979740181
 20
83.276797114431247
 30
0.0
 42
0.0912836897734209
  0
VERTEX
  5
1589
  8
SAPA_ISOLATOR
 10
37.60568131193024
 20
81.157240080829183
 30
0.0
  0
VERTEX
  5
158A
  8
SAPA_ISOLATOR
 10
37.60568131193024
 20
76.7264711913258
 30
0.0
 42
-0.1989123673796602
  0
VERTEX
  5
158B
  8
SAPA_ISOLATOR
 10
37.517813346286161
 20
76.514339156969754
 30
0.0
  0
VERTEX
  5
158C
  8
SAPA_ISOLATOR
 10
36.84354927757429
 20
75.84007508825789
 30
0.0
 42
-0.1989123673796276
  0
VERTEX
  5
158D
  8
SAPA_ISOLATOR
 10
36.631417243218301
 20
75.752207122613868
 30
0.0
  0
VERTEX
  5
158E
  8
SAPA_ISOLATOR
 10
35.405681311930188
 20
75.752207122613868
 30
0.0
 42
0.4142135623730951
  0
VERTEX
  5
158F
  8
SAPA_ISOLATOR
 10
34.905681311930188
 20
75.252207122613854
 30
0.0
  0
VERTEX
  5
1590
  8
SAPA_ISOLATOR
 10
34.905681311930181
 20
28.05220712261394
 30
0.0
 42
0.4142135623731471
  0
VERTEX
  5
1591
  8
SAPA_ISOLATOR
 10
35.205681311930192
 20
27.752207122613921
 30
0.0
  0
VERTEX
  5
1592
  8
SAPA_ISOLATOR
 10
36.281417243033367
 20
27.752207122613871
 30
0.0
 42
0.1989123676531289
  0
VERTEX
  5
1593
  8
SAPA_ISOLATOR
 10
36.49354927761258
 20
27.840075088481171
 30
0.0
  0
VERTEX
  5
1594
  8
SAPA_ISOLATOR
 10
39.552127914714198
 20
30.898653732020652
 30
0.0
 42
-0.4142135623730478
  0
VERTEX
  5
1595
  8
SAPA_ISOLATOR
 10
40.259234695900737
 20
30.898653732020652
 30
0.0
  0
SEQEND
  5
1596
  8
SAPA_ISOLATOR
  0
POLYLINE
  5
D8F
  8
SAPA_ISOLATOR
 66
     1
 10
0.0
 20
0.0
 30
0.0
 70
     1
  0
VERTEX
  5
1597
  8
SAPA_ISOLATOR
 10
38.617813346286177
 20
76.058704238359383
 30
0.0
 42
0.198912367379658
  0
VERTEX
  5
1598
  8
SAPA_ISOLATOR
 10
38.705681311930199
 20
76.270836272715314
 30
0.0
  0
VERTEX
  5
1599
  8
SAPA_ISOLATOR
 10
38.705681311930199
 20
80.921962010823336
 30
0.0
 42
-0.0949127563617268
  0
VERTEX
  5
159A
  8
SAPA_ISOLATOR
 10
38.719838583536543
 20
80.995870605066386
 30
0.0
 42
-0.0825355669758324
  0
VERTEX
  5
159B
  8
SAPA_ISOLATOR
 10
39.677765090565913
 20
82.582345374368572
 30
0.0
 42
-0.4603672002713016
  0
VERTEX
  5
159C
  8
SAPA_ISOLATOR
 10
40.133597533294541
 20
82.582345374368572
 30
0.0
 42
-0.08253556697594
  0
VERTEX
  5
159D
  8
SAPA_ISOLATOR
 10
41.09152404032443
 20
80.995870605064169
 30
0.0
 42
-0.0949127563615792
  0
VERTEX
  5
159E
  8
SAPA_ISOLATOR
 10
41.105681311930233
 20
80.921962010821005
 30
0.0
  0
VERTEX
  5
159F
  8
SAPA_ISOLATOR
 10
41.105681311930233
 20
76.270836272715314
 30
0.0
 42
0.1989123673796566
  0
VERTEX
  5
15A0
  8
SAPA_ISOLATOR
 10
41.193549277574249
 20
76.058704238359496
 30
0.0
  0
VERTEX
  5
15A1
  8
SAPA_ISOLATOR
 10
42.512178427675771
 20
74.740075088257868
 30
0.0
 42
0.1989123673796571
  0
VERTEX
  5
15A2
  8
SAPA_ISOLATOR
 10
42.724310462031703
 20
74.652207122613845
 30
0.0
  0
VERTEX
  5
15A3
  8
SAPA_ISOLATOR
 10
43.505681311930203
 20
74.652207122613845
 30
0.0
 42
-0.4142135623730395
  0
VERTEX
  5
15A4
  8
SAPA_ISOLATOR
 10
43.805681311930222
 20
74.352207122613891
 30
0.0
  0
VERTEX
  5
15A5
  8
SAPA_ISOLATOR
 10
43.805681311930222
 20
62.152207122613902
 30
0.0
 42
-0.4142135623730673
  0
VERTEX
  5
15A6
  8
SAPA_ISOLATOR
 10
43.505681311930211
 20
61.85220712261394
 30
0.0
  0
VERTEX
  5
15A7
  8
SAPA_ISOLATOR
 10
36.305681311930229
 20
61.85220712261394
 30
0.0
 42
-0.4142135623731228
  0
VERTEX
  5
15A8
  8
SAPA_ISOLATOR
 10
36.005681311930253
 20
62.152207122613902
 30
0.0
  0
VERTEX
  5
15A9
  8
SAPA_ISOLATOR
 10
36.005681311930211
 20
74.352207122613891
 30
0.0
 42
-0.4142135623730743
  0
VERTEX
  5
15AA
  8
SAPA_ISOLATOR
 10
36.305681311930172
 20
74.652207122613845
 30
0.0
  0
VERTEX
  5
15AB
  8
SAPA_ISOLATOR
 10
37.08705216182873
 20
74.652207122613845
 30
0.0
 42
0.1989123673796576
  0
VERTEX
  5
15AC
  8
SAPA_ISOLATOR
 10
37.299184196184662
 20
74.740075088257981
 30
0.0
  0
SEQEND
  5
15AD
  8
SAPA_ISOLATOR
  0
POLYLINE
  5
D90
  8
SAPA_ISOLATOR
 66
     1
 10
0.0
 20
0.0
 30
0.0
 70
     1
  0
VERTEX
  5
15AE
  8
SAPA_ISOLATOR
 10
43.505681311930211
 20
60.752207122613918
 30
0.0
 42
-0.4142135623731076
  0
VERTEX
  5
15AF
  8
SAPA_ISOLATOR
 10
43.805681311930222
 20
60.452207122613864
 30
0.0
  0
VERTEX
  5
15B0
  8
SAPA_ISOLATOR
 10
43.805681311930201
 20
45.152207122613952
 30
0.0
 42
-0.4142135623730659
  0
VERTEX
  5
15B1
  8
SAPA_ISOLATOR
 10
43.505681311930189
 20
44.852207122613997
 30
0.0
  0
VERTEX
  5
15B2
  8
SAPA_ISOLATOR
 10
36.305681311930137
 20
44.852207122613891
 30
0.0
 42
-0.414213562373041
  0
VERTEX
  5
15B3
  8
SAPA_ISOLATOR
 10
36.005681311930189
 20
45.152207122613952
 30
0.0
  0
VERTEX
  5
15B4
  8
SAPA_ISOLATOR
 10
36.005681311930218
 20
60.452207122613864
 30
0.0
 42
-0.4142135623730784
  0
VERTEX
  5
15B5
  8
SAPA_ISOLATOR
 10
36.305681311930179
 20
60.752207122613811
 30
0.0
  0
SEQEND
  5
15B6
  8
SAPA_ISOLATOR
  0
POLYLINE
  5
D91
  8
SAPA_ISOLATOR
 66
     1
 10
0.0
 20
0.0
 30
0.0
 70
     1
  0
VERTEX
  5
15B7
  8
SAPA_ISOLATOR
 10
43.505681311930189
 20
43.752207122613868
 30
0.0
 42
-0.4142135623730659
  0
VERTEX
  5
15B8
  8
SAPA_ISOLATOR
 10
43.805681311930201
 20
43.452207122613913
 30
0.0
  0
VERTEX
  5
15B9
  8
SAPA_ISOLATOR
 10
43.805681311930222
 20
29.390684752185049
 30
0.0
 42
-0.6681786375387276
  0
VERTEX
  5
15BA
  8
SAPA_ISOLATOR
 10
43.464259955841747
 20
29.249263395798891
 30
0.0
  0
VERTEX
  5
15BB
  8
SAPA_ISOLATOR
 10
41.037052154387347
 20
31.67647119214439
 30
0.0
 42
0.4142135623730892
  0
VERTEX
  5
15BC
  8
SAPA_ISOLATOR
 10
38.774310455409001
 20
31.676471191325849
 30
0.0
  0
VERTEX
  5
15BD
  8
SAPA_ISOLATOR
 10
36.34710266831636
 20
29.249263399124288
 30
0.0
 42
-0.6681786382998753
  0
VERTEX
  5
15BE
  8
SAPA_ISOLATOR
 10
36.005681311930211
 20
29.39068475521276
 30
0.0
  0
VERTEX
  5
15BF
  8
SAPA_ISOLATOR
 10
36.005681311930189
 20
43.452207122613792
 30
0.0
 42
-0.4142135623730951
  0
VERTEX
  5
15C0
  8
SAPA_ISOLATOR
 10
36.305681311930201
 20
43.752207122613868
 30
0.0
  0
SEQEND
  5
15C1
  8
SAPA_ISOLATOR
  0
POLYLINE
  5
D92
  8
SAPA_ISOLATOR
 66
     1
 10
0.0
 20
0.0
 30
0.0
 70
     1
  0
VERTEX
  5
15C2
  8
SAPA_ISOLATOR
 10
48.739628698077972
 20
70.017129067942278
 30
0.0
 42
0.2133140774071598
  0
VERTEX
  5
15C3
  8
SAPA_ISOLATOR
 10
49.405681311932412
 20
71.507291599680215
 30
0.0
  0
VERTEX
  5
15C4
  8
SAPA_ISOLATOR
 10
49.405681311932412
 20
71.679148508339154
 30
0.0
 42
-0.9999999999999998
  0
VERTEX
  5
15C5
  8
SAPA_ISOLATOR
 10
49.905681311932419
 20
71.679148508339154
 30
0.0
  0
VERTEX
  5
15C6
  8
SAPA_ISOLATOR
 10
49.905681311932419
 20
70.72002396905259
 30
0.0
 42
-0.2072397715914422
  0
VERTEX
  5
15C7
  8
SAPA_ISOLATOR
 10
49.116002245635173
 20
68.896619926132189
 30
0.0
 42
-0.1421101772925093
  0
VERTEX
  5
15C8
  8
SAPA_ISOLATOR
 10
44.905681311932412
 20
66.752207122613754
 30
0.0
  0
VERTEX
  5
15C9
  8
SAPA_ISOLATOR
 10
44.905681311932412
 20
68.56437236715874
 30
0.0
 42
0.1860725815673001
  0
SEQEND
  5
15CA
  8
SAPA_ISOLATOR
  0
POLYLINE
  5
D93
  8
SAPA_ISOLATOR
 66
     1
 10
0.0
 20
0.0
 30
0.0
 70
     1
  0
VERTEX
  5
15CB
  8
SAPA_ISOLATOR
 10
31.071733925786749
 20
70.017129067942278
 30
0.0
 42
-0.2133140774071598
  0
VERTEX
  5
15CC
  8
SAPA_ISOLATOR
 10
30.405681311932302
 20
71.507291599680215
 30
0.0
  0
VERTEX
  5
15CD
  8
SAPA_ISOLATOR
 10
30.405681311932302
 20
71.679148508339154
 30
0.0
 42
0.9999999999999998
  0
VERTEX
  5
15CE
  8
SAPA_ISOLATOR
 10
29.905681311932302
 20
71.679148508339154
 30
0.0
  0
VERTEX
  5
15CF
  8
SAPA_ISOLATOR
 10
29.905681311932302
 20
70.72002396905259
 30
0.0
 42
0.2072397715914422
  0
VERTEX
  5
15D0
  8
SAPA_ISOLATOR
 10
30.695360378229559
 20
68.896619926132189
 30
0.0
 42
0.1421101772925093
  0
VERTEX
  5
15D1
  8
SAPA_ISOLATOR
 10
34.905681311932312
 20
66.752207122613754
 30
0.0
  0
VERTEX
  5
15D2
  8
SAPA_ISOLATOR
 10
34.905681311932312
 20
68.56437236715874
 30
0.0
 42
-0.1860725815673001
  0
SEQEND
  5
15D3
  8
SAPA_ISOLATOR
  0
POLYLINE
  5
D94
  8
SAPA_ISOLATOR
 66
     1
 10
0.0
 20
0.0
 30
0.0
 70
     1
  0
VERTEX
  5
15D4
  8
SAPA_ISOLATOR
 10
31.071733925786749
 20
53.017129067942278
 30
0.0
 42
-0.2133140774071598
  0
VERTEX
  5
15D5
  8
SAPA_ISOLATOR
 10
30.405681311932302
 20
54.507291599680229
 30
0.0
  0
VERTEX
  5
15D6
  8
SAPA_ISOLATOR
 10
30.405681311932302
 20
54.679148508339154
 30
0.0
 42
0.9999999999999998
  0
VERTEX
  5
15D7
  8
SAPA_ISOLATOR
 10
29.905681311932302
 20
54.679148508339154
 30
0.0
  0
VERTEX
  5
15D8
  8
SAPA_ISOLATOR
 10
29.905681311932302
 20
53.72002396905259
 30
0.0
 42
0.2072397715914422
  0
VERTEX
  5
15D9
  8
SAPA_ISOLATOR
 10
30.695360378229559
 20
51.896619926132189
 30
0.0
 42
0.1421101772925093
  0
VERTEX
  5
15DA
  8
SAPA_ISOLATOR
 10
34.905681311932312
 20
49.752207122613747
 30
0.0
  0
VERTEX
  5
15DB
  8
SAPA_ISOLATOR
 10
34.905681311932312
 20
51.564372367158732
 30
0.0
 42
-0.1860725815673001
  0
SEQEND
  5
15DC
  8
SAPA_ISOLATOR
  0
POLYLINE
  5
D95
  8
SAPA_ISOLATOR
 66
     1
 10
0.0
 20
0.0
 30
0.0
 70
     1
  0
VERTEX
  5
15DD
  8
SAPA_ISOLATOR
 10
31.071733925786809
 20
36.017129067942733
 30
0.0
 42
-0.2133140774071598
  0
VERTEX
  5
15DE
  8
SAPA_ISOLATOR
 10
30.405681311932359
 20
37.507291599680691
 30
0.0
  0
VERTEX
  5
15DF
  8
SAPA_ISOLATOR
 10
30.405681311932359
 20
37.679148508339608
 30
0.0
 42
0.9999999999999998
  0
VERTEX
  5
15E0
  8
SAPA_ISOLATOR
 10
29.905681311932359
 20
37.679148508339608
 30
0.0
  0
VERTEX
  5
15E1
  8
SAPA_ISOLATOR
 10
29.905681311932359
 20
36.720023969053052
 30
0.0
 42
0.2072397715914422
  0
VERTEX
  5
15E2
  8
SAPA_ISOLATOR
 10
30.695360378229609
 20
34.896619926132637
 30
0.0
 42
0.1421101772925093
  0
VERTEX
  5
15E3
  8
SAPA_ISOLATOR
 10
34.905681311932362
 20
32.752207122614209
 30
0.0
  0
VERTEX
  5
15E4
  8
SAPA_ISOLATOR
 10
34.905681311932362
 20
34.564372367159187
 30
0.0
 42
-0.1860725815673001
  0
SEQEND
  5
15E5
  8
SAPA_ISOLATOR
  0
POLYLINE
  5
D96
  8
SAPA_ISOLATOR
 66
     1
 10
0.0
 20
0.0
 30
0.0
 70
     1
  0
VERTEX
  5
15E6
  8
SAPA_ISOLATOR
 10
48.739628698077972
 20
53.017129067942278
 30
0.0
 42
0.2133140774071598
  0
VERTEX
  5
15E7
  8
SAPA_ISOLATOR
 10
49.405681311932412
 20
54.507291599680229
 30
0.0
  0
VERTEX
  5
15E8
  8
SAPA_ISOLATOR
 10
49.405681311932412
 20
54.679148508339154
 30
0.0
 42
-0.9999999999999998
  0
VERTEX
  5
15E9
  8
SAPA_ISOLATOR
 10
49.905681311932419
 20
54.679148508339154
 30
0.0
  0
VERTEX
  5
15EA
  8
SAPA_ISOLATOR
 10
49.905681311932419
 20
53.72002396905259
 30
0.0
 42
-0.2072397715914422
  0
VERTEX
  5
15EB
  8
SAPA_ISOLATOR
 10
49.116002245635173
 20
51.896619926132189
 30
0.0
 42
-0.1421101772925093
  0
VERTEX
  5
15EC
  8
SAPA_ISOLATOR
 10
44.905681311932412
 20
49.752207122613747
 30
0.0
  0
VERTEX
  5
15ED
  8
SAPA_ISOLATOR
 10
44.905681311932412
 20
51.564372367158732
 30
0.0
 42
0.1860725815673001
  0
SEQEND
  5
15EE
  8
SAPA_ISOLATOR
  0
POLYLINE
  5
D97
  8
SAPA_ISOLATOR
 66
     1
 10
0.0
 20
0.0
 30
0.0
 70
     1
  0
VERTEX
  5
15EF
  8
SAPA_ISOLATOR
 10
48.739628698077908
 20
36.017129067942733
 30
0.0
 42
0.2133140774071598
  0
VERTEX
  5
15F0
  8
SAPA_ISOLATOR
 10
49.405681311932362
 20
37.507291599680691
 30
0.0
  0
VERTEX
  5
15F1
  8
SAPA_ISOLATOR
 10
49.405681311932362
 20
37.679148508339608
 30
0.0
 42
-0.9999999999999998
  0
VERTEX
  5
15F2
  8
SAPA_ISOLATOR
 10
49.905681311932362
 20
37.679148508339608
 30
0.0
  0
VERTEX
  5
15F3
  8
SAPA_ISOLATOR
 10
49.905681311932362
 20
36.720023969053052
 30
0.0
 42
-0.2072397715914422
  0
VERTEX
  5
15F4
  8
SAPA_ISOLATOR
 10
49.116002245635102
 20
34.896619926132637
 30
0.0
 42
-0.1421101772925093
  0
VERTEX
  5
15F5
  8
SAPA_ISOLATOR
 10
44.905681311932362
 20
32.752207122614209
 30
0.0
  0
VERTEX
  5
15F6
  8
SAPA_ISOLATOR
 10
44.905681311932362
 20
34.564372367159187
 30
0.0
 42
0.1860725815673001
  0
SEQEND
  5
15F7
  8
SAPA_ISOLATOR
  0
POLYLINE
  5
D98
  8
SAPA_ISOLATOR
 66
     1
 10
0.0
 20
0.0
 30
0.0
 70
     1
  0
VERTEX
  5
15F8
  8
SAPA_ISOLATOR
 10
36.493549277538072
 20
27.84007508803461
 30
0.0
 42
-0.1989123671061558
  0
VERTEX
  5
15F9
  8
SAPA_ISOLATOR
 10
36.281417243405372
 20
27.752207122613871
 30
0.0
  0
VERTEX
  5
15FA
  8
SAPA_ISOLATOR
 10
35.205681311932281
 20
27.752207122613981
 30
0.0
 42
-0.4142135623730605
  0
VERTEX
  5
15FB
  8
SAPA_ISOLATOR
 10
34.905681311932312
 20
28.052207122613989
 30
0.0
  0
VERTEX
  5
15FC
  8
SAPA_ISOLATOR
 10
34.905681311932312
 20
75.252207122613854
 30
0.0
 42
-0.4142135623730951
  0
VERTEX
  5
15FD
  8
SAPA_ISOLATOR
 10
35.405681311932419
 20
75.752207122613754
 30
0.0
  0
VERTEX
  5
15FE
  8
SAPA_ISOLATOR
 10
36.631417243220419
 20
75.752207122613868
 30
0.0
 42
0.1989123673796248
  0
VERTEX
  5
15FF
  8
SAPA_ISOLATOR
 10
36.843549277576408
 20
75.84007508825789
 30
0.0
  0
VERTEX
  5
1600
  8
SAPA_ISOLATOR
 10
37.517813346288271
 20
76.514339156969754
 30
0.0
 42
0.1989123673796571
  0
VERTEX
  5
1601
  8
SAPA_ISOLATOR
 10
37.605681311932301
 20
76.7264711913258
 30
0.0
  0
VERTEX
  5
1602
  8
SAPA_ISOLATOR
 10
37.605681311932301
 20
81.157240080829183
 30
0.0
 42
-0.0912836897734216
  0
VERTEX
  5
1603
  8
SAPA_ISOLATOR
 10
38.824322979742192
 20
83.276797114431133
 30
0.0
 42
-0.4396415083054796
  0
VERTEX
  5
1604
  8
SAPA_ISOLATOR
 10
40.987039644122362
 20
83.276797114431247
 30
0.0
 42
-0.0912836897734209
  0
VERTEX
  5
1605
  8
SAPA_ISOLATOR
 10
42.20568131193231
 20
81.157240080829183
 30
0.0
  0
VERTEX
  5
1606
  8
SAPA_ISOLATOR
 10
42.20568131193231
 20
76.7264711913258
 30
0.0
 42
0.1989123673796602
  0
VERTEX
  5
1607
  8
SAPA_ISOLATOR
 10
42.293549277576389
 20
76.514339156969754
 30
0.0
  0
VERTEX
  5
1608
  8
SAPA_ISOLATOR
 10
42.96781334628826
 20
75.84007508825789
 30
0.0
 42
0.1989123673796276
  0
VERTEX
  5
1609
  8
SAPA_ISOLATOR
 10
43.179945380644241
 20
75.752207122613868
 30
0.0
  0
VERTEX
  5
160A
  8
SAPA_ISOLATOR
 10
44.405681311932362
 20
75.752207122613868
 30
0.0
 42
-0.4142135623730951
  0
VERTEX
  5
160B
  8
SAPA_ISOLATOR
 10
44.905681311932362
 20
75.252207122613854
 30
0.0
  0
VERTEX
  5
160C
  8
SAPA_ISOLATOR
 10
44.905681311932369
 20
28.05220712261394
 30
0.0
 42
-0.4142135623731471
  0
VERTEX
  5
160D
  8
SAPA_ISOLATOR
 10
44.605681311932372
 20
27.752207122613921
 30
0.0
  0
VERTEX
  5
160E
  8
SAPA_ISOLATOR
 10
43.529945380829183
 20
27.752207122613871
 30
0.0
 42
-0.1989123676531289
  0
VERTEX
  5
160F
  8
SAPA_ISOLATOR
 10
43.31781334624997
 20
27.840075088481171
 30
0.0
  0
VERTEX
  5
1610
  8
SAPA_ISOLATOR
 10
40.259234709148352
 20
30.898653732020652
 30
0.0
 42
0.4142135623730478
  0
VERTEX
  5
1611
  8
SAPA_ISOLATOR
 10
39.552127927961799
 20
30.898653732020652
 30
0.0
  0
SEQEND
  5
1612
  8
SAPA_ISOLATOR
  0
POLYLINE
  5
D99
  8
SAPA_ISOLATOR
 66
     1
 10
0.0
 20
0.0
 30
0.0
 70
     1
  0
VERTEX
  5
1613
  8
SAPA_ISOLATOR
 10
41.193549277576373
 20
76.058704238359383
 30
0.0
 42
-0.198912367379658
  0
VERTEX
  5
1614
  8
SAPA_ISOLATOR
 10
41.105681311932351
 20
76.270836272715314
 30
0.0
  0
VERTEX
  5
1615
  8
SAPA_ISOLATOR
 10
41.105681311932351
 20
80.921962010823336
 30
0.0
 42
0.0949127563617268
  0
VERTEX
  5
1616
  8
SAPA_ISOLATOR
 10
41.091524040326007
 20
80.995870605066386
 30
0.0
 42
0.0825355669758324
  0
VERTEX
  5
1617
  8
SAPA_ISOLATOR
 10
40.133597533296637
 20
82.582345374368572
 30
0.0
 42
0.4603672002713016
  0
VERTEX
  5
1618
  8
SAPA_ISOLATOR
 10
39.677765090568009
 20
82.582345374368572
 30
0.0
 42
0.08253556697594
  0
VERTEX
  5
1619
  8
SAPA_ISOLATOR
 10
38.719838583538113
 20
80.995870605064169
 30
0.0
 42
0.0949127563615792
  0
VERTEX
  5
161A
  8
SAPA_ISOLATOR
 10
38.705681311932317
 20
80.921962010821005
 30
0.0
  0
VERTEX
  5
161B
  8
SAPA_ISOLATOR
 10
38.705681311932317
 20
76.270836272715314
 30
0.0
 42
-0.1989123673796566
  0
VERTEX
  5
161C
  8
SAPA_ISOLATOR
 10
38.617813346288301
 20
76.058704238359496
 30
0.0
  0
VERTEX
  5
161D
  8
SAPA_ISOLATOR
 10
37.299184196186779
 20
74.740075088257868
 30
0.0
 42
-0.1989123673796571
  0
VERTEX
  5
161E
  8
SAPA_ISOLATOR
 10
37.087052161830847
 20
74.652207122613845
 30
0.0
  0
VERTEX
  5
161F
  8
SAPA_ISOLATOR
 10
36.305681311932339
 20
74.652207122613845
 30
0.0
 42
0.4142135623730395
  0
VERTEX
  5
1620
  8
SAPA_ISOLATOR
 10
36.005681311932328
 20
74.352207122613891
 30
0.0
  0
VERTEX
  5
1621
  8
SAPA_ISOLATOR
 10
36.005681311932321
 20
62.152207122613902
 30
0.0
 42
0.4142135623730673
  0
VERTEX
  5
1622
  8
SAPA_ISOLATOR
 10
36.305681311932332
 20
61.85220712261394
 30
0.0
  0
VERTEX
  5
1623
  8
SAPA_ISOLATOR
 10
43.505681311932321
 20
61.85220712261394
 30
0.0
 42
0.4142135623731228
  0
VERTEX
  5
1624
  8
SAPA_ISOLATOR
 10
43.805681311932297
 20
62.152207122613902
 30
0.0
  0
VERTEX
  5
1625
  8
SAPA_ISOLATOR
 10
43.805681311932339
 20
74.352207122613891
 30
0.0
 42
0.4142135623730743
  0
VERTEX
  5
1626
  8
SAPA_ISOLATOR
 10
43.505681311932378
 20
74.652207122613845
 30
0.0
  0
VERTEX
  5
1627
  8
SAPA_ISOLATOR
 10
42.72431046203382
 20
74.652207122613845
 30
0.0
 42
-0.1989123673796576
  0
VERTEX
  5
1628
  8
SAPA_ISOLATOR
 10
42.512178427677888
 20
74.740075088257981
 30
0.0
  0
SEQEND
  5
1629
  8
SAPA_ISOLATOR
  0
POLYLINE
  5
D9A
  8
SAPA_ISOLATOR
 66
     1
 10
0.0
 20
0.0
 30
0.0
 70
     1
  0
VERTEX
  5
162A
  8
SAPA_ISOLATOR
 10
36.305681311932332
 20
60.752207122613918
 30
0.0
 42
0.4142135623731076
  0
VERTEX
  5
162B
  8
SAPA_ISOLATOR
 10
36.005681311932321
 20
60.452207122613864
 30
0.0
  0
VERTEX
  5
162C
  8
SAPA_ISOLATOR
 10
36.005681311932349
 20
45.152207122613952
 30
0.0
 42
0.4142135623730659
  0
VERTEX
  5
162D
  8
SAPA_ISOLATOR
 10
36.305681311932361
 20
44.852207122613997
 30
0.0
  0
VERTEX
  5
162E
  8
SAPA_ISOLATOR
 10
43.505681311932413
 20
44.852207122613891
 30
0.0
 42
0.414213562373041
  0
VERTEX
  5
162F
  8
SAPA_ISOLATOR
 10
43.805681311932361
 20
45.152207122613952
 30
0.0
  0
VERTEX
  5
1630
  8
SAPA_ISOLATOR
 10
43.805681311932332
 20
60.452207122613864
 30
0.0
 42
0.4142135623730784
  0
VERTEX
  5
1631
  8
SAPA_ISOLATOR
 10
43.505681311932371
 20
60.752207122613811
 30
0.0
  0
SEQEND
  5
1632
  8
SAPA_ISOLATOR
  0
POLYLINE
  5
D9B
  8
SAPA_ISOLATOR
 66
     1
 10
0.0
 20
0.0
 30
0.0
 70
     1
  0
VERTEX
  5
1633
  8
SAPA_ISOLATOR
 10
36.305681311932361
 20
43.752207122613868
 30
0.0
 42
0.4142135623730659
  0
VERTEX
  5
1634
  8
SAPA_ISOLATOR
 10
36.005681311932349
 20
43.452207122613913
 30
0.0
  0
VERTEX
  5
1635
  8
SAPA_ISOLATOR
 10
36.005681311932328
 20
29.390684752185049
 30
0.0
 42
0.6681786375387276
  0
VERTEX
  5
1636
  8
SAPA_ISOLATOR
 10
36.347102668020803
 20
29.249263395798891
 30
0.0
  0
VERTEX
  5
1637
  8
SAPA_ISOLATOR
 10
38.774310469475211
 20
31.67647119214439
 30
0.0
 42
-0.4142135623730892
  0
VERTEX
  5
1638
  8
SAPA_ISOLATOR
 10
41.037052168453542
 20
31.676471191325849
 30
0.0
  0
VERTEX
  5
1639
  8
SAPA_ISOLATOR
 10
43.464259955546197
 20
29.249263399124288
 30
0.0
 42
0.6681786382998753
  0
VERTEX
  5
163A
  8
SAPA_ISOLATOR
 10
43.805681311932339
 20
29.39068475521276
 30
0.0
  0
VERTEX
  5
163B
  8
SAPA_ISOLATOR
 10
43.805681311932361
 20
43.452207122613792
 30
0.0
 42
0.4142135623730951
  0
VERTEX
  5
163C
  8
SAPA_ISOLATOR
 10
43.505681311932342
 20
43.752207122613868
 30
0.0
  0
SEQEND
  5
163D
  8
SAPA_ISOLATOR
  0
CIRCLE
  5
DB2
  8
SAPA_FOGBAND
 10
21.150303994108299
 20
27.6146389018582
 30
0.0
 40
0.2549509756796394
  0
INSERT
  5
DB3
  8
SAPA_FOGBAND
  6
CONTINUOUS
  2
*U34
 10
0.0
 20
0.0
 30
0.0
1001
ACAD
1002
{
1000
R14_HATCH_DATA
1000
DB3
1011
1.0
1021
0.0
1031
0.0
1021
0.0
1031
0.0
1011
0.0
1021
0.0
1031
0.0
1021
1.0
1031
0.0
1011
0.0
1021
0.0
1031
0.0
1021
0.0
1031
1.0
1040
0.0
1010
0.0
1020
0.0
1030
1.0
1000
SOLID
1070
     1
1070
     1
1071
        1
1071
        1
1071
        1
1070
     2
1040
21.150303994108299
1040
27.6146389018582
1040
0.2549509756796394
1040
0.0
1040
6.2831853071795862
1070
     1
1071
        1
1005
DB2
1070
     0
1070
     1
1071
        1
1040
20.913565092538189
1040
27.696490399187098
1040
0.0
1002
}
  0
POLYLINE
  5
DB4
  8
SAPA_FOGBAND
 66
     1
 10
0.0
 20
0.0
 30
0.0
 70
     1
  0
VERTEX
  5
174F
  8
SAPA_FOGBAND
 10
22.05030399410828
 20
24.652207122613682
 30
0.0
 42
0.9999999999999998
  0
VERTEX
  5
1750
  8
SAPA_FOGBAND
 10
20.250303994108322
 20
24.652207122613682
 30
0.0
  0
VERTEX
  5
1751
  8
SAPA_FOGBAND
 10
20.250303994108322
 20
24.052207122613648
 30
0.0
 42
0.9999999999999998
  0
VERTEX
  5
1752
  8
SAPA_FOGBAND
 10
22.05030399410828
 20
24.052207122613648
 30
0.0
  0
SEQEND
  5
1753
  8
SAPA_FOGBAND
  0
POLYLINE
  5
DB5
  8
SAPA_FOGBAND
 66
     1
 10
0.0
 20
0.0
 30
0.0
 70
     1
  0
VERTEX
  5
1754
  8
SAPA_FOGBAND
 10
12.522427685935099
 20
29.752207122613701
 30
0.0
 42
0.0775891054856093
  0
VERTEX
  5
1755
  8
SAPA_FOGBAND
 10
15.989209416357649
 20
29.435571138552351
 30
0.0
  0
VERTEX
  5
1756
  8
SAPA_FOGBAND
 10
16.227098909186449
 20
29.652207122613731
 30
0.0
 42
-0.5773502691896298
  0
VERTEX
  5
1757
  8
SAPA_FOGBAND
 10
16.573509070700311
 20
29.652207122613731
 30
0.0
  0
VERTEX
  5
1758
  8
SAPA_FOGBAND
 10
16.811556687431111
 20
29.435297268390691
 30
0.0
  0
VERTEX
  5
1759
  8
SAPA_FOGBAND
 10
17.58905129734773
 20
29.435297268390691
 30
0.0
  0
VERTEX
  5
175A
  8
SAPA_FOGBAND
 10
17.827098909186471
 20
29.652207122613731
 30
0.0
 42
-0.577350269189699
  0
VERTEX
  5
175B
  8
SAPA_FOGBAND
 10
18.17350907070022
 20
29.652207122613731
 30
0.0
  0
VERTEX
  5
175C
  8
SAPA_FOGBAND
 10
18.411556687431009
 20
29.435297268390691
 30
0.0
  0
VERTEX
  5
175D
  8
SAPA_FOGBAND
 10
19.18905129734776
 20
29.435297268390691
 30
0.0
  0
VERTEX
  5
175E
  8
SAPA_FOGBAND
 10
19.427098909186491
 20
29.652207122613731
 30
0.0
 42
-0.577350269189699
  0
VERTEX
  5
175F
  8
SAPA_FOGBAND
 10
19.773509070700239
 20
29.652207122613731
 30
0.0
  0
VERTEX
  5
1760
  8
SAPA_FOGBAND
 10
20.011556687431039
 20
29.435297268390691
 30
0.0
  0
VERTEX
  5
1761
  8
SAPA_FOGBAND
 10
20.789051297347779
 20
29.435297268390691
 30
0.0
  0
VERTEX
  5
1762
  8
SAPA_FOGBAND
 10
21.02709890918641
 20
29.652207122613731
 30
0.0
 42
-0.5773502691896298
  0
VERTEX
  5
1763
  8
SAPA_FOGBAND
 10
21.373509070700269
 20
29.652207122613731
 30
0.0
  0
VERTEX
  5
1764
  8
SAPA_FOGBAND
 10
21.611556687431062
 20
29.435297268390691
 30
0.0
  0
VERTEX
  5
1765
  8
SAPA_FOGBAND
 10
22.389051297347809
 20
29.435297268390691
 30
0.0
  0
VERTEX
  5
1766
  8
SAPA_FOGBAND
 10
22.627098909186429
 20
29.652207122613731
 30
0.0
 42
-0.5773502691896298
  0
VERTEX
  5
1767
  8
SAPA_FOGBAND
 10
22.973509070700288
 20
29.652207122613731
 30
0.0
  0
VERTEX
  5
1768
  8
SAPA_FOGBAND
 10
23.211556687431081
 20
29.435297268390691
 30
0.0
  0
VERTEX
  5
1769
  8
SAPA_FOGBAND
 10
23.989051301512749
 20
29.435297268390691
 30
0.0
  0
VERTEX
  5
176A
  8
SAPA_FOGBAND
 10
24.22709891335149
 20
29.652207122613731
 30
0.0
 42
-0.577350269189699
  0
VERTEX
  5
176B
  8
SAPA_FOGBAND
 10
24.573509074865228
 20
29.652207122613731
 30
0.0
  0
VERTEX
  5
176C
  8
SAPA_FOGBAND
 10
25.37350907442033
 20
28.57887705412924
 30
0.0
 42
-0.1316524987190269
  0
VERTEX
  5
176D
  8
SAPA_FOGBAND
 10
25.400303994108299
 20
28.478877053358531
 30
0.0
  0
VERTEX
  5
176E
  8
SAPA_FOGBAND
 10
25.400303994108409
 20
25.95220712261375
 30
0.0
 42
-0.4142135623730951
  0
VERTEX
  5
176F
  8
SAPA_FOGBAND
 10
25.200303994108371
 20
25.752207122613701
 30
0.0
  0
VERTEX
  5
1770
  8
SAPA_FOGBAND
 10
23.150303994108299
 20
25.752207122613701
 30
0.0
 42
0.4142135623730951
  0
VERTEX
  5
1771
  8
SAPA_FOGBAND
 10
22.650303994108299
 20
25.252207122613701
 30
0.0
  0
VERTEX
  5
1772
  8
SAPA_FOGBAND
 10
22.650303994108299
 20
24.525412203370539
 30
0.0
  0
VERTEX
  5
1773
  8
SAPA_FOGBAND
 10
22.90206780312883
 20
24.457952294060139
 30
0.0
 42
-0.4740571810232869
  0
VERTEX
  5
1774
  8
SAPA_FOGBAND
 10
23.029361665492392
 20
24.175669708421481
 30
0.0
  0
VERTEX
  5
1775
  8
SAPA_FOGBAND
 10
22.409261162733859
 20
22.729463571661711
 30
0.0
 42
-0.2846003776495916
  0
VERTEX
  5
1776
  8
SAPA_FOGBAND
 10
21.961616984273629
 20
22.452207122613739
 30
0.0
  0
VERTEX
  5
1777
  8
SAPA_FOGBAND
 10
20.338991003943079
 20
22.452207122613739
 30
0.0
 42
-0.2846003776495917
  0
VERTEX
  5
1778
  8
SAPA_FOGBAND
 10
19.891346825482849
 20
22.729463571661711
 30
0.0
  0
VERTEX
  5
1779
  8
SAPA_FOGBAND
 10
19.27124632272432
 20
24.175669708421481
 30
0.0
 42
-0.4740571810232869
  0
VERTEX
  5
177A
  8
SAPA_FOGBAND
 10
19.398540185087882
 20
24.457952294060139
 30
0.0
  0
VERTEX
  5
177B
  8
SAPA_FOGBAND
 10
19.650303994108299
 20
24.525412203370539
 30
0.0
  0
VERTEX
  5
177C
  8
SAPA_FOGBAND
 10
19.650303994108299
 20
25.252207122613701
 30
0.0
 42
0.4142135623730951
  0
VERTEX
  5
177D
  8
SAPA_FOGBAND
 10
19.150303994108299
 20
25.752207122613701
 30
0.0
  0
VERTEX
  5
177E
  8
SAPA_FOGBAND
 10
16.100303994108341
 20
25.752207122613701
 30
0.0
 42
0.4142135623730951
  0
VERTEX
  5
177F
  8
SAPA_FOGBAND
 10
15.900303994108301
 20
25.552207122613648
 30
0.0
  0
VERTEX
  5
1780
  8
SAPA_FOGBAND
 10
15.900303994108411
 20
24.652207122613682
 30
0.0
 42
-0.4142135623731784
  0
VERTEX
  5
1781
  8
SAPA_FOGBAND
 10
15.700303994108371
 20
24.452207122613739
 30
0.0
  0
VERTEX
  5
1782
  8
SAPA_FOGBAND
 10
15.00030399410832
 20
24.452207122613629
 30
0.0
 42
-0.4142135623730398
  0
VERTEX
  5
1783
  8
SAPA_FOGBAND
 10
14.700303994108371
 20
24.752207122613701
 30
0.0
  0
VERTEX
  5
1784
  8
SAPA_FOGBAND
 10
14.700303994108371
 20
25.562718899265239
 30
0.0
 42
0.1316524975873973
  0
VERTEX
  5
1785
  8
SAPA_FOGBAND
 10
14.43235480167721
 20
26.562718899265239
 30
0.0
  0
VERTEX
  5
1786
  8
SAPA_FOGBAND
 10
9.2695096516367812
 20
29.152286891357161
 30
0.0
 42
-0.7057658529986604
  0
VERTEX
  5
1787
  8
SAPA_FOGBAND
 10
9.5371028269951221
 20
29.752207122613701
 30
0.0
  0
SEQEND
  5
1788
  8
SAPA_FOGBAND
  0
POLYLINE
  5
DB6
  8
SAPA_FOGBAND
 66
     1
 10
0.0
 20
0.0
 30
0.0
 70
     1
  0
VERTEX
  5
1789
  8
SAPA_FOGBAND
 10
20.80831071236863
 20
48.005220334714409
 30
0.0
 42
-0.9999999999999998
  0
VERTEX
  5
178A
  8
SAPA_FOGBAND
 10
19.008310712368619
 20
48.005220334714409
 30
0.0
  0
VERTEX
  5
178B
  8
SAPA_FOGBAND
 10
19.008310712368619
 20
48.605220334714431
 30
0.0
 42
-0.9999999999999998
  0
VERTEX
  5
178C
  8
SAPA_FOGBAND
 10
20.80831071236863
 20
48.605220334714431
 30
0.0
  0
SEQEND
  5
178D
  8
SAPA_FOGBAND
  0
POLYLINE
  5
DB7
  8
SAPA_FOGBAND
 66
     1
 10
0.0
 20
0.0
 30
0.0
  0
VERTEX
  5
178E
  8
SAPA_FOGBAND
 10
16.30831071236863
 20
46.390589837075588
 30
0.0
  0
VERTEX
  5
178F
  8
SAPA_FOGBAND
 10
16.30831071236863
 20
46.690589837075663
 30
0.0
  0
VERTEX
  5
1790
  8
SAPA_FOGBAND
 10
16.30831071236863
 20
46.390589837075588
 30
0.0
 42
0.4142135623730951
  0
VERTEX
  5
1791
  8
SAPA_FOGBAND
 10
16.80831071236863
 20
45.890589837075588
 30
0.0
  0
VERTEX
  5
1792
  8
SAPA_FOGBAND
 10
24.108310712368588
 20
45.890589837075588
 30
0.0
 42
0.4142135623730951
  0
VERTEX
  5
1793
  8
SAPA_FOGBAND
 10
24.608310712368588
 20
46.390589837075588
 30
0.0
  0
VERTEX
  5
1794
  8
SAPA_FOGBAND
 10
24.608310712368588
 20
46.690589837075663
 30
0.0
  0
SEQEND
  5
1795
  8
SAPA_FOGBAND
  0
POLYLINE
  5
DB8
  8
SAPA_FOGBAND
 66
     1
 10
0.0
 20
0.0
 30
0.0
 70
     1
  0
VERTEX
  5
1796
  8
SAPA_FOGBAND
 10
22.95737921186392
 20
42.190589837075663
 30
0.0
  0
VERTEX
  5
1797
  8
SAPA_FOGBAND
 10
19.871445675087859
 20
42.190589837075663
 30
0.0
 42
0.9695372397405709
  0
VERTEX
  5
1798
  8
SAPA_FOGBAND
 10
19.871445675087859
 20
38.609058044290158
 30
0.0
  0
VERTEX
  5
1799
  8
SAPA_FOGBAND
 10
22.95737921186392
 20
38.609058044290158
 30
0.0
 42
0.9063837695480113
  0
SEQEND
  5
179A
  8
SAPA_FOGBAND
  0
POLYLINE
  5
DB9
  8
SAPA_FOGBAND
 66
     1
 10
0.0
 20
0.0
 30
0.0
 70
     1
  0
VERTEX
  5
179B
  8
SAPA_FOGBAND
 10
32.239399913300268
 20
39.678992303191492
 30
0.0
  0
VERTEX
  5
179C
  8
SAPA_FOGBAND
 10
32.239399913300268
 20
39.678992303191492
 30
0.0
 42
-0.611149385816862
  0
VERTEX
  5
179D
  8
SAPA_FOGBAND
 10
32.207648746235542
 20
37.79875017382642
 30
0.0
  0
VERTEX
  5
179E
  8
SAPA_FOGBAND
 10
28.216985969319381
 20
37.232908261571957
 30
0.0
 42
-0.4464785874932439
  0
VERTEX
  5
179F
  8
SAPA_FOGBAND
 10
27.108310712368588
 20
38.226985566677882
 30
0.0
  0
VERTEX
  5
17A0
  8
SAPA_FOGBAND
 10
27.108310712368588
 20
41.25029689154259
 30
0.0
 42
-0.622676997742357
  0
VERTEX
  5
17A1
  8
SAPA_FOGBAND
 10
28.71898519898221
 20
42.042178619706043
 30
0.0
  0
VERTEX
  5
17A2
  8
SAPA_FOGBAND
 10
32.239399913300268
 20
39.678992303191492
 30
0.0
 42
-0.232531183213058
  0
SEQEND
  5
17A3
  8
SAPA_FOGBAND
  0
POLYLINE
  5
DBA
  8
SAPA_FOGBAND
 66
     1
 10
0.0
 20
0.0
 30
0.0
 70
     1
  0
VERTEX
  5
17A4
  8
SAPA_FOGBAND
 10
21.4083107123686
 20
48.13201525395754
 30
0.0
  0
VERTEX
  5
17A5
  8
SAPA_FOGBAND
 10
21.660074521389081
 20
48.199475163267948
 30
0.0
 42
0.4740571810232144
  0
VERTEX
  5
17A6
  8
SAPA_FOGBAND
 10
21.787368383752689
 20
48.481757748906603
 30
0.0
  0
VERTEX
  5
17A7
  8
SAPA_FOGBAND
 10
21.1672678809941
 20
49.927963885666493
 30
0.0
 42
0.2846003776496053
  0
VERTEX
  5
17A8
  8
SAPA_FOGBAND
 10
20.71962370253393
 20
50.205220334714447
 30
0.0
  0
VERTEX
  5
17A9
  8
SAPA_FOGBAND
 10
19.096997722203319
 20
50.205220334714447
 30
0.0
 42
0.2846003776496027
  0
VERTEX
  5
17AA
  8
SAPA_FOGBAND
 10
18.64935354374315
 20
49.927963885666493
 30
0.0
  0
VERTEX
  5
17AB
  8
SAPA_FOGBAND
 10
18.02925304098456
 20
48.481757748906553
 30
0.0
 42
0.4740571810232332
  0
VERTEX
  5
17AC
  8
SAPA_FOGBAND
 10
18.156546903348119
 20
48.199475163267948
 30
0.0
  0
VERTEX
  5
17AD
  8
SAPA_FOGBAND
 10
18.4083107123686
 20
48.13201525395754
 30
0.0
  0
VERTEX
  5
17AE
  8
SAPA_FOGBAND
 10
18.4083107123686
 20
47.190589837075663
 30
0.0
 42
-0.4142135623730951
  0
VERTEX
  5
17AF
  8
SAPA_FOGBAND
 10
17.9083107123686
 20
46.690589837075663
 30
0.0
  0
VERTEX
  5
17B0
  8
SAPA_FOGBAND
 10
15.39615054898715
 20
46.690589837075599
 30
0.0
 42
0.4027293761437467
  0
VERTEX
  5
17B1
  8
SAPA_FOGBAND
 10
15.096382995389289
 20
46.402397199606298
 30
0.0
  0
VERTEX
  5
17B2
  8
SAPA_FOGBAND
 10
14.60854318071986
 20
36.002397199606257
 30
0.0
 42
0.4257917699693538
  0
VERTEX
  5
17B3
  8
SAPA_FOGBAND
 10
14.908310734317711
 20
35.690589837075613
 30
0.0
  0
VERTEX
  5
17B4
  8
SAPA_FOGBAND
 10
28.613844393541591
 20
35.690589837075613
 30
0.0
  0
VERTEX
  5
17B5
  8
SAPA_FOGBAND
 10
34.216985991268473
 20
36.467124754758231
 30
0.0
 42
0.322530093016903
  0
VERTEX
  5
17B6
  8
SAPA_FOGBAND
 10
34.908310734317737
 20
37.461202059864213
 30
0.0
  0
VERTEX
  5
17B7
  8
SAPA_FOGBAND
 10
34.908310734317737
 20
39.69194561630178
 30
0.0
 42
0.2325311832130604
  0
VERTEX
  5
17B8
  8
SAPA_FOGBAND
 10
34.713647977624518
 20
40.087886480383581
 30
0.0
  0
VERTEX
  5
17B9
  8
SAPA_FOGBAND
 10
25.547084749717008
 20
46.482471565239102
 30
0.0
 42
0.1657205760184606
  0
VERTEX
  5
17BA
  8
SAPA_FOGBAND
 10
24.93641026310339
 20
46.690589837075663
 30
0.0
  0
VERTEX
  5
17BB
  8
SAPA_FOGBAND
 10
21.9083107123686
 20
46.690589837075663
 30
0.0
 42
-0.4142135623730951
  0
VERTEX
  5
17BC
  8
SAPA_FOGBAND
 10
21.4083107123686
 20
47.190589837075663
 30
0.0
  0
SEQEND
  5
17BD
  8
SAPA_FOGBAND
  0
CIRCLE
  5
DBB
  8
SAPA_FOGBAND
 10
58.661058629754159
 20
27.614638901858029
 30
0.0
 40
0.2549509756796394
  0
INSERT
  5
DBC
  8
SAPA_FOGBAND
  6
CONTINUOUS
  2
*U35
 10
0.0
 20
0.0
 30
0.0
1001
ACAD
1002
{
1000
R14_HATCH_DATA
1000
DBC
1011
1.0
1021
0.0
1031
0.0
1021
0.0
1031
0.0
1011
0.0
1021
0.0
1031
0.0
1021
1.0
1031
0.0
1011
0.0
1021
0.0
1031
0.0
1021
0.0
1031
1.0
1040
0.0
1010
0.0
1020
0.0
1030
1.0
1000
SOLID
1070
     1
1070
     1
1071
        1
1071
        1
1071
        1
1070
     2
1040
58.661058629754159
1040
27.614638901858029
1040
0.2549509756796394
1040
-3.1415926535897931
1040
3.1415926535897931
1070
     0
1071
        1
1005
DBB
1070
     0
1070
     1
1071
        1
1040
58.897797531324272
1040
27.696490399186931
1040
0.0
1002
}
  0
POLYLINE
  5
DBD
  8
SAPA_FOGBAND
 66
     1
 10
0.0
 20
0.0
 30
0.0
 70
     1
  0
VERTEX
  5
17CF
  8
SAPA_FOGBAND
 10
57.761058629754189
 20
24.652207122613511
 30
0.0
 42
-0.9999999999999998
  0
VERTEX
  5
17D0
  8
SAPA_FOGBAND
 10
59.561058629754143
 20
24.652207122613511
 30
0.0
  0
VERTEX
  5
17D1
  8
SAPA_FOGBAND
 10
59.561058629754143
 20
24.052207122613481
 30
0.0
 42
-0.9999999999999998
  0
VERTEX
  5
17D2
  8
SAPA_FOGBAND
 10
57.761058629754189
 20
24.052207122613481
 30
0.0
  0
SEQEND
  5
17D3
  8
SAPA_FOGBAND
  0
POLYLINE
  5
DBE
  8
SAPA_FOGBAND
 66
     1
 10
0.0
 20
0.0
 30
0.0
 70
     1
  0
VERTEX
  5
17D4
  8
SAPA_FOGBAND
 10
67.288934937927365
 20
29.75220712261353
 30
0.0
 42
-0.0775891054856093
  0
VERTEX
  5
17D5
  8
SAPA_FOGBAND
 10
63.822153207504812
 20
29.435571138552181
 30
0.0
  0
VERTEX
  5
17D6
  8
SAPA_FOGBAND
 10
63.584263714676013
 20
29.652207122613561
 30
0.0
 42
0.5773502691896298
  0
VERTEX
  5
17D7
  8
SAPA_FOGBAND
 10
63.237853553162147
 20
29.652207122613561
 30
0.0
  0
VERTEX
  5
17D8
  8
SAPA_FOGBAND
 10
62.999805936431358
 20
29.43529726839051
 30
0.0
  0
VERTEX
  5
17D9
  8
SAPA_FOGBAND
 10
62.222311326514721
 20
29.43529726839051
 30
0.0
  0
VERTEX
  5
17DA
  8
SAPA_FOGBAND
 10
61.98426371467599
 20
29.652207122613561
 30
0.0
 42
0.577350269189699
  0
VERTEX
  5
17DB
  8
SAPA_FOGBAND
 10
61.637853553162252
 20
29.652207122613561
 30
0.0
  0
VERTEX
  5
17DC
  8
SAPA_FOGBAND
 10
61.399805936431441
 20
29.43529726839051
 30
0.0
  0
VERTEX
  5
17DD
  8
SAPA_FOGBAND
 10
60.622311326514698
 20
29.43529726839051
 30
0.0
  0
VERTEX
  5
17DE
  8
SAPA_FOGBAND
 10
60.384263714675967
 20
29.652207122613561
 30
0.0
 42
0.577350269189699
  0
VERTEX
  5
17DF
  8
SAPA_FOGBAND
 10
60.037853553162222
 20
29.652207122613561
 30
0.0
  0
VERTEX
  5
17E0
  8
SAPA_FOGBAND
 10
59.799805936431419
 20
29.43529726839051
 30
0.0
  0
VERTEX
  5
17E1
  8
SAPA_FOGBAND
 10
59.022311326514682
 20
29.43529726839051
 30
0.0
  0
VERTEX
  5
17E2
  8
SAPA_FOGBAND
 10
58.784263714676058
 20
29.652207122613561
 30
0.0
 42
0.5773502691896298
  0
VERTEX
  5
17E3
  8
SAPA_FOGBAND
 10
58.437853553162199
 20
29.652207122613561
 30
0.0
  0
VERTEX
  5
17E4
  8
SAPA_FOGBAND
 10
58.19980593643141
 20
29.43529726839051
 30
0.0
  0
VERTEX
  5
17E5
  8
SAPA_FOGBAND
 10
57.422311326514659
 20
29.43529726839051
 30
0.0
  0
VERTEX
  5
17E6
  8
SAPA_FOGBAND
 10
57.184263714676042
 20
29.652207122613561
 30
0.0
 42
0.5773502691896298
  0
VERTEX
  5
17E7
  8
SAPA_FOGBAND
 10
56.837853553162169
 20
29.652207122613561
 30
0.0
  0
VERTEX
  5
17E8
  8
SAPA_FOGBAND
 10
56.59980593643138
 20
29.43529726839051
 30
0.0
  0
VERTEX
  5
17E9
  8
SAPA_FOGBAND
 10
55.822311322349719
 20
29.43529726839051
 30
0.0
  0
VERTEX
  5
17EA
  8
SAPA_FOGBAND
 10
55.584263710510982
 20
29.652207122613561
 30
0.0
 42
0.577350269189699
  0
VERTEX
  5
17EB
  8
SAPA_FOGBAND
 10
55.237853548997229
 20
29.652207122613561
 30
0.0
  0
VERTEX
  5
17EC
  8
SAPA_FOGBAND
 10
54.437853549442139
 20
28.578877054129059
 30
0.0
 42
0.1316524987190269
  0
VERTEX
  5
17ED
  8
SAPA_FOGBAND
 10
54.411058629754159
 20
28.47887705335836
 30
0.0
  0
VERTEX
  5
17EE
  8
SAPA_FOGBAND
 10
54.411058629754052
 20
25.952207122613569
 30
0.0
 42
0.4142135623730951
  0
VERTEX
  5
17EF
  8
SAPA_FOGBAND
 10
54.611058629754098
 20
25.75220712261353
 30
0.0
  0
VERTEX
  5
17F0
  8
SAPA_FOGBAND
 10
56.661058629754173
 20
25.75220712261353
 30
0.0
 42
-0.4142135623730951
  0
VERTEX
  5
17F1
  8
SAPA_FOGBAND
 10
57.161058629754173
 20
25.25220712261353
 30
0.0
  0
VERTEX
  5
17F2
  8
SAPA_FOGBAND
 10
57.161058629754173
 20
24.525412203370369
 30
0.0
  0
VERTEX
  5
17F3
  8
SAPA_FOGBAND
 10
56.909294820733642
 20
24.457952294059972
 30
0.0
 42
0.4740571810232869
  0
VERTEX
  5
17F4
  8
SAPA_FOGBAND
 10
56.782000958370077
 20
24.17566970842131
 30
0.0
  0
VERTEX
  5
17F5
  8
SAPA_FOGBAND
 10
57.402101461128609
 20
22.72946357166154
 30
0.0
 42
0.2846003776495916
  0
VERTEX
  5
17F6
  8
SAPA_FOGBAND
 10
57.849745639588832
 20
22.452207122613569
 30
0.0
  0
VERTEX
  5
17F7
  8
SAPA_FOGBAND
 10
59.472371619919393
 20
22.452207122613569
 30
0.0
 42
0.2846003776495917
  0
VERTEX
  5
17F8
  8
SAPA_FOGBAND
 10
59.920015798379602
 20
22.72946357166154
 30
0.0
  0
VERTEX
  5
17F9
  8
SAPA_FOGBAND
 10
60.540116301138141
 20
24.17566970842131
 30
0.0
 42
0.4740571810232869
  0
VERTEX
  5
17FA
  8
SAPA_FOGBAND
 10
60.412822438774583
 20
24.457952294059972
 30
0.0
  0
VERTEX
  5
17FB
  8
SAPA_FOGBAND
 10
60.161058629754159
 20
24.525412203370369
 30
0.0
  0
VERTEX
  5
17FC
  8
SAPA_FOGBAND
 10
60.161058629754159
 20
25.25220712261353
 30
0.0
 42
-0.4142135623730951
  0
VERTEX
  5
17FD
  8
SAPA_FOGBAND
 10
60.661058629754159
 20
25.75220712261353
 30
0.0
  0
VERTEX
  5
17FE
  8
SAPA_FOGBAND
 10
63.71105862975412
 20
25.75220712261353
 30
0.0
 42
-0.4142135623730951
  0
VERTEX
  5
17FF
  8
SAPA_FOGBAND
 10
63.911058629754159
 20
25.552207122613481
 30
0.0
  0
VERTEX
  5
1800
  8
SAPA_FOGBAND
 10
63.911058629754052
 20
24.652207122613511
 30
0.0
 42
0.4142135623731784
  0
VERTEX
  5
1801
  8
SAPA_FOGBAND
 10
64.111058629754098
 20
24.452207122613569
 30
0.0
  0
VERTEX
  5
1802
  8
SAPA_FOGBAND
 10
64.811058629754143
 20
24.452207122613459
 30
0.0
 42
0.4142135623730398
  0
VERTEX
  5
1803
  8
SAPA_FOGBAND
 10
65.111058629754083
 20
24.75220712261353
 30
0.0
  0
VERTEX
  5
1804
  8
SAPA_FOGBAND
 10
65.111058629754083
 20
25.562718899265061
 30
0.0
 42
-0.1316524975873973
  0
VERTEX
  5
1805
  8
SAPA_FOGBAND
 10
65.379007822185244
 20
26.562718899265061
 30
0.0
  0
VERTEX
  5
1806
  8
SAPA_FOGBAND
 10
70.541852972225684
 20
29.152286891357001
 30
0.0
 42
0.7057658529986604
  0
VERTEX
  5
1807
  8
SAPA_FOGBAND
 10
70.274259796867341
 20
29.75220712261353
 30
0.0
  0
SEQEND
  5
1808
  8
SAPA_FOGBAND
  0
POLYLINE
  5
DBF
  8
SAPA_FOGBAND
 66
     1
 10
0.0
 20
0.0
 30
0.0
 70
     1
  0
VERTEX
  5
1809
  8
SAPA_FOGBAND
 10
59.00305191149392
 20
48.005220334714409
 30
0.0
 42
0.9999999999999998
  0
VERTEX
  5
180A
  8
SAPA_FOGBAND
 10
60.803051911493938
 20
48.005220334714409
 30
0.0
  0
VERTEX
  5
180B
  8
SAPA_FOGBAND
 10
60.803051911493938
 20
48.605220334714431
 30
0.0
 42
0.9999999999999998
  0
VERTEX
  5
180C
  8
SAPA_FOGBAND
 10
59.00305191149392
 20
48.605220334714431
 30
0.0
  0
SEQEND
  5
180D
  8
SAPA_FOGBAND
  0
POLYLINE
  5
DC0
  8
SAPA_FOGBAND
 66
     1
 10
0.0
 20
0.0
 30
0.0
  0
VERTEX
  5
180E
  8
SAPA_FOGBAND
 10
63.50305191149392
 20
46.390589837075588
 30
0.0
  0
VERTEX
  5
180F
  8
SAPA_FOGBAND
 10
63.50305191149392
 20
46.690589837075663
 30
0.0
  0
VERTEX
  5
1810
  8
SAPA_FOGBAND
 10
63.50305191149392
 20
46.390589837075588
 30
0.0
 42
-0.4142135623730951
  0
VERTEX
  5
1811
  8
SAPA_FOGBAND
 10
63.003051911493927
 20
45.890589837075588
 30
0.0
  0
VERTEX
  5
1812
  8
SAPA_FOGBAND
 10
55.703051911493972
 20
45.890589837075588
 30
0.0
 42
-0.4142135623730951
  0
VERTEX
  5
1813
  8
SAPA_FOGBAND
 10
55.203051911493972
 20
46.390589837075588
 30
0.0
  0
VERTEX
  5
1814
  8
SAPA_FOGBAND
 10
55.203051911493972
 20
46.690589837075663
 30
0.0
  0
SEQEND
  5
1815
  8
SAPA_FOGBAND
  0
POLYLINE
  5
DC1
  8
SAPA_FOGBAND
 66
     1
 10
0.0
 20
0.0
 30
0.0
 70
     1
  0
VERTEX
  5
1816
  8
SAPA_FOGBAND
 10
56.853983411998641
 20
42.190589837075663
 30
0.0
  0
VERTEX
  5
1817
  8
SAPA_FOGBAND
 10
59.939916948774687
 20
42.190589837075663
 30
0.0
 42
-0.9695372397405709
  0
VERTEX
  5
1818
  8
SAPA_FOGBAND
 10
59.939916948774687
 20
38.609058044290158
 30
0.0
  0
VERTEX
  5
1819
  8
SAPA_FOGBAND
 10
56.853983411998641
 20
38.609058044290158
 30
0.0
 42
-0.9063837695480113
  0
SEQEND
  5
181A
  8
SAPA_FOGBAND
  0
POLYLINE
  5
DC2
  8
SAPA_FOGBAND
 66
     1
 10
0.0
 20
0.0
 30
0.0
 70
     1
  0
VERTEX
  5
181B
  8
SAPA_FOGBAND
 10
47.571962710562289
 20
39.6789923031915
 30
0.0
  0
VERTEX
  5
181C
  8
SAPA_FOGBAND
 10
47.571962710562289
 20
39.6789923031915
 30
0.0
 42
0.611149385816862
  0
VERTEX
  5
181D
  8
SAPA_FOGBAND
 10
47.603713877627023
 20
37.79875017382642
 30
0.0
  0
VERTEX
  5
181E
  8
SAPA_FOGBAND
 10
51.594376654543183
 20
37.232908261571957
 30
0.0
 42
0.4464785874932439
  0
VERTEX
  5
181F
  8
SAPA_FOGBAND
 10
52.703051911493972
 20
38.226985566677882
 30
0.0
  0
VERTEX
  5
1820
  8
SAPA_FOGBAND
 10
52.703051911493972
 20
41.25029689154259
 30
0.0
 42
0.622676997742357
  0
VERTEX
  5
1821
  8
SAPA_FOGBAND
 10
51.092377424880347
 20
42.042178619706043
 30
0.0
  0
VERTEX
  5
1822
  8
SAPA_FOGBAND
 10
47.571962710562289
 20
39.678992303191492
 30
0.0
 42
0.232531183213058
  0
SEQEND
  5
1823
  8
SAPA_FOGBAND
  0
POLYLINE
  5
DC3
  8
SAPA_FOGBAND
 66
     1
 10
0.0
 20
0.0
 30
0.0
 70
     1
  0
VERTEX
  5
1824
  8
SAPA_FOGBAND
 10
58.403051911493961
 20
48.13201525395754
 30
0.0
  0
VERTEX
  5
1825
  8
SAPA_FOGBAND
 10
58.15128810247348
 20
48.199475163267948
 30
0.0
 42
-0.4740571810232144
  0
VERTEX
  5
1826
  8
SAPA_FOGBAND
 10
58.023994240109872
 20
48.481757748906603
 30
0.0
  0
VERTEX
  5
1827
  8
SAPA_FOGBAND
 10
58.644094742868461
 20
49.927963885666493
 30
0.0
 42
-0.2846003776496053
  0
VERTEX
  5
1828
  8
SAPA_FOGBAND
 10
59.09173892132862
 20
50.205220334714447
 30
0.0
  0
VERTEX
  5
1829
  8
SAPA_FOGBAND
 10
60.714364901659238
 20
50.205220334714447
 30
0.0
 42
-0.2846003776496027
  0
VERTEX
  5
182A
  8
SAPA_FOGBAND
 10
61.162009080119397
 20
49.927963885666493
 30
0.0
  0
VERTEX
  5
182B
  8
SAPA_FOGBAND
 10
61.782109582877993
 20
48.481757748906553
 30
0.0
 42
-0.4740571810232332
  0
VERTEX
  5
182C
  8
SAPA_FOGBAND
 10
61.654815720514442
 20
48.199475163267948
 30
0.0
  0
VERTEX
  5
182D
  8
SAPA_FOGBAND
 10
61.403051911493961
 20
48.13201525395754
 30
0.0
  0
VERTEX
  5
182E
  8
SAPA_FOGBAND
 10
61.403051911493961
 20
47.190589837075663
 30
0.0
 42
0.4142135623730951
  0
VERTEX
  5
182F
  8
SAPA_FOGBAND
 10
61.903051911493961
 20
46.690589837075663
 30
0.0
  0
VERTEX
  5
1830
  8
SAPA_FOGBAND
 10
64.415212074875413
 20
46.690589837075599
 30
0.0
 42
-0.4027293761437467
  0
VERTEX
  5
1831
  8
SAPA_FOGBAND
 10
64.714979628473273
 20
46.402397199606298
 30
0.0
  0
VERTEX
  5
1832
  8
SAPA_FOGBAND
 10
65.202819443142701
 20
36.002397199606257
 30
0.0
 42
-0.4257917699693538
  0
VERTEX
  5
1833
  8
SAPA_FOGBAND
 10
64.903051889544841
 20
35.690589837075613
 30
0.0
  0
VERTEX
  5
1834
  8
SAPA_FOGBAND
 10
51.197518230320959
 20
35.690589837075613
 30
0.0
  0
VERTEX
  5
1835
  8
SAPA_FOGBAND
 10
45.594376632594091
 20
36.467124754758231
 30
0.0
 42
-0.322530093016903
  0
VERTEX
  5
1836
  8
SAPA_FOGBAND
 10
44.90305188954482
 20
37.461202059864213
 30
0.0
  0
VERTEX
  5
1837
  8
SAPA_FOGBAND
 10
44.90305188954482
 20
39.69194561630178
 30
0.0
 42
-0.2325311832130604
  0
VERTEX
  5
1838
  8
SAPA_FOGBAND
 10
45.097714646238039
 20
40.087886480383581
 30
0.0
  0
VERTEX
  5
1839
  8
SAPA_FOGBAND
 10
54.264277874145549
 20
46.482471565239102
 30
0.0
 42
-0.1657205760184606
  0
VERTEX
  5
183A
  8
SAPA_FOGBAND
 10
54.874952360759167
 20
46.690589837075663
 30
0.0
  0
VERTEX
  5
183B
  8
SAPA_FOGBAND
 10
57.903051911493961
 20
46.690589837075663
 30
0.0
 42
0.4142135623730951
  0
VERTEX
  5
183C
  8
SAPA_FOGBAND
 10
58.403051911493961
 20
47.190589837075663
 30
0.0
  0
SEQEND
  5
183D
  8
SAPA_FOGBAND
  0
VIEWPORT
  5
C4
 67
     1
  8
0
 10
160.5543545598442
 20
116.00969601843509
 30
0.0
 40
404.96977709277462
 41
256.8421457311839
 68
     1
 69
     1
1001
ACAD
1000
MVIEW
1002
{
1070
    16
1010
0.0
1020
0.0
1030
0.0
1010
0.0
1020
0.0
1030
1.0
1040
-1.5707963267948959
1040
256.8421457311839
1040
102.1562485694885
1040
-121.90624046325679
1040
50.0
1040
0.0
1040
0.0
1070
     0
1070
     0
1070
     1
1070
     1
1070
     0
1070
     0
1070
     0
1070
     0
1040
0.0
1040
0.0
1040
0.0
1040
10.0
1040
10.0
1040
10.0
1040
10.0
1070
     0
1002
{
1002
}
1002
}
  0
ENDSEC
  0
EOF
