  0
SECTION
  2
HEADER
  9
$ACADVER
  1
AC1009
  9
$INSBASE
 10
0.0
 20
0.0
 30
0.0
  9
$EXTMIN
 10
-47.778569118780567
 20
-136.25477318526779
 30
0.0
  9
$EXTMAX
 10
40.99999999999681
 20
107.1946420312285
 30
0.0
  9
$LIMMIN
 10
0.0
 20
0.0
  9
$LIMMAX
 10
790.0
 20
790.0
  9
$ORTHOMODE
 70
     1
  9
$REGENMODE
 70
     1
  9
$FILLMODE
 70
     1
  9
$QTEXTMODE
 70
     0
  9
$MIRRTEXT
 70
     1
  9
$DRAGMODE
 70
     2
  9
$LTSCALE
 40
4.0
  9
$OSMODE
 70
   167
  9
$ATTMODE
 70
     1
  9
$TEXTSIZE
 40
3.5
  9
$TRACEWID
 40
0.05
  9
$TEXTSTYLE
  7
ISO
  9
$CLAYER
  8
0
  9
$CELTYPE
  6
BYLAYER
  9
$CECOLOR
 62
   256
  9
$DIMSCALE
 40
0.0
  9
$DIMASZ
 40
3.0
  9
$DIMEXO
 40
1.5
  9
$DIMDLI
 40
10.0
  9
$DIMRND
 40
0.0
  9
$DIMDLE
 40
0.0
  9
$DIMEXE
 40
1.5
  9
$DIMTP
 40
0.0
  9
$DIMTM
 40
0.0
  9
$DIMTXT
 40
3.0
  9
$DIMCEN
 40
-5.0
  9
$DIMTSZ
 40
0.0
  9
$DIMTOL
 70
     0
  9
$DIMLIM
 70
     0
  9
$DIMTIH
 70
     0
  9
$DIMTOH
 70
     0
  9
$DIMSE1
 70
     0
  9
$DIMSE2
 70
     0
  9
$DIMTAD
 70
     1
  9
$DIMZIN
 70
     8
  9
$DIMBLK
  1

  9
$DIMASO
 70
     1
  9
$DIMSHO
 70
     1
  9
$DIMPOST
  1

  9
$DIMAPOST
  1

  9
$DIMALT
 70
     0
  9
$DIMALTD
 70
     0
  9
$DIMALTF
 40
25.399999999999999
  9
$DIMLFAC
 40
-1.0
  9
$DIMTOFL
 70
     1
  9
$DIMTVP
 40
0.0
  9
$DIMTIX
 70
     0
  9
$DIMSOXD
 70
     0
  9
$DIMSAH
 70
     0
  9
$DIMBLK1
  1

  9
$DIMBLK2
  1

  9
$DIMSTYLE
  2
MASKIN
  9
$DIMCLRD
 70
   256
  9
$DIMCLRE
 70
   256
  9
$DIMCLRT
 70
     2
  9
$DIMTFAC
 40
1.0
  9
$DIMGAP
 40
1.0
  9
$LUNITS
 70
     2
  9
$LUPREC
 70
     8
  9
$SKETCHINC
 40
0.1
  9
$FILLETRAD
 40
0.0
  9
$AUNITS
 70
     0
  9
$AUPREC
 70
     8
  9
$MENU
  1
ACAD
  9
$ELEVATION
 40
0.0
  9
$PELEVATION
 40
0.0
  9
$THICKNESS
 40
0.0
  9
$LIMCHECK
 70
     0
  9
$BLIPMODE
 70
     0
  9
$CHAMFERA
 40
0.0
  9
$CHAMFERB
 40
0.0
  9
$SKPOLY
 70
     0
  9
$TDCREATE
 40
2457436.6694725119
  9
$TDUPDATE
 40
2457498.3587020491
  9
$TDINDWG
 40
0.0076702546
  9
$TDUSRTIMER
 40
0.0076702546
  9
$USRTIMER
 70
     1
  9
$ANGBASE
 50
0.0
  9
$ANGDIR
 70
     0
  9
$PDMODE
 70
     0
  9
$PDSIZE
 40
0.0
  9
$PLINEWID
 40
0.0
  9
$COORDS
 70
     1
  9
$SPLFRAME
 70
     0
  9
$SPLINETYPE
 70
     6
  9
$SPLINESEGS
 70
     8
  9
$ATTDIA
 70
     0
  9
$ATTREQ
 70
     1
  9
$HANDLING
 70
     1
  9
$HANDSEED
  5
13BF
  9
$SURFTAB1
 70
     6
  9
$SURFTAB2
 70
     6
  9
$SURFTYPE
 70
     6
  9
$SURFU
 70
     6
  9
$SURFV
 70
     6
  9
$UCSNAME
  2

  9
$UCSORG
 10
0.0
 20
0.0
 30
0.0
  9
$UCSXDIR
 10
1.0
 20
0.0
 30
0.0
  9
$UCSYDIR
 10
0.0
 20
1.0
 30
0.0
  9
$PUCSNAME
  2

  9
$PUCSORG
 10
0.0
 20
0.0
 30
0.0
  9
$PUCSXDIR
 10
1.0
 20
0.0
 30
0.0
  9
$PUCSYDIR
 10
0.0
 20
1.0
 30
0.0
  9
$USERI1
 70
     0
  9
$USERI2
 70
     0
  9
$USERI3
 70
     0
  9
$USERI4
 70
     0
  9
$USERI5
 70
     0
  9
$USERR1
 40
0.0
  9
$USERR2
 40
0.0
  9
$USERR3
 40
0.0
  9
$USERR4
 40
0.0
  9
$USERR5
 40
0.0
  9
$WORLDVIEW
 70
     1
  9
$SHADEDGE
 70
     3
  9
$SHADEDIF
 70
    70
  9
$TILEMODE
 70
     1
  9
$MAXACTVP
 70
    16
  9
$PLIMCHECK
 70
     0
  9
$PEXTMIN
 10
1.0000000000000000E+020
 20
1.0000000000000000E+020
 30
1.0000000000000000E+020
  9
$PEXTMAX
 10
-1.0000000000000000E+020
 20
-1.0000000000000000E+020
 30
-1.0000000000000000E+020
  9
$PLIMMIN
 10
-5.069427490234375
 20
-5.8737497329711914
  9
$PLIMMAX
 10
291.89889526367187
 20
204.0995779037475
  9
$UNITMODE
 70
     0
  9
$VISRETAIN
 70
     1
  9
$PLINEGEN
 70
     0
  9
$PSLTSCALE
 70
     1
  0
ENDSEC
  0
SECTION
  2
TABLES
  0
TABLE
  2
VPORT
 70
     1
  0
VPORT
  2
*ACTIVE
 70
     0
 10
0.0
 20
0.0
 11
1.0
 21
1.0
 12
73.129424226614617
 22
93.173331398354449
 13
0.0
 23
0.0
 14
1.0
 24
1.0
 15
0.0
 25
0.0
 16
0.0
 26
0.0
 36
1.0
 17
0.0
 27
0.0
 37
0.0
 40
316.92035071885738
 41
1.9285714285714279
 42
50.0
 43
0.0
 44
0.0
 50
0.0
 51
0.0
 71
     0
 72
   100
 73
     1
 74
     1
 75
     0
 76
     0
 77
     0
 78
     0
  0
ENDTAB
  0
TABLE
  2
LTYPE
 70
    23
  0
LTYPE
  2
CONTINUOUS
 70
     0
  3
Solid line
 72
    65
 73
     0
 40
0.0
  0
LTYPE
  2
NEWDOT
 70
     0
  3
____ . ____ . ____ . ____ . ____ . ____ . ____
 72
    65
 73
     4
 40
2.0
 49
1.0
 49
-0.5
 49
0.0
 49
-0.5
  0
LTYPE
  2
DASHDOT
 70
     0
  3
__ . __ . __ . __ . __ . __ . __ . __ . __ . __
 72
    65
 73
     4
 40
1.0
 49
0.5
 49
-0.25
 49
0.0
 49
-0.25
  0
LTYPE
  2
DASHED
 70
     0
  3
__ __ __ __ __ __ __ __ __ __ __ __ __ __ __
 72
    65
 73
     2
 40
0.75
 49
0.5
 49
-0.25
  0
LTYPE
  2
PHANTOM
 70
     0
  3
Phantom ______  __  __  ______  __  __  ______
 72
    65
 73
     6
 40
63.5
 49
31.75
 49
-6.3499999999999988
 49
6.3499999999999988
 49
-6.3499999999999988
 49
6.3499999999999988
 49
-6.3499999999999988
  0
LTYPE
  2
BYGG-01482301$0$NEWDOT
 70
     0
  3
____ . ____ . ____ . ____ . ____ . ____ . ____
 72
    65
 73
     4
 40
2.0
 49
1.0
 49
-0.5
 49
0.0
 49
-0.5
  0
LTYPE
  2
BYGG-01482301$0$ZIGZAG
 70
     0
  3
Zig zag /\/\/\/\/\/\/\/\/\/\/\/\/\/\/\/\/\/\/\/\/\/\/\/
 72
    65
 73
     4
 40
20.32254
 49
0.00254
 49
-5.0800000000000001
 49
-10.16
 49
-5.0800000000000001
  0
LTYPE
  2
BYGG-023714$0$NEWDOT
 70
     0
  3
____ . ____ . ____ . ____ . ____ . ____ . ____
 72
    65
 73
     4
 40
2.0
 49
1.0
 49
-0.5
 49
0.0
 49
-0.5
  0
LTYPE
  2
BYGG-023714$0$DASHDOT
 70
     0
  3
__ . __ . __ . __ . __ . __ . __ . __ . __ . __
 72
    65
 73
     4
 40
1.0
 49
0.5
 49
-0.25
 49
0.0
 49
-0.25
  0
LTYPE
  2
BYGG-023714$0$DASHED
 70
     0
  3
__ __ __ __ __ __ __ __ __ __ __ __ __ __ __
 72
    65
 73
     2
 40
0.75
 49
0.5
 49
-0.25
  0
LTYPE
  2
BYGG-023714$0$PHANTOM
 70
     0
  3
Phantom ______  __  __  ______  __  __  ______
 72
    65
 73
     6
 40
63.5
 49
31.75
 49
-6.3499999999999988
 49
6.3499999999999988
 49
-6.3499999999999988
 49
6.3499999999999988
 49
-6.3499999999999988
  0
LTYPE
  2
BYGG-023714$0$ZIGZAG
 70
     0
  3
Zig zag /\/\/\/\/\/\/\/\/\/\/\/\/\/\/\/\/\/\/\/\/\/\/\/
 72
    65
 73
     4
 40
20.32254
 49
0.00254
 49
-5.0800000000000001
 49
-10.16
 49
-5.0800000000000001
  0
LTYPE
  2
BYGG-021480$0$NEWDOT
 70
     0
  3
____ . ____ . ____ . ____ . ____ . ____ . ____
 72
    65
 73
     4
 40
2.0
 49
1.0
 49
-0.5
 49
0.0
 49
-0.5
  0
LTYPE
  2
BYGG-021480$0$DASHDOT
 70
     0
  3
__ . __ . __ . __ . __ . __ . __ . __ . __ . __
 72
    65
 73
     4
 40
1.0
 49
0.5
 49
-0.25
 49
0.0
 49
-0.25
  0
LTYPE
  2
BYGG-021480$0$DASHED
 70
     0
  3
__ __ __ __ __ __ __ __ __ __ __ __ __ __ __
 72
    65
 73
     2
 40
0.75
 49
0.5
 49
-0.25
  0
LTYPE
  2
BYGG-021480$0$PHANTOM
 70
     0
  3
Phantom ______  __  __  ______  __  __  ______
 72
    65
 73
     6
 40
63.5
 49
31.75
 49
-6.3499999999999988
 49
6.3499999999999988
 49
-6.3499999999999988
 49
6.3499999999999988
 49
-6.3499999999999988
  0
LTYPE
  2
BYGG-014279$0$NEWDOT
 70
     0
  3
____ . ____ . ____ . ____ . ____ . ____ . ____
 72
    65
 73
     4
 40
2.0
 49
1.0
 49
-0.5
 49
0.0
 49
-0.5
  0
LTYPE
  2
BYGG-014279$0$ZIGZAG
 70
     0
  3
Zig zag /\/\/\/\/\/\/\/\/\/\/\/\/\/\/\/\/\/\/\/\/\/\/\/
 72
    65
 73
     4
 40
20.32254
 49
0.00254
 49
-5.0800000000000001
 49
-10.16
 49
-5.0800000000000001
  0
LTYPE
  2
BYGG-035302$0$NEWDOT
 70
     0
  3
____ . ____ . ____ . ____ . ____ . ____ . ____
 72
    65
 73
     4
 40
2.0
 49
1.0
 49
-0.5
 49
0.0
 49
-0.5
  0
LTYPE
  2
BYGG-035302$0$DASHDOT
 70
     0
  3
__ . __ . __ . __ . __ . __ . __ . __ . __ . __
 72
    65
 73
     4
 40
1.0
 49
0.5
 49
-0.25
 49
0.0
 49
-0.25
  0
LTYPE
  2
BYGG-035302$0$DASHED
 70
     0
  3
__ __ __ __ __ __ __ __ __ __ __ __ __ __ __
 72
    65
 73
     2
 40
0.75
 49
0.5
 49
-0.25
  0
LTYPE
  2
BYGG-035302$0$PHANTOM
 70
     0
  3
Phantom ______  __  __  ______  __  __  ______
 72
    65
 73
     6
 40
63.5
 49
31.75
 49
-6.3499999999999988
 49
6.3499999999999988
 49
-6.3499999999999988
 49
6.3499999999999988
 49
-6.3499999999999988
  0
LTYPE
  2
BYGG-014279$0$PHANTOM2
 70
     0
  3
Phantom (.5x) ___ _ _ ___ _ _ ___ _ _ ___ _ _
 72
    65
 73
     6
 40
1.25
 49
0.625
 49
-0.125
 49
0.125
 49
-0.125
 49
0.125
 49
-0.125
  0
ENDTAB
  0
TABLE
  2
LAYER
 70
   132
  0
LAYER
  2
0
 70
     0
 62
     7
  6
CONTINUOUS
  0
LAYER
  2
SAPA_ISOLATOR
 70
     0
 62
     4
  6
CONTINUOUS
  0
LAYER
  2
SAPA_GLAS
 70
     0
 62
     4
  6
CONTINUOUS
  0
LAYER
  2
SAPA_FOGBAND
 70
     0
 62
     2
  6
CONTINUOUS
  0
LAYER
  2
SAPA_PROFIL
 70
     0
 62
     7
  6
CONTINUOUS
  0
ENDTAB
  0
TABLE
  2
STYLE
 70
    20
  0
STYLE
  2
STANDARD
 70
     0
 40
0.0
 41
1.0
 50
0.0
 71
     0
 42
0.2
  3
txt
  4

  0
STYLE
  2
ISO
 70
     0
 40
0.0
 41
1.0
 50
0.0
 71
     0
 42
3.5
  3
txt
  4

  0
STYLE
  2

 70
     1
 40
0.0
 41
1.0
 50
0.0
 71
     0
 42
0.2
  3
ltypeshp.shx
  4

  0
STYLE
  2
BYGG-021667$0$STANDARD
 70
     0
 40
0.0
 41
1.0
 50
0.0
 71
     0
 42
0.2
  3
txt
  4

  0
STYLE
  2
BYGG-021667$0$ISO
 70
     0
 40
0.0
 41
1.0
 50
0.0
 71
     0
 42
3.5
  3
isocp3.shx
  4

  0
STYLE
  2
BYGG-01482301$0$STANDARD
 70
     0
 40
0.0
 41
1.0
 50
0.0
 71
     0
 42
0.2
  3
txt
  4

  0
STYLE
  2
BYGG-01482301$0$ISO
 70
     0
 40
0.0
 41
1.0
 50
0.0
 71
     0
 42
3.5
  3
isocp3.shx
  4

  0
STYLE
  2
BYGG-025463$0$STANDARD
 70
     0
 40
0.0
 41
1.0
 50
0.0
 71
     0
 42
0.2
  3
txt
  4

  0
STYLE
  2
BYGG-025463$0$ISO
 70
     0
 40
0.0
 41
1.0
 50
0.0
 71
     0
 42
3.5
  3
txt
  4

  0
STYLE
  2
BYGG-023714$0$STANDARD
 70
     0
 40
0.0
 41
1.0
 50
0.0
 71
     0
 42
0.2
  3
txt
  4

  0
STYLE
  2
BYGG-023714$0$ISO
 70
     0
 40
0.0
 41
1.0
 50
0.0
 71
     0
 42
3.5
  3
txt
  4

  0
STYLE
  2
BYGG-021480$0$STANDARD
 70
     0
 40
0.0
 41
1.0
 50
0.0
 71
     0
 42
0.2
  3
txt
  4

  0
STYLE
  2
BYGG-021480$0$ISO
 70
     0
 40
0.0
 41
1.0
 50
0.0
 71
     0
 42
3.5
  3
txt
  4

  0
STYLE
  2
BYGG-021480$0$ROMANS
 70
     0
 40
0.0
 41
1.0
 50
0.0
 71
     0
 42
3.5
  3
romans.shx
  4

  0
STYLE
  2
BYGG-021582$0$STANDARD
 70
     0
 40
0.0
 41
1.0
 50
0.0
 71
     0
 42
0.2
  3
txt
  4

  0
STYLE
  2
BYGG-021582$0$ISO
 70
     0
 40
0.0
 41
1.0
 50
0.0
 71
     0
 42
3.5
  3
isocp3.shx
  4

  0
STYLE
  2
BYGG-014279$0$STANDARD
 70
     0
 40
0.0
 41
1.0
 50
0.0
 71
     0
 42
0.2
  3
TXT.shx
  4

  0
STYLE
  2
BYGG-014279$0$ISO
 70
     0
 40
0.0
 41
1.0
 50
0.0
 71
     0
 42
3.5
  3
iso
  4

  0
STYLE
  2
BYGG-035302$0$STANDARD
 70
     0
 40
0.0
 41
1.0
 50
0.0
 71
     0
 42
0.2
  3
txt
  4

  0
STYLE
  2
BYGG-035302$0$ISO
 70
     0
 40
0.0
 41
1.0
 50
0.0
 71
     0
 42
3.5
  3
txt
  4

  0
ENDTAB
  0
TABLE
  2
VIEW
 70
     0
  0
ENDTAB
  0
TABLE
  2
UCS
 70
     0
  0
ENDTAB
  0
TABLE
  2
APPID
 70
    21
  0
APPID
  2
ACAD
 70
     0
  0
APPID
  2
ACAD_DSTYLE_DIMTEXT_FILL
 70
     0
  0
APPID
  2
ACAD_DSTYLE_DIMEXT_LENGTH
 70
     0
  0
APPID
  2
ACAD_DSTYLE_DIMEXT_ENABLED
 70
     0
  0
APPID
  2
ACAD_DSTYLE_DIM_LINETYPE
 70
     0
  0
APPID
  2
ACAD_DSTYLE_DIM_EXT1_LINETYPE
 70
     0
  0
APPID
  2
ACAD_DSTYLE_DIM_EXT2_LINETYPE
 70
     0
  0
APPID
  2
ACAD_DSTYLE_DIMJOGGED_JOGA
 70
     0
  0
APPID
  2
ACAD_DSTYLE_DIMARC_LENGTH_
 70
     0
  0
APPID
  2
ACAD_PSEXT
 70
     0
  0
APPID
  2
ACAD_MLEADERVER
 70
     0
  0
APPID
  2
ACAD_NAV_VCDISPLAY
 70
     0
  0
APPID
  2
AMG_ARCHIVE11
 70
     0
  0
APPID
  2
DCO15
 70
     0
  0
APPID
  2
ACADANNOTATIVE
 70
     0
  0
APPID
  2
ACAECLAYERSTANDARD
 70
     0
  0
APPID
  2
ACAD_EXEMPT_FROM_CAD_STANDARDS
 70
     0
  0
APPID
  2
ACDBDYNAMICBLOCKGUID
 70
     0
  0
APPID
  2
ACDBBLOCKREPETAG
 70
     0
  0
APPID
  2
AEC_XDATA_BOUND_SPACE
 70
     0
  0
APPID
  2
ACCMTRANSPARENCY
 70
     0
  0
ENDTAB
  0
TABLE
  2
DIMSTYLE
 70
    17
  0
DIMSTYLE
  2
STANDARD
 70
     0
  3

  4

  5

  6

  7

 40
1.0
 41
0.18
 42
0.0625
 43
0.38
 44
0.18
 45
0.0
 46
0.0
 47
0.0
 48
0.0
140
0.18
141
0.09
142
0.0
143
25.399999999999999
144
1.0
145
0.0
146
1.0
147
0.09
 71
     0
 72
     0
 73
     1
 74
     1
 75
     0
 76
     0
 77
     0
 78
     0
170
     0
171
     2
172
     0
173
     0
174
     0
175
     0
176
     0
177
     0
178
     0
  0
DIMSTYLE
  2
MASKIN
 70
     0
  3

  4

  5

  6

  7

 40
0.0
 41
3.0
 42
1.5
 43
10.0
 44
1.5
 45
0.0
 46
0.0
 47
0.0
 48
0.0
140
3.0
141
-5.0
142
0.0
143
25.399999999999999
144
-1.0
145
0.0
146
1.0
147
1.0
 71
     0
 72
     0
 73
     0
 74
     0
 75
     0
 76
     0
 77
     1
 78
     8
170
     0
171
     0
172
     1
173
     0
174
     0
175
     0
176
   256
177
   256
178
     2
  0
DIMSTYLE
  2
BYGG-021667$0$MASKIN
 70
     0
  3

  4

  5

  6

  7

 40
0.0
 41
3.0
 42
1.5
 43
10.0
 44
1.5
 45
0.0
 46
0.0
 47
0.0
 48
0.0
140
3.0
141
-5.0
142
0.0
143
25.399999999999999
144
-1.0
145
0.0
146
1.0
147
1.0
 71
     0
 72
     0
 73
     0
 74
     0
 75
     0
 76
     0
 77
     1
 78
     8
170
     0
171
     0
172
     1
173
     0
174
     0
175
     0
176
   256
177
   256
178
   256
  0
DIMSTYLE
  2
BYGG-01482301$0$STANDARD
 70
     0
  3

  4

  5

  6

  7

 40
1.0
 41
0.18
 42
0.0625
 43
0.38
 44
0.18
 45
0.0
 46
0.0
 47
0.0
 48
0.0
140
0.18
141
0.09
142
0.0
143
25.399999999999999
144
1.0
145
0.0
146
1.0
147
0.09
 71
     0
 72
     0
 73
     1
 74
     1
 75
     0
 76
     0
 77
     0
 78
     0
170
     0
171
     2
172
     0
173
     0
174
     0
175
     0
176
     0
177
     0
178
     0
  0
DIMSTYLE
  2
BYGG-01482301$0$MASKIN
 70
     0
  3

  4

  5

  6

  7

 40
0.0
 41
3.0
 42
1.5
 43
10.0
 44
1.5
 45
0.0
 46
0.0
 47
0.0
 48
0.0
140
3.0
141
-5.0
142
0.0
143
25.399999999999999
144
-1.0
145
0.0
146
1.0
147
1.0
 71
     0
 72
     0
 73
     0
 74
     1
 75
     0
 76
     0
 77
     1
 78
     8
170
     0
171
     0
172
     1
173
     0
174
     0
175
     0
176
   256
177
   256
178
     2
  0
DIMSTYLE
  2
BYGG-025463$0$STANDARD
 70
     0
  3

  4

  5

  6

  7

 40
1.0
 41
0.18
 42
0.0625
 43
0.38
 44
0.18
 45
0.0
 46
0.0
 47
0.0
 48
0.0
140
0.18
141
0.09
142
0.0
143
25.399999999999999
144
1.0
145
0.0
146
1.0
147
0.09
 71
     0
 72
     0
 73
     1
 74
     1
 75
     0
 76
     0
 77
     0
 78
     0
170
     0
171
     2
172
     0
173
     0
174
     0
175
     0
176
     0
177
     0
178
     0
  0
DIMSTYLE
  2
BYGG-025463$0$MASKIN
 70
     0
  3

  4

  5

  6

  7

 40
0.0
 41
3.0
 42
1.5
 43
10.0
 44
1.5
 45
0.0
 46
0.0
 47
0.0
 48
0.0
140
3.0
141
-5.0
142
0.0
143
25.399999999999999
144
-1.0
145
0.0
146
1.0
147
1.0
 71
     0
 72
     0
 73
     0
 74
     0
 75
     0
 76
     0
 77
     1
 78
     8
170
     0
171
     0
172
     1
173
     0
174
     0
175
     0
176
   256
177
   256
178
     2
  0
DIMSTYLE
  2
BYGG-023714$0$STANDARD
 70
     0
  3

  4

  5

  6

  7

 40
1.0
 41
0.18
 42
0.0625
 43
0.38
 44
0.18
 45
0.0
 46
0.0
 47
0.0
 48
0.0
140
0.18
141
0.09
142
0.0
143
25.399999999999999
144
1.0
145
0.0
146
1.0
147
0.09
 71
     0
 72
     0
 73
     1
 74
     1
 75
     0
 76
     0
 77
     0
 78
     0
170
     0
171
     2
172
     0
173
     0
174
     0
175
     0
176
     0
177
     0
178
     0
  0
DIMSTYLE
  2
BYGG-023714$0$MASKIN
 70
     0
  3

  4

  5

  6

  7

 40
0.0
 41
3.0
 42
1.5
 43
10.0
 44
1.5
 45
0.0
 46
0.0
 47
0.0
 48
0.0
140
3.0
141
-5.0
142
0.0
143
25.399999999999999
144
-1.0
145
0.0
146
1.0
147
1.0
 71
     0
 72
     0
 73
     0
 74
     0
 75
     0
 76
     0
 77
     1
 78
     8
170
     0
171
     0
172
     1
173
     0
174
     0
175
     0
176
   256
177
   256
178
     2
  0
DIMSTYLE
  2
BYGG-021480$0$STANDARD
 70
     0
  3

  4

  5

  6

  7

 40
1.0
 41
0.18
 42
0.0625
 43
0.38
 44
0.18
 45
0.0
 46
0.0
 47
0.0
 48
0.0
140
0.18
141
0.09
142
0.0
143
25.399999999999999
144
1.0
145
0.0
146
1.0
147
0.09
 71
     0
 72
     0
 73
     1
 74
     1
 75
     0
 76
     0
 77
     0
 78
     0
170
     0
171
     2
172
     0
173
     0
174
     0
175
     0
176
     0
177
     0
178
     0
  0
DIMSTYLE
  2
BYGG-021480$0$MASKIN
 70
     0
  3

  4

  5

  6

  7

 40
0.0
 41
3.0
 42
1.5
 43
10.0
 44
1.5
 45
0.0
 46
0.0
 47
0.0
 48
0.0
140
3.0
141
-5.0
142
0.0
143
25.399999999999999
144
-1.0
145
0.0
146
1.0
147
1.0
 71
     0
 72
     0
 73
     0
 74
     0
 75
     0
 76
     0
 77
     1
 78
     8
170
     0
171
     0
172
     1
173
     0
174
     0
175
     0
176
   256
177
   256
178
     2
  0
DIMSTYLE
  2
BYGG-021480$0$PRIMO_2_5-1
 70
     0
  3

  4

  5

  6

  7

 40
0.4
 41
3.0
 42
1.0
 43
5.0
 44
1.0
 45
0.0
 46
0.0
 47
0.0
 48
0.0
140
3.0
141
3.0
142
0.0
143
25.399999999999999
144
1.0
145
0.0
146
1.0
147
1.0
 71
     0
 72
     0
 73
     0
 74
     0
 75
     0
 76
     0
 77
     1
 78
     8
170
     0
171
     2
172
     0
173
     0
174
     0
175
     0
176
   256
177
   256
178
     6
  0
DIMSTYLE
  2
BYGG-021582$0$MASKIN
 70
     0
  3

  4

  5

  6

  7

 40
0.0
 41
3.0
 42
1.5
 43
10.0
 44
1.5
 45
0.0
 46
0.0
 47
0.0
 48
0.0
140
3.0
141
-5.0
142
0.0
143
25.399999999999999
144
-1.0
145
0.0
146
1.0
147
1.0
 71
     0
 72
     0
 73
     0
 74
     0
 75
     0
 76
     0
 77
     1
 78
     8
170
     0
171
     0
172
     1
173
     0
174
     0
175
     0
176
   256
177
   256
178
   256
  0
DIMSTYLE
  2
BYGG-014279$0$STANDARD
 70
     0
  3

  4

  5

  6

  7

 40
1.0
 41
0.18
 42
0.0625
 43
0.38
 44
0.18
 45
0.0
 46
0.0
 47
0.0
 48
0.0
140
0.18
141
0.09
142
0.0
143
25.399999999999999
144
1.0
145
0.0
146
1.0
147
0.09
 71
     0
 72
     0
 73
     1
 74
     1
 75
     0
 76
     0
 77
     0
 78
     0
170
     0
171
     2
172
     0
173
     0
174
     0
175
     0
176
     0
177
     0
178
     0
  0
DIMSTYLE
  2
BYGG-014279$0$MASKIN
 70
     0
  3

  4

  5

  6

  7

 40
0.0
 41
3.0
 42
1.5
 43
10.0
 44
1.5
 45
0.0
 46
0.0
 47
0.0
 48
0.0
140
3.0
141
-5.0
142
0.0
143
25.399999999999999
144
-1.0
145
0.0
146
1.0
147
1.0
 71
     0
 72
     0
 73
     0
 74
     1
 75
     0
 76
     0
 77
     1
 78
     8
170
     0
171
     0
172
     1
173
     0
174
     0
175
     0
176
   256
177
   256
178
     2
  0
DIMSTYLE
  2
BYGG-035302$0$STANDARD
 70
     0
  3

  4

  5

  6

  7

 40
1.0
 41
0.18
 42
0.0625
 43
0.38
 44
0.18
 45
0.0
 46
0.0
 47
0.0
 48
0.0
140
0.18
141
0.09
142
0.0
143
25.399999999999999
144
1.0
145
0.0
146
1.0
147
0.09
 71
     0
 72
     0
 73
     1
 74
     1
 75
     0
 76
     0
 77
     0
 78
     0
170
     0
171
     2
172
     0
173
     0
174
     0
175
     0
176
     0
177
     0
178
     0
  0
DIMSTYLE
  2
BYGG-035302$0$MASKIN
 70
     0
  3

  4

  5

  6

  7

 40
0.0
 41
3.0
 42
1.5
 43
10.0
 44
1.5
 45
0.0
 46
0.0
 47
0.0
 48
0.0
140
3.0
141
-5.0
142
0.0
143
25.399999999999999
144
-1.0
145
0.0
146
1.0
147
1.0
 71
     0
 72
     0
 73
     0
 74
     0
 75
     0
 76
     0
 77
     1
 78
     8
170
     0
171
     0
172
     1
173
     0
174
     0
175
     0
176
   256
177
   256
178
     2
  0
ENDTAB
  0
ENDSEC
  0
SECTION
  2
BLOCKS
  0
BLOCK
  8
0
  2
$MODEL_SPACE
 70
     0
 10
0.0
 20
0.0
 30
0.0
  3
$MODEL_SPACE
  1

  0
ENDBLK
  5
37
  8
0
  0
BLOCK
 67
     1
  8
0
  2
$PAPER_SPACE
 70
     0
 10
0.0
 20
0.0
 30
0.0
  3
$PAPER_SPACE
  1

  0
ENDBLK
  5
35
 67
     1
  8
0
  0
BLOCK
  8
0
  2
*U26
 70
     1
 10
0.0
 20
0.0
 30
0.0
  3
*U26
  1

  0
SOLID
  5
1137
  8
SAPA_FOGBAND
  6
CONTINUOUS
 10
-18.629356795614282
 20
-100.7735158796802
 30
0.0
 11
-18.809634359387481
 21
-100.84818929158661
 31
0.0
 12
-18.449079231841079
 22
-100.84818929158661
 32
0.0
 13
-18.449079231841079
 23
-100.84818929158661
 33
0.0
210
0.0
220
0.0
230
1.0
  0
SOLID
  5
1138
  8
SAPA_FOGBAND
  6
CONTINUOUS
 10
-18.809634359387481
 20
-100.84818929158661
 30
0.0
 11
-18.884307771293919
 21
-101.0284668553598
 31
0.0
 12
-18.374405819934641
 22
-101.0284668553598
 32
0.0
 13
-18.374405819934641
 23
-101.0284668553598
 33
0.0
210
0.0
220
0.0
230
1.0
  0
SOLID
  5
1139
  8
SAPA_FOGBAND
  6
CONTINUOUS
 10
18.809634359387481
 20
-100.84818929158661
 30
0.0
 11
18.449079231841079
 21
-100.84818929158661
 31
0.0
 12
18.374405819934641
 22
-101.0284668553598
 32
0.0
 13
18.374405819934641
 23
-101.0284668553598
 33
0.0
210
0.0
220
0.0
230
-1.0
  0
SOLID
  5
113A
  8
SAPA_FOGBAND
  6
CONTINUOUS
 10
18.809634359387481
 20
-101.208744419133
 30
0.0
 11
18.449079231841079
 21
-101.208744419133
 31
0.0
 12
18.629356795614282
 22
-101.2834178310395
 32
0.0
 13
18.629356795614282
 23
-101.2834178310395
 33
0.0
210
0.0
220
0.0
230
-1.0
  0
SOLID
  5
113B
  8
SAPA_FOGBAND
  6
CONTINUOUS
 10
-18.884307771293919
 20
-101.0284668553598
 30
0.0
 11
-18.809634359387481
 21
-101.208744419133
 31
0.0
 12
-18.449079231841079
 22
-101.208744419133
 32
0.0
 13
-18.449079231841079
 23
-101.208744419133
 33
0.0
210
0.0
220
0.0
230
1.0
  0
SOLID
  5
113C
  8
SAPA_FOGBAND
  6
CONTINUOUS
 10
18.884307771293919
 20
-101.0284668553598
 30
0.0
 11
18.374405819934641
 21
-101.0284668553598
 31
0.0
 12
18.449079231841079
 22
-101.208744419133
 32
0.0
 13
18.449079231841079
 23
-101.208744419133
 33
0.0
210
0.0
220
0.0
230
-1.0
  0
LINE
  5
113D
  8
SAPA_FOGBAND
  6
CONTINUOUS
 10
-18.629356795614282
 20
-100.7735158796802
 30
0.0
 11
-18.809634359387481
 21
-100.84818929158661
 31
0.0
  0
LINE
  5
113E
  8
SAPA_FOGBAND
  6
CONTINUOUS
 10
-18.449079231841079
 20
-100.84818929158661
 30
0.0
 11
-18.629356795614282
 21
-100.7735158796802
 31
0.0
  0
LINE
  5
113F
  8
SAPA_FOGBAND
  6
CONTINUOUS
 10
-18.809634359387481
 20
-100.84818929158661
 30
0.0
 11
-18.884307771293919
 21
-101.0284668553598
 31
0.0
  0
LINE
  5
1140
  8
SAPA_FOGBAND
  6
CONTINUOUS
 10
-18.449079231841079
 20
-100.84818929158661
 30
0.0
 11
-18.374405819934641
 21
-101.0284668553598
 31
0.0
  0
LINE
  5
1141
  8
SAPA_FOGBAND
  6
CONTINUOUS
 10
-18.449079231841079
 20
-101.208744419133
 30
0.0
 11
-18.629356795614282
 21
-101.2834178310395
 31
0.0
  0
LINE
  5
1142
  8
SAPA_FOGBAND
  6
CONTINUOUS
 10
-18.629356795614282
 20
-101.2834178310395
 30
0.0
 11
-18.809634359387481
 21
-101.208744419133
 31
0.0
  0
LINE
  5
1143
  8
SAPA_FOGBAND
  6
CONTINUOUS
 10
-18.884307771293919
 20
-101.0284668553598
 30
0.0
 11
-18.809634359387481
 21
-101.208744419133
 31
0.0
  0
LINE
  5
1144
  8
SAPA_FOGBAND
  6
CONTINUOUS
 10
-18.374405819934641
 20
-101.0284668553598
 30
0.0
 11
-18.449079231841079
 21
-101.208744419133
 31
0.0
  0
ENDBLK
  5
1146
  8
0
  0
BLOCK
  8
0
  2
*U27
 70
     1
 10
0.0
 20
0.0
 30
0.0
  3
*U27
  1

  0
SOLID
  5
11B3
  8
SAPA_FOGBAND
  6
CONTINUOUS
 10
18.629356795614282
 20
-100.7735158796802
 30
0.0
 11
18.449079231841079
 21
-100.84818929158661
 31
0.0
 12
18.809634359387481
 22
-100.84818929158661
 32
0.0
 13
18.809634359387481
 23
-100.84818929158661
 33
0.0
210
0.0
220
0.0
230
1.0
  0
SOLID
  5
11B4
  8
SAPA_FOGBAND
  6
CONTINUOUS
 10
18.449079231841079
 20
-100.84818929158661
 30
0.0
 11
18.374405819934641
 21
-101.0284668553598
 31
0.0
 12
18.884307771293919
 22
-101.0284668553598
 32
0.0
 13
18.884307771293919
 23
-101.0284668553598
 33
0.0
210
0.0
220
0.0
230
1.0
  0
SOLID
  5
11B5
  8
SAPA_FOGBAND
  6
CONTINUOUS
 10
-18.449079231841079
 20
-100.84818929158661
 30
0.0
 11
-18.809634359387481
 21
-100.84818929158661
 31
0.0
 12
-18.884307771293919
 22
-101.0284668553598
 32
0.0
 13
-18.884307771293919
 23
-101.0284668553598
 33
0.0
210
0.0
220
0.0
230
-1.0
  0
SOLID
  5
11B6
  8
SAPA_FOGBAND
  6
CONTINUOUS
 10
-18.449079231841079
 20
-101.208744419133
 30
0.0
 11
-18.809634359387481
 21
-101.208744419133
 31
0.0
 12
-18.629356795614282
 22
-101.2834178310395
 32
0.0
 13
-18.629356795614282
 23
-101.2834178310395
 33
0.0
210
0.0
220
0.0
230
-1.0
  0
SOLID
  5
11B7
  8
SAPA_FOGBAND
  6
CONTINUOUS
 10
18.374405819934641
 20
-101.0284668553598
 30
0.0
 11
18.449079231841079
 21
-101.208744419133
 31
0.0
 12
18.809634359387481
 22
-101.208744419133
 32
0.0
 13
18.809634359387481
 23
-101.208744419133
 33
0.0
210
0.0
220
0.0
230
1.0
  0
SOLID
  5
11B8
  8
SAPA_FOGBAND
  6
CONTINUOUS
 10
-18.374405819934641
 20
-101.0284668553598
 30
0.0
 11
-18.884307771293919
 21
-101.0284668553598
 31
0.0
 12
-18.809634359387481
 22
-101.208744419133
 32
0.0
 13
-18.809634359387481
 23
-101.208744419133
 33
0.0
210
0.0
220
0.0
230
-1.0
  0
LINE
  5
11B9
  8
SAPA_FOGBAND
  6
CONTINUOUS
 10
18.629356795614282
 20
-100.7735158796802
 30
0.0
 11
18.449079231841079
 21
-100.84818929158661
 31
0.0
  0
LINE
  5
11BA
  8
SAPA_FOGBAND
  6
CONTINUOUS
 10
18.809634359387481
 20
-100.84818929158661
 30
0.0
 11
18.629356795614282
 21
-100.7735158796802
 31
0.0
  0
LINE
  5
11BB
  8
SAPA_FOGBAND
  6
CONTINUOUS
 10
18.449079231841079
 20
-100.84818929158661
 30
0.0
 11
18.374405819934641
 21
-101.0284668553598
 31
0.0
  0
LINE
  5
11BC
  8
SAPA_FOGBAND
  6
CONTINUOUS
 10
18.809634359387481
 20
-100.84818929158661
 30
0.0
 11
18.884307771293919
 21
-101.0284668553598
 31
0.0
  0
LINE
  5
11BD
  8
SAPA_FOGBAND
  6
CONTINUOUS
 10
18.809634359387481
 20
-101.208744419133
 30
0.0
 11
18.629356795614282
 21
-101.2834178310395
 31
0.0
  0
LINE
  5
11BE
  8
SAPA_FOGBAND
  6
CONTINUOUS
 10
18.629356795614282
 20
-101.2834178310395
 30
0.0
 11
18.449079231841079
 21
-101.208744419133
 31
0.0
  0
LINE
  5
11BF
  8
SAPA_FOGBAND
  6
CONTINUOUS
 10
18.374405819934641
 20
-101.0284668553598
 30
0.0
 11
18.449079231841079
 21
-101.208744419133
 31
0.0
  0
LINE
  5
11C0
  8
SAPA_FOGBAND
  6
CONTINUOUS
 10
18.884307771293919
 20
-101.0284668553598
 30
0.0
 11
18.809634359387481
 21
-101.208744419133
 31
0.0
  0
ENDBLK
  5
11C2
  8
0
  0
BLOCK
  8
0
  2
*U28
 70
     1
 10
0.0
 20
0.0
 30
0.0
  3
*U28
  1

  0
SOLID
  5
122F
  8
SAPA_FOGBAND
  6
CONTINUOUS
 10
-18.629356795614282
 20
-100.7735158796802
 30
0.0
 11
-18.809634359387481
 21
-100.84818929158661
 31
0.0
 12
-18.449079231841079
 22
-100.84818929158661
 32
0.0
 13
-18.449079231841079
 23
-100.84818929158661
 33
0.0
210
0.0
220
0.0
230
1.0
  0
SOLID
  5
1230
  8
SAPA_FOGBAND
  6
CONTINUOUS
 10
-18.809634359387481
 20
-100.84818929158661
 30
0.0
 11
-18.884307771293919
 21
-101.0284668553598
 31
0.0
 12
-18.374405819934641
 22
-101.0284668553598
 32
0.0
 13
-18.374405819934641
 23
-101.0284668553598
 33
0.0
210
0.0
220
0.0
230
1.0
  0
SOLID
  5
1231
  8
SAPA_FOGBAND
  6
CONTINUOUS
 10
18.809634359387481
 20
-100.84818929158661
 30
0.0
 11
18.449079231841079
 21
-100.84818929158661
 31
0.0
 12
18.374405819934641
 22
-101.0284668553598
 32
0.0
 13
18.374405819934641
 23
-101.0284668553598
 33
0.0
210
0.0
220
0.0
230
-1.0
  0
SOLID
  5
1232
  8
SAPA_FOGBAND
  6
CONTINUOUS
 10
18.809634359387481
 20
-101.208744419133
 30
0.0
 11
18.449079231841079
 21
-101.208744419133
 31
0.0
 12
18.629356795614282
 22
-101.2834178310395
 32
0.0
 13
18.629356795614282
 23
-101.2834178310395
 33
0.0
210
0.0
220
0.0
230
-1.0
  0
SOLID
  5
1233
  8
SAPA_FOGBAND
  6
CONTINUOUS
 10
-18.884307771293919
 20
-101.0284668553598
 30
0.0
 11
-18.809634359387481
 21
-101.208744419133
 31
0.0
 12
-18.449079231841079
 22
-101.208744419133
 32
0.0
 13
-18.449079231841079
 23
-101.208744419133
 33
0.0
210
0.0
220
0.0
230
1.0
  0
SOLID
  5
1234
  8
SAPA_FOGBAND
  6
CONTINUOUS
 10
18.884307771293919
 20
-101.0284668553598
 30
0.0
 11
18.374405819934641
 21
-101.0284668553598
 31
0.0
 12
18.449079231841079
 22
-101.208744419133
 32
0.0
 13
18.449079231841079
 23
-101.208744419133
 33
0.0
210
0.0
220
0.0
230
-1.0
  0
LINE
  5
1235
  8
SAPA_FOGBAND
  6
CONTINUOUS
 10
-18.629356795614282
 20
-100.7735158796802
 30
0.0
 11
-18.809634359387481
 21
-100.84818929158661
 31
0.0
  0
LINE
  5
1236
  8
SAPA_FOGBAND
  6
CONTINUOUS
 10
-18.449079231841079
 20
-100.84818929158661
 30
0.0
 11
-18.629356795614282
 21
-100.7735158796802
 31
0.0
  0
LINE
  5
1237
  8
SAPA_FOGBAND
  6
CONTINUOUS
 10
-18.809634359387481
 20
-100.84818929158661
 30
0.0
 11
-18.884307771293919
 21
-101.0284668553598
 31
0.0
  0
LINE
  5
1238
  8
SAPA_FOGBAND
  6
CONTINUOUS
 10
-18.449079231841079
 20
-100.84818929158661
 30
0.0
 11
-18.374405819934641
 21
-101.0284668553598
 31
0.0
  0
LINE
  5
1239
  8
SAPA_FOGBAND
  6
CONTINUOUS
 10
-18.449079231841079
 20
-101.208744419133
 30
0.0
 11
-18.629356795614282
 21
-101.2834178310395
 31
0.0
  0
LINE
  5
123A
  8
SAPA_FOGBAND
  6
CONTINUOUS
 10
-18.629356795614282
 20
-101.2834178310395
 30
0.0
 11
-18.809634359387481
 21
-101.208744419133
 31
0.0
  0
LINE
  5
123B
  8
SAPA_FOGBAND
  6
CONTINUOUS
 10
-18.884307771293919
 20
-101.0284668553598
 30
0.0
 11
-18.809634359387481
 21
-101.208744419133
 31
0.0
  0
LINE
  5
123C
  8
SAPA_FOGBAND
  6
CONTINUOUS
 10
-18.374405819934641
 20
-101.0284668553598
 30
0.0
 11
-18.449079231841079
 21
-101.208744419133
 31
0.0
  0
ENDBLK
  5
123E
  8
0
  0
BLOCK
  8
0
  2
*U29
 70
     1
 10
0.0
 20
0.0
 30
0.0
  3
*U29
  1

  0
SOLID
  5
12AB
  8
SAPA_FOGBAND
  6
CONTINUOUS
 10
18.629356795614282
 20
-100.7735158796802
 30
0.0
 11
18.449079231841079
 21
-100.84818929158661
 31
0.0
 12
18.809634359387481
 22
-100.84818929158661
 32
0.0
 13
18.809634359387481
 23
-100.84818929158661
 33
0.0
210
0.0
220
0.0
230
1.0
  0
SOLID
  5
12AC
  8
SAPA_FOGBAND
  6
CONTINUOUS
 10
18.449079231841079
 20
-100.84818929158661
 30
0.0
 11
18.374405819934641
 21
-101.0284668553598
 31
0.0
 12
18.884307771293919
 22
-101.0284668553598
 32
0.0
 13
18.884307771293919
 23
-101.0284668553598
 33
0.0
210
0.0
220
0.0
230
1.0
  0
SOLID
  5
12AD
  8
SAPA_FOGBAND
  6
CONTINUOUS
 10
-18.449079231841079
 20
-100.84818929158661
 30
0.0
 11
-18.809634359387481
 21
-100.84818929158661
 31
0.0
 12
-18.884307771293919
 22
-101.0284668553598
 32
0.0
 13
-18.884307771293919
 23
-101.0284668553598
 33
0.0
210
0.0
220
0.0
230
-1.0
  0
SOLID
  5
12AE
  8
SAPA_FOGBAND
  6
CONTINUOUS
 10
-18.449079231841079
 20
-101.208744419133
 30
0.0
 11
-18.809634359387481
 21
-101.208744419133
 31
0.0
 12
-18.629356795614282
 22
-101.2834178310395
 32
0.0
 13
-18.629356795614282
 23
-101.2834178310395
 33
0.0
210
0.0
220
0.0
230
-1.0
  0
SOLID
  5
12AF
  8
SAPA_FOGBAND
  6
CONTINUOUS
 10
18.374405819934641
 20
-101.0284668553598
 30
0.0
 11
18.449079231841079
 21
-101.208744419133
 31
0.0
 12
18.809634359387481
 22
-101.208744419133
 32
0.0
 13
18.809634359387481
 23
-101.208744419133
 33
0.0
210
0.0
220
0.0
230
1.0
  0
SOLID
  5
12B0
  8
SAPA_FOGBAND
  6
CONTINUOUS
 10
-18.374405819934641
 20
-101.0284668553598
 30
0.0
 11
-18.884307771293919
 21
-101.0284668553598
 31
0.0
 12
-18.809634359387481
 22
-101.208744419133
 32
0.0
 13
-18.809634359387481
 23
-101.208744419133
 33
0.0
210
0.0
220
0.0
230
-1.0
  0
LINE
  5
12B1
  8
SAPA_FOGBAND
  6
CONTINUOUS
 10
18.629356795614282
 20
-100.7735158796802
 30
0.0
 11
18.449079231841079
 21
-100.84818929158661
 31
0.0
  0
LINE
  5
12B2
  8
SAPA_FOGBAND
  6
CONTINUOUS
 10
18.809634359387481
 20
-100.84818929158661
 30
0.0
 11
18.629356795614282
 21
-100.7735158796802
 31
0.0
  0
LINE
  5
12B3
  8
SAPA_FOGBAND
  6
CONTINUOUS
 10
18.449079231841079
 20
-100.84818929158661
 30
0.0
 11
18.374405819934641
 21
-101.0284668553598
 31
0.0
  0
LINE
  5
12B4
  8
SAPA_FOGBAND
  6
CONTINUOUS
 10
18.809634359387481
 20
-100.84818929158661
 30
0.0
 11
18.884307771293919
 21
-101.0284668553598
 31
0.0
  0
LINE
  5
12B5
  8
SAPA_FOGBAND
  6
CONTINUOUS
 10
18.809634359387481
 20
-101.208744419133
 30
0.0
 11
18.629356795614282
 21
-101.2834178310395
 31
0.0
  0
LINE
  5
12B6
  8
SAPA_FOGBAND
  6
CONTINUOUS
 10
18.629356795614282
 20
-101.2834178310395
 30
0.0
 11
18.449079231841079
 21
-101.208744419133
 31
0.0
  0
LINE
  5
12B7
  8
SAPA_FOGBAND
  6
CONTINUOUS
 10
18.374405819934641
 20
-101.0284668553598
 30
0.0
 11
18.449079231841079
 21
-101.208744419133
 31
0.0
  0
LINE
  5
12B8
  8
SAPA_FOGBAND
  6
CONTINUOUS
 10
18.884307771293919
 20
-101.0284668553598
 30
0.0
 11
18.809634359387481
 21
-101.208744419133
 31
0.0
  0
ENDBLK
  5
12BA
  8
0
  0
ENDSEC
  0
SECTION
  2
ENTITIES
  0
POLYLINE
  5
B36
  8
SAPA_PROFIL
 66
     1
 10
0.0
 20
0.0
 30
0.0
 70
     1
  0
VERTEX
  5
DBE
  8
SAPA_PROFIL
 10
22.799999999999049
 20
-107.098475071208
 30
0.0
  0
VERTEX
  5
DBF
  8
SAPA_PROFIL
 10
23.799999999999041
 20
-107.098475071208
 30
0.0
  0
VERTEX
  5
DC0
  8
SAPA_PROFIL
 10
23.799999999999041
 20
-104.49847507120781
 30
0.0
 42
-0.4142135623730951
  0
VERTEX
  5
DC1
  8
SAPA_PROFIL
 10
24.299999999999049
 20
-103.99847507120781
 30
0.0
  0
VERTEX
  5
DC2
  8
SAPA_PROFIL
 10
24.69999999999914
 20
-103.99847507120781
 30
0.0
 42
-0.4142135623730951
  0
VERTEX
  5
DC3
  8
SAPA_PROFIL
 10
24.999999999999091
 20
-104.2984750712077
 30
0.0
  0
VERTEX
  5
DC4
  8
SAPA_PROFIL
 10
24.999999999999091
 20
-121.9999999990104
 30
0.0
 42
-0.4142135623730951
  0
VERTEX
  5
DC5
  8
SAPA_PROFIL
 10
24.499999999999091
 20
-122.4999999990104
 30
0.0
  0
VERTEX
  5
DC6
  8
SAPA_PROFIL
 10
-24.500000000000909
 20
-122.4999999990104
 30
0.0
 42
-0.4142135623730951
  0
VERTEX
  5
DC7
  8
SAPA_PROFIL
 10
-25.000000000000909
 20
-121.9999999990104
 30
0.0
  0
VERTEX
  5
DC8
  8
SAPA_PROFIL
 10
-25.000000000000909
 20
-104.2984750712077
 30
0.0
 42
-0.4142135623730951
  0
VERTEX
  5
DC9
  8
SAPA_PROFIL
 10
-24.700000000000959
 20
-103.99847507120781
 30
0.0
  0
VERTEX
  5
DCA
  8
SAPA_PROFIL
 10
-24.300000000000871
 20
-103.99847507120781
 30
0.0
 42
-0.4142135623730951
  0
VERTEX
  5
DCB
  8
SAPA_PROFIL
 10
-23.80000000000086
 20
-104.49847507120781
 30
0.0
  0
VERTEX
  5
DCC
  8
SAPA_PROFIL
 10
-23.80000000000086
 20
-107.098475071208
 30
0.0
  0
VERTEX
  5
DCD
  8
SAPA_PROFIL
 10
-22.80000000000086
 20
-107.098475071208
 30
0.0
  0
VERTEX
  5
DCE
  8
SAPA_PROFIL
 10
-22.22033922157971
 20
-108.10250783084101
 30
0.0
 42
-0.4155392929676362
  0
VERTEX
  5
DCF
  8
SAPA_PROFIL
 10
-22.51631264788557
 20
-109.19712680263289
 30
0.0
  0
VERTEX
  5
DD0
  8
SAPA_PROFIL
 10
-23.80000000000086
 20
-109.9382640409319
 30
0.0
  0
VERTEX
  5
DD1
  8
SAPA_PROFIL
 10
-23.80000000000086
 20
-120.09999999901061
 30
0.0
 42
0.4142135623730951
  0
VERTEX
  5
DD2
  8
SAPA_PROFIL
 10
-22.80000000000086
 20
-121.09999999901061
 30
0.0
  0
VERTEX
  5
DD3
  8
SAPA_PROFIL
 10
22.799999999999049
 20
-121.09999999901061
 30
0.0
 42
0.4142135623730951
  0
VERTEX
  5
DD4
  8
SAPA_PROFIL
 10
23.799999999999041
 20
-120.09999999901061
 30
0.0
  0
VERTEX
  5
DD5
  8
SAPA_PROFIL
 10
23.799999999999041
 20
-109.9382640409319
 30
0.0
  0
VERTEX
  5
DD6
  8
SAPA_PROFIL
 10
22.516312647883751
 20
-109.19712680263289
 30
0.0
 42
-0.4155392929676362
  0
VERTEX
  5
DD7
  8
SAPA_PROFIL
 10
22.220339221577891
 20
-108.10250783084101
 30
0.0
  0
SEQEND
  5
DD8
  8
SAPA_PROFIL
  0
POLYLINE
  5
B37
  8
SAPA_PROFIL
 66
     1
 10
0.0
 20
0.0
 30
0.0
 70
     1
  0
VERTEX
  5
DD9
  8
SAPA_PROFIL
 10
11.938375275004541
 20
-100.49999999901181
 30
0.0
 42
-0.2216946626428728
  0
VERTEX
  5
DDA
  8
SAPA_PROFIL
 10
12.70441971812317
 20
-100.8572123893253
 30
0.0
  0
VERTEX
  5
DDB
  8
SAPA_PROFIL
 10
13.783145410548061
 20
-102.14278760869649
 30
0.0
 42
0.2216946626428911
  0
VERTEX
  5
DDC
  8
SAPA_PROFIL
 10
14.5491898536668
 20
-102.4999999990099
 30
0.0
  0
VERTEX
  5
DDD
  8
SAPA_PROFIL
 10
16.32573593128836
 20
-102.4999999990104
 30
0.0
 42
-0.1989123673796749
  0
VERTEX
  5
DDE
  8
SAPA_PROFIL
 10
16.537867965644629
 20
-102.58786796465439
 30
0.0
  0
VERTEX
  5
DDF
  8
SAPA_PROFIL
 10
17.108578643762939
 20
-103.15857864277309
 30
0.0
 42
-0.6681786379193591
  0
VERTEX
  5
DE0
  8
SAPA_PROFIL
 10
16.967157287525421
 20
-103.4999999990104
 30
0.0
  0
VERTEX
  5
DE1
  8
SAPA_PROFIL
 10
16.00000000000022
 20
-103.4999999990102
 30
0.0
 42
0.4142135623730951
  0
VERTEX
  5
DE2
  8
SAPA_PROFIL
 10
15.500000000000229
 20
-103.99999999901
 30
0.0
  0
VERTEX
  5
DE3
  8
SAPA_PROFIL
 10
15.500000000000229
 20
-104.39080892873061
 30
0.0
 42
0.1763269807084316
  0
VERTEX
  5
DE4
  8
SAPA_PROFIL
 10
15.57018666706449
 20
-104.58364521163639
 30
0.0
  0
VERTEX
  5
DE5
  8
SAPA_PROFIL
 10
17.02833086987243
 20
-106.3213938038532
 30
0.0
 42
0.2216946626429586
  0
VERTEX
  5
DE6
  8
SAPA_PROFIL
 10
17.41135309143192
 20
-106.4999999990099
 30
0.0
  0
VERTEX
  5
DE7
  8
SAPA_PROFIL
 10
19.98190844019928
 20
-106.49999999901
 30
0.0
 42
0.2216946626429592
  0
VERTEX
  5
DE8
  8
SAPA_PROFIL
 10
20.211721773135199
 20
-106.392836281916
 30
0.0
  0
VERTEX
  5
DE9
  8
SAPA_PROFIL
 10
21.729813332935919
 20
-104.58364521163639
 30
0.0
 42
0.1763269807084563
  0
VERTEX
  5
DEA
  8
SAPA_PROFIL
 10
21.800000000000178
 20
-104.39080892873061
 30
0.0
  0
VERTEX
  5
DEB
  8
SAPA_PROFIL
 10
21.800000000000178
 20
-103.99999999901
 30
0.0
 42
0.4142135623730951
  0
VERTEX
  5
DEC
  8
SAPA_PROFIL
 10
21.300000000000178
 20
-103.4999999990104
 30
0.0
  0
VERTEX
  5
DED
  8
SAPA_PROFIL
 10
20.332842712474761
 20
-103.4999999990104
 30
0.0
 42
-0.6681786379193841
  0
VERTEX
  5
DEE
  8
SAPA_PROFIL
 10
20.191421356237701
 20
-103.15857864277309
 30
0.0
  0
VERTEX
  5
DEF
  8
SAPA_PROFIL
 10
20.762132034356458
 20
-102.58786796465439
 30
0.0
 42
-0.1989123673796471
  0
VERTEX
  5
DF0
  8
SAPA_PROFIL
 10
20.974264068712269
 20
-102.49999999901
 30
0.0
  0
VERTEX
  5
DF1
  8
SAPA_PROFIL
 10
23.300000000000178
 20
-102.4999999990104
 30
0.0
 42
-0.4142135623730951
  0
VERTEX
  5
DF2
  8
SAPA_PROFIL
 10
23.800000000000178
 20
-102.9999999990104
 30
0.0
  0
VERTEX
  5
DF3
  8
SAPA_PROFIL
 10
23.80000000000075
 20
-106.6999999990103
 30
0.0
 42
-0.4142135623729843
  0
VERTEX
  5
DF4
  8
SAPA_PROFIL
 10
23.500000000000679
 20
-106.9999999990105
 30
0.0
  0
VERTEX
  5
DF5
  8
SAPA_PROFIL
 10
22.473205080758358
 20
-106.9999999990104
 30
0.0
 42
0.26794919243117
  0
VERTEX
  5
DF6
  8
SAPA_PROFIL
 10
22.21339745962268
 20
-107.1499999990105
 30
0.0
  0
VERTEX
  5
DF7
  8
SAPA_PROFIL
 10
21.342708718851441
 20
-108.6580771356048
 30
0.0
 42
0.4142135623734465
  0
VERTEX
  5
DF8
  8
SAPA_PROFIL
 10
21.45251633998669
 20
-109.06788475674
 30
0.0
  0
VERTEX
  5
DF9
  8
SAPA_PROFIL
 10
22.000000000000568
 20
-109.38397459522599
 30
0.0
 42
-0.4663076581550835
  0
VERTEX
  5
DFA
  8
SAPA_PROFIL
 10
22.26604444311954
 20
-110.89278760869691
 30
0.0
  0
VERTEX
  5
DFB
  8
SAPA_PROFIL
 10
19.32915489231732
 20
-114.3928362819163
 30
0.0
 42
-0.2216946626429129
  0
VERTEX
  5
DFC
  8
SAPA_PROFIL
 10
19.099341559381632
 20
-114.4999999990103
 30
0.0
  0
VERTEX
  5
DFD
  8
SAPA_PROFIL
 10
17.950000000000038
 20
-114.4999999990103
 30
0.0
 42
-0.4142135623732061
  0
VERTEX
  5
DFE
  8
SAPA_PROFIL
 10
17.650000000000091
 20
-114.1999999990102
 30
0.0
  0
VERTEX
  5
DFF
  8
SAPA_PROFIL
 10
17.650000000000659
 20
-110.6932604937618
 30
0.0
 42
0.1763269807085094
  0
VERTEX
  5
E00
  8
SAPA_PROFIL
 10
17.416044443119631
 20
-110.05047288407511
 30
0.0
  0
VERTEX
  5
E01
  8
SAPA_PROFIL
 10
15.11413473206983
 20
-107.307163716104
 30
0.0
 42
0.2216946626429509
  0
VERTEX
  5
E02
  8
SAPA_PROFIL
 10
14.88432139913413
 20
-107.19999999901
 30
0.0
  0
VERTEX
  5
E03
  8
SAPA_PROFIL
 10
14.024213696580659
 20
-107.19999999901
 30
0.0
 42
-0.4142135623731506
  0
VERTEX
  5
E04
  8
SAPA_PROFIL
 10
13.7242136965807
 20
-106.89999999901001
 30
0.0
  0
VERTEX
  5
E05
  8
SAPA_PROFIL
 10
13.7242136965807
 20
-105.759911398917
 30
0.0
 42
0.1763269807084654
  0
VERTEX
  5
E06
  8
SAPA_PROFIL
 10
13.65402702951644
 20
-105.5670751160111
 30
0.0
  0
VERTEX
  5
E07
  8
SAPA_PROFIL
 10
11.96755195683579
 20
-103.5572123893233
 30
0.0
 42
0.2216946626429509
  0
VERTEX
  5
E08
  8
SAPA_PROFIL
 10
11.20150751371682
 20
-103.1999999990099
 30
0.0
  0
VERTEX
  5
E09
  8
SAPA_PROFIL
 10
-11.20150751371682
 20
-103.19999999901
 30
0.0
 42
0.2216946626429508
  0
VERTEX
  5
E0A
  8
SAPA_PROFIL
 10
-11.96755195683579
 20
-103.5572123893234
 30
0.0
  0
VERTEX
  5
E0B
  8
SAPA_PROFIL
 10
-13.65402702951644
 20
-105.5670751160112
 30
0.0
 42
0.1763269807084657
  0
VERTEX
  5
E0C
  8
SAPA_PROFIL
 10
-13.7242136965807
 20
-105.7599113989171
 30
0.0
  0
VERTEX
  5
E0D
  8
SAPA_PROFIL
 10
-13.7242136965807
 20
-106.89999999901001
 30
0.0
 42
-0.4142135623730951
  0
VERTEX
  5
E0E
  8
SAPA_PROFIL
 10
-14.024213696580659
 20
-107.1999999990099
 30
0.0
  0
VERTEX
  5
E0F
  8
SAPA_PROFIL
 10
-14.88432139913413
 20
-107.1999999990099
 30
0.0
 42
0.2216946626429889
  0
VERTEX
  5
E10
  8
SAPA_PROFIL
 10
-15.11413473206983
 20
-107.307163716104
 30
0.0
  0
VERTEX
  5
E11
  8
SAPA_PROFIL
 10
-17.416044443119631
 20
-110.05047288407521
 30
0.0
 42
0.1763269807085052
  0
VERTEX
  5
E12
  8
SAPA_PROFIL
 10
-17.650000000000659
 20
-110.693260493762
 30
0.0
  0
VERTEX
  5
E13
  8
SAPA_PROFIL
 10
-17.649999999999981
 20
-114.1999999990102
 30
0.0
 42
-0.4142135623732062
  0
VERTEX
  5
E14
  8
SAPA_PROFIL
 10
-17.949999999999928
 20
-114.4999999990103
 30
0.0
  0
VERTEX
  5
E15
  8
SAPA_PROFIL
 10
-19.099341559381511
 20
-114.4999999990103
 30
0.0
 42
-0.2216946626429129
  0
VERTEX
  5
E16
  8
SAPA_PROFIL
 10
-19.329154892317199
 20
-114.3928362819163
 30
0.0
  0
VERTEX
  5
E17
  8
SAPA_PROFIL
 10
-22.26604444311954
 20
-110.89278760869691
 30
0.0
 42
-0.4663076581550919
  0
VERTEX
  5
E18
  8
SAPA_PROFIL
 10
-22.000000000000568
 20
-109.38397459522599
 30
0.0
  0
VERTEX
  5
E19
  8
SAPA_PROFIL
 10
-21.45251633998669
 20
-109.0678847567401
 30
0.0
 42
0.4142135623731708
  0
VERTEX
  5
E1A
  8
SAPA_PROFIL
 10
-21.342708718851441
 20
-108.6580771356048
 30
0.0
  0
VERTEX
  5
E1B
  8
SAPA_PROFIL
 10
-22.21339745962268
 20
-107.1499999990105
 30
0.0
 42
0.26794919243117
  0
VERTEX
  5
E1C
  8
SAPA_PROFIL
 10
-22.473205080758358
 20
-106.9999999990104
 30
0.0
  0
VERTEX
  5
E1D
  8
SAPA_PROFIL
 10
-23.500000000000679
 20
-106.9999999990104
 30
0.0
 42
-0.4142135623729287
  0
VERTEX
  5
E1E
  8
SAPA_PROFIL
 10
-23.80000000000075
 20
-106.6999999990103
 30
0.0
  0
VERTEX
  5
E1F
  8
SAPA_PROFIL
 10
-23.800000000000178
 20
-102.9999999990104
 30
0.0
 42
-0.4142135623730951
  0
VERTEX
  5
E20
  8
SAPA_PROFIL
 10
-23.300000000000178
 20
-102.4999999990104
 30
0.0
  0
VERTEX
  5
E21
  8
SAPA_PROFIL
 10
-20.974264068712269
 20
-102.49999999901
 30
0.0
 42
-0.1989123673796819
  0
VERTEX
  5
E22
  8
SAPA_PROFIL
 10
-20.762132034356458
 20
-102.58786796465439
 30
0.0
  0
VERTEX
  5
E23
  8
SAPA_PROFIL
 10
-20.191421356237701
 20
-103.15857864277309
 30
0.0
 42
-0.6681786379193841
  0
VERTEX
  5
E24
  8
SAPA_PROFIL
 10
-20.332842712474761
 20
-103.4999999990104
 30
0.0
  0
VERTEX
  5
E25
  8
SAPA_PROFIL
 10
-21.300000000000178
 20
-103.4999999990104
 30
0.0
 42
0.4142135623730951
  0
VERTEX
  5
E26
  8
SAPA_PROFIL
 10
-21.800000000000178
 20
-103.99999999901
 30
0.0
  0
VERTEX
  5
E27
  8
SAPA_PROFIL
 10
-21.800000000000178
 20
-104.39080892873061
 30
0.0
 42
0.1763269807084561
  0
VERTEX
  5
E28
  8
SAPA_PROFIL
 10
-21.729813332935919
 20
-104.58364521163639
 30
0.0
  0
VERTEX
  5
E29
  8
SAPA_PROFIL
 10
-20.211721773135199
 20
-106.392836281916
 30
0.0
 42
0.2216946626429592
  0
VERTEX
  5
E2A
  8
SAPA_PROFIL
 10
-19.98190844019928
 20
-106.49999999901
 30
0.0
  0
VERTEX
  5
E2B
  8
SAPA_PROFIL
 10
-17.41135309143192
 20
-106.4999999990099
 30
0.0
 42
0.2216946626429736
  0
VERTEX
  5
E2C
  8
SAPA_PROFIL
 10
-17.02833086987243
 20
-106.3213938038532
 30
0.0
  0
VERTEX
  5
E2D
  8
SAPA_PROFIL
 10
-15.57018666706449
 20
-104.58364521163639
 30
0.0
 42
0.1763269807084407
  0
VERTEX
  5
E2E
  8
SAPA_PROFIL
 10
-15.500000000000229
 20
-104.39080892873061
 30
0.0
  0
VERTEX
  5
E2F
  8
SAPA_PROFIL
 10
-15.500000000000229
 20
-103.99999999901
 30
0.0
 42
0.4142135623730951
  0
VERTEX
  5
E30
  8
SAPA_PROFIL
 10
-16.00000000000022
 20
-103.4999999990104
 30
0.0
  0
VERTEX
  5
E31
  8
SAPA_PROFIL
 10
-16.967157287525421
 20
-103.4999999990104
 30
0.0
 42
-0.6681786379193591
  0
VERTEX
  5
E32
  8
SAPA_PROFIL
 10
-17.108578643762939
 20
-103.15857864277309
 30
0.0
  0
VERTEX
  5
E33
  8
SAPA_PROFIL
 10
-16.537867965644629
 20
-102.58786796465439
 30
0.0
 42
-0.1989123673796749
  0
VERTEX
  5
E34
  8
SAPA_PROFIL
 10
-16.32573593128836
 20
-102.4999999990104
 30
0.0
  0
VERTEX
  5
E35
  8
SAPA_PROFIL
 10
-14.54918985366691
 20
-102.4999999990099
 30
0.0
 42
0.2216946626428804
  0
VERTEX
  5
E36
  8
SAPA_PROFIL
 10
-13.783145410548171
 20
-102.14278760869639
 30
0.0
  0
VERTEX
  5
E37
  8
SAPA_PROFIL
 10
-12.70441971812317
 20
-100.8572123893253
 30
0.0
 42
-0.2216946626428499
  0
VERTEX
  5
E38
  8
SAPA_PROFIL
 10
-11.938375275004541
 20
-100.49999999901181
 30
0.0
  0
VERTEX
  5
E39
  8
SAPA_PROFIL
 10
-6.6500000000000901
 20
-100.49999999901
 30
0.0
 42
0.4142135623730951
  0
VERTEX
  5
E3A
  8
SAPA_PROFIL
 10
-6.3499999999999091
 20
-100.1999999990103
 30
0.0
  0
VERTEX
  5
E3B
  8
SAPA_PROFIL
 10
-6.3499999999999091
 20
-99.799999999010197
 30
0.0
 42
-0.4142135623730951
  0
VERTEX
  5
E3C
  8
SAPA_PROFIL
 10
-6.050000000000181
 20
-99.499999999010015
 30
0.0
  0
VERTEX
  5
E3D
  8
SAPA_PROFIL
 10
-5.6500000000000901
 20
-99.499999999010015
 30
0.0
 42
-0.4142135623730951
  0
VERTEX
  5
E3E
  8
SAPA_PROFIL
 10
-5.3499999999999091
 20
-99.799999999010197
 30
0.0
  0
VERTEX
  5
E3F
  8
SAPA_PROFIL
 10
-5.3499999999999091
 20
-100.1999999990103
 30
0.0
 42
0.4142135623730951
  0
VERTEX
  5
E40
  8
SAPA_PROFIL
 10
-5.050000000000181
 20
-100.49999999901
 30
0.0
  0
VERTEX
  5
E41
  8
SAPA_PROFIL
 10
-0.6242640687119092
 20
-100.49999999901
 30
0.0
 42
-0.1989123673795535
  0
VERTEX
  5
E42
  8
SAPA_PROFIL
 10
-0.4121320343560911
 20
-100.5878679646539
 30
0.0
  0
VERTEX
  5
E43
  8
SAPA_PROFIL
 10
0.0
 20
-100.99999999901
 30
0.0
  0
VERTEX
  5
E44
  8
SAPA_PROFIL
 10
0.4121320343560911
 20
-100.5878679646539
 30
0.0
 42
-0.1989123673795536
  0
VERTEX
  5
E45
  8
SAPA_PROFIL
 10
0.6242640687119092
 20
-100.49999999901
 30
0.0
  0
VERTEX
  5
E46
  8
SAPA_PROFIL
 10
5.0499999999997272
 20
-100.49999999901
 30
0.0
 42
0.4142135623730951
  0
VERTEX
  5
E47
  8
SAPA_PROFIL
 10
5.3499999999999091
 20
-100.1999999990103
 30
0.0
  0
VERTEX
  5
E48
  8
SAPA_PROFIL
 10
5.3499999999999091
 20
-99.799999999010197
 30
0.0
 42
-0.4142135623730951
  0
VERTEX
  5
E49
  8
SAPA_PROFIL
 10
5.6500000000000901
 20
-99.499999999010015
 30
0.0
  0
VERTEX
  5
E4A
  8
SAPA_PROFIL
 10
6.050000000000181
 20
-99.499999999010015
 30
0.0
 42
-0.4142135623730951
  0
VERTEX
  5
E4B
  8
SAPA_PROFIL
 10
6.3499999999999091
 20
-99.799999999010197
 30
0.0
  0
VERTEX
  5
E4C
  8
SAPA_PROFIL
 10
6.3499999999999091
 20
-100.1999999990103
 30
0.0
 42
0.414213562373095
  0
VERTEX
  5
E4D
  8
SAPA_PROFIL
 10
6.6500000000000901
 20
-100.49999999901
 30
0.0
  0
SEQEND
  5
E4E
  8
SAPA_PROFIL
  0
POLYLINE
  5
B38
  8
SAPA_PROFIL
 66
     1
 10
0.0
 20
0.0
 30
0.0
 70
     1
  0
VERTEX
  5
E4F
  8
SAPA_PROFIL
 10
18.272948575180401
 20
-35.283588601450901
 30
0.0
 42
-0.1691807452125083
  0
VERTEX
  5
E50
  8
SAPA_PROFIL
 10
17.65166852264451
 20
-35.500000000001819
 30
0.0
  0
VERTEX
  5
E51
  8
SAPA_PROFIL
 10
11.299999999999271
 20
-35.500000000001819
 30
0.0
 42
-0.4142135623730951
  0
VERTEX
  5
E52
  8
SAPA_PROFIL
 10
10.99999999999932
 20
-35.200000000001857
 30
0.0
  0
VERTEX
  5
E53
  8
SAPA_PROFIL
 10
10.99999999999932
 20
-34.500000000001819
 30
0.0
 42
-0.4142135623730951
  0
VERTEX
  5
E54
  8
SAPA_PROFIL
 10
11.299999999999271
 20
-34.200000000001857
 30
0.0
  0
VERTEX
  5
E55
  8
SAPA_PROFIL
 10
14.199999999999131
 20
-34.200000000001857
 30
0.0
 42
0.4142135623730951
  0
VERTEX
  5
E56
  8
SAPA_PROFIL
 10
14.699999999999131
 20
-33.700000000001872
 30
0.0
  0
VERTEX
  5
E57
  8
SAPA_PROFIL
 10
14.699999999999131
 20
-30.500000000001819
 30
0.0
 42
0.4142135623730951
  0
VERTEX
  5
E58
  8
SAPA_PROFIL
 10
14.199999999999131
 20
-30.000000000001819
 30
0.0
  0
VERTEX
  5
E59
  8
SAPA_PROFIL
 10
5.999999999999317
 20
-30.000000000001759
 30
0.0
 42
0.4142135623730951
  0
VERTEX
  5
E5A
  8
SAPA_PROFIL
 10
4.999999999999317
 20
-31.000000000001759
 30
0.0
  0
VERTEX
  5
E5B
  8
SAPA_PROFIL
 10
4.999999999999317
 20
-52.200000000001801
 30
0.0
 42
-0.4142135623730948
  0
VERTEX
  5
E5C
  8
SAPA_PROFIL
 10
4.6999999999991351
 20
-52.500000000001762
 30
0.0
  0
VERTEX
  5
E5D
  8
SAPA_PROFIL
 10
3.2100053408687468
 20
-52.500000000001762
 30
0.0
 42
-0.2135746067194863
  0
VERTEX
  5
E5E
  8
SAPA_PROFIL
 10
2.986281638623268
 20
-52.399869219876962
 30
0.0
  0
VERTEX
  5
E5F
  8
SAPA_PROFIL
 10
2.2378679656433169
 20
-51.562132034357717
 30
0.0
 42
-0.6681786379193474
  0
VERTEX
  5
E60
  8
SAPA_PROFIL
 10
2.4499999999991351
 20
-51.050000000001937
 30
0.0
  0
VERTEX
  5
E61
  8
SAPA_PROFIL
 10
2.6999999999991351
 20
-51.050000000001937
 30
0.0
  0
VERTEX
  5
E62
  8
SAPA_PROFIL
 10
2.1767196966973179
 20
-49.673765406425389
 30
0.0
 42
-0.5450207798986705
  0
VERTEX
  5
E63
  8
SAPA_PROFIL
 10
2.4499999999991351
 20
-49.250000000001762
 30
0.0
  0
VERTEX
  5
E64
  8
SAPA_PROFIL
 10
2.6999999999991351
 20
-49.250000000001762
 30
0.0
  0
VERTEX
  5
E65
  8
SAPA_PROFIL
 10
2.1767196966973179
 20
-47.873765406425207
 30
0.0
 42
-0.5450207798987319
  0
VERTEX
  5
E66
  8
SAPA_PROFIL
 10
2.4499999999991351
 20
-47.450000000001808
 30
0.0
  0
VERTEX
  5
E67
  8
SAPA_PROFIL
 10
2.6999999999991351
 20
-47.450000000001808
 30
0.0
  0
VERTEX
  5
E68
  8
SAPA_PROFIL
 10
2.1767196966973179
 20
-46.073765406425473
 30
0.0
 42
-0.5450207798986705
  0
VERTEX
  5
E69
  8
SAPA_PROFIL
 10
2.4499999999991351
 20
-45.650000000001853
 30
0.0
  0
VERTEX
  5
E6A
  8
SAPA_PROFIL
 10
2.6999999999991351
 20
-45.650000000001853
 30
0.0
  0
VERTEX
  5
E6B
  8
SAPA_PROFIL
 10
2.1767196966973179
 20
-44.273765406425291
 30
0.0
 42
-0.5450207798986705
  0
VERTEX
  5
E6C
  8
SAPA_PROFIL
 10
2.4499999999991351
 20
-43.850000000001671
 30
0.0
  0
VERTEX
  5
E6D
  8
SAPA_PROFIL
 10
2.6999999999991351
 20
-43.850000000001671
 30
0.0
  0
VERTEX
  5
E6E
  8
SAPA_PROFIL
 10
2.4722372826151959
 20
-43.126282705195699
 30
0.0
 42
0.2945484962562833
  0
VERTEX
  5
E6F
  8
SAPA_PROFIL
 10
2.1988824689367439
 20
-42.950048040247509
 30
0.0
  0
VERTEX
  5
E70
  8
SAPA_PROFIL
 10
1.2642999377474089
 20
-42.950255222213791
 30
0.0
 42
-0.3475954753796645
  0
VERTEX
  5
E71
  8
SAPA_PROFIL
 10
0.9723265106772487
 20
-42.719501178044929
 30
0.0
 42
0.7905229096113513
  0
VERTEX
  5
E72
  8
SAPA_PROFIL
 10
-0.9736640898663608
 20
-42.719490973604422
 30
0.0
 42
-0.3476065658631767
  0
VERTEX
  5
E73
  8
SAPA_PROFIL
 10
-1.265651810887902
 20
-42.950241952336391
 30
0.0
  0
VERTEX
  5
E74
  8
SAPA_PROFIL
 10
-1.849992662094109
 20
-42.950095231627472
 30
0.0
 42
0.4102317530970184
  0
VERTEX
  5
E75
  8
SAPA_PROFIL
 10
-2.1500282985864478
 20
-43.245946879781002
 30
0.0
 42
-0.0712587206050455
  0
VERTEX
  5
E76
  8
SAPA_PROFIL
 10
-2.1632556124561679
 20
-43.329990804709432
 30
0.0
  0
VERTEX
  5
E77
  8
SAPA_PROFIL
 10
-2.7000000000007272
 20
-44.750000000001762
 30
0.0
  0
VERTEX
  5
E78
  8
SAPA_PROFIL
 10
-2.4500000000007272
 20
-44.750000000001762
 30
0.0
 42
-0.5450200690651181
  0
VERTEX
  5
E79
  8
SAPA_PROFIL
 10
-2.1767190000007299
 20
-45.173765000001758
 30
0.0
  0
VERTEX
  5
E7A
  8
SAPA_PROFIL
 10
-2.7000000000007272
 20
-46.550000000001937
 30
0.0
  0
VERTEX
  5
E7B
  8
SAPA_PROFIL
 10
-2.4500000000007272
 20
-46.55000000000171
 30
0.0
 42
-0.5450200690652297
  0
VERTEX
  5
E7C
  8
SAPA_PROFIL
 10
-2.1767190000007299
 20
-46.973765000001947
 30
0.0
  0
VERTEX
  5
E7D
  8
SAPA_PROFIL
 10
-2.7000000000007272
 20
-48.350000000001671
 30
0.0
  0
VERTEX
  5
E7E
  8
SAPA_PROFIL
 10
-2.4500000000007272
 20
-48.350000000001671
 30
0.0
 42
-0.5450200690651181
  0
VERTEX
  5
E7F
  8
SAPA_PROFIL
 10
-2.1767190000007299
 20
-48.773765000001667
 30
0.0
  0
VERTEX
  5
E80
  8
SAPA_PROFIL
 10
-2.7000000000007272
 20
-50.150000000001853
 30
0.0
  0
VERTEX
  5
E81
  8
SAPA_PROFIL
 10
-2.1500000000007731
 20
-50.150000000001853
 30
0.0
  0
VERTEX
  5
E82
  8
SAPA_PROFIL
 10
-2.1500000000007731
 20
-51.350000000001671
 30
0.0
 42
-0.1989123673797028
  0
VERTEX
  5
E83
  8
SAPA_PROFIL
 10
-2.237868000000844
 20
-51.562132000001782
 30
0.0
  0
VERTEX
  5
E84
  8
SAPA_PROFIL
 10
-2.9862816378602011
 20
-52.399869211247449
 30
0.0
 42
-0.2135746168025217
  0
VERTEX
  5
E85
  8
SAPA_PROFIL
 10
-3.2100053478152399
 20
-52.500000000001762
 30
0.0
  0
VERTEX
  5
E86
  8
SAPA_PROFIL
 10
-4.7000000000007267
 20
-52.500000000001762
 30
0.0
 42
-0.4142135623730951
  0
VERTEX
  5
E87
  8
SAPA_PROFIL
 10
-5.0000000000006821
 20
-52.200000000001801
 30
0.0
  0
VERTEX
  5
E88
  8
SAPA_PROFIL
 10
-5.0000000000006821
 20
-31.000000000001759
 30
0.0
 42
0.4142135623730951
  0
VERTEX
  5
E89
  8
SAPA_PROFIL
 10
-6.0000000000006821
 20
-30.000000000001759
 30
0.0
  0
VERTEX
  5
E8A
  8
SAPA_PROFIL
 10
-14.20000000000072
 20
-30.000000000001759
 30
0.0
 42
0.4142135623730951
  0
VERTEX
  5
E8B
  8
SAPA_PROFIL
 10
-14.700000000000729
 20
-30.500000000001769
 30
0.0
  0
VERTEX
  5
E8C
  8
SAPA_PROFIL
 10
-14.700000000000729
 20
-33.700000000001808
 30
0.0
 42
0.4142135623730951
  0
VERTEX
  5
E8D
  8
SAPA_PROFIL
 10
-14.20000000000072
 20
-34.200000000001808
 30
0.0
  0
VERTEX
  5
E8E
  8
SAPA_PROFIL
 10
-11.30000000000086
 20
-34.200000000001808
 30
0.0
 42
-0.4142135623730951
  0
VERTEX
  5
E8F
  8
SAPA_PROFIL
 10
-11.00000000000068
 20
-34.500000000001762
 30
0.0
  0
VERTEX
  5
E90
  8
SAPA_PROFIL
 10
-11.00000000000068
 20
-35.200000000001808
 30
0.0
 42
-0.4142135623730948
  0
VERTEX
  5
E91
  8
SAPA_PROFIL
 10
-11.30000000000086
 20
-35.500000000001769
 30
0.0
  0
VERTEX
  5
E92
  8
SAPA_PROFIL
 10
-17.651668522645881
 20
-35.500000000001769
 30
0.0
 42
-0.1691807452125083
  0
VERTEX
  5
E93
  8
SAPA_PROFIL
 10
-18.272948575181768
 20
-35.283588601450852
 30
0.0
  0
VERTEX
  5
E94
  8
SAPA_PROFIL
 10
-18.58638401550138
 20
-35.035076580642851
 30
0.0
 42
-0.7105995019815232
  0
VERTEX
  5
E95
  8
SAPA_PROFIL
 10
-18.40000000000077
 20
-34.500000000001762
 30
0.0
  0
VERTEX
  5
E96
  8
SAPA_PROFIL
 10
-16.500000000000679
 20
-34.500000000001762
 30
0.0
 42
0.4142135623730951
  0
VERTEX
  5
E97
  8
SAPA_PROFIL
 10
-16.200000000000731
 20
-34.200000000001808
 30
0.0
  0
VERTEX
  5
E98
  8
SAPA_PROFIL
 10
-16.200000000000731
 20
-30.30000000000172
 30
0.0
 42
0.4142135623730951
  0
VERTEX
  5
E99
  8
SAPA_PROFIL
 10
-16.500000000000679
 20
-30.000000000001759
 30
0.0
  0
VERTEX
  5
E9A
  8
SAPA_PROFIL
 10
-23.200000000000731
 20
-30.000000000001759
 30
0.0
 42
0.4142135623730951
  0
VERTEX
  5
E9B
  8
SAPA_PROFIL
 10
-23.500000000000679
 20
-30.300000000001951
 30
0.0
  0
VERTEX
  5
E9C
  8
SAPA_PROFIL
 10
-23.500000000000679
 20
-34.200000000001808
 30
0.0
 42
0.4142135623730951
  0
VERTEX
  5
E9D
  8
SAPA_PROFIL
 10
-23.200000000000731
 20
-34.500000000001762
 30
0.0
  0
VERTEX
  5
E9E
  8
SAPA_PROFIL
 10
-22.000000000000679
 20
-34.500000000001762
 30
0.0
 42
-0.7105990647992588
  0
VERTEX
  5
E9F
  8
SAPA_PROFIL
 10
-21.81361600000082
 20
-35.035076000001879
 30
0.0
  0
VERTEX
  5
EA0
  8
SAPA_PROFIL
 10
-22.127051286415512
 20
-35.283588215719128
 30
0.0
 42
-0.1691809048716788
  0
VERTEX
  5
EA1
  8
SAPA_PROFIL
 10
-22.748331825455129
 20
-35.500000000001769
 30
0.0
  0
VERTEX
  5
EA2
  8
SAPA_PROFIL
 10
-24.700000000000731
 20
-35.500000000001769
 30
0.0
 42
-0.4142135623730951
  0
VERTEX
  5
EA3
  8
SAPA_PROFIL
 10
-25.000000000000679
 20
-35.200000000001808
 30
0.0
  0
VERTEX
  5
EA4
  8
SAPA_PROFIL
 10
-25.000000000000679
 20
83.999999999998053
 30
0.0
 42
-0.4142135623730951
  0
VERTEX
  5
EA5
  8
SAPA_PROFIL
 10
-24.500000000000689
 20
84.499999999998067
 30
0.0
  0
VERTEX
  5
EA6
  8
SAPA_PROFIL
 10
24.499999999999321
 20
84.499999999998067
 30
0.0
 42
-0.4142135623730951
  0
VERTEX
  5
EA7
  8
SAPA_PROFIL
 10
24.999999999999321
 20
83.999999999998053
 30
0.0
  0
VERTEX
  5
EA8
  8
SAPA_PROFIL
 10
24.999999999999321
 20
-35.200000000001857
 30
0.0
 42
-0.4142135623730948
  0
VERTEX
  5
EA9
  8
SAPA_PROFIL
 10
24.69999999999914
 20
-35.500000000001819
 30
0.0
  0
VERTEX
  5
EAA
  8
SAPA_PROFIL
 10
22.74833147735399
 20
-35.500000000001819
 30
0.0
 42
-0.1691807452125083
  0
VERTEX
  5
EAB
  8
SAPA_PROFIL
 10
22.127051424818092
 20
-35.283588601450901
 30
0.0
  0
VERTEX
  5
EAC
  8
SAPA_PROFIL
 10
21.813615984498711
 20
-35.035076580642908
 30
0.0
 42
-0.7105995019815232
  0
VERTEX
  5
EAD
  8
SAPA_PROFIL
 10
21.999999999999321
 20
-34.500000000001762
 30
0.0
  0
VERTEX
  5
EAE
  8
SAPA_PROFIL
 10
23.19999999999914
 20
-34.500000000001819
 30
0.0
 42
0.4142135623730948
  0
VERTEX
  5
EAF
  8
SAPA_PROFIL
 10
23.499999999999321
 20
-34.200000000001857
 30
0.0
  0
VERTEX
  5
EB0
  8
SAPA_PROFIL
 10
23.499999999999321
 20
-30.300000000002001
 30
0.0
 42
0.4142135623730951
  0
VERTEX
  5
EB1
  8
SAPA_PROFIL
 10
23.19999999999914
 20
-30.000000000001819
 30
0.0
  0
VERTEX
  5
EB2
  8
SAPA_PROFIL
 10
16.499999999999321
 20
-30.000000000001819
 30
0.0
 42
0.4142135623730951
  0
VERTEX
  5
EB3
  8
SAPA_PROFIL
 10
16.199999999999129
 20
-30.30000000000177
 30
0.0
  0
VERTEX
  5
EB4
  8
SAPA_PROFIL
 10
16.199999999999129
 20
-34.200000000001857
 30
0.0
 42
0.414213562373095
  0
VERTEX
  5
EB5
  8
SAPA_PROFIL
 10
16.499999999999321
 20
-34.500000000001819
 30
0.0
  0
VERTEX
  5
EB6
  8
SAPA_PROFIL
 10
18.399999999999181
 20
-34.500000000001819
 30
0.0
 42
-0.7105995019815232
  0
VERTEX
  5
EB7
  8
SAPA_PROFIL
 10
18.586384015499789
 20
-35.035076580642851
 30
0.0
  0
SEQEND
  5
EB8
  8
SAPA_PROFIL
  0
POLYLINE
  5
B39
  8
SAPA_PROFIL
 66
     1
 10
0.0
 20
0.0
 30
0.0
 70
     1
  0
VERTEX
  5
EB9
  8
SAPA_PROFIL
 10
2.6999999999991351
 20
-33.050000000001951
 30
0.0
  0
VERTEX
  5
EBA
  8
SAPA_PROFIL
 10
2.349999999999226
 20
-33.050000000001951
 30
0.0
 42
0.545020779898761
  0
VERTEX
  5
EBB
  8
SAPA_PROFIL
 10
2.0767196966971819
 20
-33.473765406425343
 30
0.0
  0
VERTEX
  5
EBC
  8
SAPA_PROFIL
 10
2.6999999999991351
 20
-34.850000000001671
 30
0.0
  0
VERTEX
  5
EBD
  8
SAPA_PROFIL
 10
2.349999999999226
 20
-34.850000000001671
 30
0.0
 42
0.54502077989874
  0
VERTEX
  5
EBE
  8
SAPA_PROFIL
 10
2.0767196966971819
 20
-35.273765406425298
 30
0.0
  0
VERTEX
  5
EBF
  8
SAPA_PROFIL
 10
2.6999999999991351
 20
-36.65000000000186
 30
0.0
  0
VERTEX
  5
EC0
  8
SAPA_PROFIL
 10
2.349999999999226
 20
-36.65000000000186
 30
0.0
 42
0.545020779898768
  0
VERTEX
  5
EC1
  8
SAPA_PROFIL
 10
2.0767196966971819
 20
-37.07376540642548
 30
0.0
  0
VERTEX
  5
EC2
  8
SAPA_PROFIL
 10
2.6999999999991351
 20
-38.450000000001808
 30
0.0
  0
VERTEX
  5
EC3
  8
SAPA_PROFIL
 10
2.349999999999226
 20
-38.450000000001808
 30
0.0
 42
0.5450205149791638
  0
VERTEX
  5
EC4
  8
SAPA_PROFIL
 10
2.07671999999934
 20
-38.873765000001811
 30
0.0
  0
VERTEX
  5
EC5
  8
SAPA_PROFIL
 10
2.6999999999991351
 20
-40.250000000001762
 30
0.0
  0
VERTEX
  5
EC6
  8
SAPA_PROFIL
 10
2.349999999999226
 20
-40.250000000001762
 30
0.0
 42
0.5450207798987328
  0
VERTEX
  5
EC7
  8
SAPA_PROFIL
 10
2.0767196966971819
 20
-40.673765406425389
 30
0.0
  0
VERTEX
  5
EC8
  8
SAPA_PROFIL
 10
2.428267633509904
 20
-41.450000000001801
 30
0.0
  0
VERTEX
  5
EC9
  8
SAPA_PROFIL
 10
-2.7000000000007272
 20
-41.450000000001801
 30
0.0
  0
VERTEX
  5
ECA
  8
SAPA_PROFIL
 10
-2.7000000000007272
 20
-41.150000000001853
 30
0.0
  0
VERTEX
  5
ECB
  8
SAPA_PROFIL
 10
-2.0767190000008209
 20
-39.773765000001667
 30
0.0
 42
0.5450200690651692
  0
VERTEX
  5
ECC
  8
SAPA_PROFIL
 10
-2.3500000000008181
 20
-39.350000000001671
 30
0.0
  0
VERTEX
  5
ECD
  8
SAPA_PROFIL
 10
-2.7000000000007272
 20
-39.350000000001671
 30
0.0
  0
VERTEX
  5
ECE
  8
SAPA_PROFIL
 10
-2.0767190000008209
 20
-37.973765000001947
 30
0.0
 42
0.5450200690651619
  0
VERTEX
  5
ECF
  8
SAPA_PROFIL
 10
-2.3500000000008181
 20
-37.550000000001717
 30
0.0
  0
VERTEX
  5
ED0
  8
SAPA_PROFIL
 10
-2.7000000000007272
 20
-37.550000000001937
 30
0.0
  0
VERTEX
  5
ED1
  8
SAPA_PROFIL
 10
-2.0767190000008209
 20
-36.173765000001758
 30
0.0
 42
0.5450200690651619
  0
VERTEX
  5
ED2
  8
SAPA_PROFIL
 10
-2.3500000000008181
 20
-35.750000000001762
 30
0.0
  0
VERTEX
  5
ED3
  8
SAPA_PROFIL
 10
-2.7000000000007272
 20
-35.750000000001762
 30
0.0
  0
VERTEX
  5
ED4
  8
SAPA_PROFIL
 10
-2.0767190000008209
 20
-34.373765000001811
 30
0.0
 42
0.5450200690651692
  0
VERTEX
  5
ED5
  8
SAPA_PROFIL
 10
-2.3500000000008181
 20
-33.950000000001808
 30
0.0
  0
VERTEX
  5
ED6
  8
SAPA_PROFIL
 10
-2.7000000000007272
 20
-33.950000000001808
 30
0.0
  0
VERTEX
  5
ED7
  8
SAPA_PROFIL
 10
-2.0767190000008209
 20
-32.573765000001863
 30
0.0
 42
0.5450200690651551
  0
VERTEX
  5
ED8
  8
SAPA_PROFIL
 10
-2.3500000000008181
 20
-32.150000000001853
 30
0.0
  0
VERTEX
  5
ED9
  8
SAPA_PROFIL
 10
-2.7000000000007272
 20
-32.150000000001853
 30
0.0
  0
VERTEX
  5
EDA
  8
SAPA_PROFIL
 10
-2.7000000000007272
 20
-31.000000000001759
 30
0.0
 42
-0.4142135623730951
  0
VERTEX
  5
EDB
  8
SAPA_PROFIL
 10
-1.7000000000007269
 20
-30.000000000001759
 30
0.0
  0
VERTEX
  5
EDC
  8
SAPA_PROFIL
 10
1.6999999999991351
 20
-30.000000000001759
 30
0.0
 42
-0.4142135623730951
  0
VERTEX
  5
EDD
  8
SAPA_PROFIL
 10
2.6999999999991351
 20
-31.000000000001759
 30
0.0
  0
VERTEX
  5
EDE
  8
SAPA_PROFIL
 10
2.6999999999991351
 20
-31.250000000001759
 30
0.0
  0
VERTEX
  5
EDF
  8
SAPA_PROFIL
 10
2.349999999999226
 20
-31.250000000001759
 30
0.0
 42
0.5450207798987328
  0
VERTEX
  5
EE0
  8
SAPA_PROFIL
 10
2.0767196966971819
 20
-31.673765406425389
 30
0.0
  0
SEQEND
  5
EE1
  8
SAPA_PROFIL
  0
POLYLINE
  5
B3A
  8
SAPA_PROFIL
 66
     1
 10
0.0
 20
0.0
 30
0.0
 70
     1
  0
VERTEX
  5
EE2
  8
SAPA_PROFIL
 10
22.799999999999269
 20
79.999999999998067
 30
0.0
  0
VERTEX
  5
EE3
  8
SAPA_PROFIL
 10
22.799999999999269
 20
77.824264068710022
 30
0.0
 42
-0.1989123673796407
  0
VERTEX
  5
EE4
  8
SAPA_PROFIL
 10
22.71213203435514
 20
77.612132034353976
 30
0.0
  0
VERTEX
  5
EE5
  8
SAPA_PROFIL
 10
21.187867965643139
 20
76.087867965642204
 30
0.0
 42
0.1989123673796753
  0
VERTEX
  5
EE6
  8
SAPA_PROFIL
 10
21.09999999999923
 20
75.875735931286158
 30
0.0
  0
VERTEX
  5
EE7
  8
SAPA_PROFIL
 10
21.09999999999923
 20
75.299999999998022
 30
0.0
 42
0.4142135623730951
  0
VERTEX
  5
EE8
  8
SAPA_PROFIL
 10
21.399999999999181
 20
74.999999999998067
 30
0.0
  0
VERTEX
  5
EE9
  8
SAPA_PROFIL
 10
22.499999999999321
 20
74.999999999998067
 30
0.0
 42
-0.4142135623730951
  0
VERTEX
  5
EEA
  8
SAPA_PROFIL
 10
22.799999999999269
 20
74.699999999997885
 30
0.0
  0
VERTEX
  5
EEB
  8
SAPA_PROFIL
 10
22.799999999999049
 20
72.299999999998022
 30
0.0
 42
-0.4142135623730951
  0
VERTEX
  5
EEC
  8
SAPA_PROFIL
 10
22.499999999999321
 20
71.999999999998067
 30
0.0
  0
VERTEX
  5
EED
  8
SAPA_PROFIL
 10
21.399999999999181
 20
71.999999999998067
 30
0.0
 42
0.4142135623730951
  0
VERTEX
  5
EEE
  8
SAPA_PROFIL
 10
21.09999999999923
 20
71.699999999997885
 30
0.0
  0
VERTEX
  5
EEF
  8
SAPA_PROFIL
 10
21.09999999999923
 20
71.124264068709977
 30
0.0
 42
0.198912367379658
  0
VERTEX
  5
EF0
  8
SAPA_PROFIL
 10
21.187867965643139
 20
70.912132034353931
 30
0.0
  0
VERTEX
  5
EF1
  8
SAPA_PROFIL
 10
22.71213203435514
 20
69.387867965641931
 30
0.0
 42
-0.198912367379658
  0
VERTEX
  5
EF2
  8
SAPA_PROFIL
 10
22.799999999999269
 20
69.175735931285885
 30
0.0
  0
VERTEX
  5
EF3
  8
SAPA_PROFIL
 10
22.799999999999269
 20
29.999999999998181
 30
0.0
 42
-0.4142135623730951
  0
VERTEX
  5
EF4
  8
SAPA_PROFIL
 10
21.799999999999269
 20
28.999999999998181
 30
0.0
  0
VERTEX
  5
EF5
  8
SAPA_PROFIL
 10
17.59999999999922
 20
28.999999999998181
 30
0.0
 42
0.4142135623730951
  0
VERTEX
  5
EF6
  8
SAPA_PROFIL
 10
17.299999999999269
 20
28.699999999997999
 30
0.0
  0
VERTEX
  5
EF7
  8
SAPA_PROFIL
 10
17.299999999999269
 20
26.399999999998268
 30
0.0
 42
0.4142135623730951
  0
VERTEX
  5
EF8
  8
SAPA_PROFIL
 10
17.59999999999922
 20
26.09999999999809
 30
0.0
  0
VERTEX
  5
EF9
  8
SAPA_PROFIL
 10
18.09999999999923
 20
26.09999999999809
 30
0.0
 42
0.4142135623730951
  0
VERTEX
  5
EFA
  8
SAPA_PROFIL
 10
18.399999999999181
 20
26.399999999998268
 30
0.0
  0
VERTEX
  5
EFB
  8
SAPA_PROFIL
 10
18.399999999999181
 20
26.73662692463267
 30
0.0
 42
-0.5535245743249297
  0
VERTEX
  5
EFC
  8
SAPA_PROFIL
 10
22.710554211530511
 20
24.964107602122802
 30
0.0
  0
VERTEX
  5
EFD
  8
SAPA_PROFIL
 10
22.42322330470256
 20
24.676776695294851
 30
0.0
 42
0.4142135623729421
  0
VERTEX
  5
EFE
  8
SAPA_PROFIL
 10
22.42322330470256
 20
24.323223304701521
 30
0.0
  0
VERTEX
  5
EFF
  8
SAPA_PROFIL
 10
22.710554211530511
 20
24.035892397873571
 30
0.0
 42
-0.5535245743249292
  0
VERTEX
  5
F00
  8
SAPA_PROFIL
 10
18.399999999999181
 20
22.263373075363688
 30
0.0
  0
VERTEX
  5
F01
  8
SAPA_PROFIL
 10
18.399999999999181
 20
22.59999999999809
 30
0.0
 42
0.4142135623730951
  0
VERTEX
  5
F02
  8
SAPA_PROFIL
 10
18.09999999999923
 20
22.899999999998268
 30
0.0
  0
VERTEX
  5
F03
  8
SAPA_PROFIL
 10
17.59999999999922
 20
22.899999999998268
 30
0.0
 42
0.4142135623730951
  0
VERTEX
  5
F04
  8
SAPA_PROFIL
 10
17.299999999999269
 20
22.59999999999809
 30
0.0
  0
VERTEX
  5
F05
  8
SAPA_PROFIL
 10
17.299999999999269
 20
21.499999999998181
 30
0.0
 42
0.4142135623730951
  0
VERTEX
  5
F06
  8
SAPA_PROFIL
 10
18.799999999999269
 20
19.999999999998181
 30
0.0
  0
VERTEX
  5
F07
  8
SAPA_PROFIL
 10
21.433974596214739
 20
19.999999999998181
 30
0.0
 42
0.267949192431143
  0
VERTEX
  5
F08
  8
SAPA_PROFIL
 10
21.866987298107009
 20
20.249999999998181
 30
0.0
 42
-0.767326987978956
  0
VERTEX
  5
F09
  8
SAPA_PROFIL
 10
22.799999999999269
 20
19.999999999998181
 30
0.0
  0
VERTEX
  5
F0A
  8
SAPA_PROFIL
 10
22.799999999999269
 20
-15.000000000001821
 30
0.0
 42
-0.4142135623730951
  0
VERTEX
  5
F0B
  8
SAPA_PROFIL
 10
21.799999999999269
 20
-16.000000000001819
 30
0.0
  0
VERTEX
  5
F0C
  8
SAPA_PROFIL
 10
17.59999999999922
 20
-16.000000000001819
 30
0.0
 42
0.4142135623730951
  0
VERTEX
  5
F0D
  8
SAPA_PROFIL
 10
17.299999999999269
 20
-16.30000000000177
 30
0.0
  0
VERTEX
  5
F0E
  8
SAPA_PROFIL
 10
17.299999999999269
 20
-18.600000000001732
 30
0.0
 42
0.4142135623730951
  0
VERTEX
  5
F0F
  8
SAPA_PROFIL
 10
17.59999999999922
 20
-18.90000000000191
 30
0.0
  0
VERTEX
  5
F10
  8
SAPA_PROFIL
 10
18.09999999999923
 20
-18.90000000000191
 30
0.0
 42
0.4142135623730951
  0
VERTEX
  5
F11
  8
SAPA_PROFIL
 10
18.399999999999181
 20
-18.600000000001732
 30
0.0
  0
VERTEX
  5
F12
  8
SAPA_PROFIL
 10
18.399999999999181
 20
-18.263373075367319
 30
0.0
 42
-0.5535245743249297
  0
VERTEX
  5
F13
  8
SAPA_PROFIL
 10
22.710554211530511
 20
-20.035892397877209
 30
0.0
  0
VERTEX
  5
F14
  8
SAPA_PROFIL
 10
22.42322330470256
 20
-20.323223304705149
 30
0.0
 42
0.4142135623730243
  0
VERTEX
  5
F15
  8
SAPA_PROFIL
 10
22.42322330470256
 20
-20.676776695298489
 30
0.0
  0
VERTEX
  5
F16
  8
SAPA_PROFIL
 10
22.710554211530511
 20
-20.964107602126429
 30
0.0
 42
-0.5535245743249292
  0
VERTEX
  5
F17
  8
SAPA_PROFIL
 10
18.399999999999181
 20
-22.736626924636312
 30
0.0
  0
VERTEX
  5
F18
  8
SAPA_PROFIL
 10
18.399999999999181
 20
-22.40000000000191
 30
0.0
 42
0.4142135623730951
  0
VERTEX
  5
F19
  8
SAPA_PROFIL
 10
18.09999999999923
 20
-22.100000000001732
 30
0.0
  0
VERTEX
  5
F1A
  8
SAPA_PROFIL
 10
17.59999999999922
 20
-22.100000000001732
 30
0.0
 42
0.4142135623730951
  0
VERTEX
  5
F1B
  8
SAPA_PROFIL
 10
17.299999999999269
 20
-22.40000000000191
 30
0.0
  0
VERTEX
  5
F1C
  8
SAPA_PROFIL
 10
17.299999999999269
 20
-23.500000000001819
 30
0.0
 42
0.4142135623730951
  0
VERTEX
  5
F1D
  8
SAPA_PROFIL
 10
18.799999999999269
 20
-25.000000000001819
 30
0.0
  0
VERTEX
  5
F1E
  8
SAPA_PROFIL
 10
21.780384757728601
 20
-25.000000000001819
 30
0.0
 42
0.2679491924311188
  0
VERTEX
  5
F1F
  8
SAPA_PROFIL
 10
22.040192378863821
 20
-24.850000000001732
 30
0.0
 42
-0.7673269879789557
  0
VERTEX
  5
F20
  8
SAPA_PROFIL
 10
22.59999999999923
 20
-25.000000000001819
 30
0.0
  0
VERTEX
  5
F21
  8
SAPA_PROFIL
 10
22.599999999998769
 20
-27.000000000001819
 30
0.0
 42
-0.4142137811865366
  0
VERTEX
  5
F22
  8
SAPA_PROFIL
 10
21.600000747074549
 20
-28.000000000001819
 30
0.0
  0
VERTEX
  5
F23
  8
SAPA_PROFIL
 10
-21.600000000000819
 20
-28.000000000001759
 30
0.0
 42
-0.4142140000000124
  0
VERTEX
  5
F24
  8
SAPA_PROFIL
 10
-22.600000000000819
 20
-27.000000000001759
 30
0.0
  0
VERTEX
  5
F25
  8
SAPA_PROFIL
 10
-22.600000000000819
 20
-25.000000000001759
 30
0.0
 42
-0.7673269879789457
  0
VERTEX
  5
F26
  8
SAPA_PROFIL
 10
-22.04019237886564
 20
-24.850000000001671
 30
0.0
 42
0.2679491924311191
  0
VERTEX
  5
F27
  8
SAPA_PROFIL
 10
-21.780384757730189
 20
-25.000000000001759
 30
0.0
  0
VERTEX
  5
F28
  8
SAPA_PROFIL
 10
-18.80000000000086
 20
-25.000000000001759
 30
0.0
 42
0.4142135623730951
  0
VERTEX
  5
F29
  8
SAPA_PROFIL
 10
-17.30000000000086
 20
-23.500000000001759
 30
0.0
  0
VERTEX
  5
F2A
  8
SAPA_PROFIL
 10
-17.30000000000086
 20
-22.40000000000185
 30
0.0
 42
0.4142135623730951
  0
VERTEX
  5
F2B
  8
SAPA_PROFIL
 10
-17.600000000000819
 20
-22.100000000001671
 30
0.0
  0
VERTEX
  5
F2C
  8
SAPA_PROFIL
 10
-18.100000000000819
 20
-22.100000000001671
 30
0.0
 42
0.4142135623730951
  0
VERTEX
  5
F2D
  8
SAPA_PROFIL
 10
-18.40000000000077
 20
-22.40000000000185
 30
0.0
  0
VERTEX
  5
F2E
  8
SAPA_PROFIL
 10
-18.40000000000077
 20
-22.736626924636251
 30
0.0
 42
-0.5535245743249307
  0
VERTEX
  5
F2F
  8
SAPA_PROFIL
 10
-22.710554211532099
 20
-20.964107602126379
 30
0.0
  0
VERTEX
  5
F30
  8
SAPA_PROFIL
 10
-22.423223304704148
 20
-20.676776695298429
 30
0.0
 42
0.4142135623730951
  0
VERTEX
  5
F31
  8
SAPA_PROFIL
 10
-22.423223304704148
 20
-20.323223304705099
 30
0.0
  0
VERTEX
  5
F32
  8
SAPA_PROFIL
 10
-22.710554211532099
 20
-20.035892397877149
 30
0.0
 42
-0.553524574324932
  0
VERTEX
  5
F33
  8
SAPA_PROFIL
 10
-18.40000000000077
 20
-18.263373075367269
 30
0.0
  0
VERTEX
  5
F34
  8
SAPA_PROFIL
 10
-18.40000000000077
 20
-18.600000000001671
 30
0.0
 42
0.4142135623730951
  0
VERTEX
  5
F35
  8
SAPA_PROFIL
 10
-18.100000000000819
 20
-18.90000000000185
 30
0.0
  0
VERTEX
  5
F36
  8
SAPA_PROFIL
 10
-17.600000000000819
 20
-18.90000000000185
 30
0.0
 42
0.4142135623730951
  0
VERTEX
  5
F37
  8
SAPA_PROFIL
 10
-17.30000000000086
 20
-18.600000000001671
 30
0.0
  0
VERTEX
  5
F38
  8
SAPA_PROFIL
 10
-17.30000000000086
 20
-16.30000000000172
 30
0.0
 42
0.4142135623730951
  0
VERTEX
  5
F39
  8
SAPA_PROFIL
 10
-17.600000000000819
 20
-16.000000000001759
 30
0.0
  0
VERTEX
  5
F3A
  8
SAPA_PROFIL
 10
-21.80000000000086
 20
-16.000000000001759
 30
0.0
 42
-0.4142135623730951
  0
VERTEX
  5
F3B
  8
SAPA_PROFIL
 10
-22.80000000000086
 20
-15.00000000000176
 30
0.0
  0
VERTEX
  5
F3C
  8
SAPA_PROFIL
 10
-22.80000000000086
 20
19.999999999998181
 30
0.0
 42
-0.7673269879789505
  0
VERTEX
  5
F3D
  8
SAPA_PROFIL
 10
-21.86698729810837
 20
20.249999999998181
 30
0.0
 42
0.2679491924311202
  0
VERTEX
  5
F3E
  8
SAPA_PROFIL
 10
-21.433974596216331
 20
19.999999999998181
 30
0.0
  0
VERTEX
  5
F3F
  8
SAPA_PROFIL
 10
-18.80000000000086
 20
19.999999999998181
 30
0.0
 42
0.4142135623730951
  0
VERTEX
  5
F40
  8
SAPA_PROFIL
 10
-17.30000000000086
 20
21.499999999998181
 30
0.0
  0
VERTEX
  5
F41
  8
SAPA_PROFIL
 10
-17.30000000000086
 20
22.59999999999809
 30
0.0
 42
0.4142135623730951
  0
VERTEX
  5
F42
  8
SAPA_PROFIL
 10
-17.600000000000819
 20
22.899999999998268
 30
0.0
  0
VERTEX
  5
F43
  8
SAPA_PROFIL
 10
-18.100000000000819
 20
22.899999999998268
 30
0.0
 42
0.4142135623730951
  0
VERTEX
  5
F44
  8
SAPA_PROFIL
 10
-18.40000000000077
 20
22.59999999999809
 30
0.0
  0
VERTEX
  5
F45
  8
SAPA_PROFIL
 10
-18.40000000000077
 20
22.263373075363688
 30
0.0
 42
-0.5535245743249307
  0
VERTEX
  5
F46
  8
SAPA_PROFIL
 10
-22.710554211532099
 20
24.035892397873571
 30
0.0
  0
VERTEX
  5
F47
  8
SAPA_PROFIL
 10
-22.423223304704148
 20
24.323223304701521
 30
0.0
 42
0.4142135623731068
  0
VERTEX
  5
F48
  8
SAPA_PROFIL
 10
-22.423223304704148
 20
24.676776695294851
 30
0.0
  0
VERTEX
  5
F49
  8
SAPA_PROFIL
 10
-22.710554211532099
 20
24.964107602122802
 30
0.0
 42
-0.553524574324932
  0
VERTEX
  5
F4A
  8
SAPA_PROFIL
 10
-18.40000000000077
 20
26.73662692463267
 30
0.0
  0
VERTEX
  5
F4B
  8
SAPA_PROFIL
 10
-18.40000000000077
 20
26.399999999998268
 30
0.0
 42
0.4142135623730951
  0
VERTEX
  5
F4C
  8
SAPA_PROFIL
 10
-18.100000000000819
 20
26.09999999999809
 30
0.0
  0
VERTEX
  5
F4D
  8
SAPA_PROFIL
 10
-17.600000000000819
 20
26.09999999999809
 30
0.0
 42
0.4142135623730951
  0
VERTEX
  5
F4E
  8
SAPA_PROFIL
 10
-17.30000000000086
 20
26.399999999998268
 30
0.0
  0
VERTEX
  5
F4F
  8
SAPA_PROFIL
 10
-17.30000000000086
 20
28.699999999997999
 30
0.0
 42
0.4142135623730951
  0
VERTEX
  5
F50
  8
SAPA_PROFIL
 10
-17.600000000000819
 20
28.999999999998181
 30
0.0
  0
VERTEX
  5
F51
  8
SAPA_PROFIL
 10
-21.80000000000086
 20
28.999999999998181
 30
0.0
 42
-0.4142135623730951
  0
VERTEX
  5
F52
  8
SAPA_PROFIL
 10
-22.80000000000086
 20
29.999999999998181
 30
0.0
  0
VERTEX
  5
F53
  8
SAPA_PROFIL
 10
-22.80000000000086
 20
69.175735931285885
 30
0.0
 42
-0.198912367379658
  0
VERTEX
  5
F54
  8
SAPA_PROFIL
 10
-22.712132034356731
 20
69.387867965641931
 30
0.0
  0
VERTEX
  5
F55
  8
SAPA_PROFIL
 10
-21.187867965644731
 20
70.912132034353704
 30
0.0
 42
0.1989123673797102
  0
VERTEX
  5
F56
  8
SAPA_PROFIL
 10
-21.100000000000591
 20
71.124264068709977
 30
0.0
  0
VERTEX
  5
F57
  8
SAPA_PROFIL
 10
-21.100000000000819
 20
71.699999999997885
 30
0.0
 42
0.4142135623730951
  0
VERTEX
  5
F58
  8
SAPA_PROFIL
 10
-21.40000000000077
 20
71.999999999998067
 30
0.0
  0
VERTEX
  5
F59
  8
SAPA_PROFIL
 10
-22.500000000000679
 20
71.999999999998067
 30
0.0
 42
-0.4142135623730951
  0
VERTEX
  5
F5A
  8
SAPA_PROFIL
 10
-22.80000000000086
 20
72.299999999998022
 30
0.0
  0
VERTEX
  5
F5B
  8
SAPA_PROFIL
 10
-22.80000000000086
 20
74.699999999997885
 30
0.0
 42
-0.4142135623730951
  0
VERTEX
  5
F5C
  8
SAPA_PROFIL
 10
-22.500000000000679
 20
74.999999999998067
 30
0.0
  0
VERTEX
  5
F5D
  8
SAPA_PROFIL
 10
-21.40000000000077
 20
74.999999999998067
 30
0.0
 42
0.4142135623730951
  0
VERTEX
  5
F5E
  8
SAPA_PROFIL
 10
-21.100000000000819
 20
75.299999999998022
 30
0.0
  0
VERTEX
  5
F5F
  8
SAPA_PROFIL
 10
-21.100000000000819
 20
75.875735931286158
 30
0.0
 42
0.1989123673796752
  0
VERTEX
  5
F60
  8
SAPA_PROFIL
 10
-21.187867965644958
 20
76.087867965641976
 30
0.0
  0
VERTEX
  5
F61
  8
SAPA_PROFIL
 10
-22.712132034356731
 20
77.612132034353976
 30
0.0
 42
-0.1989123673797102
  0
VERTEX
  5
F62
  8
SAPA_PROFIL
 10
-22.80000000000086
 20
77.824264068710022
 30
0.0
  0
VERTEX
  5
F63
  8
SAPA_PROFIL
 10
-22.80000000000086
 20
79.999999999998067
 30
0.0
 42
-0.4142135623730951
  0
VERTEX
  5
F64
  8
SAPA_PROFIL
 10
-21.80000000000086
 20
80.999999999998067
 30
0.0
  0
VERTEX
  5
F65
  8
SAPA_PROFIL
 10
21.799999999999269
 20
80.999999999998067
 30
0.0
 42
-0.4142135623730951
  0
SEQEND
  5
F66
  8
SAPA_PROFIL
  0
POLYLINE
  5
B6D
  8
SAPA_GLAS
 66
     1
 10
0.0
 20
0.0
 30
0.0
  0
VERTEX
  5
F9D
  8
SAPA_GLAS
 10
-40.999999999995907
 20
-74.49999999901172
 30
0.0
  0
VERTEX
  5
F9E
  8
SAPA_GLAS
 10
-10.999999999995911
 20
-74.49999999901172
 30
0.0
  0
VERTEX
  5
F9F
  8
SAPA_GLAS
 10
-10.999999999995911
 20
-70.49999999901172
 30
0.0
  0
VERTEX
  5
FA0
  8
SAPA_GLAS
 10
-40.999999999995907
 20
-70.49999999901172
 30
0.0
  0
SEQEND
  5
FA1
  8
SAPA_GLAS
  0
POLYLINE
  5
B6E
  8
SAPA_GLAS
 66
     1
 10
0.0
 20
0.0
 30
0.0
  0
VERTEX
  5
FA2
  8
SAPA_GLAS
 10
-40.999999999995907
 20
-98.49999999901172
 30
0.0
  0
VERTEX
  5
FA3
  8
SAPA_GLAS
 10
-10.999999999995911
 20
-98.49999999901172
 30
0.0
  0
VERTEX
  5
FA4
  8
SAPA_GLAS
 10
-10.999999999995911
 20
-90.499999999011735
 30
0.0
  0
VERTEX
  5
FA5
  8
SAPA_GLAS
 10
-40.999999999995907
 20
-90.499999999011735
 30
0.0
  0
SEQEND
  5
FA6
  8
SAPA_GLAS
  0
POLYLINE
  5
B6F
  8
SAPA_GLAS
 66
     1
 10
0.0
 20
0.0
 30
0.0
  0
VERTEX
  5
FA7
  8
SAPA_GLAS
 10
-40.99999999999681
 20
-54.499999999010129
 30
0.0
  0
VERTEX
  5
FA8
  8
SAPA_GLAS
 10
-10.99999999999681
 20
-54.499999999010129
 30
0.0
  0
VERTEX
  5
FA9
  8
SAPA_GLAS
 10
-10.99999999999681
 20
-48.499999999010129
 30
0.0
  0
VERTEX
  5
FAA
  8
SAPA_GLAS
 10
-40.99999999999681
 20
-48.499999999010129
 30
0.0
  0
SEQEND
  5
FAB
  8
SAPA_GLAS
  0
POLYLINE
  5
B70
  8
SAPA_GLAS
 66
     1
 10
0.0
 20
0.0
 30
0.0
  0
VERTEX
  5
FAC
  8
SAPA_GLAS
 10
-20.999999999995911
 20
-90.499999999010129
 30
0.0
  0
VERTEX
  5
FAD
  8
SAPA_GLAS
 10
-20.999999999995911
 20
-74.499999999010129
 30
0.0
  0
VERTEX
  5
FAE
  8
SAPA_GLAS
 10
-10.99999999999681
 20
-74.499999999010129
 30
0.0
  0
VERTEX
  5
FAF
  8
SAPA_GLAS
 10
-10.99999999999681
 20
-90.499999999010129
 30
0.0
  0
VERTEX
  5
FB0
  8
SAPA_GLAS
 10
-20.999999999995911
 20
-90.499999999010129
 30
0.0
  0
SEQEND
  5
FB1
  8
SAPA_GLAS
  0
POLYLINE
  5
B71
  8
SAPA_GLAS
 66
     1
 10
0.0
 20
0.0
 30
0.0
  0
VERTEX
  5
FB2
  8
SAPA_GLAS
 10
-20.999999999995911
 20
-70.499999999010129
 30
0.0
  0
VERTEX
  5
FB3
  8
SAPA_GLAS
 10
-20.999999999995911
 20
-54.499999999010129
 30
0.0
  0
VERTEX
  5
FB4
  8
SAPA_GLAS
 10
-10.99999999999681
 20
-54.499999999010129
 30
0.0
  0
VERTEX
  5
FB5
  8
SAPA_GLAS
 10
-10.99999999999681
 20
-70.499999999010129
 30
0.0
  0
VERTEX
  5
FB6
  8
SAPA_GLAS
 10
-20.999999999995911
 20
-70.499999999010129
 30
0.0
  0
SEQEND
  5
FB7
  8
SAPA_GLAS
  0
POLYLINE
  5
B72
  8
SAPA_GLAS
 66
     1
 10
0.0
 20
0.0
 30
0.0
  0
VERTEX
  5
FB8
  8
SAPA_GLAS
 10
40.999999999995907
 20
-74.49999999901172
 30
0.0
  0
VERTEX
  5
FB9
  8
SAPA_GLAS
 10
10.999999999995911
 20
-74.49999999901172
 30
0.0
  0
VERTEX
  5
FBA
  8
SAPA_GLAS
 10
10.999999999995911
 20
-70.49999999901172
 30
0.0
  0
VERTEX
  5
FBB
  8
SAPA_GLAS
 10
40.999999999995907
 20
-70.49999999901172
 30
0.0
  0
SEQEND
  5
FBC
  8
SAPA_GLAS
  0
POLYLINE
  5
B73
  8
SAPA_GLAS
 66
     1
 10
0.0
 20
0.0
 30
0.0
  0
VERTEX
  5
FBD
  8
SAPA_GLAS
 10
40.999999999995907
 20
-98.49999999901172
 30
0.0
  0
VERTEX
  5
FBE
  8
SAPA_GLAS
 10
10.999999999995911
 20
-98.49999999901172
 30
0.0
  0
VERTEX
  5
FBF
  8
SAPA_GLAS
 10
10.999999999995911
 20
-90.499999999011735
 30
0.0
  0
VERTEX
  5
FC0
  8
SAPA_GLAS
 10
40.999999999995907
 20
-90.499999999011735
 30
0.0
  0
SEQEND
  5
FC1
  8
SAPA_GLAS
  0
POLYLINE
  5
B74
  8
SAPA_GLAS
 66
     1
 10
0.0
 20
0.0
 30
0.0
  0
VERTEX
  5
FC2
  8
SAPA_GLAS
 10
40.99999999999681
 20
-54.499999999010129
 30
0.0
  0
VERTEX
  5
FC3
  8
SAPA_GLAS
 10
10.99999999999681
 20
-54.499999999010129
 30
0.0
  0
VERTEX
  5
FC4
  8
SAPA_GLAS
 10
10.99999999999681
 20
-48.499999999010129
 30
0.0
  0
VERTEX
  5
FC5
  8
SAPA_GLAS
 10
40.99999999999681
 20
-48.499999999010129
 30
0.0
  0
SEQEND
  5
FC6
  8
SAPA_GLAS
  0
POLYLINE
  5
B75
  8
SAPA_GLAS
 66
     1
 10
0.0
 20
0.0
 30
0.0
  0
VERTEX
  5
FC7
  8
SAPA_GLAS
 10
20.999999999995911
 20
-90.499999999010129
 30
0.0
  0
VERTEX
  5
FC8
  8
SAPA_GLAS
 10
20.999999999995911
 20
-74.499999999010129
 30
0.0
  0
VERTEX
  5
FC9
  8
SAPA_GLAS
 10
10.99999999999681
 20
-74.499999999010129
 30
0.0
  0
VERTEX
  5
FCA
  8
SAPA_GLAS
 10
10.99999999999681
 20
-90.499999999010129
 30
0.0
  0
VERTEX
  5
FCB
  8
SAPA_GLAS
 10
20.999999999995911
 20
-90.499999999010129
 30
0.0
  0
SEQEND
  5
FCC
  8
SAPA_GLAS
  0
POLYLINE
  5
B76
  8
SAPA_GLAS
 66
     1
 10
0.0
 20
0.0
 30
0.0
  0
VERTEX
  5
FCD
  8
SAPA_GLAS
 10
20.999999999995911
 20
-70.499999999010129
 30
0.0
  0
VERTEX
  5
FCE
  8
SAPA_GLAS
 10
20.999999999995911
 20
-54.499999999010129
 30
0.0
  0
VERTEX
  5
FCF
  8
SAPA_GLAS
 10
10.99999999999681
 20
-54.499999999010129
 30
0.0
  0
VERTEX
  5
FD0
  8
SAPA_GLAS
 10
10.99999999999681
 20
-70.499999999010129
 30
0.0
  0
VERTEX
  5
FD1
  8
SAPA_GLAS
 10
20.999999999995911
 20
-70.499999999010129
 30
0.0
  0
SEQEND
  5
FD2
  8
SAPA_GLAS
  0
POLYLINE
  5
B85
  8
SAPA_ISOLATOR
 66
     1
 10
0.0
 20
0.0
 30
0.0
 70
     1
  0
VERTEX
  5
104F
  8
SAPA_ISOLATOR
 10
8.8339473861457876
 20
-58.235078053681718
 30
0.0
 42
0.2133140774071598
  0
VERTEX
  5
1050
  8
SAPA_ISOLATOR
 10
9.5000000000002345
 20
-56.744915521943767
 30
0.0
  0
VERTEX
  5
1051
  8
SAPA_ISOLATOR
 10
9.5000000000002345
 20
-56.57305861328485
 30
0.0
 42
-0.9999999999999998
  0
VERTEX
  5
1052
  8
SAPA_ISOLATOR
 10
10.000000000000229
 20
-56.57305861328485
 30
0.0
  0
VERTEX
  5
1053
  8
SAPA_ISOLATOR
 10
10.000000000000229
 20
-57.532183152571399
 30
0.0
 42
-0.2072397715914422
  0
VERTEX
  5
1054
  8
SAPA_ISOLATOR
 10
9.2103209337029792
 20
-59.355587195491808
 30
0.0
 42
-0.1421101772925093
  0
VERTEX
  5
1055
  8
SAPA_ISOLATOR
 10
5.0000000000002327
 20
-61.499999999010242
 30
0.0
  0
VERTEX
  5
1056
  8
SAPA_ISOLATOR
 10
5.0000000000002327
 20
-59.68783475446525
 30
0.0
 42
0.1860725815673001
  0
SEQEND
  5
1057
  8
SAPA_ISOLATOR
  0
POLYLINE
  5
B86
  8
SAPA_ISOLATOR
 66
     1
 10
0.0
 20
0.0
 30
0.0
 70
     1
  0
VERTEX
  5
1058
  8
SAPA_ISOLATOR
 10
-8.8339473861454358
 20
-58.235078053681718
 30
0.0
 42
-0.2133140774071598
  0
VERTEX
  5
1059
  8
SAPA_ISOLATOR
 10
-9.4999999999998828
 20
-56.744915521943767
 30
0.0
  0
VERTEX
  5
105A
  8
SAPA_ISOLATOR
 10
-9.4999999999998828
 20
-56.57305861328485
 30
0.0
 42
0.9999999999999998
  0
VERTEX
  5
105B
  8
SAPA_ISOLATOR
 10
-9.9999999999998828
 20
-56.57305861328485
 30
0.0
  0
VERTEX
  5
105C
  8
SAPA_ISOLATOR
 10
-9.9999999999998828
 20
-57.532183152571399
 30
0.0
 42
0.2072397715914422
  0
VERTEX
  5
105D
  8
SAPA_ISOLATOR
 10
-9.2103209337026293
 20
-59.355587195491808
 30
0.0
 42
0.1421101772925093
  0
VERTEX
  5
105E
  8
SAPA_ISOLATOR
 10
-4.9999999999998792
 20
-61.499999999010242
 30
0.0
  0
VERTEX
  5
105F
  8
SAPA_ISOLATOR
 10
-4.9999999999998792
 20
-59.68783475446525
 30
0.0
 42
-0.1860725815673001
  0
SEQEND
  5
1060
  8
SAPA_ISOLATOR
  0
POLYLINE
  5
B87
  8
SAPA_ISOLATOR
 66
     1
 10
0.0
 20
0.0
 30
0.0
 70
     1
  0
VERTEX
  5
1061
  8
SAPA_ISOLATOR
 10
-8.8339473861454358
 20
-75.235078053681718
 30
0.0
 42
-0.2133140774071598
  0
VERTEX
  5
1062
  8
SAPA_ISOLATOR
 10
-9.4999999999998828
 20
-73.744915521943767
 30
0.0
  0
VERTEX
  5
1063
  8
SAPA_ISOLATOR
 10
-9.4999999999998828
 20
-73.573058613284843
 30
0.0
 42
0.9999999999999998
  0
VERTEX
  5
1064
  8
SAPA_ISOLATOR
 10
-9.9999999999998828
 20
-73.573058613284843
 30
0.0
  0
VERTEX
  5
1065
  8
SAPA_ISOLATOR
 10
-9.9999999999998828
 20
-74.532183152571406
 30
0.0
 42
0.2072397715914422
  0
VERTEX
  5
1066
  8
SAPA_ISOLATOR
 10
-9.2103209337026293
 20
-76.355587195491793
 30
0.0
 42
0.1421101772925093
  0
VERTEX
  5
1067
  8
SAPA_ISOLATOR
 10
-4.9999999999998792
 20
-78.499999999010242
 30
0.0
  0
VERTEX
  5
1068
  8
SAPA_ISOLATOR
 10
-4.9999999999998792
 20
-76.687834754465257
 30
0.0
 42
-0.1860725815673001
  0
SEQEND
  5
1069
  8
SAPA_ISOLATOR
  0
POLYLINE
  5
B88
  8
SAPA_ISOLATOR
 66
     1
 10
0.0
 20
0.0
 30
0.0
 70
     1
  0
VERTEX
  5
106A
  8
SAPA_ISOLATOR
 10
-8.8339473861453772
 20
-92.235078053681264
 30
0.0
 42
-0.2133140774071598
  0
VERTEX
  5
106B
  8
SAPA_ISOLATOR
 10
-9.4999999999998241
 20
-90.744915521943312
 30
0.0
  0
VERTEX
  5
106C
  8
SAPA_ISOLATOR
 10
-9.4999999999998241
 20
-90.573058613284388
 30
0.0
 42
0.9999999999999998
  0
VERTEX
  5
106D
  8
SAPA_ISOLATOR
 10
-9.9999999999998241
 20
-90.573058613284388
 30
0.0
  0
VERTEX
  5
106E
  8
SAPA_ISOLATOR
 10
-9.9999999999998241
 20
-91.532183152570951
 30
0.0
 42
0.2072397715914422
  0
VERTEX
  5
106F
  8
SAPA_ISOLATOR
 10
-9.2103209337025724
 20
-93.355587195491353
 30
0.0
 42
0.1421101772925093
  0
VERTEX
  5
1070
  8
SAPA_ISOLATOR
 10
-4.9999999999998224
 20
-95.499999999009788
 30
0.0
  0
VERTEX
  5
1071
  8
SAPA_ISOLATOR
 10
-4.9999999999998224
 20
-93.687834754464802
 30
0.0
 42
-0.1860725815673001
  0
SEQEND
  5
1072
  8
SAPA_ISOLATOR
  0
POLYLINE
  5
B89
  8
SAPA_ISOLATOR
 66
     1
 10
0.0
 20
0.0
 30
0.0
 70
     1
  0
VERTEX
  5
1073
  8
SAPA_ISOLATOR
 10
8.8339473861457876
 20
-75.235078053681718
 30
0.0
 42
0.2133140774071598
  0
VERTEX
  5
1074
  8
SAPA_ISOLATOR
 10
9.5000000000002345
 20
-73.744915521943767
 30
0.0
  0
VERTEX
  5
1075
  8
SAPA_ISOLATOR
 10
9.5000000000002345
 20
-73.573058613284843
 30
0.0
 42
-0.9999999999999998
  0
VERTEX
  5
1076
  8
SAPA_ISOLATOR
 10
10.000000000000229
 20
-73.573058613284843
 30
0.0
  0
VERTEX
  5
1077
  8
SAPA_ISOLATOR
 10
10.000000000000229
 20
-74.532183152571406
 30
0.0
 42
-0.2072397715914422
  0
VERTEX
  5
1078
  8
SAPA_ISOLATOR
 10
9.2103209337029792
 20
-76.355587195491793
 30
0.0
 42
-0.1421101772925093
  0
VERTEX
  5
1079
  8
SAPA_ISOLATOR
 10
5.0000000000002327
 20
-78.499999999010242
 30
0.0
  0
VERTEX
  5
107A
  8
SAPA_ISOLATOR
 10
5.0000000000002327
 20
-76.687834754465257
 30
0.0
 42
0.1860725815673001
  0
SEQEND
  5
107B
  8
SAPA_ISOLATOR
  0
POLYLINE
  5
B8A
  8
SAPA_ISOLATOR
 66
     1
 10
0.0
 20
0.0
 30
0.0
 70
     1
  0
VERTEX
  5
107C
  8
SAPA_ISOLATOR
 10
8.8339473861457307
 20
-92.235078053681264
 30
0.0
 42
0.2133140774071598
  0
VERTEX
  5
107D
  8
SAPA_ISOLATOR
 10
9.5000000000001776
 20
-90.744915521943312
 30
0.0
  0
VERTEX
  5
107E
  8
SAPA_ISOLATOR
 10
9.5000000000001776
 20
-90.573058613284388
 30
0.0
 42
-0.9999999999999998
  0
VERTEX
  5
107F
  8
SAPA_ISOLATOR
 10
10.000000000000171
 20
-90.573058613284388
 30
0.0
  0
VERTEX
  5
1080
  8
SAPA_ISOLATOR
 10
10.000000000000171
 20
-91.532183152570951
 30
0.0
 42
-0.2072397715914422
  0
VERTEX
  5
1081
  8
SAPA_ISOLATOR
 10
9.2103209337029242
 20
-93.355587195491353
 30
0.0
 42
-0.1421101772925093
  0
VERTEX
  5
1082
  8
SAPA_ISOLATOR
 10
5.0000000000001759
 20
-95.499999999009788
 30
0.0
  0
VERTEX
  5
1083
  8
SAPA_ISOLATOR
 10
5.0000000000001759
 20
-93.687834754464802
 30
0.0
 42
0.1860725815673001
  0
SEQEND
  5
1084
  8
SAPA_ISOLATOR
  0
POLYLINE
  5
B8B
  8
SAPA_ISOLATOR
 66
     1
 10
0.0
 20
0.0
 30
0.0
 70
     1
  0
VERTEX
  5
1085
  8
SAPA_ISOLATOR
 10
-3.4121320343941122
 20
-100.4121320335894
 30
0.0
 42
-0.1989123671061558
  0
VERTEX
  5
1086
  8
SAPA_ISOLATOR
 10
-3.624264068526819
 20
-100.4999999990101
 30
0.0
  0
VERTEX
  5
1087
  8
SAPA_ISOLATOR
 10
-4.699999999999906
 20
-100.49999999901
 30
0.0
 42
-0.4142135623730605
  0
VERTEX
  5
1088
  8
SAPA_ISOLATOR
 10
-4.9999999999998792
 20
-100.19999999901
 30
0.0
  0
VERTEX
  5
1089
  8
SAPA_ISOLATOR
 10
-4.9999999999998792
 20
-52.999999999010129
 30
0.0
 42
-0.4142135623730951
  0
VERTEX
  5
108A
  8
SAPA_ISOLATOR
 10
-4.4999999999997646
 20
-52.499999999010242
 30
0.0
  0
VERTEX
  5
108B
  8
SAPA_ISOLATOR
 10
-3.2742640687117648
 20
-52.499999999010129
 30
0.0
 42
0.1989123673796248
  0
VERTEX
  5
108C
  8
SAPA_ISOLATOR
 10
-3.0621320343557761
 20
-52.412132033366099
 30
0.0
  0
VERTEX
  5
108D
  8
SAPA_ISOLATOR
 10
-2.3878679656439128
 20
-51.737867964654242
 30
0.0
 42
0.1989123673796571
  0
VERTEX
  5
108E
  8
SAPA_ISOLATOR
 10
-2.2999999999998901
 20
-51.525735930298197
 30
0.0
  0
VERTEX
  5
108F
  8
SAPA_ISOLATOR
 10
-2.2999999999998901
 20
-47.094967040794813
 30
0.0
 42
-0.0912836897734216
  0
VERTEX
  5
1090
  8
SAPA_ISOLATOR
 10
-1.0813583321899991
 20
-44.975410007192863
 30
0.0
 42
-0.4396415083054796
  0
VERTEX
  5
1091
  8
SAPA_ISOLATOR
 10
1.0813583321901801
 20
-44.97541000719275
 30
0.0
 42
-0.0912836897734209
  0
VERTEX
  5
1092
  8
SAPA_ISOLATOR
 10
2.3000000000001322
 20
-47.094967040794813
 30
0.0
  0
VERTEX
  5
1093
  8
SAPA_ISOLATOR
 10
2.3000000000001322
 20
-51.525735930298197
 30
0.0
 42
0.1989123673796602
  0
VERTEX
  5
1094
  8
SAPA_ISOLATOR
 10
2.3878679656442112
 20
-51.737867964654242
 30
0.0
  0
VERTEX
  5
1095
  8
SAPA_ISOLATOR
 10
3.0621320343560741
 20
-52.412132033366099
 30
0.0
 42
0.1989123673796276
  0
VERTEX
  5
1096
  8
SAPA_ISOLATOR
 10
3.2742640687120632
 20
-52.499999999010129
 30
0.0
  0
VERTEX
  5
1097
  8
SAPA_ISOLATOR
 10
4.5000000000001759
 20
-52.499999999010129
 30
0.0
 42
-0.4142135623730951
  0
VERTEX
  5
1098
  8
SAPA_ISOLATOR
 10
5.0000000000001759
 20
-52.999999999010129
 30
0.0
  0
VERTEX
  5
1099
  8
SAPA_ISOLATOR
 10
5.0000000000001803
 20
-100.19999999901
 30
0.0
 42
-0.4142135623731471
  0
VERTEX
  5
109A
  8
SAPA_ISOLATOR
 10
4.7000000000001787
 20
-100.49999999901
 30
0.0
  0
VERTEX
  5
109B
  8
SAPA_ISOLATOR
 10
3.6242640688969971
 20
-100.4999999990101
 30
0.0
 42
-0.1989123676531289
  0
VERTEX
  5
109C
  8
SAPA_ISOLATOR
 10
3.4121320343177839
 20
-100.4121320331428
 30
0.0
  0
VERTEX
  5
109D
  8
SAPA_ISOLATOR
 10
0.3535533972161673
 20
-97.353553389603348
 30
0.0
 42
0.4142135623730478
  0
VERTEX
  5
109E
  8
SAPA_ISOLATOR
 10
-0.3535533839703859
 20
-97.353553389603348
 30
0.0
  0
SEQEND
  5
109F
  8
SAPA_ISOLATOR
  0
POLYLINE
  5
B8C
  8
SAPA_ISOLATOR
 66
     1
 10
0.0
 20
0.0
 30
0.0
 70
     1
  0
VERTEX
  5
10A0
  8
SAPA_ISOLATOR
 10
1.287867965644188
 20
-52.193502883264607
 30
0.0
 42
-0.198912367379658
  0
VERTEX
  5
10A1
  8
SAPA_ISOLATOR
 10
1.200000000000166
 20
-51.981370848908682
 30
0.0
  0
VERTEX
  5
10A2
  8
SAPA_ISOLATOR
 10
1.200000000000166
 20
-47.330245110800661
 30
0.0
 42
0.0949127563617268
  0
VERTEX
  5
10A3
  8
SAPA_ISOLATOR
 10
1.185842728393822
 20
-47.25633651655761
 30
0.0
 42
0.0825355669758324
  0
VERTEX
  5
10A4
  8
SAPA_ISOLATOR
 10
0.2279162213644561
 20
-45.669861747255418
 30
0.0
 42
0.4603672002713016
  0
VERTEX
  5
10A5
  8
SAPA_ISOLATOR
 10
-0.2279162213641754
 20
-45.669861747255418
 30
0.0
 42
0.08253556697594
  0
VERTEX
  5
10A6
  8
SAPA_ISOLATOR
 10
-1.1858427283940709
 20
-47.25633651655982
 30
0.0
 42
0.0949127563615792
  0
VERTEX
  5
10A7
  8
SAPA_ISOLATOR
 10
-1.199999999999867
 20
-47.330245110802991
 30
0.0
  0
VERTEX
  5
10A8
  8
SAPA_ISOLATOR
 10
-1.199999999999867
 20
-51.981370848908682
 30
0.0
 42
-0.1989123673796566
  0
VERTEX
  5
10A9
  8
SAPA_ISOLATOR
 10
-1.2878679656438901
 20
-52.1935028832645
 30
0.0
  0
VERTEX
  5
10AA
  8
SAPA_ISOLATOR
 10
-2.6064971157454049
 20
-53.512132033366122
 30
0.0
 42
-0.1989123673796571
  0
VERTEX
  5
10AB
  8
SAPA_ISOLATOR
 10
-2.8186291501013372
 20
-53.599999999010151
 30
0.0
  0
VERTEX
  5
10AC
  8
SAPA_ISOLATOR
 10
-3.5999999999998451
 20
-53.599999999010151
 30
0.0
 42
0.4142135623730395
  0
VERTEX
  5
10AD
  8
SAPA_ISOLATOR
 10
-3.899999999999856
 20
-53.899999999010113
 30
0.0
  0
VERTEX
  5
10AE
  8
SAPA_ISOLATOR
 10
-3.8999999999998671
 20
-66.099999999010095
 30
0.0
 42
0.4142135623730673
  0
VERTEX
  5
10AF
  8
SAPA_ISOLATOR
 10
-3.5999999999998549
 20
-66.399999999010049
 30
0.0
  0
VERTEX
  5
10B0
  8
SAPA_ISOLATOR
 10
3.6000000000001311
 20
-66.399999999010049
 30
0.0
 42
0.4142135623731228
  0
VERTEX
  5
10B1
  8
SAPA_ISOLATOR
 10
3.900000000000114
 20
-66.099999999010095
 30
0.0
  0
VERTEX
  5
10B2
  8
SAPA_ISOLATOR
 10
3.900000000000154
 20
-53.899999999010113
 30
0.0
 42
0.4142135623730743
  0
VERTEX
  5
10B3
  8
SAPA_ISOLATOR
 10
3.600000000000199
 20
-53.599999999010151
 30
0.0
  0
VERTEX
  5
10B4
  8
SAPA_ISOLATOR
 10
2.8186291501016352
 20
-53.599999999010151
 30
0.0
 42
-0.1989123673796576
  0
VERTEX
  5
10B5
  8
SAPA_ISOLATOR
 10
2.6064971157457029
 20
-53.512132033366022
 30
0.0
  0
SEQEND
  5
10B6
  8
SAPA_ISOLATOR
  0
POLYLINE
  5
B8D
  8
SAPA_ISOLATOR
 66
     1
 10
0.0
 20
0.0
 30
0.0
 70
     1
  0
VERTEX
  5
10B7
  8
SAPA_ISOLATOR
 10
-3.5999999999998549
 20
-67.499999999010072
 30
0.0
 42
0.4142135623731076
  0
VERTEX
  5
10B8
  8
SAPA_ISOLATOR
 10
-3.8999999999998671
 20
-67.79999999901014
 30
0.0
  0
VERTEX
  5
10B9
  8
SAPA_ISOLATOR
 10
-3.8999999999998378
 20
-83.099999999010038
 30
0.0
 42
0.4142135623730659
  0
VERTEX
  5
10BA
  8
SAPA_ISOLATOR
 10
-3.5999999999998269
 20
-83.399999999009992
 30
0.0
  0
VERTEX
  5
10BB
  8
SAPA_ISOLATOR
 10
3.6000000000002168
 20
-83.399999999010106
 30
0.0
 42
0.414213562373041
  0
VERTEX
  5
10BC
  8
SAPA_ISOLATOR
 10
3.9000000000001709
 20
-83.099999999010038
 30
0.0
  0
VERTEX
  5
10BD
  8
SAPA_ISOLATOR
 10
3.9000000000001429
 20
-67.79999999901014
 30
0.0
 42
0.4142135623730784
  0
VERTEX
  5
10BE
  8
SAPA_ISOLATOR
 10
3.6000000000001879
 20
-67.499999999010186
 30
0.0
  0
SEQEND
  5
10BF
  8
SAPA_ISOLATOR
  0
POLYLINE
  5
B8E
  8
SAPA_ISOLATOR
 66
     1
 10
0.0
 20
0.0
 30
0.0
 70
     1
  0
VERTEX
  5
10C0
  8
SAPA_ISOLATOR
 10
-3.5999999999998269
 20
-84.499999999010129
 30
0.0
 42
0.4142135623730659
  0
VERTEX
  5
10C1
  8
SAPA_ISOLATOR
 10
-3.8999999999998378
 20
-84.799999999010083
 30
0.0
  0
VERTEX
  5
10C2
  8
SAPA_ISOLATOR
 10
-3.899999999999856
 20
-98.861522369438944
 30
0.0
 42
0.6681786375387276
  0
VERTEX
  5
10C3
  8
SAPA_ISOLATOR
 10
-3.5585786439113809
 20
-99.002943725825105
 30
0.0
  0
VERTEX
  5
10C4
  8
SAPA_ISOLATOR
 10
-1.1313708424569811
 20
-96.57573592947962
 30
0.0
 42
-0.4142135623730892
  0
VERTEX
  5
10C5
  8
SAPA_ISOLATOR
 10
1.131370856521364
 20
-96.575735930298165
 30
0.0
  0
VERTEX
  5
10C6
  8
SAPA_ISOLATOR
 10
3.5585786436140081
 20
-99.002943722499708
 30
0.0
 42
0.6681786382998753
  0
VERTEX
  5
10C7
  8
SAPA_ISOLATOR
 10
3.900000000000154
 20
-98.861522366411236
 30
0.0
  0
VERTEX
  5
10C8
  8
SAPA_ISOLATOR
 10
3.9000000000001709
 20
-84.799999999010197
 30
0.0
 42
0.4142135623730951
  0
VERTEX
  5
10C9
  8
SAPA_ISOLATOR
 10
3.60000000000016
 20
-84.499999999010129
 30
0.0
  0
SEQEND
  5
10CA
  8
SAPA_ISOLATOR
  0
POLYLINE
  5
BA5
  8
SAPA_FOGBAND
 66
     1
 10
0.0
 20
0.0
 30
0.0
 70
     1
  0
VERTEX
  5
11C3
  8
SAPA_FOGBAND
 10
-23.30132718451614
 20
-36.299999999010538
 30
0.0
  0
VERTEX
  5
11C4
  8
SAPA_FOGBAND
 10
-16.001327184515961
 20
-36.299999999010538
 30
0.0
 42
0.4142135623730951
  0
VERTEX
  5
11C5
  8
SAPA_FOGBAND
 10
-15.50132718451596
 20
-35.799999999010538
 30
0.0
  0
VERTEX
  5
11C6
  8
SAPA_FOGBAND
 10
-15.50132718451596
 20
-35.499999999010583
 30
0.0
  0
VERTEX
  5
11C7
  8
SAPA_FOGBAND
 10
-18.201327184515659
 20
-35.499999999010811
 30
0.0
 42
-0.414213562373117
  0
VERTEX
  5
11C8
  8
SAPA_FOGBAND
 10
-18.701327184515659
 20
-34.999999999010811
 30
0.0
  0
VERTEX
  5
11C9
  8
SAPA_FOGBAND
 10
-18.701327184515659
 20
-34.273205079767543
 30
0.0
  0
VERTEX
  5
11CA
  8
SAPA_FOGBAND
 10
-18.449563375495579
 20
-34.205745170457192
 30
0.0
 42
0.4740571810233732
  0
VERTEX
  5
11CB
  8
SAPA_FOGBAND
 10
-18.322269513132142
 20
-33.923462584818601
 30
0.0
  0
VERTEX
  5
11CC
  8
SAPA_FOGBAND
 10
-18.942370015889878
 20
-32.477256448058768
 30
0.0
 42
0.2846003776494633
  0
VERTEX
  5
11CD
  8
SAPA_FOGBAND
 10
-19.390014194350549
 20
-32.199999999010629
 30
0.0
  0
VERTEX
  5
11CE
  8
SAPA_FOGBAND
 10
-21.012640174681682
 20
-32.199999999010629
 30
0.0
 42
0.2846003776496146
  0
VERTEX
  5
11CF
  8
SAPA_FOGBAND
 10
-21.46028435314156
 20
-32.47725644805854
 30
0.0
  0
VERTEX
  5
11D0
  8
SAPA_FOGBAND
 10
-22.08038485589941
 20
-33.923462584818651
 30
0.0
 42
0.4740571810233364
  0
VERTEX
  5
11D1
  8
SAPA_FOGBAND
 10
-21.953090993535969
 20
-34.205745170457192
 30
0.0
  0
VERTEX
  5
11D2
  8
SAPA_FOGBAND
 10
-21.701327184515659
 20
-34.273205079767543
 30
0.0
  0
VERTEX
  5
11D3
  8
SAPA_FOGBAND
 10
-21.701327184515659
 20
-34.999999999010811
 30
0.0
 42
-0.4142135623731218
  0
VERTEX
  5
11D4
  8
SAPA_FOGBAND
 10
-22.20132718451578
 20
-35.499999999010811
 30
0.0
  0
VERTEX
  5
11D5
  8
SAPA_FOGBAND
 10
-23.80132718451523
 20
-35.49999999901064
 30
0.0
  0
VERTEX
  5
11D6
  8
SAPA_FOGBAND
 10
-23.80132718451614
 20
-35.79999999900901
 30
0.0
 42
0.4142135623739815
  0
SEQEND
  5
11D7
  8
SAPA_FOGBAND
  0
POLYLINE
  5
BA6
  8
SAPA_FOGBAND
 10
-22.264574318352871
 20
-42.113213331627705
 30
0.0
 66
     1
 70
     8
  0
VERTEX
  8
SAPA_FOGBAND
  5
12BB
 10
-22.2646
 20
-42.1132
 30
0.000000
  70
    32
  0
VERTEX
  8
SAPA_FOGBAND
  5
12BC
 10
-22.2594
 20
-42.2294
 30
0.000000
  70
    32
  0
VERTEX
  8
SAPA_FOGBAND
  5
12BD
 10
-22.2464
 20
-42.3452
 30
0.000000
  70
    32
  0
VERTEX
  8
SAPA_FOGBAND
  5
12BE
 10
-22.2254
 20
-42.4604
 30
0.000000
  70
    32
  0
VERTEX
  8
SAPA_FOGBAND
  5
12BF
 10
-22.1966
 20
-42.5746
 30
0.000000
  70
    32
  0
VERTEX
  8
SAPA_FOGBAND
  5
12C0
 10
-22.1600
 20
-42.6877
 30
0.000000
  70
    32
  0
VERTEX
  8
SAPA_FOGBAND
  5
12C1
 10
-22.1157
 20
-42.7993
 30
0.000000
  70
    32
  0
VERTEX
  8
SAPA_FOGBAND
  5
12C2
 10
-22.0638
 20
-42.9092
 30
0.000000
  70
    32
  0
VERTEX
  8
SAPA_FOGBAND
  5
12C3
 10
-22.0045
 20
-43.0170
 30
0.000000
  70
    32
  0
VERTEX
  8
SAPA_FOGBAND
  5
12C4
 10
-21.9378
 20
-43.1226
 30
0.000000
  70
    32
  0
VERTEX
  8
SAPA_FOGBAND
  5
12C5
 10
-21.8640
 20
-43.2258
 30
0.000000
  70
    32
  0
VERTEX
  8
SAPA_FOGBAND
  5
12C6
 10
-21.7832
 20
-43.3261
 30
0.000000
  70
    32
  0
VERTEX
  8
SAPA_FOGBAND
  5
12C7
 10
-21.6956
 20
-43.4234
 30
0.000000
  70
    32
  0
VERTEX
  8
SAPA_FOGBAND
  5
12C8
 10
-21.6015
 20
-43.5176
 30
0.000000
  70
    32
  0
VERTEX
  8
SAPA_FOGBAND
  5
12C9
 10
-21.5009
 20
-43.6082
 30
0.000000
  70
    32
  0
VERTEX
  8
SAPA_FOGBAND
  5
12CA
 10
-21.3943
 20
-43.6952
 30
0.000000
  70
    32
  0
VERTEX
  8
SAPA_FOGBAND
  5
12CB
 10
-21.2819
 20
-43.7783
 30
0.000000
  70
    32
  0
VERTEX
  8
SAPA_FOGBAND
  5
12CC
 10
-21.1638
 20
-43.8572
 30
0.000000
  70
    32
  0
VERTEX
  8
SAPA_FOGBAND
  5
12CD
 10
-21.0405
 20
-43.9319
 30
0.000000
  70
    32
  0
VERTEX
  8
SAPA_FOGBAND
  5
12CE
 10
-20.9121
 20
-44.0022
 30
0.000000
  70
    32
  0
VERTEX
  8
SAPA_FOGBAND
  5
12CF
 10
-20.7791
 20
-44.0678
 30
0.000000
  70
    32
  0
VERTEX
  8
SAPA_FOGBAND
  5
12D0
 10
-20.6417
 20
-44.1286
 30
0.000000
  70
    32
  0
VERTEX
  8
SAPA_FOGBAND
  5
12D1
 10
-20.5003
 20
-44.1845
 30
0.000000
  70
    32
  0
VERTEX
  8
SAPA_FOGBAND
  5
12D2
 10
-20.3552
 20
-44.2354
 30
0.000000
  70
    32
  0
VERTEX
  8
SAPA_FOGBAND
  5
12D3
 10
-20.2067
 20
-44.2810
 30
0.000000
  70
    32
  0
VERTEX
  8
SAPA_FOGBAND
  5
12D4
 10
-20.0553
 20
-44.3213
 30
0.000000
  70
    32
  0
VERTEX
  8
SAPA_FOGBAND
  5
12D5
 10
-19.9012
 20
-44.3563
 30
0.000000
  70
    32
  0
VERTEX
  8
SAPA_FOGBAND
  5
12D6
 10
-19.7449
 20
-44.3857
 30
0.000000
  70
    32
  0
VERTEX
  8
SAPA_FOGBAND
  5
12D7
 10
-19.5866
 20
-44.4096
 30
0.000000
  70
    32
  0
VERTEX
  8
SAPA_FOGBAND
  5
12D8
 10
-19.4269
 20
-44.4279
 30
0.000000
  70
    32
  0
VERTEX
  8
SAPA_FOGBAND
  5
12D9
 10
-19.2661
 20
-44.4405
 30
0.000000
  70
    32
  0
VERTEX
  8
SAPA_FOGBAND
  5
12DA
 10
-19.1046
 20
-44.4475
 30
0.000000
  70
    32
  0
VERTEX
  8
SAPA_FOGBAND
  5
12DB
 10
-18.9427
 20
-44.4487
 30
0.000000
  70
    32
  0
VERTEX
  8
SAPA_FOGBAND
  5
12DC
 10
-18.7809
 20
-44.4442
 30
0.000000
  70
    32
  0
VERTEX
  8
SAPA_FOGBAND
  5
12DD
 10
-18.6196
 20
-44.4341
 30
0.000000
  70
    32
  0
VERTEX
  8
SAPA_FOGBAND
  5
12DE
 10
-18.4590
 20
-44.4183
 30
0.000000
  70
    32
  0
VERTEX
  8
SAPA_FOGBAND
  5
12DF
 10
-18.2997
 20
-44.3968
 30
0.000000
  70
    32
  0
VERTEX
  8
SAPA_FOGBAND
  5
12E0
 10
-18.1420
 20
-44.3698
 30
0.000000
  70
    32
  0
VERTEX
  8
SAPA_FOGBAND
  5
12E1
 10
-17.9863
 20
-44.3372
 30
0.000000
  70
    32
  0
VERTEX
  8
SAPA_FOGBAND
  5
12E2
 10
-17.8330
 20
-44.2992
 30
0.000000
  70
    32
  0
VERTEX
  8
SAPA_FOGBAND
  5
12E3
 10
-17.6823
 20
-44.2559
 30
0.000000
  70
    32
  0
VERTEX
  8
SAPA_FOGBAND
  5
12E4
 10
-17.5348
 20
-44.2073
 30
0.000000
  70
    32
  0
VERTEX
  8
SAPA_FOGBAND
  5
12E5
 10
-17.3907
 20
-44.1536
 30
0.000000
  70
    32
  0
VERTEX
  8
SAPA_FOGBAND
  5
12E6
 10
-17.2504
 20
-44.0949
 30
0.000000
  70
    32
  0
VERTEX
  8
SAPA_FOGBAND
  5
12E7
 10
-17.1143
 20
-44.0313
 30
0.000000
  70
    32
  0
VERTEX
  8
SAPA_FOGBAND
  5
12E8
 10
-16.9826
 20
-43.9631
 30
0.000000
  70
    32
  0
VERTEX
  8
SAPA_FOGBAND
  5
12E9
 10
-16.8557
 20
-43.8903
 30
0.000000
  70
    32
  0
VERTEX
  8
SAPA_FOGBAND
  5
12EA
 10
-16.7339
 20
-43.8131
 30
0.000000
  70
    32
  0
VERTEX
  8
SAPA_FOGBAND
  5
12EB
 10
-16.6174
 20
-43.7318
 30
0.000000
  70
    32
  0
VERTEX
  8
SAPA_FOGBAND
  5
12EC
 10
-16.5066
 20
-43.6465
 30
0.000000
  70
    32
  0
VERTEX
  8
SAPA_FOGBAND
  5
12ED
 10
-16.4018
 20
-43.5575
 30
0.000000
  70
    32
  0
VERTEX
  8
SAPA_FOGBAND
  5
12EE
 10
-16.3031
 20
-43.4648
 30
0.000000
  70
    32
  0
VERTEX
  8
SAPA_FOGBAND
  5
12EF
 10
-16.2108
 20
-43.3689
 30
0.000000
  70
    32
  0
VERTEX
  8
SAPA_FOGBAND
  5
12F0
 10
-16.1252
 20
-43.2698
 30
0.000000
  70
    32
  0
VERTEX
  8
SAPA_FOGBAND
  5
12F1
 10
-16.0464
 20
-43.1679
 30
0.000000
  70
    32
  0
VERTEX
  8
SAPA_FOGBAND
  5
12F2
 10
-15.9746
 20
-43.0633
 30
0.000000
  70
    32
  0
VERTEX
  8
SAPA_FOGBAND
  5
12F3
 10
-15.9101
 20
-42.9564
 30
0.000000
  70
    32
  0
VERTEX
  8
SAPA_FOGBAND
  5
12F4
 10
-15.8529
 20
-42.8473
 30
0.000000
  70
    32
  0
VERTEX
  8
SAPA_FOGBAND
  5
12F5
 10
-15.8032
 20
-42.7365
 30
0.000000
  70
    32
  0
VERTEX
  8
SAPA_FOGBAND
  5
12F6
 10
-15.7612
 20
-42.6240
 30
0.000000
  70
    32
  0
VERTEX
  8
SAPA_FOGBAND
  5
12F7
 10
-15.7268
 20
-42.5102
 30
0.000000
  70
    32
  0
VERTEX
  8
SAPA_FOGBAND
  5
12F8
 10
-15.7003
 20
-42.3954
 30
0.000000
  70
    32
  0
VERTEX
  8
SAPA_FOGBAND
  5
12F9
 10
-15.6816
 20
-42.2799
 30
0.000000
  70
    32
  0
VERTEX
  8
SAPA_FOGBAND
  5
12FA
 10
-15.6709
 20
-42.1638
 30
0.000000
  70
    32
  0
VERTEX
  8
SAPA_FOGBAND
  5
12FB
 10
-15.6680
 20
-42.0476
 30
0.000000
  70
    32
  0
VERTEX
  8
SAPA_FOGBAND
  5
12FC
 10
-15.6732
 20
-41.9314
 30
0.000000
  70
    32
  0
VERTEX
  8
SAPA_FOGBAND
  5
12FD
 10
-15.6862
 20
-41.8156
 30
0.000000
  70
    32
  0
VERTEX
  8
SAPA_FOGBAND
  5
12FE
 10
-15.7072
 20
-41.7004
 30
0.000000
  70
    32
  0
VERTEX
  8
SAPA_FOGBAND
  5
12FF
 10
-15.7360
 20
-41.5861
 30
0.000000
  70
    32
  0
VERTEX
  8
SAPA_FOGBAND
  5
1300
 10
-15.7726
 20
-41.4731
 30
0.000000
  70
    32
  0
VERTEX
  8
SAPA_FOGBAND
  5
1301
 10
-15.8169
 20
-41.3615
 30
0.000000
  70
    32
  0
VERTEX
  8
SAPA_FOGBAND
  5
1302
 10
-15.8688
 20
-41.2516
 30
0.000000
  70
    32
  0
VERTEX
  8
SAPA_FOGBAND
  5
1303
 10
-15.9281
 20
-41.1437
 30
0.000000
  70
    32
  0
VERTEX
  8
SAPA_FOGBAND
  5
1304
 10
-15.9948
 20
-41.0381
 30
0.000000
  70
    32
  0
VERTEX
  8
SAPA_FOGBAND
  5
1305
 10
-16.0686
 20
-40.9350
 30
0.000000
  70
    32
  0
VERTEX
  8
SAPA_FOGBAND
  5
1306
 10
-16.1494
 20
-40.8347
 30
0.000000
  70
    32
  0
VERTEX
  8
SAPA_FOGBAND
  5
1307
 10
-16.2370
 20
-40.7373
 30
0.000000
  70
    32
  0
VERTEX
  8
SAPA_FOGBAND
  5
1308
 10
-16.3312
 20
-40.6432
 30
0.000000
  70
    32
  0
VERTEX
  8
SAPA_FOGBAND
  5
1309
 10
-16.4317
 20
-40.5526
 30
0.000000
  70
    32
  0
VERTEX
  8
SAPA_FOGBAND
  5
130A
 10
-16.5383
 20
-40.4656
 30
0.000000
  70
    32
  0
VERTEX
  8
SAPA_FOGBAND
  5
130B
 10
-16.6507
 20
-40.3825
 30
0.000000
  70
    32
  0
VERTEX
  8
SAPA_FOGBAND
  5
130C
 10
-16.7688
 20
-40.3035
 30
0.000000
  70
    32
  0
VERTEX
  8
SAPA_FOGBAND
  5
130D
 10
-16.8921
 20
-40.2288
 30
0.000000
  70
    32
  0
VERTEX
  8
SAPA_FOGBAND
  5
130E
 10
-17.0205
 20
-40.1586
 30
0.000000
  70
    32
  0
VERTEX
  8
SAPA_FOGBAND
  5
130F
 10
-17.1535
 20
-40.0930
 30
0.000000
  70
    32
  0
VERTEX
  8
SAPA_FOGBAND
  5
1310
 10
-17.2909
 20
-40.0321
 30
0.000000
  70
    32
  0
VERTEX
  8
SAPA_FOGBAND
  5
1311
 10
-17.4323
 20
-39.9762
 30
0.000000
  70
    32
  0
VERTEX
  8
SAPA_FOGBAND
  5
1312
 10
-17.5774
 20
-39.9254
 30
0.000000
  70
    32
  0
VERTEX
  8
SAPA_FOGBAND
  5
1313
 10
-17.7259
 20
-39.8798
 30
0.000000
  70
    32
  0
VERTEX
  8
SAPA_FOGBAND
  5
1314
 10
-17.8773
 20
-39.8394
 30
0.000000
  70
    32
  0
VERTEX
  8
SAPA_FOGBAND
  5
1315
 10
-18.0314
 20
-39.8045
 30
0.000000
  70
    32
  0
VERTEX
  8
SAPA_FOGBAND
  5
1316
 10
-18.1878
 20
-39.7751
 30
0.000000
  70
    32
  0
VERTEX
  8
SAPA_FOGBAND
  5
1317
 10
-18.3460
 20
-39.7512
 30
0.000000
  70
    32
  0
VERTEX
  8
SAPA_FOGBAND
  5
1318
 10
-18.5057
 20
-39.7329
 30
0.000000
  70
    32
  0
VERTEX
  8
SAPA_FOGBAND
  5
1319
 10
-18.6665
 20
-39.7202
 30
0.000000
  70
    32
  0
VERTEX
  8
SAPA_FOGBAND
  5
131A
 10
-18.8280
 20
-39.7133
 30
0.000000
  70
    32
  0
VERTEX
  8
SAPA_FOGBAND
  5
131B
 10
-18.9899
 20
-39.7121
 30
0.000000
  70
    32
  0
VERTEX
  8
SAPA_FOGBAND
  5
131C
 10
-19.1517
 20
-39.7165
 30
0.000000
  70
    32
  0
VERTEX
  8
SAPA_FOGBAND
  5
131D
 10
-19.3131
 20
-39.7267
 30
0.000000
  70
    32
  0
VERTEX
  8
SAPA_FOGBAND
  5
131E
 10
-19.4736
 20
-39.7425
 30
0.000000
  70
    32
  0
VERTEX
  8
SAPA_FOGBAND
  5
131F
 10
-19.6329
 20
-39.7640
 30
0.000000
  70
    32
  0
VERTEX
  8
SAPA_FOGBAND
  5
1320
 10
-19.7906
 20
-39.7910
 30
0.000000
  70
    32
  0
VERTEX
  8
SAPA_FOGBAND
  5
1321
 10
-19.9463
 20
-39.8236
 30
0.000000
  70
    32
  0
VERTEX
  8
SAPA_FOGBAND
  5
1322
 10
-20.0997
 20
-39.8616
 30
0.000000
  70
    32
  0
VERTEX
  8
SAPA_FOGBAND
  5
1323
 10
-20.2503
 20
-39.9049
 30
0.000000
  70
    32
  0
VERTEX
  8
SAPA_FOGBAND
  5
1324
 10
-20.3978
 20
-39.9535
 30
0.000000
  70
    32
  0
VERTEX
  8
SAPA_FOGBAND
  5
1325
 10
-20.5419
 20
-40.0072
 30
0.000000
  70
    32
  0
VERTEX
  8
SAPA_FOGBAND
  5
1326
 10
-20.6822
 20
-40.0659
 30
0.000000
  70
    32
  0
VERTEX
  8
SAPA_FOGBAND
  5
1327
 10
-20.8183
 20
-40.1294
 30
0.000000
  70
    32
  0
VERTEX
  8
SAPA_FOGBAND
  5
1328
 10
-20.9500
 20
-40.1977
 30
0.000000
  70
    32
  0
VERTEX
  8
SAPA_FOGBAND
  5
1329
 10
-21.0769
 20
-40.2705
 30
0.000000
  70
    32
  0
VERTEX
  8
SAPA_FOGBAND
  5
132A
 10
-21.1988
 20
-40.3476
 30
0.000000
  70
    32
  0
VERTEX
  8
SAPA_FOGBAND
  5
132B
 10
-21.3152
 20
-40.4289
 30
0.000000
  70
    32
  0
VERTEX
  8
SAPA_FOGBAND
  5
132C
 10
-21.4260
 20
-40.5142
 30
0.000000
  70
    32
  0
VERTEX
  8
SAPA_FOGBAND
  5
132D
 10
-21.5309
 20
-40.6033
 30
0.000000
  70
    32
  0
VERTEX
  8
SAPA_FOGBAND
  5
132E
 10
-21.6295
 20
-40.6959
 30
0.000000
  70
    32
  0
VERTEX
  8
SAPA_FOGBAND
  5
132F
 10
-21.7218
 20
-40.7919
 30
0.000000
  70
    32
  0
VERTEX
  8
SAPA_FOGBAND
  5
1330
 10
-21.8074
 20
-40.8910
 30
0.000000
  70
    32
  0
VERTEX
  8
SAPA_FOGBAND
  5
1331
 10
-21.8862
 20
-40.9929
 30
0.000000
  70
    32
  0
VERTEX
  8
SAPA_FOGBAND
  5
1332
 10
-21.9580
 20
-41.0975
 30
0.000000
  70
    32
  0
VERTEX
  8
SAPA_FOGBAND
  5
1333
 10
-22.0225
 20
-41.2044
 30
0.000000
  70
    32
  0
VERTEX
  8
SAPA_FOGBAND
  5
1334
 10
-22.0797
 20
-41.3134
 30
0.000000
  70
    32
  0
VERTEX
  8
SAPA_FOGBAND
  5
1335
 10
-22.1294
 20
-41.4243
 30
0.000000
  70
    32
  0
VERTEX
  8
SAPA_FOGBAND
  5
1336
 10
-22.1715
 20
-41.5368
 30
0.000000
  70
    32
  0
VERTEX
  8
SAPA_FOGBAND
  5
1337
 10
-22.2058
 20
-41.6505
 30
0.000000
  70
    32
  0
VERTEX
  8
SAPA_FOGBAND
  5
1338
 10
-22.2323
 20
-41.7654
 30
0.000000
  70
    32
  0
VERTEX
  8
SAPA_FOGBAND
  5
1339
 10
-22.2510
 20
-41.8809
 30
0.000000
  70
    32
  0
VERTEX
  8
SAPA_FOGBAND
  5
133A
 10
-22.2618
 20
-41.9970
 30
0.000000
  70
    32
  0
VERTEX
  8
SAPA_FOGBAND
  5
133B
 10
-22.2646
 20
-42.1132
 30
0.000000
  70
    32
  0
SEQEND
  8
SAPA_FOGBAND
  5
133C
  0
POLYLINE
  5
BA7
  8
SAPA_FOGBAND
 66
     1
 10
0.0
 20
0.0
 30
0.0
 70
     1
  0
VERTEX
  5
11D8
  8
SAPA_FOGBAND
 10
-8.8913247649957157
 20
-46.313365496919573
 30
0.0
  0
VERTEX
  5
11D9
  8
SAPA_FOGBAND
 10
-11.89265192756511
 20
-46.805317836809593
 30
0.0
 42
-0.4464785874932524
  0
VERTEX
  5
11DA
  8
SAPA_FOGBAND
 10
-13.00132718451596
 20
-45.811240531703668
 30
0.0
  0
VERTEX
  5
11DB
  8
SAPA_FOGBAND
 10
-13.00132718451596
 20
-40.350147745600559
 30
0.0
 42
-0.6226769977423571
  0
VERTEX
  5
11DC
  8
SAPA_FOGBAND
 10
-11.390652697902169
 20
-39.558266017437177
 30
0.0
  0
VERTEX
  5
11DD
  8
SAPA_FOGBAND
 10
-8.3893255353327731
 20
-42.033301339954157
 30
0.0
 42
-0.232531183213058
  0
VERTEX
  5
11DE
  8
SAPA_FOGBAND
 10
-8.0000000219465601
 20
-42.825183068117781
 30
0.0
  0
VERTEX
  5
11DF
  8
SAPA_FOGBAND
 10
-8.0000000219465601
 20
-45.319288191813818
 30
0.0
 42
-0.3826682380870913
  0
SEQEND
  5
11E0
  8
SAPA_FOGBAND
  0
POLYLINE
  5
BA8
  8
SAPA_FOGBAND
 66
     1
 10
0.0
 20
0.0
 30
0.0
 70
     1
  0
VERTEX
  5
11E1
  8
SAPA_FOGBAND
 10
-19.30132718451614
 20
-33.799999999010772
 30
0.0
  0
VERTEX
  5
11E2
  8
SAPA_FOGBAND
 10
-19.30132718451614
 20
-34.399999999010667
 30
0.0
 42
-0.9999999999999998
  0
VERTEX
  5
11E3
  8
SAPA_FOGBAND
 10
-21.101327184516322
 20
-34.399999999010667
 30
0.0
  0
VERTEX
  5
11E4
  8
SAPA_FOGBAND
 10
-21.101327184516322
 20
-33.799999999010772
 30
0.0
 42
-0.9999999999999998
  0
SEQEND
  5
11E5
  8
SAPA_FOGBAND
  0
POLYLINE
  5
BA9
  8
SAPA_FOGBAND
 66
     1
 10
0.0
 20
0.0
 30
0.0
  0
VERTEX
  5
11E6
  8
SAPA_FOGBAND
 10
-15.50132718451596
 20
-35.499999999010583
 30
0.0
  0
VERTEX
  5
11E7
  8
SAPA_FOGBAND
 10
-15.173227633781149
 20
-35.499999999010583
 30
0.0
 42
-0.1657205760184635
  0
VERTEX
  5
11E8
  8
SAPA_FOGBAND
 10
-14.56255314716725
 20
-35.708118270847201
 30
0.0
  0
VERTEX
  5
11E9
  8
SAPA_FOGBAND
 10
-5.194662756690831
 20
-41.102703355703049
 30
0.0
 42
-0.2325311832130381
  0
VERTEX
  5
11EA
  8
SAPA_FOGBAND
 10
-4.9999999999968159
 20
-41.498644219784978
 30
0.0
  0
VERTEX
  5
11EB
  8
SAPA_FOGBAND
 10
-5.0012075026578477
 20
-52.350000001426729
 30
0.0
 42
-0.5543163197794524
  0
VERTEX
  5
11EC
  8
SAPA_FOGBAND
 10
-6.9271530581803509
 20
-53.344077306532483
 30
0.0
  0
VERTEX
  5
11ED
  8
SAPA_FOGBAND
 10
-10.25610375088729
 20
-48.499999999011038
 30
0.0
  0
VERTEX
  5
11EE
  8
SAPA_FOGBAND
 10
-25.20132716256694
 20
-48.499999999010981
 30
0.0
 42
-0.425791769969346
  0
VERTEX
  5
11EF
  8
SAPA_FOGBAND
 10
-25.501094716164861
 20
-48.188192636480267
 30
0.0
  0
VERTEX
  5
11F0
  8
SAPA_FOGBAND
 10
-25.01325490149566
 20
-35.788192636479721
 30
0.0
 42
-0.4027293761437539
  0
VERTEX
  5
11F1
  8
SAPA_FOGBAND
 10
-24.71348734789763
 20
-35.499999999010583
 30
0.0
  0
VERTEX
  5
11F2
  8
SAPA_FOGBAND
 10
-23.80132718451523
 20
-35.499999999005922
 30
0.0
  0
SEQEND
  5
11F3
  8
SAPA_FOGBAND
  0
CIRCLE
  5
BAA
  8
SAPA_FOGBAND
 10
-18.629356795614282
 20
-101.0284668553598
 30
0.0
 40
0.2549509756796394
  0
POLYLINE
  5
BAB
  8
SAPA_FOGBAND
 66
     1
 10
0.0
 20
0.0
 30
0.0
 70
     1
  0
VERTEX
  5
11F4
  8
SAPA_FOGBAND
 10
-17.729356795614191
 20
-103.59999999901071
 30
0.0
 42
0.9999999999999998
  0
VERTEX
  5
11F5
  8
SAPA_FOGBAND
 10
-19.529356795614149
 20
-103.59999999901071
 30
0.0
  0
VERTEX
  5
11F6
  8
SAPA_FOGBAND
 10
-19.529356795614149
 20
-104.1999999990107
 30
0.0
 42
0.9999999999999998
  0
VERTEX
  5
11F7
  8
SAPA_FOGBAND
 10
-17.729356795614191
 20
-104.1999999990107
 30
0.0
  0
SEQEND
  5
11F8
  8
SAPA_FOGBAND
  0
POLYLINE
  5
BAC
  8
SAPA_FOGBAND
 66
     1
 10
0.0
 20
0.0
 30
0.0
 70
     1
  0
VERTEX
  5
11F9
  8
SAPA_FOGBAND
 10
-14.37935679561428
 20
-100.16422870385949
 30
0.0
  0
VERTEX
  5
11FA
  8
SAPA_FOGBAND
 10
-14.379356795614051
 20
-102.29999999901059
 30
0.0
 42
-0.4142135623730951
  0
VERTEX
  5
11FB
  8
SAPA_FOGBAND
 10
-14.5793567956141
 20
-102.4999999990107
 30
0.0
  0
VERTEX
  5
11FC
  8
SAPA_FOGBAND
 10
-16.629356795614282
 20
-102.4999999990107
 30
0.0
 42
0.4142135623730951
  0
VERTEX
  5
11FD
  8
SAPA_FOGBAND
 10
-17.129356795614282
 20
-102.9999999990107
 30
0.0
  0
VERTEX
  5
11FE
  8
SAPA_FOGBAND
 10
-17.129356795614282
 20
-103.7267949182538
 30
0.0
  0
VERTEX
  5
11FF
  8
SAPA_FOGBAND
 10
-16.877592986593751
 20
-103.7942548275642
 30
0.0
 42
-0.4740571810232154
  0
VERTEX
  5
1200
  8
SAPA_FOGBAND
 10
-16.750299124230189
 20
-104.0765374132029
 30
0.0
  0
VERTEX
  5
1201
  8
SAPA_FOGBAND
 10
-17.370399626988728
 20
-105.5227435499627
 30
0.0
 42
-0.2846003776496056
  0
VERTEX
  5
1202
  8
SAPA_FOGBAND
 10
-17.818043805448951
 20
-105.79999999901059
 30
0.0
  0
VERTEX
  5
1203
  8
SAPA_FOGBAND
 10
-19.440669785779392
 20
-105.79999999901059
 30
0.0
 42
-0.2846003776496054
  0
VERTEX
  5
1204
  8
SAPA_FOGBAND
 10
-19.888313964239611
 20
-105.5227435499627
 30
0.0
  0
VERTEX
  5
1205
  8
SAPA_FOGBAND
 10
-20.508414466998151
 20
-104.0765374132029
 30
0.0
 42
-0.4740571810232154
  0
VERTEX
  5
1206
  8
SAPA_FOGBAND
 10
-20.381120604634589
 20
-103.7942548275642
 30
0.0
  0
VERTEX
  5
1207
  8
SAPA_FOGBAND
 10
-20.129356795614289
 20
-103.7267949182538
 30
0.0
  0
VERTEX
  5
1208
  8
SAPA_FOGBAND
 10
-20.129356795614289
 20
-102.9999999990107
 30
0.0
 42
0.4142135623730951
  0
VERTEX
  5
1209
  8
SAPA_FOGBAND
 10
-20.629356795614282
 20
-102.4999999990107
 30
0.0
  0
VERTEX
  5
120A
  8
SAPA_FOGBAND
 10
-23.67935679561424
 20
-102.4999999990107
 30
0.0
 42
0.4142135623730951
  0
VERTEX
  5
120B
  8
SAPA_FOGBAND
 10
-23.879356795614289
 20
-102.6999999990107
 30
0.0
  0
VERTEX
  5
120C
  8
SAPA_FOGBAND
 10
-23.879356795614061
 20
-103.59999999901071
 30
0.0
 42
-0.4142135623730951
  0
VERTEX
  5
120D
  8
SAPA_FOGBAND
 10
-24.0793567956141
 20
-103.79999999901059
 30
0.0
  0
VERTEX
  5
120E
  8
SAPA_FOGBAND
 10
-24.779356795614149
 20
-103.79999999901069
 30
0.0
 42
-0.4142135623730951
  0
VERTEX
  5
120F
  8
SAPA_FOGBAND
 10
-25.0793567956141
 20
-103.4999999990107
 30
0.0
  0
VERTEX
  5
1210
  8
SAPA_FOGBAND
 10
-25.0793567956141
 20
-102.6894882223591
 30
0.0
 42
0.1316524975873982
  0
VERTEX
  5
1211
  8
SAPA_FOGBAND
 10
-25.347305988045271
 20
-101.6894882223591
 30
0.0
  0
VERTEX
  5
1212
  8
SAPA_FOGBAND
 10
-29.318018525147409
 20
-99.054121304014984
 30
0.0
 42
-0.876976462992761
  0
VERTEX
  5
1213
  8
SAPA_FOGBAND
 10
-29.21511293523713
 20
-98.536779967898497
 30
0.0
  0
VERTEX
  5
1214
  8
SAPA_FOGBAND
 10
-23.790451373364931
 20
-99.090624764442737
 30
0.0
 42
0.1353185728426623
  0
VERTEX
  5
1215
  8
SAPA_FOGBAND
 10
-23.790451373364931
 20
-99.090624764442737
 30
0.0
  0
VERTEX
  5
1216
  8
SAPA_FOGBAND
 10
-23.552561880536128
 20
-98.678588072042544
 30
0.0
 42
-0.5773502691896196
  0
VERTEX
  5
1217
  8
SAPA_FOGBAND
 10
-23.206151719022269
 20
-98.678588072042544
 30
0.0
  0
VERTEX
  5
1218
  8
SAPA_FOGBAND
 10
-22.96810410229136
 20
-99.0908986346044
 30
0.0
  0
VERTEX
  5
1219
  8
SAPA_FOGBAND
 10
-22.19060949237473
 20
-99.0908986346044
 30
0.0
  0
VERTEX
  5
121A
  8
SAPA_FOGBAND
 10
-21.952561880535988
 20
-98.678588072042544
 30
0.0
 42
-0.5773502691896196
  0
VERTEX
  5
121B
  8
SAPA_FOGBAND
 10
-21.60615171902236
 20
-98.678588072042544
 30
0.0
  0
VERTEX
  5
121C
  8
SAPA_FOGBAND
 10
-21.368104102291451
 20
-99.0908986346044
 30
0.0
  0
VERTEX
  5
121D
  8
SAPA_FOGBAND
 10
-20.590609492374821
 20
-99.0908986346044
 30
0.0
  0
VERTEX
  5
121E
  8
SAPA_FOGBAND
 10
-20.35256188053609
 20
-98.678588072042544
 30
0.0
 42
-0.5773502691896196
  0
VERTEX
  5
121F
  8
SAPA_FOGBAND
 10
-20.006151719022231
 20
-98.678588072042544
 30
0.0
  0
VERTEX
  5
1220
  8
SAPA_FOGBAND
 10
-19.768104102291542
 20
-99.0908986346044
 30
0.0
  0
VERTEX
  5
1221
  8
SAPA_FOGBAND
 10
-18.990609492374691
 20
-99.0908986346044
 30
0.0
  0
VERTEX
  5
1222
  8
SAPA_FOGBAND
 10
-18.752561880536181
 20
-98.678588072042544
 30
0.0
 42
-0.5773502691896196
  0
VERTEX
  5
1223
  8
SAPA_FOGBAND
 10
-18.406151719022319
 20
-98.678588072042544
 30
0.0
  0
VERTEX
  5
1224
  8
SAPA_FOGBAND
 10
-18.168104102291409
 20
-99.0908986346044
 30
0.0
  0
VERTEX
  5
1225
  8
SAPA_FOGBAND
 10
-17.390609492374779
 20
-99.0908986346044
 30
0.0
  0
VERTEX
  5
1226
  8
SAPA_FOGBAND
 10
-17.152561880536041
 20
-98.678588072042544
 30
0.0
 42
-0.5773502691896196
  0
VERTEX
  5
1227
  8
SAPA_FOGBAND
 10
-16.806151719022179
 20
-98.678588072042544
 30
0.0
  0
VERTEX
  5
1228
  8
SAPA_FOGBAND
 10
-16.5681041022915
 20
-99.0908986346044
 30
0.0
  0
VERTEX
  5
1229
  8
SAPA_FOGBAND
 10
-15.79060948820984
 20
-99.0908986346044
 30
0.0
  0
VERTEX
  5
122A
  8
SAPA_FOGBAND
 10
-15.552561876371101
 20
-98.678588072042544
 30
0.0
 42
-0.5773502691896196
  0
VERTEX
  5
122B
  8
SAPA_FOGBAND
 10
-15.20615171485724
 20
-98.678588072042544
 30
0.0
  0
VERTEX
  5
122C
  8
SAPA_FOGBAND
 10
-14.406151715302251
 20
-100.0642287030888
 30
0.0
 42
-0.1316524987190407
  0
SEQEND
  5
122D
  8
SAPA_FOGBAND
  0
INSERT
  5
BAD
  8
SAPA_FOGBAND
  6
CONTINUOUS
  2
*U28
 10
0.0
 20
0.0
 30
0.0
1001
ACAD
1002
{
1000
R14_HATCH_DATA
1000
BAD
1011
1.0
1021
0.0
1031
0.0
1021
0.0
1031
0.0
1011
0.0
1021
0.0
1031
0.0
1021
1.0
1031
0.0
1011
0.0
1021
0.0
1031
0.0
1021
0.0
1031
1.0
1040
0.0
1010
0.0
1020
0.0
1030
1.0
1000
SOLID
1070
     1
1070
     1
1071
        1
1071
        1
1071
        1
1070
     2
1040
-18.629356795614282
1040
-101.0284668553598
1040
0.2549509756796394
1040
0.0
1040
6.2831853071795862
1070
     1
1071
        1
1005
BAA
1070
     0
1070
     1
1071
        1
1040
-18.866095697184392
1040
-100.9466153580309
1040
0.0
1002
}
  0
POLYLINE
  5
BAE
  8
SAPA_FOGBAND
 66
     1
 10
0.0
 20
0.0
 30
0.0
 70
     1
  0
VERTEX
  5
123F
  8
SAPA_FOGBAND
 10
23.30132718451614
 20
-36.299999999010538
 30
0.0
  0
VERTEX
  5
1240
  8
SAPA_FOGBAND
 10
16.001327184515961
 20
-36.299999999010538
 30
0.0
 42
-0.4142135623730951
  0
VERTEX
  5
1241
  8
SAPA_FOGBAND
 10
15.50132718451596
 20
-35.799999999010538
 30
0.0
  0
VERTEX
  5
1242
  8
SAPA_FOGBAND
 10
15.50132718451596
 20
-35.499999999010583
 30
0.0
  0
VERTEX
  5
1243
  8
SAPA_FOGBAND
 10
18.201327184515659
 20
-35.499999999010811
 30
0.0
 42
0.414213562373117
  0
VERTEX
  5
1244
  8
SAPA_FOGBAND
 10
18.701327184515659
 20
-34.999999999010811
 30
0.0
  0
VERTEX
  5
1245
  8
SAPA_FOGBAND
 10
18.701327184515659
 20
-34.273205079767543
 30
0.0
  0
VERTEX
  5
1246
  8
SAPA_FOGBAND
 10
18.449563375495579
 20
-34.205745170457192
 30
0.0
 42
-0.4740571810233732
  0
VERTEX
  5
1247
  8
SAPA_FOGBAND
 10
18.322269513132142
 20
-33.923462584818601
 30
0.0
  0
VERTEX
  5
1248
  8
SAPA_FOGBAND
 10
18.942370015889878
 20
-32.477256448058768
 30
0.0
 42
-0.2846003776494633
  0
VERTEX
  5
1249
  8
SAPA_FOGBAND
 10
19.390014194350549
 20
-32.199999999010629
 30
0.0
  0
VERTEX
  5
124A
  8
SAPA_FOGBAND
 10
21.012640174681682
 20
-32.199999999010629
 30
0.0
 42
-0.2846003776496146
  0
VERTEX
  5
124B
  8
SAPA_FOGBAND
 10
21.46028435314156
 20
-32.47725644805854
 30
0.0
  0
VERTEX
  5
124C
  8
SAPA_FOGBAND
 10
22.08038485589941
 20
-33.923462584818651
 30
0.0
 42
-0.4740571810233364
  0
VERTEX
  5
124D
  8
SAPA_FOGBAND
 10
21.953090993535969
 20
-34.205745170457192
 30
0.0
  0
VERTEX
  5
124E
  8
SAPA_FOGBAND
 10
21.701327184515659
 20
-34.273205079767543
 30
0.0
  0
VERTEX
  5
124F
  8
SAPA_FOGBAND
 10
21.701327184515659
 20
-34.999999999010811
 30
0.0
 42
0.4142135623731218
  0
VERTEX
  5
1250
  8
SAPA_FOGBAND
 10
22.20132718451578
 20
-35.499999999010811
 30
0.0
  0
VERTEX
  5
1251
  8
SAPA_FOGBAND
 10
23.80132718451523
 20
-35.49999999901064
 30
0.0
  0
VERTEX
  5
1252
  8
SAPA_FOGBAND
 10
23.80132718451614
 20
-35.79999999900901
 30
0.0
 42
-0.4142135623739815
  0
SEQEND
  5
1253
  8
SAPA_FOGBAND
  0
POLYLINE
  5
BAF
  8
SAPA_FOGBAND
 10
22.264574318352871
 20
-42.113213331627712
 30
0.0
 66
     1
 70
     8
  0
VERTEX
  8
SAPA_FOGBAND
  5
133D
 10
22.2646
 20
-42.1132
 30
0.000000
  70
    32
  0
VERTEX
  8
SAPA_FOGBAND
  5
133E
 10
22.2594
 20
-42.2294
 30
0.000000
  70
    32
  0
VERTEX
  8
SAPA_FOGBAND
  5
133F
 10
22.2464
 20
-42.3452
 30
0.000000
  70
    32
  0
VERTEX
  8
SAPA_FOGBAND
  5
1340
 10
22.2254
 20
-42.4604
 30
0.000000
  70
    32
  0
VERTEX
  8
SAPA_FOGBAND
  5
1341
 10
22.1966
 20
-42.5746
 30
0.000000
  70
    32
  0
VERTEX
  8
SAPA_FOGBAND
  5
1342
 10
22.1600
 20
-42.6877
 30
0.000000
  70
    32
  0
VERTEX
  8
SAPA_FOGBAND
  5
1343
 10
22.1157
 20
-42.7993
 30
0.000000
  70
    32
  0
VERTEX
  8
SAPA_FOGBAND
  5
1344
 10
22.0638
 20
-42.9092
 30
0.000000
  70
    32
  0
VERTEX
  8
SAPA_FOGBAND
  5
1345
 10
22.0045
 20
-43.0170
 30
0.000000
  70
    32
  0
VERTEX
  8
SAPA_FOGBAND
  5
1346
 10
21.9378
 20
-43.1226
 30
0.000000
  70
    32
  0
VERTEX
  8
SAPA_FOGBAND
  5
1347
 10
21.8640
 20
-43.2258
 30
0.000000
  70
    32
  0
VERTEX
  8
SAPA_FOGBAND
  5
1348
 10
21.7832
 20
-43.3261
 30
0.000000
  70
    32
  0
VERTEX
  8
SAPA_FOGBAND
  5
1349
 10
21.6956
 20
-43.4234
 30
0.000000
  70
    32
  0
VERTEX
  8
SAPA_FOGBAND
  5
134A
 10
21.6015
 20
-43.5176
 30
0.000000
  70
    32
  0
VERTEX
  8
SAPA_FOGBAND
  5
134B
 10
21.5009
 20
-43.6082
 30
0.000000
  70
    32
  0
VERTEX
  8
SAPA_FOGBAND
  5
134C
 10
21.3943
 20
-43.6952
 30
0.000000
  70
    32
  0
VERTEX
  8
SAPA_FOGBAND
  5
134D
 10
21.2819
 20
-43.7783
 30
0.000000
  70
    32
  0
VERTEX
  8
SAPA_FOGBAND
  5
134E
 10
21.1638
 20
-43.8572
 30
0.000000
  70
    32
  0
VERTEX
  8
SAPA_FOGBAND
  5
134F
 10
21.0405
 20
-43.9319
 30
0.000000
  70
    32
  0
VERTEX
  8
SAPA_FOGBAND
  5
1350
 10
20.9121
 20
-44.0022
 30
0.000000
  70
    32
  0
VERTEX
  8
SAPA_FOGBAND
  5
1351
 10
20.7791
 20
-44.0678
 30
0.000000
  70
    32
  0
VERTEX
  8
SAPA_FOGBAND
  5
1352
 10
20.6417
 20
-44.1286
 30
0.000000
  70
    32
  0
VERTEX
  8
SAPA_FOGBAND
  5
1353
 10
20.5003
 20
-44.1845
 30
0.000000
  70
    32
  0
VERTEX
  8
SAPA_FOGBAND
  5
1354
 10
20.3552
 20
-44.2354
 30
0.000000
  70
    32
  0
VERTEX
  8
SAPA_FOGBAND
  5
1355
 10
20.2067
 20
-44.2810
 30
0.000000
  70
    32
  0
VERTEX
  8
SAPA_FOGBAND
  5
1356
 10
20.0553
 20
-44.3213
 30
0.000000
  70
    32
  0
VERTEX
  8
SAPA_FOGBAND
  5
1357
 10
19.9012
 20
-44.3563
 30
0.000000
  70
    32
  0
VERTEX
  8
SAPA_FOGBAND
  5
1358
 10
19.7449
 20
-44.3857
 30
0.000000
  70
    32
  0
VERTEX
  8
SAPA_FOGBAND
  5
1359
 10
19.5866
 20
-44.4096
 30
0.000000
  70
    32
  0
VERTEX
  8
SAPA_FOGBAND
  5
135A
 10
19.4269
 20
-44.4279
 30
0.000000
  70
    32
  0
VERTEX
  8
SAPA_FOGBAND
  5
135B
 10
19.2661
 20
-44.4405
 30
0.000000
  70
    32
  0
VERTEX
  8
SAPA_FOGBAND
  5
135C
 10
19.1046
 20
-44.4475
 30
0.000000
  70
    32
  0
VERTEX
  8
SAPA_FOGBAND
  5
135D
 10
18.9427
 20
-44.4487
 30
0.000000
  70
    32
  0
VERTEX
  8
SAPA_FOGBAND
  5
135E
 10
18.7809
 20
-44.4442
 30
0.000000
  70
    32
  0
VERTEX
  8
SAPA_FOGBAND
  5
135F
 10
18.6196
 20
-44.4341
 30
0.000000
  70
    32
  0
VERTEX
  8
SAPA_FOGBAND
  5
1360
 10
18.4590
 20
-44.4183
 30
0.000000
  70
    32
  0
VERTEX
  8
SAPA_FOGBAND
  5
1361
 10
18.2997
 20
-44.3968
 30
0.000000
  70
    32
  0
VERTEX
  8
SAPA_FOGBAND
  5
1362
 10
18.1420
 20
-44.3698
 30
0.000000
  70
    32
  0
VERTEX
  8
SAPA_FOGBAND
  5
1363
 10
17.9863
 20
-44.3372
 30
0.000000
  70
    32
  0
VERTEX
  8
SAPA_FOGBAND
  5
1364
 10
17.8330
 20
-44.2992
 30
0.000000
  70
    32
  0
VERTEX
  8
SAPA_FOGBAND
  5
1365
 10
17.6823
 20
-44.2559
 30
0.000000
  70
    32
  0
VERTEX
  8
SAPA_FOGBAND
  5
1366
 10
17.5348
 20
-44.2073
 30
0.000000
  70
    32
  0
VERTEX
  8
SAPA_FOGBAND
  5
1367
 10
17.3907
 20
-44.1536
 30
0.000000
  70
    32
  0
VERTEX
  8
SAPA_FOGBAND
  5
1368
 10
17.2504
 20
-44.0949
 30
0.000000
  70
    32
  0
VERTEX
  8
SAPA_FOGBAND
  5
1369
 10
17.1143
 20
-44.0313
 30
0.000000
  70
    32
  0
VERTEX
  8
SAPA_FOGBAND
  5
136A
 10
16.9826
 20
-43.9631
 30
0.000000
  70
    32
  0
VERTEX
  8
SAPA_FOGBAND
  5
136B
 10
16.8557
 20
-43.8903
 30
0.000000
  70
    32
  0
VERTEX
  8
SAPA_FOGBAND
  5
136C
 10
16.7339
 20
-43.8131
 30
0.000000
  70
    32
  0
VERTEX
  8
SAPA_FOGBAND
  5
136D
 10
16.6174
 20
-43.7318
 30
0.000000
  70
    32
  0
VERTEX
  8
SAPA_FOGBAND
  5
136E
 10
16.5066
 20
-43.6465
 30
0.000000
  70
    32
  0
VERTEX
  8
SAPA_FOGBAND
  5
136F
 10
16.4018
 20
-43.5575
 30
0.000000
  70
    32
  0
VERTEX
  8
SAPA_FOGBAND
  5
1370
 10
16.3031
 20
-43.4648
 30
0.000000
  70
    32
  0
VERTEX
  8
SAPA_FOGBAND
  5
1371
 10
16.2108
 20
-43.3689
 30
0.000000
  70
    32
  0
VERTEX
  8
SAPA_FOGBAND
  5
1372
 10
16.1252
 20
-43.2698
 30
0.000000
  70
    32
  0
VERTEX
  8
SAPA_FOGBAND
  5
1373
 10
16.0464
 20
-43.1679
 30
0.000000
  70
    32
  0
VERTEX
  8
SAPA_FOGBAND
  5
1374
 10
15.9746
 20
-43.0633
 30
0.000000
  70
    32
  0
VERTEX
  8
SAPA_FOGBAND
  5
1375
 10
15.9101
 20
-42.9564
 30
0.000000
  70
    32
  0
VERTEX
  8
SAPA_FOGBAND
  5
1376
 10
15.8529
 20
-42.8473
 30
0.000000
  70
    32
  0
VERTEX
  8
SAPA_FOGBAND
  5
1377
 10
15.8032
 20
-42.7365
 30
0.000000
  70
    32
  0
VERTEX
  8
SAPA_FOGBAND
  5
1378
 10
15.7612
 20
-42.6240
 30
0.000000
  70
    32
  0
VERTEX
  8
SAPA_FOGBAND
  5
1379
 10
15.7268
 20
-42.5102
 30
0.000000
  70
    32
  0
VERTEX
  8
SAPA_FOGBAND
  5
137A
 10
15.7003
 20
-42.3954
 30
0.000000
  70
    32
  0
VERTEX
  8
SAPA_FOGBAND
  5
137B
 10
15.6816
 20
-42.2799
 30
0.000000
  70
    32
  0
VERTEX
  8
SAPA_FOGBAND
  5
137C
 10
15.6709
 20
-42.1638
 30
0.000000
  70
    32
  0
VERTEX
  8
SAPA_FOGBAND
  5
137D
 10
15.6680
 20
-42.0476
 30
0.000000
  70
    32
  0
VERTEX
  8
SAPA_FOGBAND
  5
137E
 10
15.6732
 20
-41.9314
 30
0.000000
  70
    32
  0
VERTEX
  8
SAPA_FOGBAND
  5
137F
 10
15.6862
 20
-41.8156
 30
0.000000
  70
    32
  0
VERTEX
  8
SAPA_FOGBAND
  5
1380
 10
15.7072
 20
-41.7004
 30
0.000000
  70
    32
  0
VERTEX
  8
SAPA_FOGBAND
  5
1381
 10
15.7360
 20
-41.5861
 30
0.000000
  70
    32
  0
VERTEX
  8
SAPA_FOGBAND
  5
1382
 10
15.7726
 20
-41.4731
 30
0.000000
  70
    32
  0
VERTEX
  8
SAPA_FOGBAND
  5
1383
 10
15.8169
 20
-41.3615
 30
0.000000
  70
    32
  0
VERTEX
  8
SAPA_FOGBAND
  5
1384
 10
15.8688
 20
-41.2516
 30
0.000000
  70
    32
  0
VERTEX
  8
SAPA_FOGBAND
  5
1385
 10
15.9281
 20
-41.1437
 30
0.000000
  70
    32
  0
VERTEX
  8
SAPA_FOGBAND
  5
1386
 10
15.9948
 20
-41.0381
 30
0.000000
  70
    32
  0
VERTEX
  8
SAPA_FOGBAND
  5
1387
 10
16.0686
 20
-40.9350
 30
0.000000
  70
    32
  0
VERTEX
  8
SAPA_FOGBAND
  5
1388
 10
16.1494
 20
-40.8347
 30
0.000000
  70
    32
  0
VERTEX
  8
SAPA_FOGBAND
  5
1389
 10
16.2370
 20
-40.7373
 30
0.000000
  70
    32
  0
VERTEX
  8
SAPA_FOGBAND
  5
138A
 10
16.3312
 20
-40.6432
 30
0.000000
  70
    32
  0
VERTEX
  8
SAPA_FOGBAND
  5
138B
 10
16.4317
 20
-40.5526
 30
0.000000
  70
    32
  0
VERTEX
  8
SAPA_FOGBAND
  5
138C
 10
16.5383
 20
-40.4656
 30
0.000000
  70
    32
  0
VERTEX
  8
SAPA_FOGBAND
  5
138D
 10
16.6507
 20
-40.3825
 30
0.000000
  70
    32
  0
VERTEX
  8
SAPA_FOGBAND
  5
138E
 10
16.7688
 20
-40.3035
 30
0.000000
  70
    32
  0
VERTEX
  8
SAPA_FOGBAND
  5
138F
 10
16.8921
 20
-40.2288
 30
0.000000
  70
    32
  0
VERTEX
  8
SAPA_FOGBAND
  5
1390
 10
17.0205
 20
-40.1586
 30
0.000000
  70
    32
  0
VERTEX
  8
SAPA_FOGBAND
  5
1391
 10
17.1535
 20
-40.0930
 30
0.000000
  70
    32
  0
VERTEX
  8
SAPA_FOGBAND
  5
1392
 10
17.2909
 20
-40.0321
 30
0.000000
  70
    32
  0
VERTEX
  8
SAPA_FOGBAND
  5
1393
 10
17.4323
 20
-39.9762
 30
0.000000
  70
    32
  0
VERTEX
  8
SAPA_FOGBAND
  5
1394
 10
17.5774
 20
-39.9254
 30
0.000000
  70
    32
  0
VERTEX
  8
SAPA_FOGBAND
  5
1395
 10
17.7259
 20
-39.8798
 30
0.000000
  70
    32
  0
VERTEX
  8
SAPA_FOGBAND
  5
1396
 10
17.8773
 20
-39.8394
 30
0.000000
  70
    32
  0
VERTEX
  8
SAPA_FOGBAND
  5
1397
 10
18.0314
 20
-39.8045
 30
0.000000
  70
    32
  0
VERTEX
  8
SAPA_FOGBAND
  5
1398
 10
18.1878
 20
-39.7751
 30
0.000000
  70
    32
  0
VERTEX
  8
SAPA_FOGBAND
  5
1399
 10
18.3460
 20
-39.7512
 30
0.000000
  70
    32
  0
VERTEX
  8
SAPA_FOGBAND
  5
139A
 10
18.5057
 20
-39.7329
 30
0.000000
  70
    32
  0
VERTEX
  8
SAPA_FOGBAND
  5
139B
 10
18.6665
 20
-39.7202
 30
0.000000
  70
    32
  0
VERTEX
  8
SAPA_FOGBAND
  5
139C
 10
18.8280
 20
-39.7133
 30
0.000000
  70
    32
  0
VERTEX
  8
SAPA_FOGBAND
  5
139D
 10
18.9899
 20
-39.7121
 30
0.000000
  70
    32
  0
VERTEX
  8
SAPA_FOGBAND
  5
139E
 10
19.1517
 20
-39.7165
 30
0.000000
  70
    32
  0
VERTEX
  8
SAPA_FOGBAND
  5
139F
 10
19.3131
 20
-39.7267
 30
0.000000
  70
    32
  0
VERTEX
  8
SAPA_FOGBAND
  5
13A0
 10
19.4736
 20
-39.7425
 30
0.000000
  70
    32
  0
VERTEX
  8
SAPA_FOGBAND
  5
13A1
 10
19.6329
 20
-39.7640
 30
0.000000
  70
    32
  0
VERTEX
  8
SAPA_FOGBAND
  5
13A2
 10
19.7906
 20
-39.7910
 30
0.000000
  70
    32
  0
VERTEX
  8
SAPA_FOGBAND
  5
13A3
 10
19.9463
 20
-39.8236
 30
0.000000
  70
    32
  0
VERTEX
  8
SAPA_FOGBAND
  5
13A4
 10
20.0997
 20
-39.8616
 30
0.000000
  70
    32
  0
VERTEX
  8
SAPA_FOGBAND
  5
13A5
 10
20.2503
 20
-39.9049
 30
0.000000
  70
    32
  0
VERTEX
  8
SAPA_FOGBAND
  5
13A6
 10
20.3978
 20
-39.9535
 30
0.000000
  70
    32
  0
VERTEX
  8
SAPA_FOGBAND
  5
13A7
 10
20.5419
 20
-40.0072
 30
0.000000
  70
    32
  0
VERTEX
  8
SAPA_FOGBAND
  5
13A8
 10
20.6822
 20
-40.0659
 30
0.000000
  70
    32
  0
VERTEX
  8
SAPA_FOGBAND
  5
13A9
 10
20.8183
 20
-40.1294
 30
0.000000
  70
    32
  0
VERTEX
  8
SAPA_FOGBAND
  5
13AA
 10
20.9500
 20
-40.1977
 30
0.000000
  70
    32
  0
VERTEX
  8
SAPA_FOGBAND
  5
13AB
 10
21.0769
 20
-40.2705
 30
0.000000
  70
    32
  0
VERTEX
  8
SAPA_FOGBAND
  5
13AC
 10
21.1988
 20
-40.3476
 30
0.000000
  70
    32
  0
VERTEX
  8
SAPA_FOGBAND
  5
13AD
 10
21.3152
 20
-40.4289
 30
0.000000
  70
    32
  0
VERTEX
  8
SAPA_FOGBAND
  5
13AE
 10
21.4260
 20
-40.5142
 30
0.000000
  70
    32
  0
VERTEX
  8
SAPA_FOGBAND
  5
13AF
 10
21.5309
 20
-40.6033
 30
0.000000
  70
    32
  0
VERTEX
  8
SAPA_FOGBAND
  5
13B0
 10
21.6295
 20
-40.6959
 30
0.000000
  70
    32
  0
VERTEX
  8
SAPA_FOGBAND
  5
13B1
 10
21.7218
 20
-40.7919
 30
0.000000
  70
    32
  0
VERTEX
  8
SAPA_FOGBAND
  5
13B2
 10
21.8074
 20
-40.8910
 30
0.000000
  70
    32
  0
VERTEX
  8
SAPA_FOGBAND
  5
13B3
 10
21.8862
 20
-40.9929
 30
0.000000
  70
    32
  0
VERTEX
  8
SAPA_FOGBAND
  5
13B4
 10
21.9580
 20
-41.0975
 30
0.000000
  70
    32
  0
VERTEX
  8
SAPA_FOGBAND
  5
13B5
 10
22.0225
 20
-41.2044
 30
0.000000
  70
    32
  0
VERTEX
  8
SAPA_FOGBAND
  5
13B6
 10
22.0797
 20
-41.3134
 30
0.000000
  70
    32
  0
VERTEX
  8
SAPA_FOGBAND
  5
13B7
 10
22.1294
 20
-41.4243
 30
0.000000
  70
    32
  0
VERTEX
  8
SAPA_FOGBAND
  5
13B8
 10
22.1715
 20
-41.5368
 30
0.000000
  70
    32
  0
VERTEX
  8
SAPA_FOGBAND
  5
13B9
 10
22.2058
 20
-41.6505
 30
0.000000
  70
    32
  0
VERTEX
  8
SAPA_FOGBAND
  5
13BA
 10
22.2323
 20
-41.7654
 30
0.000000
  70
    32
  0
VERTEX
  8
SAPA_FOGBAND
  5
13BB
 10
22.2510
 20
-41.8809
 30
0.000000
  70
    32
  0
VERTEX
  8
SAPA_FOGBAND
  5
13BC
 10
22.2618
 20
-41.9970
 30
0.000000
  70
    32
  0
VERTEX
  8
SAPA_FOGBAND
  5
13BD
 10
22.2646
 20
-42.1132
 30
0.000000
  70
    32
  0
SEQEND
  8
SAPA_FOGBAND
  5
13BE
  0
POLYLINE
  5
BB0
  8
SAPA_FOGBAND
 66
     1
 10
0.0
 20
0.0
 30
0.0
 70
     1
  0
VERTEX
  5
1254
  8
SAPA_FOGBAND
 10
8.8913247649957157
 20
-46.313365496919573
 30
0.0
  0
VERTEX
  5
1255
  8
SAPA_FOGBAND
 10
11.89265192756511
 20
-46.805317836809593
 30
0.0
 42
0.4464785874932524
  0
VERTEX
  5
1256
  8
SAPA_FOGBAND
 10
13.00132718451596
 20
-45.811240531703668
 30
0.0
  0
VERTEX
  5
1257
  8
SAPA_FOGBAND
 10
13.00132718451596
 20
-40.350147745600559
 30
0.0
 42
0.6226769977423571
  0
VERTEX
  5
1258
  8
SAPA_FOGBAND
 10
11.390652697902169
 20
-39.558266017437177
 30
0.0
  0
VERTEX
  5
1259
  8
SAPA_FOGBAND
 10
8.3893255353327731
 20
-42.033301339954157
 30
0.0
 42
0.232531183213058
  0
VERTEX
  5
125A
  8
SAPA_FOGBAND
 10
8.0000000219465601
 20
-42.825183068117781
 30
0.0
  0
VERTEX
  5
125B
  8
SAPA_FOGBAND
 10
8.0000000219465601
 20
-45.319288191813818
 30
0.0
 42
0.3826682380870913
  0
SEQEND
  5
125C
  8
SAPA_FOGBAND
  0
POLYLINE
  5
BB1
  8
SAPA_FOGBAND
 66
     1
 10
0.0
 20
0.0
 30
0.0
 70
     1
  0
VERTEX
  5
125D
  8
SAPA_FOGBAND
 10
19.30132718451614
 20
-33.799999999010772
 30
0.0
  0
VERTEX
  5
125E
  8
SAPA_FOGBAND
 10
19.30132718451614
 20
-34.399999999010667
 30
0.0
 42
0.9999999999999998
  0
VERTEX
  5
125F
  8
SAPA_FOGBAND
 10
21.101327184516322
 20
-34.399999999010667
 30
0.0
  0
VERTEX
  5
1260
  8
SAPA_FOGBAND
 10
21.101327184516322
 20
-33.799999999010772
 30
0.0
 42
0.9999999999999998
  0
SEQEND
  5
1261
  8
SAPA_FOGBAND
  0
POLYLINE
  5
BB2
  8
SAPA_FOGBAND
 66
     1
 10
0.0
 20
0.0
 30
0.0
  0
VERTEX
  5
1262
  8
SAPA_FOGBAND
 10
15.50132718451596
 20
-35.499999999010583
 30
0.0
  0
VERTEX
  5
1263
  8
SAPA_FOGBAND
 10
15.173227633781149
 20
-35.499999999010583
 30
0.0
 42
0.1657205760184635
  0
VERTEX
  5
1264
  8
SAPA_FOGBAND
 10
14.56255314716725
 20
-35.708118270847201
 30
0.0
  0
VERTEX
  5
1265
  8
SAPA_FOGBAND
 10
5.194662756690831
 20
-41.102703355703049
 30
0.0
 42
0.2325311832130381
  0
VERTEX
  5
1266
  8
SAPA_FOGBAND
 10
4.9999999999968159
 20
-41.498644219784978
 30
0.0
  0
VERTEX
  5
1267
  8
SAPA_FOGBAND
 10
5.0012075026578477
 20
-52.350000001426729
 30
0.0
 42
0.5543163197794524
  0
VERTEX
  5
1268
  8
SAPA_FOGBAND
 10
6.9271530581803509
 20
-53.344077306532483
 30
0.0
  0
VERTEX
  5
1269
  8
SAPA_FOGBAND
 10
10.25610375088729
 20
-48.499999999011038
 30
0.0
  0
VERTEX
  5
126A
  8
SAPA_FOGBAND
 10
25.20132716256694
 20
-48.499999999010981
 30
0.0
 42
0.425791769969346
  0
VERTEX
  5
126B
  8
SAPA_FOGBAND
 10
25.501094716164861
 20
-48.188192636480267
 30
0.0
  0
VERTEX
  5
126C
  8
SAPA_FOGBAND
 10
25.01325490149566
 20
-35.788192636479721
 30
0.0
 42
0.4027293761437539
  0
VERTEX
  5
126D
  8
SAPA_FOGBAND
 10
24.71348734789763
 20
-35.499999999010583
 30
0.0
  0
VERTEX
  5
126E
  8
SAPA_FOGBAND
 10
23.80132718451523
 20
-35.499999999005922
 30
0.0
  0
SEQEND
  5
126F
  8
SAPA_FOGBAND
  0
CIRCLE
  5
BB3
  8
SAPA_FOGBAND
 10
18.629356795614282
 20
-101.0284668553598
 30
0.0
 40
0.2549509756796394
  0
POLYLINE
  5
BB4
  8
SAPA_FOGBAND
 66
     1
 10
0.0
 20
0.0
 30
0.0
 70
     1
  0
VERTEX
  5
1270
  8
SAPA_FOGBAND
 10
17.729356795614191
 20
-103.59999999901071
 30
0.0
 42
-0.9999999999999998
  0
VERTEX
  5
1271
  8
SAPA_FOGBAND
 10
19.529356795614149
 20
-103.59999999901071
 30
0.0
  0
VERTEX
  5
1272
  8
SAPA_FOGBAND
 10
19.529356795614149
 20
-104.1999999990107
 30
0.0
 42
-0.9999999999999998
  0
VERTEX
  5
1273
  8
SAPA_FOGBAND
 10
17.729356795614191
 20
-104.1999999990107
 30
0.0
  0
SEQEND
  5
1274
  8
SAPA_FOGBAND
  0
POLYLINE
  5
BB5
  8
SAPA_FOGBAND
 66
     1
 10
0.0
 20
0.0
 30
0.0
 70
     1
  0
VERTEX
  5
1275
  8
SAPA_FOGBAND
 10
14.37935679561428
 20
-100.16422870385949
 30
0.0
  0
VERTEX
  5
1276
  8
SAPA_FOGBAND
 10
14.379356795614051
 20
-102.29999999901059
 30
0.0
 42
0.4142135623730951
  0
VERTEX
  5
1277
  8
SAPA_FOGBAND
 10
14.5793567956141
 20
-102.4999999990107
 30
0.0
  0
VERTEX
  5
1278
  8
SAPA_FOGBAND
 10
16.629356795614282
 20
-102.4999999990107
 30
0.0
 42
-0.4142135623730951
  0
VERTEX
  5
1279
  8
SAPA_FOGBAND
 10
17.129356795614282
 20
-102.9999999990107
 30
0.0
  0
VERTEX
  5
127A
  8
SAPA_FOGBAND
 10
17.129356795614282
 20
-103.7267949182538
 30
0.0
  0
VERTEX
  5
127B
  8
SAPA_FOGBAND
 10
16.877592986593751
 20
-103.7942548275642
 30
0.0
 42
0.4740571810232154
  0
VERTEX
  5
127C
  8
SAPA_FOGBAND
 10
16.750299124230189
 20
-104.0765374132029
 30
0.0
  0
VERTEX
  5
127D
  8
SAPA_FOGBAND
 10
17.370399626988728
 20
-105.5227435499627
 30
0.0
 42
0.2846003776496056
  0
VERTEX
  5
127E
  8
SAPA_FOGBAND
 10
17.818043805448951
 20
-105.79999999901059
 30
0.0
  0
VERTEX
  5
127F
  8
SAPA_FOGBAND
 10
19.440669785779392
 20
-105.79999999901059
 30
0.0
 42
0.2846003776496054
  0
VERTEX
  5
1280
  8
SAPA_FOGBAND
 10
19.888313964239611
 20
-105.5227435499627
 30
0.0
  0
VERTEX
  5
1281
  8
SAPA_FOGBAND
 10
20.508414466998151
 20
-104.0765374132029
 30
0.0
 42
0.4740571810232154
  0
VERTEX
  5
1282
  8
SAPA_FOGBAND
 10
20.381120604634589
 20
-103.7942548275642
 30
0.0
  0
VERTEX
  5
1283
  8
SAPA_FOGBAND
 10
20.129356795614289
 20
-103.7267949182538
 30
0.0
  0
VERTEX
  5
1284
  8
SAPA_FOGBAND
 10
20.129356795614289
 20
-102.9999999990107
 30
0.0
 42
-0.4142135623730951
  0
VERTEX
  5
1285
  8
SAPA_FOGBAND
 10
20.629356795614282
 20
-102.4999999990107
 30
0.0
  0
VERTEX
  5
1286
  8
SAPA_FOGBAND
 10
23.67935679561424
 20
-102.4999999990107
 30
0.0
 42
-0.4142135623730951
  0
VERTEX
  5
1287
  8
SAPA_FOGBAND
 10
23.879356795614289
 20
-102.6999999990107
 30
0.0
  0
VERTEX
  5
1288
  8
SAPA_FOGBAND
 10
23.879356795614061
 20
-103.59999999901071
 30
0.0
 42
0.4142135623730951
  0
VERTEX
  5
1289
  8
SAPA_FOGBAND
 10
24.0793567956141
 20
-103.79999999901059
 30
0.0
  0
VERTEX
  5
128A
  8
SAPA_FOGBAND
 10
24.779356795614149
 20
-103.79999999901069
 30
0.0
 42
0.4142135623730951
  0
VERTEX
  5
128B
  8
SAPA_FOGBAND
 10
25.0793567956141
 20
-103.4999999990107
 30
0.0
  0
VERTEX
  5
128C
  8
SAPA_FOGBAND
 10
25.0793567956141
 20
-102.6894882223591
 30
0.0
 42
-0.1316524975873982
  0
VERTEX
  5
128D
  8
SAPA_FOGBAND
 10
25.347305988045271
 20
-101.6894882223591
 30
0.0
  0
VERTEX
  5
128E
  8
SAPA_FOGBAND
 10
29.318018525147409
 20
-99.054121304014984
 30
0.0
 42
0.876976462992761
  0
VERTEX
  5
128F
  8
SAPA_FOGBAND
 10
29.21511293523713
 20
-98.536779967898497
 30
0.0
  0
VERTEX
  5
1290
  8
SAPA_FOGBAND
 10
23.790451373364931
 20
-99.090624764442737
 30
0.0
 42
-0.1353185728426623
  0
VERTEX
  5
1291
  8
SAPA_FOGBAND
 10
23.790451373364931
 20
-99.090624764442737
 30
0.0
  0
VERTEX
  5
1292
  8
SAPA_FOGBAND
 10
23.552561880536128
 20
-98.678588072042544
 30
0.0
 42
0.5773502691896196
  0
VERTEX
  5
1293
  8
SAPA_FOGBAND
 10
23.206151719022269
 20
-98.678588072042544
 30
0.0
  0
VERTEX
  5
1294
  8
SAPA_FOGBAND
 10
22.96810410229136
 20
-99.0908986346044
 30
0.0
  0
VERTEX
  5
1295
  8
SAPA_FOGBAND
 10
22.19060949237473
 20
-99.0908986346044
 30
0.0
  0
VERTEX
  5
1296
  8
SAPA_FOGBAND
 10
21.952561880535988
 20
-98.678588072042544
 30
0.0
 42
0.5773502691896196
  0
VERTEX
  5
1297
  8
SAPA_FOGBAND
 10
21.60615171902236
 20
-98.678588072042544
 30
0.0
  0
VERTEX
  5
1298
  8
SAPA_FOGBAND
 10
21.368104102291451
 20
-99.0908986346044
 30
0.0
  0
VERTEX
  5
1299
  8
SAPA_FOGBAND
 10
20.590609492374821
 20
-99.0908986346044
 30
0.0
  0
VERTEX
  5
129A
  8
SAPA_FOGBAND
 10
20.35256188053609
 20
-98.678588072042544
 30
0.0
 42
0.5773502691896196
  0
VERTEX
  5
129B
  8
SAPA_FOGBAND
 10
20.006151719022231
 20
-98.678588072042544
 30
0.0
  0
VERTEX
  5
129C
  8
SAPA_FOGBAND
 10
19.768104102291542
 20
-99.0908986346044
 30
0.0
  0
VERTEX
  5
129D
  8
SAPA_FOGBAND
 10
18.990609492374691
 20
-99.0908986346044
 30
0.0
  0
VERTEX
  5
129E
  8
SAPA_FOGBAND
 10
18.752561880536181
 20
-98.678588072042544
 30
0.0
 42
0.5773502691896196
  0
VERTEX
  5
129F
  8
SAPA_FOGBAND
 10
18.406151719022319
 20
-98.678588072042544
 30
0.0
  0
VERTEX
  5
12A0
  8
SAPA_FOGBAND
 10
18.168104102291409
 20
-99.0908986346044
 30
0.0
  0
VERTEX
  5
12A1
  8
SAPA_FOGBAND
 10
17.390609492374779
 20
-99.0908986346044
 30
0.0
  0
VERTEX
  5
12A2
  8
SAPA_FOGBAND
 10
17.152561880536041
 20
-98.678588072042544
 30
0.0
 42
0.5773502691896196
  0
VERTEX
  5
12A3
  8
SAPA_FOGBAND
 10
16.806151719022179
 20
-98.678588072042544
 30
0.0
  0
VERTEX
  5
12A4
  8
SAPA_FOGBAND
 10
16.5681041022915
 20
-99.0908986346044
 30
0.0
  0
VERTEX
  5
12A5
  8
SAPA_FOGBAND
 10
15.79060948820984
 20
-99.0908986346044
 30
0.0
  0
VERTEX
  5
12A6
  8
SAPA_FOGBAND
 10
15.552561876371101
 20
-98.678588072042544
 30
0.0
 42
0.5773502691896196
  0
VERTEX
  5
12A7
  8
SAPA_FOGBAND
 10
15.20615171485724
 20
-98.678588072042544
 30
0.0
  0
VERTEX
  5
12A8
  8
SAPA_FOGBAND
 10
14.406151715302251
 20
-100.0642287030888
 30
0.0
 42
0.1316524987190407
  0
SEQEND
  5
12A9
  8
SAPA_FOGBAND
  0
INSERT
  5
BB6
  8
SAPA_FOGBAND
  6
CONTINUOUS
  2
*U29
 10
0.0
 20
0.0
 30
0.0
1001
ACAD
1002
{
1000
R14_HATCH_DATA
1000
BB6
1011
1.0
1021
0.0
1031
0.0
1021
0.0
1031
0.0
1011
0.0
1021
0.0
1031
0.0
1021
1.0
1031
0.0
1011
0.0
1021
0.0
1031
0.0
1021
0.0
1031
1.0
1040
0.0
1010
0.0
1020
0.0
1030
1.0
1000
SOLID
1070
     1
1070
     1
1071
        1
1071
        1
1071
        1
1070
     2
1040
18.629356795614282
1040
-101.0284668553598
1040
0.2549509756796394
1040
-3.1415926535897931
1040
3.1415926535897931
1070
     0
1071
        1
1005
BB3
1070
     0
1070
     1
1071
        1
1040
18.866095697184392
1040
-100.9466153580309
1040
0.0
1002
}
  0
VIEWPORT
  5
C4
 67
     1
  8
0
 10
160.5543545598442
 20
116.00969601843509
 30
0.0
 40
404.96977709277462
 41
256.8421457311839
 68
     1
 69
     1
1001
ACAD
1000
MVIEW
1002
{
1070
    16
1010
0.0
1020
0.0
1030
0.0
1010
0.0
1020
0.0
1030
1.0
1040
-1.5707963267948959
1040
256.8421457311839
1040
102.1562485694885
1040
-121.90624046325679
1040
50.0
1040
0.0
1040
0.0
1070
     0
1070
     0
1070
     1
1070
     1
1070
     0
1070
     0
1070
     0
1070
     0
1040
0.0
1040
0.0
1040
0.0
1040
10.0
1040
10.0
1040
10.0
1040
10.0
1070
     0
1002
{
1002
}
1002
}
  0
ENDSEC
  0
EOF
