  0
SECTION
  2
HEADER
  9
$ACADVER
  1
AC1009
  9
$INSBASE
 10
0.0
 20
0.0
 30
0.0
  9
$EXTMIN
 10
-2.2669571333772089
 20
-25.670781880781249
 30
0.0
  9
$EXTMAX
 10
87.678569118779507
 20
252.72341374036139
 30
0.0
  9
$LIMMIN
 10
0.0
 20
0.0
  9
$LIMMAX
 10
790.0
 20
790.0
  9
$ORTHOMODE
 70
     1
  9
$REGENMODE
 70
     1
  9
$FILLMODE
 70
     1
  9
$QTEXTMODE
 70
     0
  9
$MIRRTEXT
 70
     1
  9
$DRAGMODE
 70
     2
  9
$LTSCALE
 40
4.0
  9
$OSMODE
 70
   167
  9
$ATTMODE
 70
     1
  9
$TEXTSIZE
 40
3.5
  9
$TRACEWID
 40
0.05
  9
$TEXTSTYLE
  7
ISO
  9
$CLAYER
  8
0
  9
$CELTYPE
  6
BYLAYER
  9
$CECOLOR
 62
   256
  9
$DIMSCALE
 40
0.0
  9
$DIMASZ
 40
3.0
  9
$DIMEXO
 40
1.5
  9
$DIMDLI
 40
10.0
  9
$DIMRND
 40
0.0
  9
$DIMDLE
 40
0.0
  9
$DIMEXE
 40
1.5
  9
$DIMTP
 40
0.0
  9
$DIMTM
 40
0.0
  9
$DIMTXT
 40
3.0
  9
$DIMCEN
 40
-5.0
  9
$DIMTSZ
 40
0.0
  9
$DIMTOL
 70
     0
  9
$DIMLIM
 70
     0
  9
$DIMTIH
 70
     0
  9
$DIMTOH
 70
     0
  9
$DIMSE1
 70
     0
  9
$DIMSE2
 70
     0
  9
$DIMTAD
 70
     1
  9
$DIMZIN
 70
     8
  9
$DIMBLK
  1

  9
$DIMASO
 70
     1
  9
$DIMSHO
 70
     1
  9
$DIMPOST
  1

  9
$DIMAPOST
  1

  9
$DIMALT
 70
     0
  9
$DIMALTD
 70
     0
  9
$DIMALTF
 40
25.399999999999999
  9
$DIMLFAC
 40
-1.0
  9
$DIMTOFL
 70
     1
  9
$DIMTVP
 40
0.0
  9
$DIMTIX
 70
     0
  9
$DIMSOXD
 70
     0
  9
$DIMSAH
 70
     0
  9
$DIMBLK1
  1

  9
$DIMBLK2
  1

  9
$DIMSTYLE
  2
MASKIN
  9
$DIMCLRD
 70
   256
  9
$DIMCLRE
 70
   256
  9
$DIMCLRT
 70
     2
  9
$DIMTFAC
 40
1.0
  9
$DIMGAP
 40
1.0
  9
$LUNITS
 70
     2
  9
$LUPREC
 70
     8
  9
$SKETCHINC
 40
0.1
  9
$FILLETRAD
 40
0.0
  9
$AUNITS
 70
     0
  9
$AUPREC
 70
     8
  9
$MENU
  1
ACAD
  9
$ELEVATION
 40
0.0
  9
$PELEVATION
 40
0.0
  9
$THICKNESS
 40
0.0
  9
$LIMCHECK
 70
     0
  9
$BLIPMODE
 70
     0
  9
$CHAMFERA
 40
0.0
  9
$CHAMFERB
 40
0.0
  9
$SKPOLY
 70
     0
  9
$TDCREATE
 40
2457436.6567995488
  9
$TDUPDATE
 40
2457498.3581382171
  9
$TDINDWG
 40
0.0093979745
  9
$TDUSRTIMER
 40
0.0093977894
  9
$USRTIMER
 70
     1
  9
$ANGBASE
 50
0.0
  9
$ANGDIR
 70
     0
  9
$PDMODE
 70
     0
  9
$PDSIZE
 40
0.0
  9
$PLINEWID
 40
0.0
  9
$COORDS
 70
     1
  9
$SPLFRAME
 70
     0
  9
$SPLINETYPE
 70
     6
  9
$SPLINESEGS
 70
     8
  9
$ATTDIA
 70
     0
  9
$ATTREQ
 70
     1
  9
$HANDLING
 70
     1
  9
$HANDSEED
  5
16BB
  9
$SURFTAB1
 70
     6
  9
$SURFTAB2
 70
     6
  9
$SURFTYPE
 70
     6
  9
$SURFU
 70
     6
  9
$SURFV
 70
     6
  9
$UCSNAME
  2

  9
$UCSORG
 10
0.0
 20
0.0
 30
0.0
  9
$UCSXDIR
 10
1.0
 20
0.0
 30
0.0
  9
$UCSYDIR
 10
0.0
 20
1.0
 30
0.0
  9
$PUCSNAME
  2

  9
$PUCSORG
 10
0.0
 20
0.0
 30
0.0
  9
$PUCSXDIR
 10
1.0
 20
0.0
 30
0.0
  9
$PUCSYDIR
 10
0.0
 20
1.0
 30
0.0
  9
$USERI1
 70
     0
  9
$USERI2
 70
     0
  9
$USERI3
 70
     0
  9
$USERI4
 70
     0
  9
$USERI5
 70
     0
  9
$USERR1
 40
0.0
  9
$USERR2
 40
0.0
  9
$USERR3
 40
0.0
  9
$USERR4
 40
0.0
  9
$USERR5
 40
0.0
  9
$WORLDVIEW
 70
     1
  9
$SHADEDGE
 70
     3
  9
$SHADEDIF
 70
    70
  9
$TILEMODE
 70
     1
  9
$MAXACTVP
 70
    16
  9
$PLIMCHECK
 70
     0
  9
$PEXTMIN
 10
1.0000000000000000E+020
 20
1.0000000000000000E+020
 30
1.0000000000000000E+020
  9
$PEXTMAX
 10
-1.0000000000000000E+020
 20
-1.0000000000000000E+020
 30
-1.0000000000000000E+020
  9
$PLIMMIN
 10
-5.069427490234375
 20
-5.8737497329711914
  9
$PLIMMAX
 10
291.89889526367187
 20
204.0995779037475
  9
$UNITMODE
 70
     0
  9
$VISRETAIN
 70
     1
  9
$PLINEGEN
 70
     0
  9
$PSLTSCALE
 70
     1
  0
ENDSEC
  0
SECTION
  2
TABLES
  0
TABLE
  2
VPORT
 70
     1
  0
VPORT
  2
*ACTIVE
 70
     0
 10
0.0
 20
0.0
 11
1.0
 21
1.0
 12
139.44839399580891
 22
134.97763717894651
 13
0.0
 23
0.0
 14
1.0
 24
1.0
 15
0.0
 25
0.0
 16
0.0
 26
0.0
 36
1.0
 17
0.0
 27
0.0
 37
0.0
 40
212.54613287566221
 41
1.9285714285714279
 42
50.0
 43
0.0
 44
0.0
 50
0.0
 51
0.0
 71
     0
 72
   100
 73
     1
 74
     1
 75
     0
 76
     0
 77
     0
 78
     0
  0
ENDTAB
  0
TABLE
  2
LTYPE
 70
    31
  0
LTYPE
  2
CONTINUOUS
 70
     0
  3
Solid line
 72
    65
 73
     0
 40
0.0
  0
LTYPE
  2
NEWDOT
 70
     0
  3
____ . ____ . ____ . ____ . ____ . ____ . ____
 72
    65
 73
     4
 40
2.0
 49
1.0
 49
-0.5
 49
0.0
 49
-0.5
  0
LTYPE
  2
DASHDOT
 70
     0
  3
__ . __ . __ . __ . __ . __ . __ . __ . __ . __
 72
    65
 73
     4
 40
1.0
 49
0.5
 49
-0.25
 49
0.0
 49
-0.25
  0
LTYPE
  2
DASHED
 70
     0
  3
__ __ __ __ __ __ __ __ __ __ __ __ __ __ __
 72
    65
 73
     2
 40
0.75
 49
0.5
 49
-0.25
  0
LTYPE
  2
PHANTOM
 70
     0
  3
Phantom ______  __  __  ______  __  __  ______
 72
    65
 73
     6
 40
63.5
 49
31.75
 49
-6.3499999999999988
 49
6.3499999999999988
 49
-6.3499999999999988
 49
6.3499999999999988
 49
-6.3499999999999988
  0
LTYPE
  2
BYGG-014279$0$NEWDOT
 70
     0
  3
____ . ____ . ____ . ____ . ____ . ____ . ____
 72
    65
 73
     4
 40
2.0
 49
1.0
 49
-0.5
 49
0.0
 49
-0.5
  0
LTYPE
  2
BYGG-014279$0$ZIGZAG
 70
     0
  3
Zig zag /\/\/\/\/\/\/\/\/\/\/\/\/\/\/\/\/\/\/\/\/\/\/\/
 72
    65
 73
     4
 40
20.32254
 49
0.00254
 49
-5.0800000000000001
 49
-10.16
 49
-5.0800000000000001
  0
LTYPE
  2
BYGG-01482301$0$NEWDOT
 70
     0
  3
____ . ____ . ____ . ____ . ____ . ____ . ____
 72
    65
 73
     4
 40
2.0
 49
1.0
 49
-0.5
 49
0.0
 49
-0.5
  0
LTYPE
  2
BYGG-01482301$0$ZIGZAG
 70
     0
  3
Zig zag /\/\/\/\/\/\/\/\/\/\/\/\/\/\/\/\/\/\/\/\/\/\/\/
 72
    65
 73
     4
 40
20.32254
 49
0.00254
 49
-5.0800000000000001
 49
-10.16
 49
-5.0800000000000001
  0
LTYPE
  2
BYGG-023714$0$NEWDOT
 70
     0
  3
____ . ____ . ____ . ____ . ____ . ____ . ____
 72
    65
 73
     4
 40
2.0
 49
1.0
 49
-0.5
 49
0.0
 49
-0.5
  0
LTYPE
  2
BYGG-023714$0$DASHDOT
 70
     0
  3
__ . __ . __ . __ . __ . __ . __ . __ . __ . __
 72
    65
 73
     4
 40
1.0
 49
0.5
 49
-0.25
 49
0.0
 49
-0.25
  0
LTYPE
  2
BYGG-023714$0$DASHED
 70
     0
  3
__ __ __ __ __ __ __ __ __ __ __ __ __ __ __
 72
    65
 73
     2
 40
0.75
 49
0.5
 49
-0.25
  0
LTYPE
  2
BYGG-023714$0$PHANTOM
 70
     0
  3
Phantom ______  __  __  ______  __  __  ______
 72
    65
 73
     6
 40
63.5
 49
31.75
 49
-6.3499999999999988
 49
6.3499999999999988
 49
-6.3499999999999988
 49
6.3499999999999988
 49
-6.3499999999999988
  0
LTYPE
  2
BYGG-023714$0$ZIGZAG
 70
     0
  3
Zig zag /\/\/\/\/\/\/\/\/\/\/\/\/\/\/\/\/\/\/\/\/\/\/\/
 72
    65
 73
     4
 40
20.32254
 49
0.00254
 49
-5.0800000000000001
 49
-10.16
 49
-5.0800000000000001
  0
LTYPE
  2
BYGG-021480$0$NEWDOT
 70
     0
  3
____ . ____ . ____ . ____ . ____ . ____ . ____
 72
    65
 73
     4
 40
2.0
 49
1.0
 49
-0.5
 49
0.0
 49
-0.5
  0
LTYPE
  2
BYGG-021480$0$DASHDOT
 70
     0
  3
__ . __ . __ . __ . __ . __ . __ . __ . __ . __
 72
    65
 73
     4
 40
1.0
 49
0.5
 49
-0.25
 49
0.0
 49
-0.25
  0
LTYPE
  2
BYGG-021480$0$DASHED
 70
     0
  3
__ __ __ __ __ __ __ __ __ __ __ __ __ __ __
 72
    65
 73
     2
 40
0.75
 49
0.5
 49
-0.25
  0
LTYPE
  2
BYGG-021480$0$PHANTOM
 70
     0
  3
Phantom ______  __  __  ______  __  __  ______
 72
    65
 73
     6
 40
63.5
 49
31.75
 49
-6.3499999999999988
 49
6.3499999999999988
 49
-6.3499999999999988
 49
6.3499999999999988
 49
-6.3499999999999988
  0
LTYPE
  2
BYGG-025115$0$NEWDOT
 70
     0
  3
____ . ____ . ____ . ____ . ____ . ____ . ____
 72
    65
 73
     4
 40
2.0
 49
1.0
 49
-0.5
 49
0.0
 49
-0.5
  0
LTYPE
  2
BYGG-025115$0$DASHDOT
 70
     0
  3
__ . __ . __ . __ . __ . __ . __ . __ . __ . __
 72
    65
 73
     4
 40
1.0
 49
0.5
 49
-0.25
 49
0.0
 49
-0.25
  0
LTYPE
  2
BYGG-025115$0$DASHED
 70
     0
  3
__ __ __ __ __ __ __ __ __ __ __ __ __ __ __
 72
    65
 73
     2
 40
0.75
 49
0.5
 49
-0.25
  0
LTYPE
  2
BYGG-025115$0$PHANTOM
 70
     0
  3
Phantom ______  __  __  ______  __  __  ______
 72
    65
 73
     6
 40
63.5
 49
31.75
 49
-6.3499999999999988
 49
6.3499999999999988
 49
-6.3499999999999988
 49
6.3499999999999988
 49
-6.3499999999999988
  0
LTYPE
  2
BYGG-020805$0$NEWDOT
 70
     0
  3
____ . ____ . ____ . ____ . ____ . ____ . ____
 72
    65
 73
     4
 40
2.0
 49
1.0
 49
-0.5
 49
0.0
 49
-0.5
  0
LTYPE
  2
BYGG-020805$0$DASHDOT
 70
     0
  3
__ . __ . __ . __ . __ . __ . __ . __ . __ . __
 72
    65
 73
     4
 40
1.0
 49
0.5
 49
-0.25
 49
0.0
 49
-0.25
  0
LTYPE
  2
BYGG-020805$0$DASHED
 70
     0
  3
__ __ __ __ __ __ __ __ __ __ __ __ __ __ __
 72
    65
 73
     2
 40
0.75
 49
0.5
 49
-0.25
  0
LTYPE
  2
BYGG-020805$0$PHANTOM
 70
     0
  3
Phantom ______  __  __  ______  __  __  ______
 72
    65
 73
     6
 40
63.5
 49
31.75
 49
-6.3499999999999988
 49
6.3499999999999988
 49
-6.3499999999999988
 49
6.3499999999999988
 49
-6.3499999999999988
  0
LTYPE
  2
BYGG-035302$0$NEWDOT
 70
     0
  3
____ . ____ . ____ . ____ . ____ . ____ . ____
 72
    65
 73
     4
 40
2.0
 49
1.0
 49
-0.5
 49
0.0
 49
-0.5
  0
LTYPE
  2
BYGG-035302$0$DASHDOT
 70
     0
  3
__ . __ . __ . __ . __ . __ . __ . __ . __ . __
 72
    65
 73
     4
 40
1.0
 49
0.5
 49
-0.25
 49
0.0
 49
-0.25
  0
LTYPE
  2
BYGG-035302$0$DASHED
 70
     0
  3
__ __ __ __ __ __ __ __ __ __ __ __ __ __ __
 72
    65
 73
     2
 40
0.75
 49
0.5
 49
-0.25
  0
LTYPE
  2
BYGG-035302$0$PHANTOM
 70
     0
  3
Phantom ______  __  __  ______  __  __  ______
 72
    65
 73
     6
 40
63.5
 49
31.75
 49
-6.3499999999999988
 49
6.3499999999999988
 49
-6.3499999999999988
 49
6.3499999999999988
 49
-6.3499999999999988
  0
LTYPE
  2
BYGG-014279$0$PHANTOM2
 70
     0
  3
Phantom (.5x) ___ _ _ ___ _ _ ___ _ _ ___ _ _
 72
    65
 73
     6
 40
1.25
 49
0.625
 49
-0.125
 49
0.125
 49
-0.125
 49
0.125
 49
-0.125
  0
ENDTAB
  0
TABLE
  2
LAYER
 70
   183
  0
LAYER
  2
0
 70
     0
 62
     7
  6
CONTINUOUS
  0
LAYER
  2
SAPA_ANSLUTNING
 70
     0
 62
     6
  6
CONTINUOUS
  0
LAYER
  2
SAPA_FYLLNING
 70
     0
 62
     4
  6
CONTINUOUS
  0
LAYER
  2
SAPA_ISOLATOR
 70
     0
 62
     4
  6
CONTINUOUS
  0
LAYER
  2
SAPA_GLAS
 70
     0
 62
     4
  6
CONTINUOUS
  0
LAYER
  2
SAPA_FOGBAND
 70
     0
 62
     2
  6
CONTINUOUS
  0
LAYER
  2
SAPA_PROFIL
 70
     0
 62
     7
  6
CONTINUOUS
  0
ENDTAB
  0
TABLE
  2
STYLE
 70
    24
  0
STYLE
  2
STANDARD
 70
     0
 40
0.0
 41
1.0
 50
0.0
 71
     0
 42
0.2
  3
txt
  4

  0
STYLE
  2
ISO
 70
     0
 40
0.0
 41
1.0
 50
0.0
 71
     0
 42
3.5
  3
txt
  4

  0
STYLE
  2

 70
     1
 40
0.0
 41
1.0
 50
0.0
 71
     0
 42
0.2
  3
ltypeshp.shx
  4

  0
STYLE
  2
BYGG-021582$0$STANDARD
 70
     0
 40
0.0
 41
1.0
 50
0.0
 71
     0
 42
0.2
  3
txt
  4

  0
STYLE
  2
BYGG-021582$0$ISO
 70
     0
 40
0.0
 41
1.0
 50
0.0
 71
     0
 42
3.5
  3
isocp3.shx
  4

  0
STYLE
  2
BYGG-014279$0$STANDARD
 70
     0
 40
0.0
 41
1.0
 50
0.0
 71
     0
 42
0.2
  3
TXT.shx
  4

  0
STYLE
  2
BYGG-014279$0$ISO
 70
     0
 40
0.0
 41
1.0
 50
0.0
 71
     0
 42
3.5
  3
iso
  4

  0
STYLE
  2
BYGG-021667$0$STANDARD
 70
     0
 40
0.0
 41
1.0
 50
0.0
 71
     0
 42
0.2
  3
txt
  4

  0
STYLE
  2
BYGG-021667$0$ISO
 70
     0
 40
0.0
 41
1.0
 50
0.0
 71
     0
 42
3.5
  3
isocp3.shx
  4

  0
STYLE
  2
BYGG-01482301$0$STANDARD
 70
     0
 40
0.0
 41
1.0
 50
0.0
 71
     0
 42
0.2
  3
txt
  4

  0
STYLE
  2
BYGG-01482301$0$ISO
 70
     0
 40
0.0
 41
1.0
 50
0.0
 71
     0
 42
3.5
  3
isocp3.shx
  4

  0
STYLE
  2
BYGG-025463$0$STANDARD
 70
     0
 40
0.0
 41
1.0
 50
0.0
 71
     0
 42
0.2
  3
txt
  4

  0
STYLE
  2
BYGG-025463$0$ISO
 70
     0
 40
0.0
 41
1.0
 50
0.0
 71
     0
 42
3.5
  3
txt
  4

  0
STYLE
  2
BYGG-023714$0$STANDARD
 70
     0
 40
0.0
 41
1.0
 50
0.0
 71
     0
 42
0.2
  3
txt
  4

  0
STYLE
  2
BYGG-023714$0$ISO
 70
     0
 40
0.0
 41
1.0
 50
0.0
 71
     0
 42
3.5
  3
txt
  4

  0
STYLE
  2
BYGG-021480$0$STANDARD
 70
     0
 40
0.0
 41
1.0
 50
0.0
 71
     0
 42
0.2
  3
txt
  4

  0
STYLE
  2
BYGG-021480$0$ISO
 70
     0
 40
0.0
 41
1.0
 50
0.0
 71
     0
 42
3.5
  3
txt
  4

  0
STYLE
  2
BYGG-021480$0$ROMANS
 70
     0
 40
0.0
 41
1.0
 50
0.0
 71
     0
 42
3.5
  3
romans.shx
  4

  0
STYLE
  2
BYGG-025115$0$STANDARD
 70
     0
 40
0.0
 41
1.0
 50
0.0
 71
     0
 42
0.2
  3
txt
  4

  0
STYLE
  2
BYGG-025115$0$ISO
 70
     0
 40
0.0
 41
1.0
 50
0.0
 71
     0
 42
3.5
  3
txt
  4

  0
STYLE
  2
BYGG-020805$0$STANDARD
 70
     0
 40
0.0
 41
1.0
 50
0.0
 71
     0
 42
0.2
  3
txt
  4

  0
STYLE
  2
BYGG-020805$0$ISO
 70
     0
 40
0.0
 41
1.0
 50
0.0
 71
     0
 42
3.5
  3
txt
  4

  0
STYLE
  2
BYGG-035302$0$STANDARD
 70
     0
 40
0.0
 41
1.0
 50
0.0
 71
     0
 42
0.2
  3
txt
  4

  0
STYLE
  2
BYGG-035302$0$ISO
 70
     0
 40
0.0
 41
1.0
 50
0.0
 71
     0
 42
3.5
  3
txt
  4

  0
ENDTAB
  0
TABLE
  2
VIEW
 70
     0
  0
ENDTAB
  0
TABLE
  2
UCS
 70
     0
  0
ENDTAB
  0
TABLE
  2
APPID
 70
    21
  0
APPID
  2
ACAD
 70
     0
  0
APPID
  2
ACAD_DSTYLE_DIMTEXT_FILL
 70
     0
  0
APPID
  2
ACAD_DSTYLE_DIMEXT_LENGTH
 70
     0
  0
APPID
  2
ACAD_DSTYLE_DIMEXT_ENABLED
 70
     0
  0
APPID
  2
ACAD_DSTYLE_DIM_LINETYPE
 70
     0
  0
APPID
  2
ACAD_DSTYLE_DIM_EXT1_LINETYPE
 70
     0
  0
APPID
  2
ACAD_DSTYLE_DIM_EXT2_LINETYPE
 70
     0
  0
APPID
  2
ACAD_DSTYLE_DIMJOGGED_JOGA
 70
     0
  0
APPID
  2
ACAD_DSTYLE_DIMARC_LENGTH_
 70
     0
  0
APPID
  2
ACAD_PSEXT
 70
     0
  0
APPID
  2
ACAD_MLEADERVER
 70
     0
  0
APPID
  2
ACAD_NAV_VCDISPLAY
 70
     0
  0
APPID
  2
ACAECLAYERSTANDARD
 70
     0
  0
APPID
  2
AMG_ARCHIVE11
 70
     0
  0
APPID
  2
ACAD_EXEMPT_FROM_CAD_STANDARDS
 70
     0
  0
APPID
  2
ACADANNOTATIVE
 70
     0
  0
APPID
  2
DCO15
 70
     0
  0
APPID
  2
ACDBDYNAMICBLOCKGUID
 70
     0
  0
APPID
  2
ACDBBLOCKREPETAG
 70
     0
  0
APPID
  2
AEC_XDATA_BOUND_SPACE
 70
     0
  0
APPID
  2
ACCMTRANSPARENCY
 70
     0
  0
ENDTAB
  0
TABLE
  2
DIMSTYLE
 70
    21
  0
DIMSTYLE
  2
STANDARD
 70
     0
  3

  4

  5

  6

  7

 40
1.0
 41
0.18
 42
0.0625
 43
0.38
 44
0.18
 45
0.0
 46
0.0
 47
0.0
 48
0.0
140
0.18
141
0.09
142
0.0
143
25.399999999999999
144
1.0
145
0.0
146
1.0
147
0.09
 71
     0
 72
     0
 73
     1
 74
     1
 75
     0
 76
     0
 77
     0
 78
     0
170
     0
171
     2
172
     0
173
     0
174
     0
175
     0
176
     0
177
     0
178
     0
  0
DIMSTYLE
  2
MASKIN
 70
     0
  3

  4

  5

  6

  7

 40
0.0
 41
3.0
 42
1.5
 43
10.0
 44
1.5
 45
0.0
 46
0.0
 47
0.0
 48
0.0
140
3.0
141
-5.0
142
0.0
143
25.399999999999999
144
-1.0
145
0.0
146
1.0
147
1.0
 71
     0
 72
     0
 73
     0
 74
     0
 75
     0
 76
     0
 77
     1
 78
     8
170
     0
171
     0
172
     1
173
     0
174
     0
175
     0
176
   256
177
   256
178
     2
  0
DIMSTYLE
  2
BYGG-021582$0$MASKIN
 70
     0
  3

  4

  5

  6

  7

 40
0.0
 41
3.0
 42
1.5
 43
10.0
 44
1.5
 45
0.0
 46
0.0
 47
0.0
 48
0.0
140
3.0
141
-5.0
142
0.0
143
25.399999999999999
144
-1.0
145
0.0
146
1.0
147
1.0
 71
     0
 72
     0
 73
     0
 74
     0
 75
     0
 76
     0
 77
     1
 78
     8
170
     0
171
     0
172
     1
173
     0
174
     0
175
     0
176
   256
177
   256
178
   256
  0
DIMSTYLE
  2
BYGG-014279$0$STANDARD
 70
     0
  3

  4

  5

  6

  7

 40
1.0
 41
0.18
 42
0.0625
 43
0.38
 44
0.18
 45
0.0
 46
0.0
 47
0.0
 48
0.0
140
0.18
141
0.09
142
0.0
143
25.399999999999999
144
1.0
145
0.0
146
1.0
147
0.09
 71
     0
 72
     0
 73
     1
 74
     1
 75
     0
 76
     0
 77
     0
 78
     0
170
     0
171
     2
172
     0
173
     0
174
     0
175
     0
176
     0
177
     0
178
     0
  0
DIMSTYLE
  2
BYGG-014279$0$MASKIN
 70
     0
  3

  4

  5

  6

  7

 40
0.0
 41
3.0
 42
1.5
 43
10.0
 44
1.5
 45
0.0
 46
0.0
 47
0.0
 48
0.0
140
3.0
141
-5.0
142
0.0
143
25.399999999999999
144
-1.0
145
0.0
146
1.0
147
1.0
 71
     0
 72
     0
 73
     0
 74
     1
 75
     0
 76
     0
 77
     1
 78
     8
170
     0
171
     0
172
     1
173
     0
174
     0
175
     0
176
   256
177
   256
178
     2
  0
DIMSTYLE
  2
BYGG-021667$0$MASKIN
 70
     0
  3

  4

  5

  6

  7

 40
0.0
 41
3.0
 42
1.5
 43
10.0
 44
1.5
 45
0.0
 46
0.0
 47
0.0
 48
0.0
140
3.0
141
-5.0
142
0.0
143
25.399999999999999
144
-1.0
145
0.0
146
1.0
147
1.0
 71
     0
 72
     0
 73
     0
 74
     0
 75
     0
 76
     0
 77
     1
 78
     8
170
     0
171
     0
172
     1
173
     0
174
     0
175
     0
176
   256
177
   256
178
   256
  0
DIMSTYLE
  2
BYGG-01482301$0$STANDARD
 70
     0
  3

  4

  5

  6

  7

 40
1.0
 41
0.18
 42
0.0625
 43
0.38
 44
0.18
 45
0.0
 46
0.0
 47
0.0
 48
0.0
140
0.18
141
0.09
142
0.0
143
25.399999999999999
144
1.0
145
0.0
146
1.0
147
0.09
 71
     0
 72
     0
 73
     1
 74
     1
 75
     0
 76
     0
 77
     0
 78
     0
170
     0
171
     2
172
     0
173
     0
174
     0
175
     0
176
     0
177
     0
178
     0
  0
DIMSTYLE
  2
BYGG-01482301$0$MASKIN
 70
     0
  3

  4

  5

  6

  7

 40
0.0
 41
3.0
 42
1.5
 43
10.0
 44
1.5
 45
0.0
 46
0.0
 47
0.0
 48
0.0
140
3.0
141
-5.0
142
0.0
143
25.399999999999999
144
-1.0
145
0.0
146
1.0
147
1.0
 71
     0
 72
     0
 73
     0
 74
     1
 75
     0
 76
     0
 77
     1
 78
     8
170
     0
171
     0
172
     1
173
     0
174
     0
175
     0
176
   256
177
   256
178
     2
  0
DIMSTYLE
  2
BYGG-025463$0$STANDARD
 70
     0
  3

  4

  5

  6

  7

 40
1.0
 41
0.18
 42
0.0625
 43
0.38
 44
0.18
 45
0.0
 46
0.0
 47
0.0
 48
0.0
140
0.18
141
0.09
142
0.0
143
25.399999999999999
144
1.0
145
0.0
146
1.0
147
0.09
 71
     0
 72
     0
 73
     1
 74
     1
 75
     0
 76
     0
 77
     0
 78
     0
170
     0
171
     2
172
     0
173
     0
174
     0
175
     0
176
     0
177
     0
178
     0
  0
DIMSTYLE
  2
BYGG-025463$0$MASKIN
 70
     0
  3

  4

  5

  6

  7

 40
0.0
 41
3.0
 42
1.5
 43
10.0
 44
1.5
 45
0.0
 46
0.0
 47
0.0
 48
0.0
140
3.0
141
-5.0
142
0.0
143
25.399999999999999
144
-1.0
145
0.0
146
1.0
147
1.0
 71
     0
 72
     0
 73
     0
 74
     0
 75
     0
 76
     0
 77
     1
 78
     8
170
     0
171
     0
172
     1
173
     0
174
     0
175
     0
176
   256
177
   256
178
     2
  0
DIMSTYLE
  2
BYGG-023714$0$STANDARD
 70
     0
  3

  4

  5

  6

  7

 40
1.0
 41
0.18
 42
0.0625
 43
0.38
 44
0.18
 45
0.0
 46
0.0
 47
0.0
 48
0.0
140
0.18
141
0.09
142
0.0
143
25.399999999999999
144
1.0
145
0.0
146
1.0
147
0.09
 71
     0
 72
     0
 73
     1
 74
     1
 75
     0
 76
     0
 77
     0
 78
     0
170
     0
171
     2
172
     0
173
     0
174
     0
175
     0
176
     0
177
     0
178
     0
  0
DIMSTYLE
  2
BYGG-023714$0$MASKIN
 70
     0
  3

  4

  5

  6

  7

 40
0.0
 41
3.0
 42
1.5
 43
10.0
 44
1.5
 45
0.0
 46
0.0
 47
0.0
 48
0.0
140
3.0
141
-5.0
142
0.0
143
25.399999999999999
144
-1.0
145
0.0
146
1.0
147
1.0
 71
     0
 72
     0
 73
     0
 74
     0
 75
     0
 76
     0
 77
     1
 78
     8
170
     0
171
     0
172
     1
173
     0
174
     0
175
     0
176
   256
177
   256
178
     2
  0
DIMSTYLE
  2
BYGG-021480$0$STANDARD
 70
     0
  3

  4

  5

  6

  7

 40
1.0
 41
0.18
 42
0.0625
 43
0.38
 44
0.18
 45
0.0
 46
0.0
 47
0.0
 48
0.0
140
0.18
141
0.09
142
0.0
143
25.399999999999999
144
1.0
145
0.0
146
1.0
147
0.09
 71
     0
 72
     0
 73
     1
 74
     1
 75
     0
 76
     0
 77
     0
 78
     0
170
     0
171
     2
172
     0
173
     0
174
     0
175
     0
176
     0
177
     0
178
     0
  0
DIMSTYLE
  2
BYGG-021480$0$MASKIN
 70
     0
  3

  4

  5

  6

  7

 40
0.0
 41
3.0
 42
1.5
 43
10.0
 44
1.5
 45
0.0
 46
0.0
 47
0.0
 48
0.0
140
3.0
141
-5.0
142
0.0
143
25.399999999999999
144
-1.0
145
0.0
146
1.0
147
1.0
 71
     0
 72
     0
 73
     0
 74
     0
 75
     0
 76
     0
 77
     1
 78
     8
170
     0
171
     0
172
     1
173
     0
174
     0
175
     0
176
   256
177
   256
178
     2
  0
DIMSTYLE
  2
BYGG-021480$0$PRIMO_2_5-1
 70
     0
  3

  4

  5

  6

  7

 40
0.4
 41
3.0
 42
1.0
 43
5.0
 44
1.0
 45
0.0
 46
0.0
 47
0.0
 48
0.0
140
3.0
141
3.0
142
0.0
143
25.399999999999999
144
1.0
145
0.0
146
1.0
147
1.0
 71
     0
 72
     0
 73
     0
 74
     0
 75
     0
 76
     0
 77
     1
 78
     8
170
     0
171
     2
172
     0
173
     0
174
     0
175
     0
176
   256
177
   256
178
     6
  0
DIMSTYLE
  2
BYGG-025115$0$STANDARD
 70
     0
  3

  4

  5

  6

  7

 40
1.0
 41
0.18
 42
0.0625
 43
0.38
 44
0.18
 45
0.0
 46
0.0
 47
0.0
 48
0.0
140
0.18
141
0.09
142
0.0
143
25.399999999999999
144
1.0
145
0.0
146
1.0
147
0.09
 71
     0
 72
     0
 73
     1
 74
     1
 75
     0
 76
     0
 77
     0
 78
     0
170
     0
171
     2
172
     0
173
     0
174
     0
175
     0
176
     0
177
     0
178
     0
  0
DIMSTYLE
  2
BYGG-025115$0$MASKIN
 70
     0
  3

  4

  5

  6

  7

 40
0.0
 41
3.0
 42
1.5
 43
10.0
 44
1.5
 45
0.0
 46
0.0
 47
0.0
 48
0.0
140
3.0
141
-5.0
142
0.0
143
25.399999999999999
144
-1.0
145
0.0
146
1.0
147
1.0
 71
     0
 72
     0
 73
     0
 74
     0
 75
     0
 76
     0
 77
     1
 78
     8
170
     0
171
     0
172
     1
173
     0
174
     0
175
     0
176
   256
177
   256
178
     2
  0
DIMSTYLE
  2
BYGG-020805$0$STANDARD
 70
     0
  3

  4

  5

  6

  7

 40
1.0
 41
0.18
 42
0.0625
 43
0.38
 44
0.18
 45
0.0
 46
0.0
 47
0.0
 48
0.0
140
0.18
141
0.09
142
0.0
143
25.399999999999999
144
1.0
145
0.0
146
1.0
147
0.09
 71
     0
 72
     0
 73
     1
 74
     1
 75
     0
 76
     0
 77
     0
 78
     0
170
     0
171
     2
172
     0
173
     0
174
     0
175
     0
176
     0
177
     0
178
     0
  0
DIMSTYLE
  2
BYGG-020805$0$MASKIN
 70
     0
  3

  4

  5

  6

  7

 40
0.0
 41
3.0
 42
1.5
 43
10.0
 44
1.5
 45
0.0
 46
0.0
 47
0.0
 48
0.0
140
3.0
141
-5.0
142
0.0
143
25.399999999999999
144
-1.0
145
0.0
146
1.0
147
1.0
 71
     0
 72
     0
 73
     0
 74
     0
 75
     0
 76
     0
 77
     1
 78
     8
170
     0
171
     0
172
     1
173
     0
174
     0
175
     0
176
   256
177
   256
178
     2
  0
DIMSTYLE
  2
BYGG-035302$0$STANDARD
 70
     0
  3

  4

  5

  6

  7

 40
1.0
 41
0.18
 42
0.0625
 43
0.38
 44
0.18
 45
0.0
 46
0.0
 47
0.0
 48
0.0
140
0.18
141
0.09
142
0.0
143
25.399999999999999
144
1.0
145
0.0
146
1.0
147
0.09
 71
     0
 72
     0
 73
     1
 74
     1
 75
     0
 76
     0
 77
     0
 78
     0
170
     0
171
     2
172
     0
173
     0
174
     0
175
     0
176
     0
177
     0
178
     0
  0
DIMSTYLE
  2
BYGG-035302$0$MASKIN
 70
     0
  3

  4

  5

  6

  7

 40
0.0
 41
3.0
 42
1.5
 43
10.0
 44
1.5
 45
0.0
 46
0.0
 47
0.0
 48
0.0
140
3.0
141
-5.0
142
0.0
143
25.399999999999999
144
-1.0
145
0.0
146
1.0
147
1.0
 71
     0
 72
     0
 73
     0
 74
     0
 75
     0
 76
     0
 77
     1
 78
     8
170
     0
171
     0
172
     1
173
     0
174
     0
175
     0
176
   256
177
   256
178
     2
  0
ENDTAB
  0
ENDSEC
  0
SECTION
  2
BLOCKS
  0
BLOCK
  8
0
  2
$MODEL_SPACE
 70
     0
 10
0.0
 20
0.0
 30
0.0
  3
$MODEL_SPACE
  1

  0
ENDBLK
  5
37
  8
0
  0
BLOCK
 67
     1
  8
0
  2
$PAPER_SPACE
 70
     0
 10
0.0
 20
0.0
 30
0.0
  3
$PAPER_SPACE
  1

  0
ENDBLK
  5
35
 67
     1
  8
0
  0
BLOCK
  8
0
  2
*X34
 70
     1
 10
0.0
 20
0.0
 30
0.0
  3
*X34
  1

  0
LINE
  5
115E
  8
0
 62
     0
 10
10.447085975139631
 20
195.66198863161171
 30
0.0
 11
10.393929493978399
 21
195.69267854031929
 31
0.0
  0
LINE
  5
115F
  8
0
 62
     0
 10
12.509308967901321
 20
194.47136363161169
 30
0.0
 11
11.821901303647421
 21
194.86823863161169
 31
0.0
  0
LINE
  5
1160
  8
0
 62
     0
 10
14.46791545763335
 20
193.34056164752829
 30
0.0
 11
13.884124296409119
 21
193.67761363161171
 31
0.0
  0
LINE
  5
1161
  8
0
 62
     0
 10
7.6974554823750179
 20
195.66198891610941
 30
0.0
 11
7.0963485224920078
 21
196.0090381812096
 31
0.0
  0
LINE
  5
1162
  8
0
 62
     0
 10
9.7596784751367132
 20
194.4713639161094
 30
0.0
 11
9.0722708108828147
 21
194.86823891610939
 31
0.0
  0
LINE
  5
1163
  8
0
 62
     0
 10
11.82190146789841
 20
193.2807389161095
 30
0.0
 11
11.13449380364451
 21
193.67761391610941
 31
0.0
  0
LINE
  5
1164
  8
0
 62
     0
 10
13.8841244606601
 20
192.09011391610949
 30
0.0
 11
13.1967167964062
 21
192.48698891610951
 31
0.0
  0
LINE
  5
1165
  8
0
 62
     0
 10
4.9478249896157838
 20
195.6619892006037
 30
0.0
 11
4.8066945604151901
 21
195.74347089189351
 31
0.0
  0
LINE
  5
1166
  8
0
 62
     0
 10
7.0100479823774782
 20
194.47136420060369
 30
0.0
 11
6.3226403181235797
 21
194.86823920060371
 31
0.0
  0
LINE
  5
1167
  8
0
 62
     0
 10
9.0722709751391726
 20
193.2807392006037
 30
0.0
 11
8.3848633108852741
 21
193.6776142006037
 31
0.0
  0
LINE
  5
1168
  8
0
 62
     0
 10
11.134493967900861
 20
192.09011420060369
 30
0.0
 11
10.447086303646969
 21
192.4869892006038
 31
0.0
  0
LINE
  5
1169
  8
0
 62
     0
 10
13.19671696066256
 20
190.8994892006038
 30
0.0
 11
12.509309296408659
 21
191.29636420060379
 31
0.0
  0
LINE
  5
116A
  8
0
 62
     0
 10
4.260417489615838
 20
194.47136448509889
 30
0.0
 11
3.57300982536194
 21
194.86823948509891
 31
0.0
  0
LINE
  5
116B
  8
0
 62
     0
 10
6.3226404823775324
 20
193.28073948509891
 30
0.0
 11
5.635232818123634
 21
193.6776144850989
 31
0.0
  0
LINE
  5
116C
  8
0
 62
     0
 10
8.3848634751392268
 20
192.09011448509901
 30
0.0
 11
7.6974558108853284
 21
192.48698948509889
 31
0.0
  0
LINE
  5
116D
  8
0
 62
     0
 10
10.44708646790092
 20
190.899489485099
 30
0.0
 11
9.7596788036470201
 21
191.29636448509899
 31
0.0
  0
LINE
  5
116E
  8
0
 62
     0
 10
12.50930946066261
 20
189.70886448509901
 30
0.0
 11
11.821901796408721
 21
190.10573948509901
 31
0.0
  0
LINE
  5
116F
  8
0
 62
     0
 10
3.5730099896143681
 20
193.2807397695961
 30
0.0
 11
2.885602325360471
 21
193.67761476959609
 31
0.0
  0
LINE
  5
1170
  8
0
 62
     0
 10
5.6352329823760616
 20
192.09011476959611
 30
0.0
 11
4.9478253181221641
 21
192.48698976959611
 31
0.0
  0
LINE
  5
1171
  8
0
 62
     0
 10
7.697455975137756
 20
190.89948976959619
 30
0.0
 11
7.0100483108838576
 21
191.29636476959621
 31
0.0
  0
LINE
  5
1172
  8
0
 62
     0
 10
9.7596789678994504
 20
189.7088647695962
 30
0.0
 11
9.072271303645552
 21
190.1057397695962
 31
0.0
  0
LINE
  5
1173
  8
0
 62
     0
 10
11.553630717429771
 20
188.67312624409169
 30
0.0
 11
11.13449429640724
 21
188.91511476959619
 31
0.0
  0
LINE
  5
1174
  8
0
 62
     0
 10
0.8233794968542249
 20
193.28074005409229
 30
0.0
 11
0.5632035736149542
 21
193.43095269341109
 31
0.0
  0
LINE
  5
1175
  8
0
 62
     0
 10
2.885602489615918
 20
192.09011505409231
 30
0.0
 11
2.19819482536202
 21
192.4869900540923
 31
0.0
  0
LINE
  5
1176
  8
0
 62
     0
 10
4.9478254823776124
 20
190.8994900540923
 30
0.0
 11
4.260417818123714
 21
191.29636505409229
 31
0.0
  0
LINE
  5
1177
  8
0
 62
     0
 10
7.0100484751393051
 20
189.70886505409231
 30
0.0
 11
6.3226408108854084
 21
190.10574005409231
 31
0.0
  0
LINE
  5
1178
  8
0
 62
     0
 10
9.0722714679010004
 20
188.5182400540923
 30
0.0
 11
8.3848638036471002
 21
188.9151150540923
 31
0.0
  0
LINE
  5
1179
  8
0
 62
     0
 10
0.1359719968546251
 20
192.09011533858771
 30
0.0
 11
0.0861703575469545
 21
192.11886832844809
 31
0.0
  0
LINE
  5
117A
  8
0
 62
     0
 10
2.1981949896163191
 20
190.8994903385877
 30
0.0
 11
1.5107873253624211
 21
191.29636533858769
 31
0.0
  0
LINE
  5
117B
  8
0
 62
     0
 10
4.2604179823780131
 20
189.70886533858771
 30
0.0
 11
3.5730103181241151
 21
190.10574033858771
 31
0.0
  0
LINE
  5
117C
  8
0
 62
     0
 10
6.3226409751397057
 20
188.5182403385877
 30
0.0
 11
5.635233310885809
 21
188.9151153385877
 31
0.0
  0
LINE
  5
117D
  8
0
 62
     0
 10
1.5107874896147331
 20
189.70886562308601
 30
0.0
 11
1.2492913500219069
 21
189.859840489672
 31
0.0
  0
LINE
  5
117E
  8
0
 62
     0
 10
3.0953730561632251
 20
188.79400471968529
 30
0.0
 11
2.8856028181225288
 21
188.915115623086
 31
0.0
  0
LINE
  5
117F
  8
0
 62
     0
 10
0.8264636922996128
 20
192.48514225193969
 30
0.0
 11
0.1390560280457155
 21
192.0882672519397
 31
0.0
  0
LINE
  5
1180
  8
0
 62
     0
 10
2.8886866850613049
 20
193.6757672519397
 30
0.0
 11
2.2012790208074069
 21
193.27889225193971
 31
0.0
  0
LINE
  5
1181
  8
0
 62
     0
 10
4.9509096778229971
 20
194.8663922519396
 30
0.0
 11
4.2635020135691004
 21
194.46951725193961
 31
0.0
  0
LINE
  5
1182
  8
0
 62
     0
 10
6.9193234373230723
 20
196.00285646586349
 30
0.0
 11
6.325725006330793
 21
195.66014225193959
 31
0.0
  0
LINE
  5
1183
  8
0
 62
     0
 10
1.5138711922992101
 20
191.29451753643579
 30
0.0
 11
0.8264635280453131
 21
190.8976425364358
 31
0.0
  0
LINE
  5
1184
  8
0
 62
     0
 10
3.576094185060902
 20
192.4851425364358
 30
0.0
 11
2.8886865208070049
 21
192.08826753643581
 31
0.0
  0
LINE
  5
1185
  8
0
 62
     0
 10
5.6383171778225947
 20
193.67576753643581
 30
0.0
 11
4.950909513568698
 21
193.27889253643579
 31
0.0
  0
LINE
  5
1186
  8
0
 62
     0
 10
7.7005401705842882
 20
194.86639253643571
 30
0.0
 11
7.0131325063303898
 21
194.46951753643569
 31
0.0
  0
LINE
  5
1187
  8
0
 62
     0
 10
9.4425245948606857
 20
195.87212771271581
 30
0.0
 11
9.0753554990920833
 21
195.6601425364357
 31
0.0
  0
LINE
  5
1188
  8
0
 62
     0
 10
2.2012786923002139
 20
190.10389282093271
 30
0.0
 11
1.513871028046317
 21
189.70701782093269
 31
0.0
  0
LINE
  5
1189
  8
0
 62
     0
 10
4.2635016850619074
 20
191.2945178209327
 30
0.0
 11
3.576094020808009
 21
190.8976428209327
 31
0.0
  0
LINE
  5
118A
  8
0
 62
     0
 10
6.3257246778236
 20
192.48514282093271
 30
0.0
 11
5.6383170135697016
 21
192.08826782093271
 31
0.0
  0
LINE
  5
118B
  8
0
 62
     0
 10
8.3879476705852927
 20
193.67576782093269
 30
0.0
 11
7.7005400063313951
 21
193.2788928209327
 31
0.0
  0
LINE
  5
118C
  8
0
 62
     0
 10
10.450170663346981
 20
194.86639282093259
 30
0.0
 11
9.7627629990930878
 21
194.46951782093271
 31
0.0
  0
LINE
  5
118D
  8
0
 62
     0
 10
2.8886861923002711
 20
188.9132681054281
 30
0.0
 11
2.8550462099721079
 21
188.89384605257541
 31
0.0
  0
LINE
  5
118E
  8
0
 62
     0
 10
4.9509091850619642
 20
190.103893105428
 30
0.0
 11
4.2635015208080658
 21
189.70701810542809
 31
0.0
  0
LINE
  5
118F
  8
0
 62
     0
 10
7.0131321778236559
 20
191.2945181054281
 30
0.0
 11
6.3257245135697593
 21
190.89764310542799
 31
0.0
  0
LINE
  5
1190
  8
0
 62
     0
 10
9.0753551705853486
 20
192.48514310542799
 30
0.0
 11
8.3879475063314501
 21
192.088268105428
 31
0.0
  0
LINE
  5
1191
  8
0
 62
     0
 10
11.13757816334704
 20
193.67576810542801
 30
0.0
 11
10.45017049909314
 21
193.27889310542801
 31
0.0
  0
LINE
  5
1192
  8
0
 62
     0
 10
12.94141509768974
 20
194.71721384504491
 30
0.0
 11
12.51239349185483
 21
194.46951810542799
 31
0.0
  0
LINE
  5
1193
  8
0
 62
     0
 10
5.6383166850615769
 20
188.91326838992421
 30
0.0
 11
4.9509090208076802
 21
188.51639338992419
 31
0.0
  0
LINE
  5
1194
  8
0
 62
     0
 10
7.7005396778232704
 20
190.1038933899242
 30
0.0
 11
7.013132013569372
 21
189.7070183899242
 31
0.0
  0
LINE
  5
1195
  8
0
 62
     0
 10
9.7627626705849622
 20
191.29451838992409
 30
0.0
 11
9.0753550063310655
 21
190.89764338992421
 31
0.0
  0
LINE
  5
1196
  8
0
 62
     0
 10
11.82498566334665
 20
192.48514338992419
 30
0.0
 11
11.137577999092761
 21
192.08826838992411
 31
0.0
  0
LINE
  5
1197
  8
0
 62
     0
 10
13.88720865610834
 20
193.67576838992409
 30
0.0
 11
13.199800991854451
 21
193.27889338992409
 31
0.0
  0
LINE
  5
1198
  8
0
 62
     0
 10
8.3879471778228503
 20
188.91326867442029
 30
0.0
 11
7.7005395135689518
 21
188.5163936744203
 31
0.0
  0
LINE
  5
1199
  8
0
 62
     0
 10
10.45017017058454
 20
190.10389367442031
 30
0.0
 11
9.7627625063306454
 21
189.70701867442031
 31
0.0
  0
LINE
  5
119A
  8
0
 62
     0
 10
12.51239316334623
 20
191.2945186744202
 30
0.0
 11
11.82498549909233
 21
190.89764367442021
 31
0.0
  0
LINE
  5
119B
  8
0
 62
     0
 10
14.57461615610792
 20
192.48514367442019
 30
0.0
 11
13.887208491854031
 21
192.08826867442019
 31
0.0
  0
LINE
  5
119C
  8
0
 62
     0
 10
11.137577670584159
 20
188.9132689589164
 30
0.0
 11
10.450170006330261
 21
188.51639395891641
 31
0.0
  0
LINE
  5
119D
  8
0
 62
     0
 10
13.199800663345849
 20
190.10389395891639
 30
0.0
 11
12.512392999091951
 21
189.70701895891639
 31
0.0
  0
LINE
  5
119E
  8
0
 62
     0
 10
14.5998052696022
 20
190.91218699520519
 30
0.0
 11
14.574615991853641
 21
190.8976439589164
 31
0.0
  0
LINE
  5
119F
  8
0
 62
     0
 10
14.574671838175171
 20
192.488737144618
 30
0.0
 11
14.574671838175171
 21
193.16325003596461
 31
0.0
  0
LINE
  5
11A0
  8
0
 62
     0
 10
14.574671838175171
 20
190.8658657064679
 30
0.0
 11
14.574671838175171
 21
190.90123714461799
 31
0.0
  0
LINE
  5
11A1
  8
0
 62
     0
 10
13.19985683817595
 20
192.48873714461769
 30
0.0
 11
13.19985683817595
 21
193.2824871446177
 31
0.0
  0
LINE
  5
11A2
  8
0
 62
     0
 10
13.19985683817595
 20
190.10748714461769
 30
0.0
 11
13.19985683817595
 21
190.90123714461771
 31
0.0
  0
LINE
  5
11A3
  8
0
 62
     0
 10
11.82504183817491
 20
194.86998714461771
 30
0.0
 11
11.82504183817491
 21
195.25471173577171
 31
0.0
  0
LINE
  5
11A4
  8
0
 62
     0
 10
11.82504183817491
 20
192.48873714461769
 30
0.0
 11
11.82504183817491
 21
193.2824871446177
 31
0.0
  0
LINE
  5
11A5
  8
0
 62
     0
 10
11.82504183817491
 20
190.10748714461769
 30
0.0
 11
11.82504183817491
 21
190.90123714461771
 31
0.0
  0
LINE
  5
11A6
  8
0
 62
     0
 10
10.4502268381757
 20
194.86998714461771
 30
0.0
 11
10.4502268381757
 21
195.66373714461761
 31
0.0
  0
LINE
  5
11A7
  8
0
 62
     0
 10
10.4502268381757
 20
192.48873714461769
 30
0.0
 11
10.4502268381757
 21
193.2824871446177
 31
0.0
  0
LINE
  5
11A8
  8
0
 62
     0
 10
10.4502268381757
 20
190.10748714461769
 30
0.0
 11
10.4502268381757
 21
190.90123714461771
 31
0.0
  0
LINE
  5
11A9
  8
0
 62
     0
 10
10.4502268381757
 20
188.34959073536811
 30
0.0
 11
10.4502268381757
 21
188.51998714461769
 31
0.0
  0
LINE
  5
11AA
  8
0
 62
     0
 10
9.0754118381746611
 20
194.86998714461771
 30
0.0
 11
9.0754118381746611
 21
195.66373714461761
 31
0.0
  0
LINE
  5
11AB
  8
0
 62
     0
 10
9.0754118381746611
 20
192.48873714461769
 30
0.0
 11
9.0754118381746611
 21
193.2824871446177
 31
0.0
  0
LINE
  5
11AC
  8
0
 62
     0
 10
9.0754118381746611
 20
190.10748714461769
 30
0.0
 11
9.0754118381746611
 21
190.90123714461771
 31
0.0
  0
LINE
  5
11AD
  8
0
 62
     0
 10
9.0754118381746611
 20
188.10799142704309
 30
0.0
 11
9.0754118381746611
 21
188.51998714461769
 31
0.0
  0
LINE
  5
11AE
  8
0
 62
     0
 10
7.7005968381754446
 20
194.86998714461771
 30
0.0
 11
7.7005968381754446
 21
195.66373714461761
 31
0.0
  0
LINE
  5
11AF
  8
0
 62
     0
 10
7.7005968381754446
 20
192.48873714461769
 30
0.0
 11
7.7005968381754446
 21
193.2824871446177
 31
0.0
  0
LINE
  5
11B0
  8
0
 62
     0
 10
7.7005968381754446
 20
190.10748714461769
 30
0.0
 11
7.7005968381754446
 21
190.90123714461771
 31
0.0
  0
LINE
  5
11B1
  8
0
 62
     0
 10
7.7005968381754446
 20
188.0162546193805
 30
0.0
 11
7.7005968381754446
 21
188.51998714461769
 31
0.0
  0
LINE
  5
11B2
  8
0
 62
     0
 10
6.3257818381762281
 20
194.86998714461771
 30
0.0
 11
6.3257818381762281
 21
195.66373714461761
 31
0.0
  0
LINE
  5
11B3
  8
0
 62
     0
 10
6.3257818381762281
 20
192.48873714461769
 30
0.0
 11
6.3257818381762281
 21
193.2824871446177
 31
0.0
  0
LINE
  5
11B4
  8
0
 62
     0
 10
6.3257818381762281
 20
190.10748714461769
 30
0.0
 11
6.3257818381762281
 21
190.90123714461771
 31
0.0
  0
LINE
  5
11B5
  8
0
 62
     0
 10
6.3257818381762281
 20
188.06392670144669
 30
0.0
 11
6.3257818381762281
 21
188.51998714461769
 31
0.0
  0
LINE
  5
11B6
  8
0
 62
     0
 10
4.9509668381751926
 20
194.86998714461771
 30
0.0
 11
4.9509668381751926
 21
195.66373714461761
 31
0.0
  0
LINE
  5
11B7
  8
0
 62
     0
 10
4.9509668381751926
 20
192.48873714461769
 30
0.0
 11
4.9509668381751926
 21
193.2824871446177
 31
0.0
  0
LINE
  5
11B8
  8
0
 62
     0
 10
4.9509668381751926
 20
190.10748714461769
 30
0.0
 11
4.9509668381751926
 21
190.90123714461771
 31
0.0
  0
LINE
  5
11B9
  8
0
 62
     0
 10
4.9509668381751926
 20
188.25630899434509
 30
0.0
 11
4.9509668381751926
 21
188.51998714461769
 31
0.0
  0
LINE
  5
11BA
  8
0
 62
     0
 10
3.576151838175976
 20
194.86998714461771
 30
0.0
 11
3.576151838175976
 21
195.4112139969493
 31
0.0
  0
LINE
  5
11BB
  8
0
 62
     0
 10
3.576151838175976
 20
192.48873714461769
 30
0.0
 11
3.576151838175976
 21
193.2824871446177
 31
0.0
  0
LINE
  5
11BC
  8
0
 62
     0
 10
3.576151838175976
 20
190.10748714461769
 30
0.0
 11
3.576151838175976
 21
190.90123714461771
 31
0.0
  0
LINE
  5
11BD
  8
0
 62
     0
 10
2.201336838174941
 20
192.48873714461769
 30
0.0
 11
2.201336838174941
 21
193.2824871446177
 31
0.0
  0
LINE
  5
11BE
  8
0
 62
     0
 10
2.201336838174941
 20
190.10748714461769
 30
0.0
 11
2.201336838174941
 21
190.90123714461771
 31
0.0
  0
LINE
  5
11BF
  8
0
 62
     0
 10
0.8265218381757254
 20
192.488737144618
 30
0.0
 11
0.8265218381757254
 21
193.28248714461799
 31
0.0
  0
LINE
  5
11C0
  8
0
 62
     0
 10
0.8265218381757252
 20
190.26795546268289
 30
0.0
 11
0.8265218381757252
 21
190.90123714461799
 31
0.0
  0
ENDBLK
  5
11C2
  8
0
  0
BLOCK
  8
0
  2
*X35
 70
     1
 10
0.0
 20
0.0
 30
0.0
  3
*X35
  1

  0
LINE
  5
11C4
  8
0
 62
     0
 10
0.7972963304382575
 20
209.230062181422
 30
0.0
 11
0.0999999999989996
 21
208.53276585098271
 31
0.0
  0
LINE
  5
11C5
  8
0
 62
     0
 10
1.5649099775591819
 20
208.87514381340949
 30
0.0
 11
0.0999999999985448
 21
207.41023383584891
 31
0.0
  0
LINE
  5
11C6
  8
0
 62
     0
 10
2.369524339626877
 20
208.55722616034379
 30
0.0
 11
0.0999999999989996
 21
206.28770182071599
 31
0.0
  0
LINE
  5
11C7
  8
0
 62
     0
 10
3.2140239918244329
 20
208.27919379740749
 30
0.0
 11
0.0999999999976353
 21
205.1651698055812
 31
0.0
  0
LINE
  5
11C8
  8
0
 62
     0
 10
4.1021587536170037
 20
208.04479654406711
 30
0.0
 11
0.0999999999989996
 21
204.04263779044911
 31
0.0
  0
LINE
  5
11C9
  8
0
 62
     0
 10
5.0388678502217772
 20
207.85897362553669
 30
0.0
 11
0.0999999999994543
 21
202.9201057753144
 31
0.0
  0
LINE
  5
11CA
  8
0
 62
     0
 10
6.0307963628661119
 20
207.72837012304939
 30
0.0
 11
0.0999999999989996
 21
201.7975737601823
 31
0.0
  0
LINE
  5
11CB
  8
0
 62
     0
 10
7.0871623638568053
 20
207.66220410890489
 30
0.0
 11
0.0999999999994543
 21
200.67504174504759
 31
0.0
  0
LINE
  5
11CC
  8
0
 62
     0
 10
8.2213169464121165
 20
207.6738266763268
 30
0.0
 11
0.0999999999989996
 21
199.55250972991371
 31
0.0
  0
LINE
  5
11CD
  8
0
 62
     0
 10
9.4538250617993072
 20
207.78380277658059
 30
0.0
 11
0.0999999999980901
 21
198.4299777147794
 31
0.0
  0
LINE
  5
11CE
  8
0
 62
     0
 10
10.81941071749088
 20
208.02685641713879
 30
0.0
 11
0.0999999999976353
 21
197.30744569964551
 31
0.0
  0
LINE
  5
11CF
  8
0
 62
     0
 10
12.38617884692894
 20
208.4710925314435
 30
0.0
 11
0.0999999999980901
 21
196.18491368451259
 31
0.0
  0
LINE
  5
11D0
  8
0
 62
     0
 10
14.333434900862359
 20
209.29581657024349
 30
0.0
 11
0.0999999999976353
 21
195.06238166937871
 31
0.0
  0
LINE
  5
11D1
  8
0
 62
     0
 10
14.89999999999827
 20
208.739849654246
 30
0.0
 11
1.6227526981597289
 21
195.4626023524074
 31
0.0
  0
LINE
  5
11D2
  8
0
 62
     0
 10
14.900000000000089
 20
207.61731763911251
 30
0.0
 11
3.3587494275348031
 21
196.07606706664731
 31
0.0
  0
LINE
  5
11D3
  8
0
 62
     0
 10
14.89999999999827
 20
206.49478562397729
 30
0.0
 11
4.8217363471126191
 21
196.4165219710917
 31
0.0
  0
LINE
  5
11D4
  8
0
 62
     0
 10
14.89999999999873
 20
205.3722536088444
 30
0.0
 11
6.1210374450756708
 21
196.59329105392129
 31
0.0
  0
LINE
  5
11D5
  8
0
 62
     0
 10
14.89999999999827
 20
204.24972159371049
 30
0.0
 11
7.3055689234042802
 21
196.6552905171165
 31
0.0
  0
LINE
  5
11D6
  8
0
 62
     0
 10
14.89999999999873
 20
203.1271895785776
 30
0.0
 11
8.4023056777587044
 21
196.62949525633749
 31
0.0
  0
LINE
  5
11D7
  8
0
 62
     0
 10
14.89999999999827
 20
202.0046575634438
 30
0.0
 11
9.4279878617489885
 21
196.5326454251944
 31
0.0
  0
LINE
  5
11D8
  8
0
 62
     0
 10
14.899999999997361
 20
200.8821255483094
 30
0.0
 11
10.393824008417591
 21
196.37594955672969
 31
0.0
  0
LINE
  5
11D9
  8
0
 62
     0
 10
14.89999999999918
 20
199.759593533176
 30
0.0
 11
11.307720875562151
 21
196.167314408739
 31
0.0
  0
LINE
  5
11DA
  8
0
 62
     0
 10
14.899999999997361
 20
198.63706151804081
 30
0.0
 11
12.175465877778599
 21
195.912527395822
 31
0.0
  0
LINE
  5
11DB
  8
0
 62
     0
 10
14.89999999999918
 20
197.5145295029092
 30
0.0
 11
13.001406967335241
 21
195.61593647024529
 31
0.0
  0
LINE
  5
11DC
  8
0
 62
     0
 10
14.899999999997361
 20
196.39199748777401
 30
0.0
 11
13.788868073395861
 21
195.2808655611725
 31
0.0
  0
LINE
  5
11DD
  8
0
 62
     0
 10
14.89999999999781
 20
195.269465472641
 30
0.0
 11
14.540415016546371
 21
194.90988048918959
 31
0.0
  0
LINE
  5
11DE
  8
0
 62
     0
 10
14.899999999996
 20
209.14121494779459
 30
0.0
 11
14.6041243163454
 21
209.43709063144519
 31
0.0
  0
LINE
  5
11DF
  8
0
 62
     0
 10
14.89999999999781
 20
208.01868293266131
 30
0.0
 11
13.85559856245891
 21
209.06308437020019
 31
0.0
  0
LINE
  5
11E0
  8
0
 62
     0
 10
14.899999999999631
 20
206.896150917526
 30
0.0
 11
13.071352178294539
 21
208.72479873923109
 31
0.0
  0
LINE
  5
11E1
  8
0
 62
     0
 10
14.899999999999631
 20
205.7736189023926
 30
0.0
 11
12.24887593454878
 21
208.42474296784351
 31
0.0
  0
LINE
  5
11E2
  8
0
 62
     0
 10
14.899999999999631
 20
204.65108688725741
 30
0.0
 11
11.3849207653293
 21
208.16616612192769
 31
0.0
  0
LINE
  5
11E3
  8
0
 62
     0
 10
14.90000000000145
 20
203.52855487212221
 30
0.0
 11
10.475241508711401
 21
207.95331336341221
 31
0.0
  0
LINE
  5
11E4
  8
0
 62
     0
 10
14.89999999999781
 20
202.40602285699239
 30
0.0
 11
9.5141979371546768
 21
207.79182491983559
 31
0.0
  0
LINE
  5
11E5
  8
0
 62
     0
 10
14.899999999999631
 20
201.2834908418572
 30
0.0
 11
8.4941047939737473
 21
207.68938604788309
 31
0.0
  0
LINE
  5
11E6
  8
0
 62
     0
 10
14.899999999999631
 20
200.1609588267238
 30
0.0
 11
7.4041081316154296
 21
207.65685069510801
 31
0.0
  0
LINE
  5
11E7
  8
0
 62
     0
 10
14.899999999999631
 20
199.03842681158861
 30
0.0
 11
6.2280833042768791
 21
207.71034350731131
 31
0.0
  0
LINE
  5
11E8
  8
0
 62
     0
 10
14.89999999999781
 20
197.915894796457
 30
0.0
 11
4.9402517528596936
 21
207.87564304359509
 31
0.0
  0
LINE
  5
11E9
  8
0
 62
     0
 10
14.89999999999781
 20
196.79336278132359
 30
0.0
 11
3.4944605839664291
 21
208.19890219735501
 31
0.0
  0
LINE
  5
11EA
  8
0
 62
     0
 10
14.899999999999631
 20
195.67083076619019
 30
0.0
 11
1.7900594003713191
 21
208.78077136581851
 31
0.0
  0
LINE
  5
11EB
  8
0
 62
     0
 10
14.53617992427462
 20
194.91211882677999
 30
0.0
 11
0.1000000000003638
 21
209.34829875105419
 31
0.0
  0
LINE
  5
11EC
  8
0
 62
     0
 10
12.53604871472635
 20
195.78971802119489
 30
0.0
 11
0.1000000000003638
 21
208.22576673592269
 31
0.0
  0
LINE
  5
11ED
  8
0
 62
     0
 10
10.946228635026269
 20
196.2570060857615
 30
0.0
 11
0.0999999999985448
 21
207.1032347207892
 31
0.0
  0
LINE
  5
11EE
  8
0
 62
     0
 10
9.5666014649141289
 20
196.51410124074019
 30
0.0
 11
0.1000000000003638
 21
205.98070270565401
 31
0.0
  0
LINE
  5
11EF
  8
0
 62
     0
 10
8.3241912232988398
 20
196.6339794672221
 30
0.0
 11
0.0999999999985448
 21
204.85817069052251
 31
0.0
  0
LINE
  5
11F0
  8
0
 62
     0
 10
7.1824410991976029
 20
196.65319757618809
 30
0.0
 11
0.1000000000003638
 21
203.73563867538539
 31
0.0
  0
LINE
  5
11F1
  8
0
 62
     0
 10
6.1199185175446473
 20
196.5931881427077
 30
0.0
 11
0.0999999999985448
 21
202.61310666025381
 31
0.0
  0
LINE
  5
11F2
  8
0
 62
     0
 10
5.1227998144058802
 20
196.4677748307131
 30
0.0
 11
0.0999999999985448
 21
201.49057464512049
 31
0.0
  0
LINE
  5
11F3
  8
0
 62
     0
 10
4.1815835388697451
 20
196.2864590911158
 30
0.0
 11
0.1000000000003638
 21
200.36804262998521
 31
0.0
  0
LINE
  5
11F4
  8
0
 62
     0
 10
3.289442168254026
 20
196.05606844659809
 30
0.0
 11
0.0999999999967258
 21
199.24551061485539
 31
0.0
  0
LINE
  5
11F5
  8
0
 62
     0
 10
2.4413123056092441
 20
195.78166629410771
 30
0.0
 11
0.1000000000003638
 21
198.12297859971659
 31
0.0
  0
LINE
  5
11F6
  8
0
 62
     0
 10
1.6333556637928259
 20
195.46709092079249
 30
0.0
 11
0.0999999999985448
 21
197.0004465845868
 31
0.0
  0
LINE
  5
11F7
  8
0
 62
     0
 10
0.8626220987625856
 20
195.11529247068941
 30
0.0
 11
0.1000000000021828
 21
195.87791456944981
 31
0.0
  0
LINE
  5
11F8
  8
0
 62
     0
 10
0.1268301542895642
 20
194.728552400029
 30
0.0
 11
0.1000000000003638
 21
194.7553825543182
 31
0.0
  0
ENDBLK
  5
11FA
  8
0
  0
BLOCK
  8
0
  2
*X36
 70
     1
 10
0.0
 20
0.0
 30
0.0
  3
*X36
  1

  0
LINE
  5
11FC
  8
0
 62
     0
 10
11.82191181589622
 20
57.2431390222524
 30
0.0
 11
10.44709648738843
 21
58.036889022252403
 31
0.0
  0
LINE
  5
11FD
  8
0
 62
     0
 10
15.0
 20
55.408268953651707
 30
0.0
 11
14.57154247291181
 21
55.655639022252402
 31
0.0
  0
LINE
  5
11FE
  8
0
 62
     0
 10
6.3226508303724511
 20
57.243139591245203
 30
0.0
 11
4.9478355018646551
 21
58.036889591245213
 31
0.0
  0
LINE
  5
11FF
  8
0
 62
     0
 10
10.447096815895829
 20
54.861889591245202
 30
0.0
 11
9.0722814873880431
 21
55.655639591245212
 31
0.0
  0
LINE
  5
1200
  8
0
 62
     0
 10
14.571542801419231
 20
52.4806395912452
 30
0.0
 11
13.19672747291143
 21
53.27438959124521
 31
0.0
  0
LINE
  5
1201
  8
0
 62
     0
 10
0.8233898448511993
 20
57.243140160236543
 30
0.0
 11
-0.0000000000000626
 21
57.718524508809431
 31
0.0
  0
LINE
  5
1202
  8
0
 62
     0
 10
4.9478358303745873
 20
54.861890160236541
 30
0.0
 11
3.5730205018667909
 21
55.655640160236551
 31
0.0
  0
LINE
  5
1203
  8
0
 62
     0
 10
9.0722818158979752
 20
52.48064016023654
 30
0.0
 11
7.6974664873901792
 21
53.27439016023655
 31
0.0
  0
LINE
  5
1204
  8
0
 62
     0
 10
13.19672780142136
 20
50.099390160236538
 30
0.0
 11
11.82191247291356
 21
50.893140160236548
 31
0.0
  0
LINE
  5
1205
  8
0
 62
     0
 10
3.5730208303735731
 20
52.480640729228803
 30
0.0
 11
2.1982055018657771
 21
53.274390729228813
 31
0.0
  0
LINE
  5
1206
  8
0
 62
     0
 10
7.697466815896961
 20
50.099390729228801
 30
0.0
 11
6.322651487389165
 21
50.893140729228797
 31
0.0
  0
LINE
  5
1207
  8
0
 62
     0
 10
11.82191280142035
 20
47.7181407292288
 30
0.0
 11
10.447097472912549
 21
48.511890729228803
 31
0.0
  0
LINE
  5
1208
  8
0
 62
     0
 10
15.0
 20
45.883271229620732
 30
0.0
 11
14.57154345843594
 21
46.130640729228801
 31
0.0
  0
LINE
  5
1209
  8
0
 62
     0
 10
2.1982058303729421
 20
50.099391298220688
 30
0.0
 11
0.8233905018651466
 21
50.893141298220698
 31
0.0
  0
LINE
  5
120A
  8
0
 62
     0
 10
6.3226518158963296
 20
47.718141298220687
 30
0.0
 11
4.9478364873885337
 21
48.511891298220696
 31
0.0
  0
LINE
  5
120B
  8
0
 62
     0
 10
10.447097801419719
 20
45.336891298220692
 30
0.0
 11
9.0722824729119225
 21
46.130641298220702
 31
0.0
  0
LINE
  5
120C
  8
0
 62
     0
 10
14.571543786943099
 20
42.955641298220691
 30
0.0
 11
13.19672845843531
 21
43.749391298220687
 31
0.0
  0
LINE
  5
120D
  8
0
 62
     0
 10
0.8233908303737464
 20
47.718141867213852
 30
0.0
 11
-0.0000000000000643
 21
48.193526784778442
 31
0.0
  0
LINE
  5
120E
  8
0
 62
     0
 10
4.9478368158971344
 20
45.336891867213851
 30
0.0
 11
3.573021487389338
 21
46.130641867213861
 31
0.0
  0
LINE
  5
120F
  8
0
 62
     0
 10
9.0722828014205223
 20
42.955641867213849
 30
0.0
 11
7.6974674729127264
 21
43.749391867213859
 31
0.0
  0
LINE
  5
1210
  8
0
 62
     0
 10
13.196728786943909
 20
40.574391867213848
 30
0.0
 11
11.821913458436111
 21
41.368141867213858
 31
0.0
  0
LINE
  5
1211
  8
0
 62
     0
 10
3.5730218158967451
 20
42.955642436206467
 30
0.0
 11
2.1982064873889491
 21
43.74939243620647
 31
0.0
  0
LINE
  5
1212
  8
0
 62
     0
 10
7.6974678014201334
 20
40.574392436206473
 30
0.0
 11
6.3226524729123366
 21
41.368142436206469
 31
0.0
  0
LINE
  5
1213
  8
0
 62
     0
 10
2.1982068158970809
 20
40.574393005198182
 30
0.0
 11
0.8233914873892853
 21
41.368143005198192
 31
0.0
  0
LINE
  5
1214
  8
0
 62
     0
 10
2.2012688370653088
 20
58.035042073587881
 30
0.0
 11
0.8264535085575152
 21
57.241292073587879
 31
0.0
  0
LINE
  5
1215
  8
0
 62
     0
 10
3.576083837066371
 20
55.653792642580157
 30
0.0
 11
2.2012685085585768
 21
54.860042642580169
 31
0.0
  0
LINE
  5
1216
  8
0
 62
     0
 10
7.7005298225897532
 20
58.035042642580152
 30
0.0
 11
6.3257144940819581
 21
57.241292642580149
 31
0.0
  0
LINE
  5
1217
  8
0
 62
     0
 10
0.8264528515422156
 20
50.891293211572439
 30
0.0
 11
-0.0000000000000718
 21
50.414140435261963
 31
0.0
  0
LINE
  5
1218
  8
0
 62
     0
 10
4.9508988370655969
 20
53.272543211572419
 30
0.0
 11
3.5760835085578031
 21
52.47879321157243
 31
0.0
  0
LINE
  5
1219
  8
0
 62
     0
 10
9.0753448225889795
 20
55.653793211572413
 30
0.0
 11
7.7005294940811853
 21
54.860043211572417
 31
0.0
  0
LINE
  5
121A
  8
0
 62
     0
 10
13.199790808112359
 20
58.0350432115724
 30
0.0
 11
11.82497547960457
 21
57.241293211572398
 31
0.0
  0
LINE
  5
121B
  8
0
 62
     0
 10
2.2012678515432378
 20
48.510043780564693
 30
0.0
 11
0.8264525230354447
 21
47.716293780564691
 31
0.0
  0
LINE
  5
121C
  8
0
 62
     0
 10
6.3257138370666199
 20
50.891293780564681
 30
0.0
 11
4.9508985085588257
 21
50.097543780564678
 31
0.0
  0
LINE
  5
121D
  8
0
 62
     0
 10
10.450159822590001
 20
53.272543780564661
 30
0.0
 11
9.0753444940822092
 21
52.478793780564672
 31
0.0
  0
LINE
  5
121E
  8
0
 62
     0
 10
14.574605808113381
 20
55.653793780564662
 30
0.0
 11
13.199790479605589
 21
54.860043780564659
 31
0.0
  0
LINE
  5
121F
  8
0
 62
     0
 10
3.5760828515424441
 20
46.128794349556941
 30
0.0
 11
2.2012675230346499
 21
45.335044349556952
 31
0.0
  0
LINE
  5
1220
  8
0
 62
     0
 10
7.7005288370658258
 20
48.510044349556942
 30
0.0
 11
6.3257135085580316
 21
47.716294349556939
 31
0.0
  0
LINE
  5
1221
  8
0
 62
     0
 10
11.82497482258921
 20
50.891294349556922
 30
0.0
 11
10.45015949408141
 21
50.097544349556919
 31
0.0
  0
LINE
  5
1222
  8
0
 62
     0
 10
14.999999999999771
 20
52.724395990418742
 30
0.0
 11
14.5746054796048
 21
52.478794349556921
 31
0.0
  0
LINE
  5
1223
  8
0
 62
     0
 10
0.8264518660196633
 20
41.366294918549968
 30
0.0
 11
-0.0000000000005185
 21
40.889142711230953
 31
0.0
  0
LINE
  5
1224
  8
0
 62
     0
 10
4.9508978515430453
 20
43.747544918549963
 30
0.0
 11
3.5760825230352511
 21
42.953794918549967
 31
0.0
  0
LINE
  5
1225
  8
0
 62
     0
 10
9.0753438370664252
 20
46.12879491854995
 30
0.0
 11
7.7005285085586319
 21
45.335044918549947
 31
0.0
  0
LINE
  5
1226
  8
0
 62
     0
 10
13.19978982258981
 20
48.51004491854993
 30
0.0
 11
11.82497449408201
 21
47.716294918549927
 31
0.0
  0
LINE
  5
1227
  8
0
 62
     0
 10
6.3257128515427388
 20
41.36629548754145
 30
0.0
 11
4.9508975230349446
 21
40.572545487541447
 31
0.0
  0
LINE
  5
1228
  8
0
 62
     0
 10
10.45015883706612
 20
43.74754548754143
 30
0.0
 11
9.0753435085583281
 21
42.953795487541427
 31
0.0
  0
LINE
  5
1229
  8
0
 62
     0
 10
14.5746048225895
 20
46.128795487541417
 30
0.0
 11
13.19978949408171
 21
45.335045487541429
 31
0.0
  0
LINE
  5
122A
  8
0
 62
     0
 10
11.824973837065331
 20
41.366296056533692
 30
0.0
 11
10.450158508557539
 21
40.572546056533689
 31
0.0
  0
LINE
  5
122B
  8
0
 62
     0
 10
15.000000000000171
 20
43.199398266388222
 30
0.0
 11
14.574604494080919
 21
42.953796056533683
 31
0.0
  0
LINE
  5
122C
  8
0
 62
     0
 10
13.19985683817594
 20
58.038619327508762
 30
0.0
 11
13.19985683817594
 21
59.185987402033767
 31
0.0
  0
LINE
  5
122D
  8
0
 62
     0
 10
13.19985683817594
 20
53.276119327508773
 30
0.0
 11
13.19985683817594
 21
54.863619327508772
 31
0.0
  0
LINE
  5
122E
  8
0
 62
     0
 10
13.19985683817594
 20
48.513619327508778
 30
0.0
 11
13.19985683817594
 21
50.101119327508769
 31
0.0
  0
LINE
  5
122F
  8
0
 62
     0
 10
13.19985683817594
 20
43.751119327508782
 30
0.0
 11
13.19985683817594
 21
45.338619327508781
 31
0.0
  0
LINE
  5
1230
  8
0
 62
     0
 10
13.19985683817594
 20
39.185987402033788
 30
0.0
 11
13.19985683817594
 21
40.576119327508778
 31
0.0
  0
LINE
  5
1231
  8
0
 62
     0
 10
10.45022683817569
 20
58.038619327508762
 30
0.0
 11
10.45022683817569
 21
59.185987402033767
 31
0.0
  0
LINE
  5
1232
  8
0
 62
     0
 10
10.45022683817569
 20
53.276119327508773
 30
0.0
 11
10.45022683817569
 21
54.863619327508772
 31
0.0
  0
LINE
  5
1233
  8
0
 62
     0
 10
10.45022683817569
 20
48.513619327508778
 30
0.0
 11
10.45022683817569
 21
50.101119327508769
 31
0.0
  0
LINE
  5
1234
  8
0
 62
     0
 10
10.45022683817569
 20
43.751119327508782
 30
0.0
 11
10.45022683817569
 21
45.338619327508781
 31
0.0
  0
LINE
  5
1235
  8
0
 62
     0
 10
10.45022683817569
 20
39.185987402033788
 30
0.0
 11
10.45022683817569
 21
40.576119327508778
 31
0.0
  0
LINE
  5
1236
  8
0
 62
     0
 10
7.7005968381754384
 20
58.038619327508762
 30
0.0
 11
7.7005968381754384
 21
59.185987402033767
 31
0.0
  0
LINE
  5
1237
  8
0
 62
     0
 10
7.7005968381754384
 20
53.276119327508773
 30
0.0
 11
7.7005968381754384
 21
54.863619327508772
 31
0.0
  0
LINE
  5
1238
  8
0
 62
     0
 10
7.7005968381754384
 20
48.513619327508778
 30
0.0
 11
7.7005968381754384
 21
50.101119327508769
 31
0.0
  0
LINE
  5
1239
  8
0
 62
     0
 10
7.7005968381754384
 20
43.751119327508782
 30
0.0
 11
7.7005968381754384
 21
45.338619327508781
 31
0.0
  0
LINE
  5
123A
  8
0
 62
     0
 10
7.7005968381754384
 20
39.185987402033788
 30
0.0
 11
7.7005968381754384
 21
40.576119327508778
 31
0.0
  0
LINE
  5
123B
  8
0
 62
     0
 10
4.9509668381751863
 20
58.038619327508762
 30
0.0
 11
4.9509668381751863
 21
59.185987402033767
 31
0.0
  0
LINE
  5
123C
  8
0
 62
     0
 10
4.9509668381751863
 20
53.276119327508773
 30
0.0
 11
4.9509668381751863
 21
54.863619327508772
 31
0.0
  0
LINE
  5
123D
  8
0
 62
     0
 10
4.9509668381751863
 20
48.513619327508778
 30
0.0
 11
4.9509668381751863
 21
50.101119327508769
 31
0.0
  0
LINE
  5
123E
  8
0
 62
     0
 10
4.9509668381751863
 20
43.751119327508782
 30
0.0
 11
4.9509668381751863
 21
45.338619327508781
 31
0.0
  0
LINE
  5
123F
  8
0
 62
     0
 10
4.9509668381751863
 20
39.185987402033788
 30
0.0
 11
4.9509668381751863
 21
40.576119327508778
 31
0.0
  0
LINE
  5
1240
  8
0
 62
     0
 10
2.2013368381749339
 20
58.038619327508762
 30
0.0
 11
2.2013368381749339
 21
59.185987402033767
 31
0.0
  0
LINE
  5
1241
  8
0
 62
     0
 10
2.2013368381749339
 20
53.276119327508773
 30
0.0
 11
2.2013368381749339
 21
54.863619327508772
 31
0.0
  0
LINE
  5
1242
  8
0
 62
     0
 10
2.2013368381749339
 20
48.513619327508778
 30
0.0
 11
2.2013368381749339
 21
50.101119327508769
 31
0.0
  0
LINE
  5
1243
  8
0
 62
     0
 10
2.2013368381749339
 20
43.751119327508782
 30
0.0
 11
2.2013368381749339
 21
45.338619327508781
 31
0.0
  0
LINE
  5
1244
  8
0
 62
     0
 10
2.2013368381749339
 20
39.185987402033788
 30
0.0
 11
2.2013368381749339
 21
40.576119327508778
 31
0.0
  0
ENDBLK
  5
1246
  8
0
  0
BLOCK
  8
0
  2
*X37
 70
     1
 10
0.0
 20
0.0
 30
0.0
  3
*X37
  1

  0
LINE
  5
1248
  8
0
 62
     0
 10
10.447085975139631
 20
195.66198863161171
 30
0.0
 11
10.393929493978399
 21
195.69267854031929
 31
0.0
  0
LINE
  5
1249
  8
0
 62
     0
 10
12.509308967901321
 20
194.47136363161169
 30
0.0
 11
11.821901303647421
 21
194.86823863161169
 31
0.0
  0
LINE
  5
124A
  8
0
 62
     0
 10
14.46791545763335
 20
193.34056164752829
 30
0.0
 11
13.884124296409119
 21
193.67761363161171
 31
0.0
  0
LINE
  5
124B
  8
0
 62
     0
 10
7.6974554823750179
 20
195.66198891610941
 30
0.0
 11
7.0963485224920104
 21
196.0090381812096
 31
0.0
  0
LINE
  5
124C
  8
0
 62
     0
 10
9.7596784751367132
 20
194.4713639161094
 30
0.0
 11
9.0722708108828165
 21
194.86823891610939
 31
0.0
  0
LINE
  5
124D
  8
0
 62
     0
 10
11.82190146789841
 20
193.2807389161095
 30
0.0
 11
11.13449380364451
 21
193.67761391610941
 31
0.0
  0
LINE
  5
124E
  8
0
 62
     0
 10
13.8841244606601
 20
192.09011391610949
 30
0.0
 11
13.1967167964062
 21
192.48698891610951
 31
0.0
  0
LINE
  5
124F
  8
0
 62
     0
 10
4.9478249896157838
 20
195.6619892006037
 30
0.0
 11
4.8066945604151901
 21
195.74347089189351
 31
0.0
  0
LINE
  5
1250
  8
0
 62
     0
 10
7.0100479823774782
 20
194.47136420060369
 30
0.0
 11
6.3226403181235797
 21
194.86823920060371
 31
0.0
  0
LINE
  5
1251
  8
0
 62
     0
 10
9.0722709751391726
 20
193.2807392006037
 30
0.0
 11
8.3848633108852741
 21
193.6776142006037
 31
0.0
  0
LINE
  5
1252
  8
0
 62
     0
 10
11.134493967900861
 20
192.09011420060369
 30
0.0
 11
10.447086303646969
 21
192.4869892006038
 31
0.0
  0
LINE
  5
1253
  8
0
 62
     0
 10
13.19671696066256
 20
190.8994892006038
 30
0.0
 11
12.509309296408659
 21
191.29636420060379
 31
0.0
  0
LINE
  5
1254
  8
0
 62
     0
 10
4.2604174896158398
 20
194.47136448509889
 30
0.0
 11
3.57300982536194
 21
194.86823948509891
 31
0.0
  0
LINE
  5
1255
  8
0
 62
     0
 10
6.3226404823775342
 20
193.28073948509891
 30
0.0
 11
5.635232818123634
 21
193.6776144850989
 31
0.0
  0
LINE
  5
1256
  8
0
 62
     0
 10
8.3848634751392286
 20
192.09011448509901
 30
0.0
 11
7.6974558108853284
 21
192.48698948509889
 31
0.0
  0
LINE
  5
1257
  8
0
 62
     0
 10
10.44708646790092
 20
190.899489485099
 30
0.0
 11
9.7596788036470201
 21
191.29636448509899
 31
0.0
  0
LINE
  5
1258
  8
0
 62
     0
 10
12.509309460662619
 20
189.70886448509901
 30
0.0
 11
11.821901796408721
 21
190.10573948509901
 31
0.0
  0
LINE
  5
1259
  8
0
 62
     0
 10
3.5730099896143681
 20
193.2807397695961
 30
0.0
 11
2.885602325360471
 21
193.67761476959609
 31
0.0
  0
LINE
  5
125A
  8
0
 62
     0
 10
5.6352329823760616
 20
192.09011476959611
 30
0.0
 11
4.9478253181221641
 21
192.48698976959611
 31
0.0
  0
LINE
  5
125B
  8
0
 62
     0
 10
7.697455975137756
 20
190.89948976959619
 30
0.0
 11
7.0100483108838576
 21
191.29636476959621
 31
0.0
  0
LINE
  5
125C
  8
0
 62
     0
 10
9.7596789678994504
 20
189.7088647695962
 30
0.0
 11
9.072271303645552
 21
190.1057397695962
 31
0.0
  0
LINE
  5
125D
  8
0
 62
     0
 10
11.553630717429771
 20
188.67312624409169
 30
0.0
 11
11.13449429640724
 21
188.91511476959619
 31
0.0
  0
LINE
  5
125E
  8
0
 62
     0
 10
0.8233794968542249
 20
193.28074005409229
 30
0.0
 11
0.5632035736149542
 21
193.43095269341109
 31
0.0
  0
LINE
  5
125F
  8
0
 62
     0
 10
2.885602489615918
 20
192.09011505409231
 30
0.0
 11
2.19819482536202
 21
192.4869900540923
 31
0.0
  0
LINE
  5
1260
  8
0
 62
     0
 10
4.9478254823776124
 20
190.8994900540923
 30
0.0
 11
4.260417818123714
 21
191.29636505409229
 31
0.0
  0
LINE
  5
1261
  8
0
 62
     0
 10
7.0100484751393051
 20
189.70886505409231
 30
0.0
 11
6.3226408108854084
 21
190.10574005409231
 31
0.0
  0
LINE
  5
1262
  8
0
 62
     0
 10
9.0722714679010004
 20
188.5182400540923
 30
0.0
 11
8.3848638036471002
 21
188.9151150540923
 31
0.0
  0
LINE
  5
1263
  8
0
 62
     0
 10
0.1359719968546242
 20
192.09011533858771
 30
0.0
 11
0.0861703575469553
 21
192.11886832844809
 31
0.0
  0
LINE
  5
1264
  8
0
 62
     0
 10
2.1981949896163182
 20
190.8994903385877
 30
0.0
 11
1.5107873253624211
 21
191.29636533858769
 31
0.0
  0
LINE
  5
1265
  8
0
 62
     0
 10
4.2604179823780122
 20
189.70886533858771
 30
0.0
 11
3.5730103181241151
 21
190.10574033858771
 31
0.0
  0
LINE
  5
1266
  8
0
 62
     0
 10
6.3226409751397048
 20
188.5182403385877
 30
0.0
 11
5.635233310885809
 21
188.9151153385877
 31
0.0
  0
LINE
  5
1267
  8
0
 62
     0
 10
1.5107874896147331
 20
189.70886562308601
 30
0.0
 11
1.2492913500219081
 21
189.859840489672
 31
0.0
  0
LINE
  5
1268
  8
0
 62
     0
 10
3.0953730561632251
 20
188.79400471968529
 30
0.0
 11
2.8856028181225302
 21
188.915115623086
 31
0.0
  0
LINE
  5
1269
  8
0
 62
     0
 10
0.8264636922996126
 20
192.48514225193969
 30
0.0
 11
0.1390560280457165
 21
192.0882672519397
 31
0.0
  0
LINE
  5
126A
  8
0
 62
     0
 10
2.8886866850613049
 20
193.6757672519397
 30
0.0
 11
2.2012790208074078
 21
193.27889225193971
 31
0.0
  0
LINE
  5
126B
  8
0
 62
     0
 10
4.9509096778229971
 20
194.8663922519396
 30
0.0
 11
4.2635020135691013
 21
194.46951725193961
 31
0.0
  0
LINE
  5
126C
  8
0
 62
     0
 10
6.9193234373230723
 20
196.00285646586349
 30
0.0
 11
6.325725006330793
 21
195.66014225193959
 31
0.0
  0
LINE
  5
126D
  8
0
 62
     0
 10
1.5138711922992101
 20
191.29451753643579
 30
0.0
 11
0.8264635280453131
 21
190.8976425364358
 31
0.0
  0
LINE
  5
126E
  8
0
 62
     0
 10
3.576094185060902
 20
192.4851425364358
 30
0.0
 11
2.8886865208070049
 21
192.08826753643581
 31
0.0
  0
LINE
  5
126F
  8
0
 62
     0
 10
5.6383171778225947
 20
193.67576753643581
 30
0.0
 11
4.950909513568698
 21
193.27889253643579
 31
0.0
  0
LINE
  5
1270
  8
0
 62
     0
 10
7.7005401705842882
 20
194.86639253643571
 30
0.0
 11
7.0131325063303898
 21
194.46951753643569
 31
0.0
  0
LINE
  5
1271
  8
0
 62
     0
 10
9.4425245948606857
 20
195.87212771271581
 30
0.0
 11
9.0753554990920833
 21
195.6601425364357
 31
0.0
  0
LINE
  5
1272
  8
0
 62
     0
 10
2.2012786923002139
 20
190.10389282093271
 30
0.0
 11
1.513871028046317
 21
189.70701782093269
 31
0.0
  0
LINE
  5
1273
  8
0
 62
     0
 10
4.2635016850619074
 20
191.2945178209327
 30
0.0
 11
3.576094020808009
 21
190.8976428209327
 31
0.0
  0
LINE
  5
1274
  8
0
 62
     0
 10
6.3257246778236
 20
192.48514282093271
 30
0.0
 11
5.6383170135697016
 21
192.08826782093271
 31
0.0
  0
LINE
  5
1275
  8
0
 62
     0
 10
8.3879476705852927
 20
193.67576782093269
 30
0.0
 11
7.7005400063313951
 21
193.2788928209327
 31
0.0
  0
LINE
  5
1276
  8
0
 62
     0
 10
10.450170663346981
 20
194.86639282093259
 30
0.0
 11
9.7627629990930878
 21
194.46951782093271
 31
0.0
  0
LINE
  5
1277
  8
0
 62
     0
 10
2.8886861923002711
 20
188.9132681054281
 30
0.0
 11
2.8550462099721079
 21
188.89384605257541
 31
0.0
  0
LINE
  5
1278
  8
0
 62
     0
 10
4.9509091850619642
 20
190.103893105428
 30
0.0
 11
4.2635015208080658
 21
189.70701810542809
 31
0.0
  0
LINE
  5
1279
  8
0
 62
     0
 10
7.0131321778236559
 20
191.2945181054281
 30
0.0
 11
6.3257245135697593
 21
190.89764310542799
 31
0.0
  0
LINE
  5
127A
  8
0
 62
     0
 10
9.0753551705853486
 20
192.48514310542799
 30
0.0
 11
8.3879475063314501
 21
192.088268105428
 31
0.0
  0
LINE
  5
127B
  8
0
 62
     0
 10
11.13757816334704
 20
193.67576810542801
 30
0.0
 11
10.45017049909314
 21
193.27889310542801
 31
0.0
  0
LINE
  5
127C
  8
0
 62
     0
 10
12.94141509768974
 20
194.71721384504491
 30
0.0
 11
12.51239349185483
 21
194.46951810542799
 31
0.0
  0
LINE
  5
127D
  8
0
 62
     0
 10
5.6383166850615769
 20
188.91326838992421
 30
0.0
 11
4.9509090208076802
 21
188.51639338992419
 31
0.0
  0
LINE
  5
127E
  8
0
 62
     0
 10
7.7005396778232704
 20
190.1038933899242
 30
0.0
 11
7.013132013569372
 21
189.7070183899242
 31
0.0
  0
LINE
  5
127F
  8
0
 62
     0
 10
9.7627626705849622
 20
191.29451838992409
 30
0.0
 11
9.0753550063310655
 21
190.89764338992421
 31
0.0
  0
LINE
  5
1280
  8
0
 62
     0
 10
11.82498566334665
 20
192.48514338992419
 30
0.0
 11
11.137577999092761
 21
192.08826838992411
 31
0.0
  0
LINE
  5
1281
  8
0
 62
     0
 10
13.88720865610834
 20
193.67576838992409
 30
0.0
 11
13.199800991854451
 21
193.27889338992409
 31
0.0
  0
LINE
  5
1282
  8
0
 62
     0
 10
8.3879471778228503
 20
188.91326867442029
 30
0.0
 11
7.7005395135689518
 21
188.5163936744203
 31
0.0
  0
LINE
  5
1283
  8
0
 62
     0
 10
10.45017017058454
 20
190.10389367442031
 30
0.0
 11
9.7627625063306454
 21
189.70701867442031
 31
0.0
  0
LINE
  5
1284
  8
0
 62
     0
 10
12.51239316334623
 20
191.2945186744202
 30
0.0
 11
11.82498549909233
 21
190.89764367442021
 31
0.0
  0
LINE
  5
1285
  8
0
 62
     0
 10
14.57461615610792
 20
192.48514367442019
 30
0.0
 11
13.887208491854031
 21
192.08826867442019
 31
0.0
  0
LINE
  5
1286
  8
0
 62
     0
 10
11.137577670584159
 20
188.9132689589164
 30
0.0
 11
10.450170006330261
 21
188.51639395891641
 31
0.0
  0
LINE
  5
1287
  8
0
 62
     0
 10
13.199800663345849
 20
190.10389395891639
 30
0.0
 11
12.512392999091951
 21
189.70701895891639
 31
0.0
  0
LINE
  5
1288
  8
0
 62
     0
 10
14.5998052696022
 20
190.91218699520519
 30
0.0
 11
14.574615991853641
 21
190.8976439589164
 31
0.0
  0
LINE
  5
1289
  8
0
 62
     0
 10
14.574671838175171
 20
192.488737144618
 30
0.0
 11
14.574671838175171
 21
193.16325003596461
 31
0.0
  0
LINE
  5
128A
  8
0
 62
     0
 10
14.574671838175171
 20
190.8658657064679
 30
0.0
 11
14.574671838175171
 21
190.90123714461799
 31
0.0
  0
LINE
  5
128B
  8
0
 62
     0
 10
13.19985683817595
 20
192.48873714461769
 30
0.0
 11
13.19985683817595
 21
193.2824871446177
 31
0.0
  0
LINE
  5
128C
  8
0
 62
     0
 10
13.19985683817595
 20
190.10748714461769
 30
0.0
 11
13.19985683817595
 21
190.90123714461771
 31
0.0
  0
LINE
  5
128D
  8
0
 62
     0
 10
11.82504183817491
 20
194.86998714461771
 30
0.0
 11
11.82504183817491
 21
195.25471173577171
 31
0.0
  0
LINE
  5
128E
  8
0
 62
     0
 10
11.82504183817491
 20
192.48873714461769
 30
0.0
 11
11.82504183817491
 21
193.2824871446177
 31
0.0
  0
LINE
  5
128F
  8
0
 62
     0
 10
11.82504183817491
 20
190.10748714461769
 30
0.0
 11
11.82504183817491
 21
190.90123714461771
 31
0.0
  0
LINE
  5
1290
  8
0
 62
     0
 10
10.4502268381757
 20
194.86998714461771
 30
0.0
 11
10.4502268381757
 21
195.66373714461761
 31
0.0
  0
LINE
  5
1291
  8
0
 62
     0
 10
10.4502268381757
 20
192.48873714461769
 30
0.0
 11
10.4502268381757
 21
193.2824871446177
 31
0.0
  0
LINE
  5
1292
  8
0
 62
     0
 10
10.4502268381757
 20
190.10748714461769
 30
0.0
 11
10.4502268381757
 21
190.90123714461771
 31
0.0
  0
LINE
  5
1293
  8
0
 62
     0
 10
10.4502268381757
 20
188.34959073536811
 30
0.0
 11
10.4502268381757
 21
188.51998714461769
 31
0.0
  0
LINE
  5
1294
  8
0
 62
     0
 10
9.0754118381746611
 20
194.86998714461771
 30
0.0
 11
9.0754118381746611
 21
195.66373714461761
 31
0.0
  0
LINE
  5
1295
  8
0
 62
     0
 10
9.0754118381746611
 20
192.48873714461769
 30
0.0
 11
9.0754118381746611
 21
193.2824871446177
 31
0.0
  0
LINE
  5
1296
  8
0
 62
     0
 10
9.0754118381746611
 20
190.10748714461769
 30
0.0
 11
9.0754118381746611
 21
190.90123714461771
 31
0.0
  0
LINE
  5
1297
  8
0
 62
     0
 10
9.0754118381746611
 20
188.10799142704309
 30
0.0
 11
9.0754118381746611
 21
188.51998714461769
 31
0.0
  0
LINE
  5
1298
  8
0
 62
     0
 10
7.7005968381754446
 20
194.86998714461771
 30
0.0
 11
7.7005968381754446
 21
195.66373714461761
 31
0.0
  0
LINE
  5
1299
  8
0
 62
     0
 10
7.7005968381754446
 20
192.48873714461769
 30
0.0
 11
7.7005968381754446
 21
193.2824871446177
 31
0.0
  0
LINE
  5
129A
  8
0
 62
     0
 10
7.7005968381754446
 20
190.10748714461769
 30
0.0
 11
7.7005968381754446
 21
190.90123714461771
 31
0.0
  0
LINE
  5
129B
  8
0
 62
     0
 10
7.7005968381754446
 20
188.0162546193805
 30
0.0
 11
7.7005968381754446
 21
188.51998714461769
 31
0.0
  0
LINE
  5
129C
  8
0
 62
     0
 10
6.3257818381762281
 20
194.86998714461771
 30
0.0
 11
6.3257818381762281
 21
195.66373714461761
 31
0.0
  0
LINE
  5
129D
  8
0
 62
     0
 10
6.3257818381762281
 20
192.48873714461769
 30
0.0
 11
6.3257818381762281
 21
193.2824871446177
 31
0.0
  0
LINE
  5
129E
  8
0
 62
     0
 10
6.3257818381762281
 20
190.10748714461769
 30
0.0
 11
6.3257818381762281
 21
190.90123714461771
 31
0.0
  0
LINE
  5
129F
  8
0
 62
     0
 10
6.3257818381762281
 20
188.06392670144669
 30
0.0
 11
6.3257818381762281
 21
188.51998714461769
 31
0.0
  0
LINE
  5
12A0
  8
0
 62
     0
 10
4.9509668381751926
 20
194.86998714461771
 30
0.0
 11
4.9509668381751926
 21
195.66373714461761
 31
0.0
  0
LINE
  5
12A1
  8
0
 62
     0
 10
4.9509668381751926
 20
192.48873714461769
 30
0.0
 11
4.9509668381751926
 21
193.2824871446177
 31
0.0
  0
LINE
  5
12A2
  8
0
 62
     0
 10
4.9509668381751926
 20
190.10748714461769
 30
0.0
 11
4.9509668381751926
 21
190.90123714461771
 31
0.0
  0
LINE
  5
12A3
  8
0
 62
     0
 10
4.9509668381751926
 20
188.25630899434509
 30
0.0
 11
4.9509668381751926
 21
188.51998714461769
 31
0.0
  0
LINE
  5
12A4
  8
0
 62
     0
 10
3.576151838175976
 20
194.86998714461771
 30
0.0
 11
3.576151838175976
 21
195.4112139969493
 31
0.0
  0
LINE
  5
12A5
  8
0
 62
     0
 10
3.576151838175976
 20
192.48873714461769
 30
0.0
 11
3.576151838175976
 21
193.2824871446177
 31
0.0
  0
LINE
  5
12A6
  8
0
 62
     0
 10
3.576151838175976
 20
190.10748714461769
 30
0.0
 11
3.576151838175976
 21
190.90123714461771
 31
0.0
  0
LINE
  5
12A7
  8
0
 62
     0
 10
2.201336838174941
 20
192.48873714461769
 30
0.0
 11
2.201336838174941
 21
193.2824871446177
 31
0.0
  0
LINE
  5
12A8
  8
0
 62
     0
 10
2.201336838174941
 20
190.10748714461769
 30
0.0
 11
2.201336838174941
 21
190.90123714461771
 31
0.0
  0
LINE
  5
12A9
  8
0
 62
     0
 10
0.8265218381757254
 20
192.488737144618
 30
0.0
 11
0.8265218381757254
 21
193.28248714461799
 31
0.0
  0
LINE
  5
12AA
  8
0
 62
     0
 10
0.8265218381757252
 20
190.26795546268289
 30
0.0
 11
0.8265218381757252
 21
190.90123714461799
 31
0.0
  0
ENDBLK
  5
12AC
  8
0
  0
BLOCK
  8
0
  2
*X38
 70
     1
 10
0.0
 20
0.0
 30
0.0
  3
*X38
  1

  0
LINE
  5
12AE
  8
0
 62
     0
 10
0.7972963304382575
 20
209.230062181422
 30
0.0
 11
0.0999999999989996
 21
208.53276585098271
 31
0.0
  0
LINE
  5
12AF
  8
0
 62
     0
 10
1.5649099775591819
 20
208.87514381340949
 30
0.0
 11
0.0999999999985448
 21
207.41023383584891
 31
0.0
  0
LINE
  5
12B0
  8
0
 62
     0
 10
2.369524339626877
 20
208.55722616034379
 30
0.0
 11
0.0999999999989996
 21
206.28770182071599
 31
0.0
  0
LINE
  5
12B1
  8
0
 62
     0
 10
3.2140239918244329
 20
208.27919379740749
 30
0.0
 11
0.0999999999976353
 21
205.1651698055812
 31
0.0
  0
LINE
  5
12B2
  8
0
 62
     0
 10
4.1021587536170037
 20
208.04479654406711
 30
0.0
 11
0.0999999999989996
 21
204.04263779044911
 31
0.0
  0
LINE
  5
12B3
  8
0
 62
     0
 10
5.0388678502217772
 20
207.85897362553669
 30
0.0
 11
0.0999999999994543
 21
202.9201057753144
 31
0.0
  0
LINE
  5
12B4
  8
0
 62
     0
 10
6.0307963628661119
 20
207.72837012304939
 30
0.0
 11
0.0999999999989996
 21
201.7975737601823
 31
0.0
  0
LINE
  5
12B5
  8
0
 62
     0
 10
7.0871623638568053
 20
207.66220410890489
 30
0.0
 11
0.0999999999994543
 21
200.67504174504759
 31
0.0
  0
LINE
  5
12B6
  8
0
 62
     0
 10
8.2213169464121165
 20
207.6738266763268
 30
0.0
 11
0.0999999999989996
 21
199.55250972991371
 31
0.0
  0
LINE
  5
12B7
  8
0
 62
     0
 10
9.4538250617993072
 20
207.78380277658059
 30
0.0
 11
0.0999999999980901
 21
198.4299777147794
 31
0.0
  0
LINE
  5
12B8
  8
0
 62
     0
 10
10.81941071749088
 20
208.02685641713879
 30
0.0
 11
0.0999999999976353
 21
197.30744569964551
 31
0.0
  0
LINE
  5
12B9
  8
0
 62
     0
 10
12.38617884692894
 20
208.4710925314435
 30
0.0
 11
0.0999999999980901
 21
196.18491368451259
 31
0.0
  0
LINE
  5
12BA
  8
0
 62
     0
 10
14.333434900862359
 20
209.29581657024349
 30
0.0
 11
0.0999999999976353
 21
195.06238166937871
 31
0.0
  0
LINE
  5
12BB
  8
0
 62
     0
 10
14.89999999999827
 20
208.739849654246
 30
0.0
 11
1.6227526981597289
 21
195.4626023524074
 31
0.0
  0
LINE
  5
12BC
  8
0
 62
     0
 10
14.900000000000089
 20
207.61731763911251
 30
0.0
 11
3.3587494275348031
 21
196.07606706664731
 31
0.0
  0
LINE
  5
12BD
  8
0
 62
     0
 10
14.89999999999827
 20
206.49478562397729
 30
0.0
 11
4.8217363471126191
 21
196.4165219710917
 31
0.0
  0
LINE
  5
12BE
  8
0
 62
     0
 10
14.89999999999873
 20
205.3722536088444
 30
0.0
 11
6.1210374450756708
 21
196.59329105392129
 31
0.0
  0
LINE
  5
12BF
  8
0
 62
     0
 10
14.89999999999827
 20
204.24972159371049
 30
0.0
 11
7.3055689234042802
 21
196.6552905171165
 31
0.0
  0
LINE
  5
12C0
  8
0
 62
     0
 10
14.89999999999873
 20
203.1271895785776
 30
0.0
 11
8.4023056777587044
 21
196.62949525633749
 31
0.0
  0
LINE
  5
12C1
  8
0
 62
     0
 10
14.89999999999827
 20
202.0046575634438
 30
0.0
 11
9.4279878617489885
 21
196.5326454251944
 31
0.0
  0
LINE
  5
12C2
  8
0
 62
     0
 10
14.899999999997361
 20
200.8821255483094
 30
0.0
 11
10.393824008417591
 21
196.37594955672969
 31
0.0
  0
LINE
  5
12C3
  8
0
 62
     0
 10
14.89999999999918
 20
199.759593533176
 30
0.0
 11
11.307720875562151
 21
196.167314408739
 31
0.0
  0
LINE
  5
12C4
  8
0
 62
     0
 10
14.899999999997361
 20
198.63706151804081
 30
0.0
 11
12.175465877778599
 21
195.912527395822
 31
0.0
  0
LINE
  5
12C5
  8
0
 62
     0
 10
14.89999999999918
 20
197.5145295029092
 30
0.0
 11
13.001406967335241
 21
195.61593647024529
 31
0.0
  0
LINE
  5
12C6
  8
0
 62
     0
 10
14.899999999997361
 20
196.39199748777401
 30
0.0
 11
13.788868073395861
 21
195.2808655611725
 31
0.0
  0
LINE
  5
12C7
  8
0
 62
     0
 10
14.89999999999781
 20
195.269465472641
 30
0.0
 11
14.540415016546371
 21
194.90988048918959
 31
0.0
  0
LINE
  5
12C8
  8
0
 62
     0
 10
14.899999999996
 20
209.14121494779459
 30
0.0
 11
14.6041243163454
 21
209.43709063144519
 31
0.0
  0
LINE
  5
12C9
  8
0
 62
     0
 10
14.89999999999781
 20
208.01868293266131
 30
0.0
 11
13.85559856245891
 21
209.06308437020019
 31
0.0
  0
LINE
  5
12CA
  8
0
 62
     0
 10
14.899999999999631
 20
206.896150917526
 30
0.0
 11
13.071352178294539
 21
208.72479873923109
 31
0.0
  0
LINE
  5
12CB
  8
0
 62
     0
 10
14.899999999999631
 20
205.7736189023926
 30
0.0
 11
12.24887593454878
 21
208.42474296784351
 31
0.0
  0
LINE
  5
12CC
  8
0
 62
     0
 10
14.899999999999631
 20
204.65108688725741
 30
0.0
 11
11.3849207653293
 21
208.16616612192769
 31
0.0
  0
LINE
  5
12CD
  8
0
 62
     0
 10
14.90000000000145
 20
203.52855487212221
 30
0.0
 11
10.475241508711401
 21
207.95331336341221
 31
0.0
  0
LINE
  5
12CE
  8
0
 62
     0
 10
14.89999999999781
 20
202.40602285699239
 30
0.0
 11
9.5141979371546768
 21
207.79182491983559
 31
0.0
  0
LINE
  5
12CF
  8
0
 62
     0
 10
14.899999999999631
 20
201.2834908418572
 30
0.0
 11
8.4941047939737473
 21
207.68938604788309
 31
0.0
  0
LINE
  5
12D0
  8
0
 62
     0
 10
14.899999999999631
 20
200.1609588267238
 30
0.0
 11
7.4041081316154296
 21
207.65685069510801
 31
0.0
  0
LINE
  5
12D1
  8
0
 62
     0
 10
14.899999999999631
 20
199.03842681158861
 30
0.0
 11
6.2280833042768791
 21
207.71034350731131
 31
0.0
  0
LINE
  5
12D2
  8
0
 62
     0
 10
14.89999999999781
 20
197.915894796457
 30
0.0
 11
4.9402517528596936
 21
207.87564304359509
 31
0.0
  0
LINE
  5
12D3
  8
0
 62
     0
 10
14.89999999999781
 20
196.79336278132359
 30
0.0
 11
3.4944605839664291
 21
208.19890219735501
 31
0.0
  0
LINE
  5
12D4
  8
0
 62
     0
 10
14.899999999999631
 20
195.67083076619019
 30
0.0
 11
1.7900594003713191
 21
208.78077136581851
 31
0.0
  0
LINE
  5
12D5
  8
0
 62
     0
 10
14.53617992427462
 20
194.91211882677999
 30
0.0
 11
0.1000000000003638
 21
209.34829875105419
 31
0.0
  0
LINE
  5
12D6
  8
0
 62
     0
 10
12.53604871472635
 20
195.78971802119489
 30
0.0
 11
0.1000000000003638
 21
208.22576673592269
 31
0.0
  0
LINE
  5
12D7
  8
0
 62
     0
 10
10.946228635026269
 20
196.2570060857615
 30
0.0
 11
0.0999999999985448
 21
207.1032347207892
 31
0.0
  0
LINE
  5
12D8
  8
0
 62
     0
 10
9.5666014649141289
 20
196.51410124074019
 30
0.0
 11
0.1000000000003638
 21
205.98070270565401
 31
0.0
  0
LINE
  5
12D9
  8
0
 62
     0
 10
8.3241912232988398
 20
196.6339794672221
 30
0.0
 11
0.0999999999985448
 21
204.85817069052251
 31
0.0
  0
LINE
  5
12DA
  8
0
 62
     0
 10
7.1824410991976029
 20
196.65319757618809
 30
0.0
 11
0.1000000000003638
 21
203.73563867538539
 31
0.0
  0
LINE
  5
12DB
  8
0
 62
     0
 10
6.1199185175446473
 20
196.5931881427077
 30
0.0
 11
0.0999999999985448
 21
202.61310666025381
 31
0.0
  0
LINE
  5
12DC
  8
0
 62
     0
 10
5.1227998144058802
 20
196.4677748307131
 30
0.0
 11
0.0999999999985448
 21
201.49057464512049
 31
0.0
  0
LINE
  5
12DD
  8
0
 62
     0
 10
4.1815835388697451
 20
196.2864590911158
 30
0.0
 11
0.1000000000003638
 21
200.36804262998521
 31
0.0
  0
LINE
  5
12DE
  8
0
 62
     0
 10
3.289442168254026
 20
196.05606844659809
 30
0.0
 11
0.0999999999967258
 21
199.24551061485539
 31
0.0
  0
LINE
  5
12DF
  8
0
 62
     0
 10
2.4413123056092441
 20
195.78166629410771
 30
0.0
 11
0.1000000000003638
 21
198.12297859971659
 31
0.0
  0
LINE
  5
12E0
  8
0
 62
     0
 10
1.6333556637928259
 20
195.46709092079249
 30
0.0
 11
0.0999999999985448
 21
197.0004465845868
 31
0.0
  0
LINE
  5
12E1
  8
0
 62
     0
 10
0.8626220987625856
 20
195.11529247068941
 30
0.0
 11
0.1000000000021828
 21
195.87791456944981
 31
0.0
  0
LINE
  5
12E2
  8
0
 62
     0
 10
0.1268301542895642
 20
194.728552400029
 30
0.0
 11
0.1000000000003638
 21
194.7553825543182
 31
0.0
  0
ENDBLK
  5
12E4
  8
0
  0
BLOCK
  8
0
  2
*X39
 70
     1
 10
0.0
 20
0.0
 30
0.0
  3
*X39
  1

  0
LINE
  5
12E6
  8
0
 62
     0
 10
11.82191181589622
 20
57.2431390222524
 30
0.0
 11
10.44709648738843
 21
58.036889022252403
 31
0.0
  0
LINE
  5
12E7
  8
0
 62
     0
 10
15.0
 20
55.408268953651707
 30
0.0
 11
14.571542472911821
 21
55.655639022252402
 31
0.0
  0
LINE
  5
12E8
  8
0
 62
     0
 10
6.322650830372452
 20
57.243139591245203
 30
0.0
 11
4.9478355018646578
 21
58.036889591245213
 31
0.0
  0
LINE
  5
12E9
  8
0
 62
     0
 10
10.44709681589584
 20
54.861889591245202
 30
0.0
 11
9.0722814873880466
 21
55.655639591245212
 31
0.0
  0
LINE
  5
12EA
  8
0
 62
     0
 10
14.571542801419231
 20
52.4806395912452
 30
0.0
 11
13.19672747291143
 21
53.27438959124521
 31
0.0
  0
LINE
  5
12EB
  8
0
 62
     0
 10
0.8233898448512012
 20
57.243140160236543
 30
0.0
 11
-0.0000000000000591
 21
57.718524508809431
 31
0.0
  0
LINE
  5
12EC
  8
0
 62
     0
 10
4.9478358303745891
 20
54.861890160236541
 30
0.0
 11
3.573020501866794
 21
55.655640160236551
 31
0.0
  0
LINE
  5
12ED
  8
0
 62
     0
 10
9.0722818158979752
 20
52.48064016023654
 30
0.0
 11
7.6974664873901819
 21
53.27439016023655
 31
0.0
  0
LINE
  5
12EE
  8
0
 62
     0
 10
13.19672780142136
 20
50.099390160236538
 30
0.0
 11
11.821912472913571
 21
50.893140160236548
 31
0.0
  0
LINE
  5
12EF
  8
0
 62
     0
 10
3.5730208303735762
 20
52.480640729228803
 30
0.0
 11
2.1982055018657798
 21
53.274390729228813
 31
0.0
  0
LINE
  5
12F0
  8
0
 62
     0
 10
7.6974668158969637
 20
50.099390729228801
 30
0.0
 11
6.3226514873891677
 21
50.893140729228797
 31
0.0
  0
LINE
  5
12F1
  8
0
 62
     0
 10
11.82191280142035
 20
47.7181407292288
 30
0.0
 11
10.447097472912549
 21
48.511890729228803
 31
0.0
  0
LINE
  5
12F2
  8
0
 62
     0
 10
15.0
 20
45.883271229620732
 30
0.0
 11
14.57154345843594
 21
46.130640729228801
 31
0.0
  0
LINE
  5
12F3
  8
0
 62
     0
 10
2.1982058303729461
 20
50.099391298220688
 30
0.0
 11
0.8233905018651501
 21
50.893141298220698
 31
0.0
  0
LINE
  5
12F4
  8
0
 62
     0
 10
6.3226518158963341
 20
47.718141298220687
 30
0.0
 11
4.9478364873885381
 21
48.511891298220696
 31
0.0
  0
LINE
  5
12F5
  8
0
 62
     0
 10
10.447097801419719
 20
45.336891298220692
 30
0.0
 11
9.072282472911926
 21
46.130641298220702
 31
0.0
  0
LINE
  5
12F6
  8
0
 62
     0
 10
14.57154378694311
 20
42.955641298220691
 30
0.0
 11
13.19672845843531
 21
43.749391298220687
 31
0.0
  0
LINE
  5
12F7
  8
0
 62
     0
 10
0.8233908303737501
 20
47.718141867213852
 30
0.0
 11
-0.0000000000000608
 21
48.193526784778442
 31
0.0
  0
LINE
  5
12F8
  8
0
 62
     0
 10
4.9478368158971371
 20
45.336891867213851
 30
0.0
 11
3.5730214873893411
 21
46.130641867213861
 31
0.0
  0
LINE
  5
12F9
  8
0
 62
     0
 10
9.0722828014205241
 20
42.955641867213849
 30
0.0
 11
7.697467472912729
 21
43.749391867213859
 31
0.0
  0
LINE
  5
12FA
  8
0
 62
     0
 10
13.196728786943909
 20
40.574391867213848
 30
0.0
 11
11.821913458436111
 21
41.368141867213858
 31
0.0
  0
LINE
  5
12FB
  8
0
 62
     0
 10
3.5730218158967468
 20
42.955642436206467
 30
0.0
 11
2.1982064873889531
 21
43.74939243620647
 31
0.0
  0
LINE
  5
12FC
  8
0
 62
     0
 10
7.6974678014201352
 20
40.574392436206473
 30
0.0
 11
6.322652472912341
 21
41.368142436206469
 31
0.0
  0
LINE
  5
12FD
  8
0
 62
     0
 10
2.1982068158970818
 20
40.574393005198182
 30
0.0
 11
0.8233914873892889
 21
41.368143005198192
 31
0.0
  0
LINE
  5
12FE
  8
0
 62
     0
 10
2.2012688370653102
 20
58.035042073587881
 30
0.0
 11
0.8264535085575188
 21
57.241292073587879
 31
0.0
  0
LINE
  5
12FF
  8
0
 62
     0
 10
3.5760838370663719
 20
55.653792642580157
 30
0.0
 11
2.2012685085585799
 21
54.860042642580169
 31
0.0
  0
LINE
  5
1300
  8
0
 62
     0
 10
7.700529822589754
 20
58.035042642580152
 30
0.0
 11
6.3257144940819616
 21
57.241292642580149
 31
0.0
  0
LINE
  5
1301
  8
0
 62
     0
 10
0.826452851542216
 20
50.891293211572439
 30
0.0
 11
-0.0000000000000684
 21
50.414140435261963
 31
0.0
  0
LINE
  5
1302
  8
0
 62
     0
 10
4.9508988370655969
 20
53.272543211572419
 30
0.0
 11
3.5760835085578071
 21
52.47879321157243
 31
0.0
  0
LINE
  5
1303
  8
0
 62
     0
 10
9.0753448225889795
 20
55.653793211572413
 30
0.0
 11
7.7005294940811879
 21
54.860043211572417
 31
0.0
  0
LINE
  5
1304
  8
0
 62
     0
 10
13.199790808112359
 20
58.0350432115724
 30
0.0
 11
11.82497547960457
 21
57.241293211572398
 31
0.0
  0
LINE
  5
1305
  8
0
 62
     0
 10
2.2012678515432391
 20
48.510043780564693
 30
0.0
 11
0.8264525230354466
 21
47.716293780564691
 31
0.0
  0
LINE
  5
1306
  8
0
 62
     0
 10
6.3257138370666199
 20
50.891293780564681
 30
0.0
 11
4.9508985085588284
 21
50.097543780564678
 31
0.0
  0
LINE
  5
1307
  8
0
 62
     0
 10
10.450159822590001
 20
53.272543780564661
 30
0.0
 11
9.0753444940822092
 21
52.478793780564672
 31
0.0
  0
LINE
  5
1308
  8
0
 62
     0
 10
14.574605808113381
 20
55.653793780564662
 30
0.0
 11
13.199790479605589
 21
54.860043780564659
 31
0.0
  0
LINE
  5
1309
  8
0
 62
     0
 10
3.5760828515424441
 20
46.128794349556941
 30
0.0
 11
2.2012675230346499
 21
45.335044349556952
 31
0.0
  0
LINE
  5
130A
  8
0
 62
     0
 10
7.7005288370658258
 20
48.510044349556942
 30
0.0
 11
6.3257135085580316
 21
47.716294349556939
 31
0.0
  0
LINE
  5
130B
  8
0
 62
     0
 10
11.82497482258921
 20
50.891294349556922
 30
0.0
 11
10.45015949408141
 21
50.097544349556919
 31
0.0
  0
LINE
  5
130C
  8
0
 62
     0
 10
14.999999999999771
 20
52.724395990418742
 30
0.0
 11
14.5746054796048
 21
52.478794349556921
 31
0.0
  0
LINE
  5
130D
  8
0
 62
     0
 10
0.8264518660196635
 20
41.366294918549968
 30
0.0
 11
-0.0000000000005187
 21
40.889142711230953
 31
0.0
  0
LINE
  5
130E
  8
0
 62
     0
 10
4.9508978515430453
 20
43.747544918549963
 30
0.0
 11
3.5760825230352511
 21
42.953794918549967
 31
0.0
  0
LINE
  5
130F
  8
0
 62
     0
 10
9.0753438370664252
 20
46.12879491854995
 30
0.0
 11
7.7005285085586319
 21
45.335044918549947
 31
0.0
  0
LINE
  5
1310
  8
0
 62
     0
 10
13.19978982258981
 20
48.51004491854993
 30
0.0
 11
11.82497449408201
 21
47.716294918549927
 31
0.0
  0
LINE
  5
1311
  8
0
 62
     0
 10
6.3257128515427388
 20
41.36629548754145
 30
0.0
 11
4.9508975230349446
 21
40.572545487541447
 31
0.0
  0
LINE
  5
1312
  8
0
 62
     0
 10
10.45015883706612
 20
43.74754548754143
 30
0.0
 11
9.0753435085583281
 21
42.953795487541427
 31
0.0
  0
LINE
  5
1313
  8
0
 62
     0
 10
14.5746048225895
 20
46.128795487541417
 30
0.0
 11
13.19978949408171
 21
45.335045487541429
 31
0.0
  0
LINE
  5
1314
  8
0
 62
     0
 10
11.824973837065331
 20
41.366296056533692
 30
0.0
 11
10.450158508557539
 21
40.572546056533689
 31
0.0
  0
LINE
  5
1315
  8
0
 62
     0
 10
15.000000000000171
 20
43.199398266388222
 30
0.0
 11
14.574604494080919
 21
42.953796056533683
 31
0.0
  0
LINE
  5
1316
  8
0
 62
     0
 10
13.19985683817594
 20
58.038619327508762
 30
0.0
 11
13.19985683817594
 21
59.185987402033767
 31
0.0
  0
LINE
  5
1317
  8
0
 62
     0
 10
13.19985683817594
 20
53.276119327508773
 30
0.0
 11
13.19985683817594
 21
54.863619327508772
 31
0.0
  0
LINE
  5
1318
  8
0
 62
     0
 10
13.19985683817594
 20
48.513619327508778
 30
0.0
 11
13.19985683817594
 21
50.101119327508769
 31
0.0
  0
LINE
  5
1319
  8
0
 62
     0
 10
13.19985683817594
 20
43.751119327508782
 30
0.0
 11
13.19985683817594
 21
45.338619327508781
 31
0.0
  0
LINE
  5
131A
  8
0
 62
     0
 10
13.19985683817594
 20
39.185987402033788
 30
0.0
 11
13.19985683817594
 21
40.576119327508778
 31
0.0
  0
LINE
  5
131B
  8
0
 62
     0
 10
10.45022683817569
 20
58.038619327508762
 30
0.0
 11
10.45022683817569
 21
59.185987402033767
 31
0.0
  0
LINE
  5
131C
  8
0
 62
     0
 10
10.45022683817569
 20
53.276119327508773
 30
0.0
 11
10.45022683817569
 21
54.863619327508772
 31
0.0
  0
LINE
  5
131D
  8
0
 62
     0
 10
10.45022683817569
 20
48.513619327508778
 30
0.0
 11
10.45022683817569
 21
50.101119327508769
 31
0.0
  0
LINE
  5
131E
  8
0
 62
     0
 10
10.45022683817569
 20
43.751119327508782
 30
0.0
 11
10.45022683817569
 21
45.338619327508781
 31
0.0
  0
LINE
  5
131F
  8
0
 62
     0
 10
10.45022683817569
 20
39.185987402033788
 30
0.0
 11
10.45022683817569
 21
40.576119327508778
 31
0.0
  0
LINE
  5
1320
  8
0
 62
     0
 10
7.7005968381754384
 20
58.038619327508762
 30
0.0
 11
7.7005968381754384
 21
59.185987402033767
 31
0.0
  0
LINE
  5
1321
  8
0
 62
     0
 10
7.7005968381754384
 20
53.276119327508773
 30
0.0
 11
7.7005968381754384
 21
54.863619327508772
 31
0.0
  0
LINE
  5
1322
  8
0
 62
     0
 10
7.7005968381754384
 20
48.513619327508778
 30
0.0
 11
7.7005968381754384
 21
50.101119327508769
 31
0.0
  0
LINE
  5
1323
  8
0
 62
     0
 10
7.7005968381754384
 20
43.751119327508782
 30
0.0
 11
7.7005968381754384
 21
45.338619327508781
 31
0.0
  0
LINE
  5
1324
  8
0
 62
     0
 10
7.7005968381754384
 20
39.185987402033788
 30
0.0
 11
7.7005968381754384
 21
40.576119327508778
 31
0.0
  0
LINE
  5
1325
  8
0
 62
     0
 10
4.9509668381751863
 20
58.038619327508762
 30
0.0
 11
4.9509668381751863
 21
59.185987402033767
 31
0.0
  0
LINE
  5
1326
  8
0
 62
     0
 10
4.9509668381751863
 20
53.276119327508773
 30
0.0
 11
4.9509668381751863
 21
54.863619327508772
 31
0.0
  0
LINE
  5
1327
  8
0
 62
     0
 10
4.9509668381751863
 20
48.513619327508778
 30
0.0
 11
4.9509668381751863
 21
50.101119327508769
 31
0.0
  0
LINE
  5
1328
  8
0
 62
     0
 10
4.9509668381751863
 20
43.751119327508782
 30
0.0
 11
4.9509668381751863
 21
45.338619327508781
 31
0.0
  0
LINE
  5
1329
  8
0
 62
     0
 10
4.9509668381751863
 20
39.185987402033788
 30
0.0
 11
4.9509668381751863
 21
40.576119327508778
 31
0.0
  0
LINE
  5
132A
  8
0
 62
     0
 10
2.2013368381749339
 20
58.038619327508762
 30
0.0
 11
2.2013368381749339
 21
59.185987402033767
 31
0.0
  0
LINE
  5
132B
  8
0
 62
     0
 10
2.2013368381749339
 20
53.276119327508773
 30
0.0
 11
2.2013368381749339
 21
54.863619327508772
 31
0.0
  0
LINE
  5
132C
  8
0
 62
     0
 10
2.2013368381749339
 20
48.513619327508778
 30
0.0
 11
2.2013368381749339
 21
50.101119327508769
 31
0.0
  0
LINE
  5
132D
  8
0
 62
     0
 10
2.2013368381749339
 20
43.751119327508782
 30
0.0
 11
2.2013368381749339
 21
45.338619327508781
 31
0.0
  0
LINE
  5
132E
  8
0
 62
     0
 10
2.2013368381749339
 20
39.185987402033788
 30
0.0
 11
2.2013368381749339
 21
40.576119327508778
 31
0.0
  0
ENDBLK
  5
1330
  8
0
  0
BLOCK
  8
0
  2
*U40
 70
     1
 10
0.0
 20
0.0
 30
0.0
  3
*U40
  1

  0
SOLID
  5
142A
  8
SAPA_FOGBAND
  6
CONTINUOUS
 10
21.2878679656427
 20
25.217018687721961
 30
0.0
 11
21.107590401869501
 21
25.142345275815511
 31
0.0
 12
21.468145529415899
 22
25.142345275815511
 32
0.0
 13
21.468145529415899
 23
25.142345275815511
 33
0.0
210
0.0
220
0.0
230
1.0
  0
SOLID
  5
142B
  8
SAPA_FOGBAND
  6
CONTINUOUS
 10
21.107590401869501
 20
25.142345275815511
 30
0.0
 11
21.032916989963059
 21
24.962067712042309
 31
0.0
 12
21.542818941322349
 22
24.962067712042309
 32
0.0
 13
21.542818941322349
 23
24.962067712042309
 33
0.0
210
0.0
220
0.0
230
1.0
  0
SOLID
  5
142C
  8
SAPA_FOGBAND
  6
CONTINUOUS
 10
-21.107590401869501
 20
25.142345275815511
 30
0.0
 11
-21.468145529415899
 21
25.142345275815511
 31
0.0
 12
-21.542818941322349
 22
24.962067712042309
 32
0.0
 13
-21.542818941322349
 23
24.962067712042309
 33
0.0
210
0.0
220
0.0
230
-1.0
  0
SOLID
  5
142D
  8
SAPA_FOGBAND
  6
CONTINUOUS
 10
-21.107590401869501
 20
24.781790148269121
 30
0.0
 11
-21.468145529415899
 21
24.781790148269121
 31
0.0
 12
-21.2878679656427
 22
24.707116736362671
 32
0.0
 13
-21.2878679656427
 23
24.707116736362671
 33
0.0
210
0.0
220
0.0
230
-1.0
  0
SOLID
  5
142E
  8
SAPA_FOGBAND
  6
CONTINUOUS
 10
21.032916989963059
 20
24.962067712042309
 30
0.0
 11
21.107590401869501
 21
24.781790148269121
 31
0.0
 12
21.468145529415899
 22
24.781790148269121
 32
0.0
 13
21.468145529415899
 23
24.781790148269121
 33
0.0
210
0.0
220
0.0
230
1.0
  0
SOLID
  5
142F
  8
SAPA_FOGBAND
  6
CONTINUOUS
 10
-21.032916989963059
 20
24.962067712042309
 30
0.0
 11
-21.542818941322349
 21
24.962067712042309
 31
0.0
 12
-21.468145529415899
 22
24.781790148269121
 32
0.0
 13
-21.468145529415899
 23
24.781790148269121
 33
0.0
210
0.0
220
0.0
230
-1.0
  0
LINE
  5
1430
  8
SAPA_FOGBAND
  6
CONTINUOUS
 10
21.2878679656427
 20
25.217018687721961
 30
0.0
 11
21.107590401869501
 21
25.142345275815511
 31
0.0
  0
LINE
  5
1431
  8
SAPA_FOGBAND
  6
CONTINUOUS
 10
21.468145529415899
 20
25.142345275815511
 30
0.0
 11
21.2878679656427
 21
25.217018687721961
 31
0.0
  0
LINE
  5
1432
  8
SAPA_FOGBAND
  6
CONTINUOUS
 10
21.107590401869501
 20
25.142345275815511
 30
0.0
 11
21.032916989963059
 21
24.962067712042309
 31
0.0
  0
LINE
  5
1433
  8
SAPA_FOGBAND
  6
CONTINUOUS
 10
21.468145529415899
 20
25.142345275815511
 30
0.0
 11
21.542818941322349
 21
24.962067712042309
 31
0.0
  0
LINE
  5
1434
  8
SAPA_FOGBAND
  6
CONTINUOUS
 10
21.468145529415899
 20
24.781790148269121
 30
0.0
 11
21.2878679656427
 21
24.707116736362671
 31
0.0
  0
LINE
  5
1435
  8
SAPA_FOGBAND
  6
CONTINUOUS
 10
21.2878679656427
 20
24.707116736362671
 30
0.0
 11
21.107590401869501
 21
24.781790148269121
 31
0.0
  0
LINE
  5
1436
  8
SAPA_FOGBAND
  6
CONTINUOUS
 10
21.032916989963059
 20
24.962067712042309
 30
0.0
 11
21.107590401869501
 21
24.781790148269121
 31
0.0
  0
LINE
  5
1437
  8
SAPA_FOGBAND
  6
CONTINUOUS
 10
21.542818941322349
 20
24.962067712042309
 30
0.0
 11
21.468145529415899
 21
24.781790148269121
 31
0.0
  0
ENDBLK
  5
1439
  8
0
  0
BLOCK
  8
0
  2
*U41
 70
     1
 10
0.0
 20
0.0
 30
0.0
  3
*U41
  1

  0
SOLID
  5
14E0
  8
SAPA_FOGBAND
  6
CONTINUOUS
 10
58.529356795613118
 20
24.826120052127841
 30
0.0
 11
58.349079231839923
 21
24.751446640221399
 31
0.0
 12
58.709634359386328
 22
24.751446640221399
 32
0.0
 13
58.709634359386328
 23
24.751446640221399
 33
0.0
210
0.0
220
0.0
230
1.0
  0
SOLID
  5
14E1
  8
SAPA_FOGBAND
  6
CONTINUOUS
 10
58.349079231839923
 20
24.751446640221399
 30
0.0
 11
58.274405819933477
 21
24.5711690764482
 31
0.0
 12
58.784307771292767
 22
24.5711690764482
 32
0.0
 13
58.784307771292767
 23
24.5711690764482
 33
0.0
210
0.0
220
0.0
230
1.0
  0
SOLID
  5
14E2
  8
SAPA_FOGBAND
  6
CONTINUOUS
 10
-58.349079231839923
 20
24.751446640221399
 30
0.0
 11
-58.709634359386328
 21
24.751446640221399
 31
0.0
 12
-58.784307771292767
 22
24.5711690764482
 32
0.0
 13
-58.784307771292767
 23
24.5711690764482
 33
0.0
210
0.0
220
0.0
230
-1.0
  0
SOLID
  5
14E3
  8
SAPA_FOGBAND
  6
CONTINUOUS
 10
-58.349079231839923
 20
24.390891512675001
 30
0.0
 11
-58.709634359386328
 21
24.390891512675001
 31
0.0
 12
-58.529356795613118
 22
24.316218100768559
 32
0.0
 13
-58.529356795613118
 23
24.316218100768559
 33
0.0
210
0.0
220
0.0
230
-1.0
  0
SOLID
  5
14E4
  8
SAPA_FOGBAND
  6
CONTINUOUS
 10
58.274405819933477
 20
24.5711690764482
 30
0.0
 11
58.349079231839923
 21
24.390891512675001
 31
0.0
 12
58.709634359386328
 22
24.390891512675001
 32
0.0
 13
58.709634359386328
 23
24.390891512675001
 33
0.0
210
0.0
220
0.0
230
1.0
  0
SOLID
  5
14E5
  8
SAPA_FOGBAND
  6
CONTINUOUS
 10
-58.274405819933477
 20
24.5711690764482
 30
0.0
 11
-58.784307771292767
 21
24.5711690764482
 31
0.0
 12
-58.709634359386328
 22
24.390891512675001
 32
0.0
 13
-58.709634359386328
 23
24.390891512675001
 33
0.0
210
0.0
220
0.0
230
-1.0
  0
LINE
  5
14E6
  8
SAPA_FOGBAND
  6
CONTINUOUS
 10
58.529356795613118
 20
24.826120052127841
 30
0.0
 11
58.349079231839923
 21
24.751446640221399
 31
0.0
  0
LINE
  5
14E7
  8
SAPA_FOGBAND
  6
CONTINUOUS
 10
58.709634359386328
 20
24.751446640221399
 30
0.0
 11
58.529356795613118
 21
24.826120052127841
 31
0.0
  0
LINE
  5
14E8
  8
SAPA_FOGBAND
  6
CONTINUOUS
 10
58.349079231839923
 20
24.751446640221399
 30
0.0
 11
58.274405819933477
 21
24.5711690764482
 31
0.0
  0
LINE
  5
14E9
  8
SAPA_FOGBAND
  6
CONTINUOUS
 10
58.709634359386328
 20
24.751446640221399
 30
0.0
 11
58.784307771292767
 21
24.5711690764482
 31
0.0
  0
LINE
  5
14EA
  8
SAPA_FOGBAND
  6
CONTINUOUS
 10
58.709634359386328
 20
24.390891512675001
 30
0.0
 11
58.529356795613118
 21
24.316218100768559
 31
0.0
  0
LINE
  5
14EB
  8
SAPA_FOGBAND
  6
CONTINUOUS
 10
58.529356795613118
 20
24.316218100768559
 30
0.0
 11
58.349079231839923
 21
24.390891512675001
 31
0.0
  0
LINE
  5
14EC
  8
SAPA_FOGBAND
  6
CONTINUOUS
 10
58.274405819933477
 20
24.5711690764482
 30
0.0
 11
58.349079231839923
 21
24.390891512675001
 31
0.0
  0
LINE
  5
14ED
  8
SAPA_FOGBAND
  6
CONTINUOUS
 10
58.784307771292767
 20
24.5711690764482
 30
0.0
 11
58.709634359386328
 21
24.390891512675001
 31
0.0
  0
ENDBLK
  5
14EF
  8
0
  0
BLOCK
  8
0
  2
*U42
 70
     1
 10
0.0
 20
0.0
 30
0.0
  3
*U42
  1

  0
SOLID
  5
14F1
  8
SAPA_FOGBAND
  6
CONTINUOUS
 10
21.2878679656427
 20
25.217018687721961
 30
0.0
 11
21.107590401869501
 21
25.142345275815511
 31
0.0
 12
21.468145529415899
 22
25.142345275815511
 32
0.0
 13
21.468145529415899
 23
25.142345275815511
 33
0.0
210
0.0
220
0.0
230
1.0
  0
SOLID
  5
14F2
  8
SAPA_FOGBAND
  6
CONTINUOUS
 10
21.107590401869501
 20
25.142345275815511
 30
0.0
 11
21.032916989963059
 21
24.962067712042309
 31
0.0
 12
21.542818941322349
 22
24.962067712042309
 32
0.0
 13
21.542818941322349
 23
24.962067712042309
 33
0.0
210
0.0
220
0.0
230
1.0
  0
SOLID
  5
14F3
  8
SAPA_FOGBAND
  6
CONTINUOUS
 10
-21.107590401869501
 20
25.142345275815511
 30
0.0
 11
-21.468145529415899
 21
25.142345275815511
 31
0.0
 12
-21.542818941322349
 22
24.962067712042309
 32
0.0
 13
-21.542818941322349
 23
24.962067712042309
 33
0.0
210
0.0
220
0.0
230
-1.0
  0
SOLID
  5
14F4
  8
SAPA_FOGBAND
  6
CONTINUOUS
 10
-21.107590401869501
 20
24.781790148269121
 30
0.0
 11
-21.468145529415899
 21
24.781790148269121
 31
0.0
 12
-21.2878679656427
 22
24.707116736362671
 32
0.0
 13
-21.2878679656427
 23
24.707116736362671
 33
0.0
210
0.0
220
0.0
230
-1.0
  0
SOLID
  5
14F5
  8
SAPA_FOGBAND
  6
CONTINUOUS
 10
21.032916989963059
 20
24.962067712042309
 30
0.0
 11
21.107590401869501
 21
24.781790148269121
 31
0.0
 12
21.468145529415899
 22
24.781790148269121
 32
0.0
 13
21.468145529415899
 23
24.781790148269121
 33
0.0
210
0.0
220
0.0
230
1.0
  0
SOLID
  5
14F6
  8
SAPA_FOGBAND
  6
CONTINUOUS
 10
-21.032916989963059
 20
24.962067712042309
 30
0.0
 11
-21.542818941322349
 21
24.962067712042309
 31
0.0
 12
-21.468145529415899
 22
24.781790148269121
 32
0.0
 13
-21.468145529415899
 23
24.781790148269121
 33
0.0
210
0.0
220
0.0
230
-1.0
  0
LINE
  5
14F7
  8
SAPA_FOGBAND
  6
CONTINUOUS
 10
21.2878679656427
 20
25.217018687721961
 30
0.0
 11
21.107590401869501
 21
25.142345275815511
 31
0.0
  0
LINE
  5
14F8
  8
SAPA_FOGBAND
  6
CONTINUOUS
 10
21.468145529415899
 20
25.142345275815511
 30
0.0
 11
21.2878679656427
 21
25.217018687721961
 31
0.0
  0
LINE
  5
14F9
  8
SAPA_FOGBAND
  6
CONTINUOUS
 10
21.107590401869501
 20
25.142345275815511
 30
0.0
 11
21.032916989963059
 21
24.962067712042309
 31
0.0
  0
LINE
  5
14FA
  8
SAPA_FOGBAND
  6
CONTINUOUS
 10
21.468145529415899
 20
25.142345275815511
 30
0.0
 11
21.542818941322349
 21
24.962067712042309
 31
0.0
  0
LINE
  5
14FB
  8
SAPA_FOGBAND
  6
CONTINUOUS
 10
21.468145529415899
 20
24.781790148269121
 30
0.0
 11
21.2878679656427
 21
24.707116736362671
 31
0.0
  0
LINE
  5
14FC
  8
SAPA_FOGBAND
  6
CONTINUOUS
 10
21.2878679656427
 20
24.707116736362671
 30
0.0
 11
21.107590401869501
 21
24.781790148269121
 31
0.0
  0
LINE
  5
14FD
  8
SAPA_FOGBAND
  6
CONTINUOUS
 10
21.032916989963059
 20
24.962067712042309
 30
0.0
 11
21.107590401869501
 21
24.781790148269121
 31
0.0
  0
LINE
  5
14FE
  8
SAPA_FOGBAND
  6
CONTINUOUS
 10
21.542818941322349
 20
24.962067712042309
 30
0.0
 11
21.468145529415899
 21
24.781790148269121
 31
0.0
  0
ENDBLK
  5
1500
  8
0
  0
BLOCK
  8
0
  2
*U43
 70
     1
 10
0.0
 20
0.0
 30
0.0
  3
*U43
  1

  0
SOLID
  5
15A7
  8
SAPA_FOGBAND
  6
CONTINUOUS
 10
58.529356795613118
 20
24.826120052127841
 30
0.0
 11
58.349079231839923
 21
24.751446640221399
 31
0.0
 12
58.709634359386328
 22
24.751446640221399
 32
0.0
 13
58.709634359386328
 23
24.751446640221399
 33
0.0
210
0.0
220
0.0
230
1.0
  0
SOLID
  5
15A8
  8
SAPA_FOGBAND
  6
CONTINUOUS
 10
58.349079231839923
 20
24.751446640221399
 30
0.0
 11
58.274405819933477
 21
24.5711690764482
 31
0.0
 12
58.784307771292767
 22
24.5711690764482
 32
0.0
 13
58.784307771292767
 23
24.5711690764482
 33
0.0
210
0.0
220
0.0
230
1.0
  0
SOLID
  5
15A9
  8
SAPA_FOGBAND
  6
CONTINUOUS
 10
-58.349079231839923
 20
24.751446640221399
 30
0.0
 11
-58.709634359386328
 21
24.751446640221399
 31
0.0
 12
-58.784307771292767
 22
24.5711690764482
 32
0.0
 13
-58.784307771292767
 23
24.5711690764482
 33
0.0
210
0.0
220
0.0
230
-1.0
  0
SOLID
  5
15AA
  8
SAPA_FOGBAND
  6
CONTINUOUS
 10
-58.349079231839923
 20
24.390891512675001
 30
0.0
 11
-58.709634359386328
 21
24.390891512675001
 31
0.0
 12
-58.529356795613118
 22
24.316218100768559
 32
0.0
 13
-58.529356795613118
 23
24.316218100768559
 33
0.0
210
0.0
220
0.0
230
-1.0
  0
SOLID
  5
15AB
  8
SAPA_FOGBAND
  6
CONTINUOUS
 10
58.274405819933477
 20
24.5711690764482
 30
0.0
 11
58.349079231839923
 21
24.390891512675001
 31
0.0
 12
58.709634359386328
 22
24.390891512675001
 32
0.0
 13
58.709634359386328
 23
24.390891512675001
 33
0.0
210
0.0
220
0.0
230
1.0
  0
SOLID
  5
15AC
  8
SAPA_FOGBAND
  6
CONTINUOUS
 10
-58.274405819933477
 20
24.5711690764482
 30
0.0
 11
-58.784307771292767
 21
24.5711690764482
 31
0.0
 12
-58.709634359386328
 22
24.390891512675001
 32
0.0
 13
-58.709634359386328
 23
24.390891512675001
 33
0.0
210
0.0
220
0.0
230
-1.0
  0
LINE
  5
15AD
  8
SAPA_FOGBAND
  6
CONTINUOUS
 10
58.529356795613118
 20
24.826120052127841
 30
0.0
 11
58.349079231839923
 21
24.751446640221399
 31
0.0
  0
LINE
  5
15AE
  8
SAPA_FOGBAND
  6
CONTINUOUS
 10
58.709634359386328
 20
24.751446640221399
 30
0.0
 11
58.529356795613118
 21
24.826120052127841
 31
0.0
  0
LINE
  5
15AF
  8
SAPA_FOGBAND
  6
CONTINUOUS
 10
58.349079231839923
 20
24.751446640221399
 30
0.0
 11
58.274405819933477
 21
24.5711690764482
 31
0.0
  0
LINE
  5
15B0
  8
SAPA_FOGBAND
  6
CONTINUOUS
 10
58.709634359386328
 20
24.751446640221399
 30
0.0
 11
58.784307771292767
 21
24.5711690764482
 31
0.0
  0
LINE
  5
15B1
  8
SAPA_FOGBAND
  6
CONTINUOUS
 10
58.709634359386328
 20
24.390891512675001
 30
0.0
 11
58.529356795613118
 21
24.316218100768559
 31
0.0
  0
LINE
  5
15B2
  8
SAPA_FOGBAND
  6
CONTINUOUS
 10
58.529356795613118
 20
24.316218100768559
 30
0.0
 11
58.349079231839923
 21
24.390891512675001
 31
0.0
  0
LINE
  5
15B3
  8
SAPA_FOGBAND
  6
CONTINUOUS
 10
58.274405819933477
 20
24.5711690764482
 30
0.0
 11
58.349079231839923
 21
24.390891512675001
 31
0.0
  0
LINE
  5
15B4
  8
SAPA_FOGBAND
  6
CONTINUOUS
 10
58.784307771292767
 20
24.5711690764482
 30
0.0
 11
58.709634359386328
 21
24.390891512675001
 31
0.0
  0
ENDBLK
  5
15B6
  8
0
  0
ENDSEC
  0
SECTION
  2
ENTITIES
  0
POLYLINE
  5
7F7
  8
SAPA_ANSLUTNING
 66
     1
 10
0.0
 20
0.0
 30
0.0
1001
ACAD
1000
ASC_BOUNDS
1002
{
1070
    19
1005
CEA
1002
}
  0
VERTEX
  5
D7D
  8
SAPA_ANSLUTNING
 10
15.000000000000229
 20
39.185987402033341
 30
0.0
  0
VERTEX
  5
D7E
  8
SAPA_ANSLUTNING
 10
15.000000000000229
 20
59.185987402033327
 30
0.0
  0
VERTEX
  5
D7F
  8
SAPA_ANSLUTNING
 10
0.0
 20
59.185987402033327
 30
0.0
  0
VERTEX
  5
D80
  8
SAPA_ANSLUTNING
 10
0.0
 20
39.185987402033341
 30
0.0
  0
VERTEX
  5
D81
  8
SAPA_ANSLUTNING
 10
15.000000000000229
 20
39.185987402033341
 30
0.0
  0
SEQEND
  5
D82
  8
SAPA_ANSLUTNING
  0
POLYLINE
  5
7FA
  8
SAPA_ANSLUTNING
 66
     1
 10
0.0
 20
0.0
 30
0.0
 70
     1
1001
ACAD
1000
ASC_BOUNDS
1002
{
1070
    19
1005
CE9
1002
}
  0
VERTEX
  5
D83
  8
SAPA_ANSLUTNING
 10
0.1000000000003638
 20
194.7134549791655
 30
0.0
  0
VERTEX
  5
D84
  8
SAPA_ANSLUTNING
 10
0.1000000000003638
 20
209.59963593180609
 30
0.0
 42
0.2625797940973267
  0
VERTEX
  5
D85
  8
SAPA_ANSLUTNING
 10
14.899999999999631
 20
209.59963593180609
 30
0.0
  0
VERTEX
  5
D86
  8
SAPA_ANSLUTNING
 10
14.899999999999631
 20
194.7134549791636
 30
0.0
 42
0.2625797940972474
  0
SEQEND
  5
D87
  8
SAPA_ANSLUTNING
  0
POLYLINE
  5
7FC
  8
SAPA_ANSLUTNING
 10
14.886427733008532
 20
192.01455787121549
 30
0.0
 66
     1
 70
     8
  0
VERTEX
  8
SAPA_ANSLUTNING
  5
15B7
 10
14.8864
 20
192.015
 30
0.000000
  70
    32
  0
VERTEX
  8
SAPA_ANSLUTNING
  5
15B8
 10
14.8775
 20
191.818
 30
0.000000
  70
    32
  0
VERTEX
  8
SAPA_ANSLUTNING
  5
15B9
 10
14.8508
 20
191.622
 30
0.000000
  70
    32
  0
VERTEX
  8
SAPA_ANSLUTNING
  5
15BA
 10
14.8063
 20
191.428
 30
0.000000
  70
    32
  0
VERTEX
  8
SAPA_ANSLUTNING
  5
15BB
 10
14.7442
 20
191.234
 30
0.000000
  70
    32
  0
VERTEX
  8
SAPA_ANSLUTNING
  5
15BC
 10
14.6646
 20
191.043
 30
0.000000
  70
    32
  0
VERTEX
  8
SAPA_ANSLUTNING
  5
15BD
 10
14.5677
 20
190.853
 30
0.000000
  70
    32
  0
VERTEX
  8
SAPA_ANSLUTNING
  5
15BE
 10
14.4538
 20
190.667
 30
0.000000
  70
    32
  0
VERTEX
  8
SAPA_ANSLUTNING
  5
15BF
 10
14.3230
 20
190.484
 30
0.000000
  70
    32
  0
VERTEX
  8
SAPA_ANSLUTNING
  5
15C0
 10
14.1758
 20
190.304
 30
0.000000
  70
    32
  0
VERTEX
  8
SAPA_ANSLUTNING
  5
15C1
 10
14.0125
 20
190.129
 30
0.000000
  70
    32
  0
VERTEX
  8
SAPA_ANSLUTNING
  5
15C2
 10
13.8334
 20
189.958
 30
0.000000
  70
    32
  0
VERTEX
  8
SAPA_ANSLUTNING
  5
15C3
 10
13.6391
 20
189.792
 30
0.000000
  70
    32
  0
VERTEX
  8
SAPA_ANSLUTNING
  5
15C4
 10
13.4299
 20
189.632
 30
0.000000
  70
    32
  0
VERTEX
  8
SAPA_ANSLUTNING
  5
15C5
 10
13.2064
 20
189.477
 30
0.000000
  70
    32
  0
VERTEX
  8
SAPA_ANSLUTNING
  5
15C6
 10
12.9691
 20
189.328
 30
0.000000
  70
    32
  0
VERTEX
  8
SAPA_ANSLUTNING
  5
15C7
 10
12.7186
 20
189.186
 30
0.000000
  70
    32
  0
VERTEX
  8
SAPA_ANSLUTNING
  5
15C8
 10
12.4555
 20
189.051
 30
0.000000
  70
    32
  0
VERTEX
  8
SAPA_ANSLUTNING
  5
15C9
 10
12.1804
 20
188.923
 30
0.000000
  70
    32
  0
VERTEX
  8
SAPA_ANSLUTNING
  5
15CA
 10
11.8940
 20
188.802
 30
0.000000
  70
    32
  0
VERTEX
  8
SAPA_ANSLUTNING
  5
15CB
 10
11.5970
 20
188.689
 30
0.000000
  70
    32
  0
VERTEX
  8
SAPA_ANSLUTNING
  5
15CC
 10
11.2901
 20
188.584
 30
0.000000
  70
    32
  0
VERTEX
  8
SAPA_ANSLUTNING
  5
15CD
 10
10.9740
 20
188.487
 30
0.000000
  70
    32
  0
VERTEX
  8
SAPA_ANSLUTNING
  5
15CE
 10
10.6495
 20
188.399
 30
0.000000
  70
    32
  0
VERTEX
  8
SAPA_ANSLUTNING
  5
15CF
 10
10.3174
 20
188.319
 30
0.000000
  70
    32
  0
VERTEX
  8
SAPA_ANSLUTNING
  5
15D0
 10
9.97849
 20
188.248
 30
0.000000
  70
    32
  0
VERTEX
  8
SAPA_ANSLUTNING
  5
15D1
 10
9.63355
 20
188.187
 30
0.000000
  70
    32
  0
VERTEX
  8
SAPA_ANSLUTNING
  5
15D2
 10
9.28343
 20
188.134
 30
0.000000
  70
    32
  0
VERTEX
  8
SAPA_ANSLUTNING
  5
15D3
 10
8.92898
 20
188.091
 30
0.000000
  70
    32
  0
VERTEX
  8
SAPA_ANSLUTNING
  5
15D4
 10
8.57105
 20
188.058
 30
0.000000
  70
    32
  0
VERTEX
  8
SAPA_ANSLUTNING
  5
15D5
 10
8.21050
 20
188.034
 30
0.000000
  70
    32
  0
VERTEX
  8
SAPA_ANSLUTNING
  5
15D6
 10
7.84821
 20
188.019
 30
0.000000
  70
    32
  0
VERTEX
  8
SAPA_ANSLUTNING
  5
15D7
 10
7.48504
 20
188.015
 30
0.000000
  70
    32
  0
VERTEX
  8
SAPA_ANSLUTNING
  5
15D8
 10
7.12187
 20
188.019
 30
0.000000
  70
    32
  0
VERTEX
  8
SAPA_ANSLUTNING
  5
15D9
 10
6.75958
 20
188.034
 30
0.000000
  70
    32
  0
VERTEX
  8
SAPA_ANSLUTNING
  5
15DA
 10
6.39903
 20
188.058
 30
0.000000
  70
    32
  0
VERTEX
  8
SAPA_ANSLUTNING
  5
15DB
 10
6.04110
 20
188.091
 30
0.000000
  70
    32
  0
VERTEX
  8
SAPA_ANSLUTNING
  5
15DC
 10
5.68665
 20
188.134
 30
0.000000
  70
    32
  0
VERTEX
  8
SAPA_ANSLUTNING
  5
15DD
 10
5.33653
 20
188.187
 30
0.000000
  70
    32
  0
VERTEX
  8
SAPA_ANSLUTNING
  5
15DE
 10
4.99159
 20
188.248
 30
0.000000
  70
    32
  0
VERTEX
  8
SAPA_ANSLUTNING
  5
15DF
 10
4.65265
 20
188.319
 30
0.000000
  70
    32
  0
VERTEX
  8
SAPA_ANSLUTNING
  5
15E0
 10
4.32054
 20
188.399
 30
0.000000
  70
    32
  0
VERTEX
  8
SAPA_ANSLUTNING
  5
15E1
 10
3.99605
 20
188.487
 30
0.000000
  70
    32
  0
VERTEX
  8
SAPA_ANSLUTNING
  5
15E2
 10
3.67997
 20
188.584
 30
0.000000
  70
    32
  0
VERTEX
  8
SAPA_ANSLUTNING
  5
15E3
 10
3.37305
 20
188.689
 30
0.000000
  70
    32
  0
VERTEX
  8
SAPA_ANSLUTNING
  5
15E4
 10
3.07604
 20
188.802
 30
0.000000
  70
    32
  0
VERTEX
  8
SAPA_ANSLUTNING
  5
15E5
 10
2.78965
 20
188.923
 30
0.000000
  70
    32
  0
VERTEX
  8
SAPA_ANSLUTNING
  5
15E6
 10
2.51457
 20
189.051
 30
0.000000
  70
    32
  0
VERTEX
  8
SAPA_ANSLUTNING
  5
15E7
 10
2.25147
 20
189.186
 30
0.000000
  70
    32
  0
VERTEX
  8
SAPA_ANSLUTNING
  5
15E8
 10
2.00097
 20
189.328
 30
0.000000
  70
    32
  0
VERTEX
  8
SAPA_ANSLUTNING
  5
15E9
 10
1.76369
 20
189.477
 30
0.000000
  70
    32
  0
VERTEX
  8
SAPA_ANSLUTNING
  5
15EA
 10
1.54019
 20
189.632
 30
0.000000
  70
    32
  0
VERTEX
  8
SAPA_ANSLUTNING
  5
15EB
 10
1.33101
 20
189.792
 30
0.000000
  70
    32
  0
VERTEX
  8
SAPA_ANSLUTNING
  5
15EC
 10
1.13666
 20
189.958
 30
0.000000
  70
    32
  0
VERTEX
  8
SAPA_ANSLUTNING
  5
15ED
 10
0.957600
 20
190.129
 30
0.000000
  70
    32
  0
VERTEX
  8
SAPA_ANSLUTNING
  5
15EE
 10
0.794266
 20
190.304
 30
0.000000
  70
    32
  0
VERTEX
  8
SAPA_ANSLUTNING
  5
15EF
 10
0.647050
 20
190.484
 30
0.000000
  70
    32
  0
VERTEX
  8
SAPA_ANSLUTNING
  5
15F0
 10
0.516308
 20
190.667
 30
0.000000
  70
    32
  0
VERTEX
  8
SAPA_ANSLUTNING
  5
15F1
 10
0.402355
 20
190.853
 30
0.000000
  70
    32
  0
VERTEX
  8
SAPA_ANSLUTNING
  5
15F2
 10
0.305464
 20
191.043
 30
0.000000
  70
    32
  0
VERTEX
  8
SAPA_ANSLUTNING
  5
15F3
 10
0.225869
 20
191.234
 30
0.000000
  70
    32
  0
VERTEX
  8
SAPA_ANSLUTNING
  5
15F4
 10
0.163762
 20
191.428
 30
0.000000
  70
    32
  0
VERTEX
  8
SAPA_ANSLUTNING
  5
15F5
 10
0.119293
 20
191.622
 30
0.000000
  70
    32
  0
VERTEX
  8
SAPA_ANSLUTNING
  5
15F6
 10
0.0925686
 20
191.818
 30
0.000000
  70
    32
  0
VERTEX
  8
SAPA_ANSLUTNING
  5
15F7
 10
0.0836533
 20
192.015
 30
0.000000
  70
    32
  0
VERTEX
  8
SAPA_ANSLUTNING
  5
15F8
 10
0.0925686
 20
192.211
 30
0.000000
  70
    32
  0
VERTEX
  8
SAPA_ANSLUTNING
  5
15F9
 10
0.119293
 20
192.407
 30
0.000000
  70
    32
  0
VERTEX
  8
SAPA_ANSLUTNING
  5
15FA
 10
0.163762
 20
192.601
 30
0.000000
  70
    32
  0
VERTEX
  8
SAPA_ANSLUTNING
  5
15FB
 10
0.225869
 20
192.795
 30
0.000000
  70
    32
  0
VERTEX
  8
SAPA_ANSLUTNING
  5
15FC
 10
0.305464
 20
192.986
 30
0.000000
  70
    32
  0
VERTEX
  8
SAPA_ANSLUTNING
  5
15FD
 10
0.402355
 20
193.176
 30
0.000000
  70
    32
  0
VERTEX
  8
SAPA_ANSLUTNING
  5
15FE
 10
0.516308
 20
193.362
 30
0.000000
  70
    32
  0
VERTEX
  8
SAPA_ANSLUTNING
  5
15FF
 10
0.647050
 20
193.545
 30
0.000000
  70
    32
  0
VERTEX
  8
SAPA_ANSLUTNING
  5
1600
 10
0.794266
 20
193.725
 30
0.000000
  70
    32
  0
VERTEX
  8
SAPA_ANSLUTNING
  5
1601
 10
0.957600
 20
193.900
 30
0.000000
  70
    32
  0
VERTEX
  8
SAPA_ANSLUTNING
  5
1602
 10
1.13666
 20
194.071
 30
0.000000
  70
    32
  0
VERTEX
  8
SAPA_ANSLUTNING
  5
1603
 10
1.33101
 20
194.237
 30
0.000000
  70
    32
  0
VERTEX
  8
SAPA_ANSLUTNING
  5
1604
 10
1.54019
 20
194.397
 30
0.000000
  70
    32
  0
VERTEX
  8
SAPA_ANSLUTNING
  5
1605
 10
1.76369
 20
194.552
 30
0.000000
  70
    32
  0
VERTEX
  8
SAPA_ANSLUTNING
  5
1606
 10
2.00097
 20
194.701
 30
0.000000
  70
    32
  0
VERTEX
  8
SAPA_ANSLUTNING
  5
1607
 10
2.25147
 20
194.843
 30
0.000000
  70
    32
  0
VERTEX
  8
SAPA_ANSLUTNING
  5
1608
 10
2.51457
 20
194.978
 30
0.000000
  70
    32
  0
VERTEX
  8
SAPA_ANSLUTNING
  5
1609
 10
2.78965
 20
195.107
 30
0.000000
  70
    32
  0
VERTEX
  8
SAPA_ANSLUTNING
  5
160A
 10
3.07604
 20
195.227
 30
0.000000
  70
    32
  0
VERTEX
  8
SAPA_ANSLUTNING
  5
160B
 10
3.37305
 20
195.340
 30
0.000000
  70
    32
  0
VERTEX
  8
SAPA_ANSLUTNING
  5
160C
 10
3.67997
 20
195.445
 30
0.000000
  70
    32
  0
VERTEX
  8
SAPA_ANSLUTNING
  5
160D
 10
3.99605
 20
195.542
 30
0.000000
  70
    32
  0
VERTEX
  8
SAPA_ANSLUTNING
  5
160E
 10
4.32054
 20
195.631
 30
0.000000
  70
    32
  0
VERTEX
  8
SAPA_ANSLUTNING
  5
160F
 10
4.65265
 20
195.710
 30
0.000000
  70
    32
  0
VERTEX
  8
SAPA_ANSLUTNING
  5
1610
 10
4.99159
 20
195.781
 30
0.000000
  70
    32
  0
VERTEX
  8
SAPA_ANSLUTNING
  5
1611
 10
5.33653
 20
195.842
 30
0.000000
  70
    32
  0
VERTEX
  8
SAPA_ANSLUTNING
  5
1612
 10
5.68665
 20
195.895
 30
0.000000
  70
    32
  0
VERTEX
  8
SAPA_ANSLUTNING
  5
1613
 10
6.04110
 20
195.938
 30
0.000000
  70
    32
  0
VERTEX
  8
SAPA_ANSLUTNING
  5
1614
 10
6.39903
 20
195.971
 30
0.000000
  70
    32
  0
VERTEX
  8
SAPA_ANSLUTNING
  5
1615
 10
6.75958
 20
195.995
 30
0.000000
  70
    32
  0
VERTEX
  8
SAPA_ANSLUTNING
  5
1616
 10
7.12187
 20
196.010
 30
0.000000
  70
    32
  0
VERTEX
  8
SAPA_ANSLUTNING
  5
1617
 10
7.48504
 20
196.015
 30
0.000000
  70
    32
  0
VERTEX
  8
SAPA_ANSLUTNING
  5
1618
 10
7.84821
 20
196.010
 30
0.000000
  70
    32
  0
VERTEX
  8
SAPA_ANSLUTNING
  5
1619
 10
8.21050
 20
195.995
 30
0.000000
  70
    32
  0
VERTEX
  8
SAPA_ANSLUTNING
  5
161A
 10
8.57105
 20
195.971
 30
0.000000
  70
    32
  0
VERTEX
  8
SAPA_ANSLUTNING
  5
161B
 10
8.92898
 20
195.938
 30
0.000000
  70
    32
  0
VERTEX
  8
SAPA_ANSLUTNING
  5
161C
 10
9.28343
 20
195.895
 30
0.000000
  70
    32
  0
VERTEX
  8
SAPA_ANSLUTNING
  5
161D
 10
9.63355
 20
195.842
 30
0.000000
  70
    32
  0
VERTEX
  8
SAPA_ANSLUTNING
  5
161E
 10
9.97849
 20
195.781
 30
0.000000
  70
    32
  0
VERTEX
  8
SAPA_ANSLUTNING
  5
161F
 10
10.3174
 20
195.710
 30
0.000000
  70
    32
  0
VERTEX
  8
SAPA_ANSLUTNING
  5
1620
 10
10.6495
 20
195.631
 30
0.000000
  70
    32
  0
VERTEX
  8
SAPA_ANSLUTNING
  5
1621
 10
10.9740
 20
195.542
 30
0.000000
  70
    32
  0
VERTEX
  8
SAPA_ANSLUTNING
  5
1622
 10
11.2901
 20
195.445
 30
0.000000
  70
    32
  0
VERTEX
  8
SAPA_ANSLUTNING
  5
1623
 10
11.5970
 20
195.340
 30
0.000000
  70
    32
  0
VERTEX
  8
SAPA_ANSLUTNING
  5
1624
 10
11.8940
 20
195.227
 30
0.000000
  70
    32
  0
VERTEX
  8
SAPA_ANSLUTNING
  5
1625
 10
12.1804
 20
195.107
 30
0.000000
  70
    32
  0
VERTEX
  8
SAPA_ANSLUTNING
  5
1626
 10
12.4555
 20
194.978
 30
0.000000
  70
    32
  0
VERTEX
  8
SAPA_ANSLUTNING
  5
1627
 10
12.7186
 20
194.843
 30
0.000000
  70
    32
  0
VERTEX
  8
SAPA_ANSLUTNING
  5
1628
 10
12.9691
 20
194.701
 30
0.000000
  70
    32
  0
VERTEX
  8
SAPA_ANSLUTNING
  5
1629
 10
13.2064
 20
194.552
 30
0.000000
  70
    32
  0
VERTEX
  8
SAPA_ANSLUTNING
  5
162A
 10
13.4299
 20
194.397
 30
0.000000
  70
    32
  0
VERTEX
  8
SAPA_ANSLUTNING
  5
162B
 10
13.6391
 20
194.237
 30
0.000000
  70
    32
  0
VERTEX
  8
SAPA_ANSLUTNING
  5
162C
 10
13.8334
 20
194.071
 30
0.000000
  70
    32
  0
VERTEX
  8
SAPA_ANSLUTNING
  5
162D
 10
14.0125
 20
193.900
 30
0.000000
  70
    32
  0
VERTEX
  8
SAPA_ANSLUTNING
  5
162E
 10
14.1758
 20
193.725
 30
0.000000
  70
    32
  0
VERTEX
  8
SAPA_ANSLUTNING
  5
162F
 10
14.3230
 20
193.545
 30
0.000000
  70
    32
  0
VERTEX
  8
SAPA_ANSLUTNING
  5
1630
 10
14.4538
 20
193.362
 30
0.000000
  70
    32
  0
VERTEX
  8
SAPA_ANSLUTNING
  5
1631
 10
14.5677
 20
193.176
 30
0.000000
  70
    32
  0
VERTEX
  8
SAPA_ANSLUTNING
  5
1632
 10
14.6646
 20
192.986
 30
0.000000
  70
    32
  0
VERTEX
  8
SAPA_ANSLUTNING
  5
1633
 10
14.7442
 20
192.795
 30
0.000000
  70
    32
  0
VERTEX
  8
SAPA_ANSLUTNING
  5
1634
 10
14.8063
 20
192.601
 30
0.000000
  70
    32
  0
VERTEX
  8
SAPA_ANSLUTNING
  5
1635
 10
14.8508
 20
192.407
 30
0.000000
  70
    32
  0
VERTEX
  8
SAPA_ANSLUTNING
  5
1636
 10
14.8775
 20
192.211
 30
0.000000
  70
    32
  0
VERTEX
  8
SAPA_ANSLUTNING
  5
1637
 10
14.8864
 20
192.015
 30
0.000000
  70
    32
  0
SEQEND
  8
SAPA_ANSLUTNING
  5
1638
  0
POLYLINE
  5
7FD
  8
SAPA_ANSLUTNING
 66
     1
 10
0.0
 20
0.0
 30
0.0
  0
VERTEX
  5
D88
  8
SAPA_ANSLUTNING
 10
1.9829413257084521
 20
187.7125936523839
 30
0.0
  0
VERTEX
  5
D89
  8
SAPA_ANSLUTNING
 10
12.98294316802094
 20
187.7125936523839
 30
0.0
 42
-0.9999999999999998
  0
VERTEX
  5
D8A
  8
SAPA_ANSLUTNING
 10
12.98294316802094
 20
183.7125936523839
 30
0.0
  0
VERTEX
  5
D8B
  8
SAPA_ANSLUTNING
 10
1.9886263222633711
 20
183.7125936523839
 30
0.0
 42
0.9999999999999998
  0
VERTEX
  5
D8C
  8
SAPA_ANSLUTNING
 10
1.9886263222633711
 20
179.71259365239121
 30
0.0
  0
VERTEX
  5
D8D
  8
SAPA_ANSLUTNING
 10
12.98294501033342
 20
179.71259365238939
 30
0.0
 42
-0.9999999999999998
  0
VERTEX
  5
D8E
  8
SAPA_ANSLUTNING
 10
12.98294501033342
 20
175.71259365238939
 30
0.0
  0
VERTEX
  5
D8F
  8
SAPA_ANSLUTNING
 10
1.988628164575857
 20
175.71259365238939
 30
0.0
 42
0.9999999999999998
  0
VERTEX
  5
D90
  8
SAPA_ANSLUTNING
 10
1.988628164575857
 20
171.71259365239121
 30
0.0
  0
VERTEX
  5
D91
  8
SAPA_ANSLUTNING
 10
12.988630006888339
 20
171.71259365239121
 30
0.0
 42
-0.9999999999999998
  0
VERTEX
  5
D92
  8
SAPA_ANSLUTNING
 10
12.988630006888339
 20
167.71259365239121
 30
0.0
  0
VERTEX
  5
D93
  8
SAPA_ANSLUTNING
 10
1.9943131611307761
 20
167.71259365239121
 30
0.0
 42
0.9999999999999998
  0
VERTEX
  5
D94
  8
SAPA_ANSLUTNING
 10
1.9943131611307761
 20
163.7125936523984
 30
0.0
  0
VERTEX
  5
D95
  8
SAPA_ANSLUTNING
 10
12.98863184920083
 20
163.71259365239661
 30
0.0
 42
-0.9999999999999998
  0
VERTEX
  5
D96
  8
SAPA_ANSLUTNING
 10
12.98863184920083
 20
159.71259365239661
 30
0.0
  0
VERTEX
  5
D97
  8
SAPA_ANSLUTNING
 10
1.9943150034432611
 20
159.71259365239661
 30
0.0
 42
0.9999999999999998
  0
VERTEX
  5
D98
  8
SAPA_ANSLUTNING
 10
1.9943150034432611
 20
155.71259365239851
 30
0.0
  0
VERTEX
  5
D99
  8
SAPA_ANSLUTNING
 10
12.994316845755749
 20
155.71259365239851
 30
0.0
 42
-0.9999999999999998
  0
VERTEX
  5
D9A
  8
SAPA_ANSLUTNING
 10
12.994316845755749
 20
151.71259365239851
 30
0.0
  0
VERTEX
  5
D9B
  8
SAPA_ANSLUTNING
 10
1.999999999998181
 20
151.71259365239851
 30
0.0
 42
0.9999999999999998
  0
VERTEX
  5
D9C
  8
SAPA_ANSLUTNING
 10
1.999999999998181
 20
147.7125936524057
 30
0.0
  0
VERTEX
  5
D9D
  8
SAPA_ANSLUTNING
 10
12.99431868806823
 20
147.71259365240391
 30
0.0
 42
-0.9999999999999998
  0
VERTEX
  5
D9E
  8
SAPA_ANSLUTNING
 10
12.99431868806823
 20
143.71259365240391
 30
0.0
  0
VERTEX
  5
D9F
  8
SAPA_ANSLUTNING
 10
2.0000018423106658
 20
143.71259365240391
 30
0.0
 42
0.9999999999999998
  0
VERTEX
  5
DA0
  8
SAPA_ANSLUTNING
 10
2.0000018423106658
 20
139.7125936524057
 30
0.0
  0
VERTEX
  5
DA1
  8
SAPA_ANSLUTNING
 10
12.99431868806823
 20
139.71259365240761
 30
0.0
 42
-0.9999999999999998
  0
VERTEX
  5
DA2
  8
SAPA_ANSLUTNING
 10
12.99431868806823
 20
135.71259365240749
 30
0.0
  0
VERTEX
  5
DA3
  8
SAPA_ANSLUTNING
 10
2.0000018423106658
 20
135.71259365240749
 30
0.0
 42
0.9999999999999998
  0
VERTEX
  5
DA4
  8
SAPA_ANSLUTNING
 10
2.0000018423106658
 20
131.71259365241301
 30
0.0
  0
VERTEX
  5
DA5
  8
SAPA_ANSLUTNING
 10
12.99431868806823
 20
131.71259365241301
 30
0.0
 42
-0.9999999999999998
  0
VERTEX
  5
DA6
  8
SAPA_ANSLUTNING
 10
12.99431868806823
 20
127.71259365241301
 30
0.0
  0
VERTEX
  5
DA7
  8
SAPA_ANSLUTNING
 10
2.0000018423106658
 20
127.71259365241301
 30
0.0
 42
0.9999999999999998
  0
VERTEX
  5
DA8
  8
SAPA_ANSLUTNING
 10
2.0000018423106658
 20
123.7125936524166
 30
0.0
  0
VERTEX
  5
DA9
  8
SAPA_ANSLUTNING
 10
12.99431868806823
 20
123.7125936524166
 30
0.0
 42
-0.9999999999999998
  0
VERTEX
  5
DAA
  8
SAPA_ANSLUTNING
 10
12.99431868806823
 20
119.7125936524166
 30
0.0
  0
VERTEX
  5
DAB
  8
SAPA_ANSLUTNING
 10
2.0000018423106658
 20
119.7125936524166
 30
0.0
 42
0.9999999999999998
  0
VERTEX
  5
DAC
  8
SAPA_ANSLUTNING
 10
2.0000018423106658
 20
115.7125936524203
 30
0.0
  0
VERTEX
  5
DAD
  8
SAPA_ANSLUTNING
 10
12.99431868806823
 20
115.7125936524221
 30
0.0
 42
-0.9999999999999998
  0
VERTEX
  5
DAE
  8
SAPA_ANSLUTNING
 10
12.99431868806823
 20
111.7125936524221
 30
0.0
  0
VERTEX
  5
DAF
  8
SAPA_ANSLUTNING
 10
2.0000018423106658
 20
111.7125936524257
 30
0.0
 42
0.9999999999999998
  0
VERTEX
  5
DB0
  8
SAPA_ANSLUTNING
 10
2.0000018423106658
 20
107.7125936524257
 30
0.0
  0
VERTEX
  5
DB1
  8
SAPA_ANSLUTNING
 10
12.99431868806823
 20
107.7125936524257
 30
0.0
 42
-0.9999999999999998
  0
VERTEX
  5
DB2
  8
SAPA_ANSLUTNING
 10
12.99431868806823
 20
103.7125936524257
 30
0.0
  0
VERTEX
  5
DB3
  8
SAPA_ANSLUTNING
 10
2.0000018423106658
 20
103.71259365242391
 30
0.0
 42
0.9999999999999998
  0
VERTEX
  5
DB4
  8
SAPA_ANSLUTNING
 10
2.0000018423106658
 20
99.712593652431224
 30
0.0
  0
VERTEX
  5
DB5
  8
SAPA_ANSLUTNING
 10
12.994320530380721
 20
99.712593652431224
 30
0.0
 42
-0.9999999999999998
  0
VERTEX
  5
DB6
  8
SAPA_ANSLUTNING
 10
12.994320530380721
 20
95.712593652431224
 30
0.0
  0
VERTEX
  5
DB7
  8
SAPA_ANSLUTNING
 10
2.0000036846231519
 20
95.712593652431224
 30
0.0
 42
0.9999999999999998
  0
VERTEX
  5
DB8
  8
SAPA_ANSLUTNING
 10
2.0000036846231519
 20
91.712593652434862
 30
0.0
  0
VERTEX
  5
DB9
  8
SAPA_ANSLUTNING
 10
12.994320530380721
 20
91.712593652434862
 30
0.0
 42
-0.9999999999999998
  0
VERTEX
  5
DBA
  8
SAPA_ANSLUTNING
 10
12.994320530380721
 20
87.712593652434848
 30
0.0
  0
VERTEX
  5
DBB
  8
SAPA_ANSLUTNING
 10
2.0000036846231519
 20
87.712593652434848
 30
0.0
 42
0.9999999999999998
  0
VERTEX
  5
DBC
  8
SAPA_ANSLUTNING
 10
2.0000036846231519
 20
83.712593652438485
 30
0.0
  0
VERTEX
  5
DBD
  8
SAPA_ANSLUTNING
 10
13.000000000000229
 20
83.712593652438485
 30
0.0
 42
-0.9999999999999998
  0
VERTEX
  5
DBE
  8
SAPA_ANSLUTNING
 10
13.000000000000229
 20
79.7125936524385
 30
0.0
  0
VERTEX
  5
DBF
  8
SAPA_ANSLUTNING
 10
2.0000036846231519
 20
79.7125936524385
 30
0.0
 42
0.9999999999999998
  0
VERTEX
  5
DC0
  8
SAPA_ANSLUTNING
 10
2.0000036846231519
 20
75.712593652442123
 30
0.0
  0
VERTEX
  5
DC1
  8
SAPA_ANSLUTNING
 10
13.000000000000229
 20
75.712593652442123
 30
0.0
 42
-0.9999999999999998
  0
VERTEX
  5
DC2
  8
SAPA_ANSLUTNING
 10
13.000000000000229
 20
71.712593652442138
 30
0.0
  0
VERTEX
  5
DC3
  8
SAPA_ANSLUTNING
 10
2.0000036846231519
 20
71.712593652442138
 30
0.0
 42
0.9999999999999998
  0
VERTEX
  5
DC4
  8
SAPA_ANSLUTNING
 10
2.0000036846231519
 20
67.712593652445776
 30
0.0
  0
VERTEX
  5
DC5
  8
SAPA_ANSLUTNING
 10
13.000000000000229
 20
67.712593652445776
 30
0.0
 42
-0.9999999999999998
  0
VERTEX
  5
DC6
  8
SAPA_ANSLUTNING
 10
13.000000000000229
 20
63.712593652445769
 30
0.0
  0
VERTEX
  5
DC7
  8
SAPA_ANSLUTNING
 10
2.0000036846231519
 20
63.712593652445769
 30
0.0
 42
0.9999999999999998
  0
VERTEX
  5
DC8
  8
SAPA_ANSLUTNING
 10
2.0000036846231519
 20
59.712593652449407
 30
0.0
  0
VERTEX
  5
DC9
  8
SAPA_ANSLUTNING
 10
7.9943205303807181
 20
59.712593652449407
 30
0.0
  0
SEQEND
  5
DCA
  8
SAPA_ANSLUTNING
  0
LINE
  5
7FF
  8
SAPA_ANSLUTNING
 10
0.0
 20
252.72341374036139
 30
0.0
 11
0.0
 21
-25.670781880781249
 31
0.0
  0
LINE
  5
CBB
  8
SAPA_PROFIL
 10
28.89999999999964
 20
73.099635931806176
 30
0.0
 11
28.89999999999964
 21
27.59963593180624
 31
0.0
  0
LINE
  5
CBC
  8
SAPA_PROFIL
 10
34.899999999999643
 20
73.099635931806176
 30
0.0
 11
28.89999999999964
 21
73.099635931806176
 31
0.0
  0
LINE
  5
CBD
  8
SAPA_PROFIL
 10
34.899999999999643
 20
90.099635931806176
 30
0.0
 11
34.899999999999643
 21
73.099635931806176
 31
0.0
  0
LINE
  5
CBE
  8
SAPA_PROFIL
 10
14.899999999999631
 20
90.099635931806176
 30
0.0
 11
34.899999999999643
 21
90.099635931806176
 31
0.0
  0
LINE
  5
CBF
  8
SAPA_PROFIL
 10
14.899999999999631
 20
27.59963593180624
 30
0.0
 11
14.899999999999631
 21
90.099635931806176
 31
0.0
  0
LINE
  5
CC0
  8
SAPA_PROFIL
 10
28.89999999999964
 20
27.59963593180624
 30
0.0
 11
14.899999999999631
 21
27.59963593180624
 31
0.0
  0
POLYLINE
  5
CC1
  8
SAPA_PROFIL
 66
     1
 10
0.0
 20
0.0
 30
0.0
 70
     1
  0
VERTEX
  5
F7E
  8
SAPA_PROFIL
 10
51.8383752750035
 20
25.099635932796222
 30
0.0
 42
-0.2216946626428728
  0
VERTEX
  5
F7F
  8
SAPA_PROFIL
 10
52.604419718122131
 20
24.742423542482701
 30
0.0
  0
VERTEX
  5
F80
  8
SAPA_PROFIL
 10
53.683145410547013
 20
23.456848323111561
 30
0.0
 42
0.2216946626428911
  0
VERTEX
  5
F81
  8
SAPA_PROFIL
 10
54.449189853665757
 20
23.09963593279809
 30
0.0
  0
VERTEX
  5
F82
  8
SAPA_PROFIL
 10
56.225735931287311
 20
23.099635932797579
 30
0.0
 42
-0.1989123673796749
  0
VERTEX
  5
F83
  8
SAPA_PROFIL
 10
56.437867965643591
 20
23.01176796715367
 30
0.0
  0
VERTEX
  5
F84
  8
SAPA_PROFIL
 10
57.008578643761894
 20
22.441057289034919
 30
0.0
 42
-0.6681786379193591
  0
VERTEX
  5
F85
  8
SAPA_PROFIL
 10
56.867157287524378
 20
22.099635932797579
 30
0.0
  0
VERTEX
  5
F86
  8
SAPA_PROFIL
 10
55.899999999999181
 20
22.09963593279781
 30
0.0
 42
0.4142135623730951
  0
VERTEX
  5
F87
  8
SAPA_PROFIL
 10
55.399999999999181
 20
21.599635932798041
 30
0.0
  0
VERTEX
  5
F88
  8
SAPA_PROFIL
 10
55.399999999999181
 20
21.208827003077431
 30
0.0
 42
0.1763269807084316
  0
VERTEX
  5
F89
  8
SAPA_PROFIL
 10
55.470186667063437
 20
21.015990720171661
 30
0.0
  0
VERTEX
  5
F8A
  8
SAPA_PROFIL
 10
56.928330869871388
 20
19.278242127954851
 30
0.0
 42
0.2216946626429586
  0
VERTEX
  5
F8B
  8
SAPA_PROFIL
 10
57.311353091430881
 20
19.09963593279809
 30
0.0
  0
VERTEX
  5
F8C
  8
SAPA_PROFIL
 10
59.881908440198231
 20
19.099635932798041
 30
0.0
 42
0.2216946626429592
  0
VERTEX
  5
F8D
  8
SAPA_PROFIL
 10
60.11172177313415
 20
19.206799649891991
 30
0.0
  0
VERTEX
  5
F8E
  8
SAPA_PROFIL
 10
61.629813332934873
 20
21.015990720171661
 30
0.0
 42
0.1763269807084563
  0
VERTEX
  5
F8F
  8
SAPA_PROFIL
 10
61.699999999999129
 20
21.208827003077431
 30
0.0
  0
VERTEX
  5
F90
  8
SAPA_PROFIL
 10
61.699999999999129
 20
21.599635932798041
 30
0.0
 42
0.4142135623730951
  0
VERTEX
  5
F91
  8
SAPA_PROFIL
 10
61.199999999999129
 20
22.099635932797579
 30
0.0
  0
VERTEX
  5
F92
  8
SAPA_PROFIL
 10
60.232842712473712
 20
22.099635932797579
 30
0.0
 42
-0.6681786379193841
  0
VERTEX
  5
F93
  8
SAPA_PROFIL
 10
60.091421356236651
 20
22.441057289034919
 30
0.0
  0
VERTEX
  5
F94
  8
SAPA_PROFIL
 10
60.662132034355409
 20
23.01176796715367
 30
0.0
 42
-0.1989123673796471
  0
VERTEX
  5
F95
  8
SAPA_PROFIL
 10
60.874264068711227
 20
23.099635932798041
 30
0.0
  0
VERTEX
  5
F96
  8
SAPA_PROFIL
 10
63.199999999999143
 20
23.099635932797579
 30
0.0
 42
-0.4142135623730951
  0
VERTEX
  5
F97
  8
SAPA_PROFIL
 10
63.699999999999129
 20
22.599635932797579
 30
0.0
  0
VERTEX
  5
F98
  8
SAPA_PROFIL
 10
63.699999999999697
 20
18.899635932797711
 30
0.0
 42
-0.4142135623729843
  0
VERTEX
  5
F99
  8
SAPA_PROFIL
 10
63.399999999999643
 20
18.599635932797518
 30
0.0
  0
VERTEX
  5
F9A
  8
SAPA_PROFIL
 10
62.373205080757323
 20
18.599635932797639
 30
0.0
 42
0.26794919243117
  0
VERTEX
  5
F9B
  8
SAPA_PROFIL
 10
62.113397459621631
 20
18.449635932797548
 30
0.0
  0
VERTEX
  5
F9C
  8
SAPA_PROFIL
 10
61.242708718850388
 20
16.94155879620325
 30
0.0
 42
0.4142135623734465
  0
VERTEX
  5
F9D
  8
SAPA_PROFIL
 10
61.352516339985641
 20
16.531751175067988
 30
0.0
  0
VERTEX
  5
F9E
  8
SAPA_PROFIL
 10
61.899999999999523
 20
16.215661336581999
 30
0.0
 42
-0.4663076581550835
  0
VERTEX
  5
F9F
  8
SAPA_PROFIL
 10
62.166044443118487
 20
14.70684832311116
 30
0.0
  0
VERTEX
  5
FA0
  8
SAPA_PROFIL
 10
59.229154892316267
 20
11.20679964989176
 30
0.0
 42
-0.2216946626429129
  0
VERTEX
  5
FA1
  8
SAPA_PROFIL
 10
58.999341559380582
 20
11.099635932797749
 30
0.0
  0
VERTEX
  5
FA2
  8
SAPA_PROFIL
 10
57.849999999999
 20
11.099635932797749
 30
0.0
 42
-0.4142135623732061
  0
VERTEX
  5
FA3
  8
SAPA_PROFIL
 10
57.549999999999038
 20
11.399635932797819
 30
0.0
  0
VERTEX
  5
FA4
  8
SAPA_PROFIL
 10
57.549999999999613
 20
14.90637543804621
 30
0.0
 42
0.1763269807085094
  0
VERTEX
  5
FA5
  8
SAPA_PROFIL
 10
57.316044443118592
 20
15.54916304773292
 30
0.0
  0
VERTEX
  5
FA6
  8
SAPA_PROFIL
 10
55.014134732068783
 20
18.292472215703981
 30
0.0
 42
0.2216946626429509
  0
VERTEX
  5
FA7
  8
SAPA_PROFIL
 10
54.784321399133091
 20
18.399635932798049
 30
0.0
  0
VERTEX
  5
FA8
  8
SAPA_PROFIL
 10
53.924213696579613
 20
18.399635932798049
 30
0.0
 42
-0.4142135623731506
  0
VERTEX
  5
FA9
  8
SAPA_PROFIL
 10
53.624213696579652
 20
18.69963593279806
 30
0.0
  0
VERTEX
  5
FAA
  8
SAPA_PROFIL
 10
53.624213696579652
 20
19.839724532891012
 30
0.0
 42
0.1763269807084654
  0
VERTEX
  5
FAB
  8
SAPA_PROFIL
 10
53.554027029515403
 20
20.032560815796959
 30
0.0
  0
VERTEX
  5
FAC
  8
SAPA_PROFIL
 10
51.867551956834738
 20
22.042423542484698
 30
0.0
 42
0.2216946626429509
  0
VERTEX
  5
FAD
  8
SAPA_PROFIL
 10
51.101507513715767
 20
22.399635932798159
 30
0.0
  0
VERTEX
  5
FAE
  8
SAPA_PROFIL
 10
28.698492486282131
 20
22.399635932798049
 30
0.0
 42
0.2216946626429508
  0
VERTEX
  5
FAF
  8
SAPA_PROFIL
 10
27.932448043163159
 20
22.042423542484581
 30
0.0
  0
VERTEX
  5
FB0
  8
SAPA_PROFIL
 10
26.245972970482509
 20
20.032560815796838
 30
0.0
 42
0.1763269807084657
  0
VERTEX
  5
FB1
  8
SAPA_PROFIL
 10
26.175786303418249
 20
19.839724532890902
 30
0.0
  0
VERTEX
  5
FB2
  8
SAPA_PROFIL
 10
26.175786303418249
 20
18.69963593279806
 30
0.0
 42
-0.4142135623730951
  0
VERTEX
  5
FB3
  8
SAPA_PROFIL
 10
25.875786303418291
 20
18.399635932798098
 30
0.0
  0
VERTEX
  5
FB4
  8
SAPA_PROFIL
 10
25.01567860086482
 20
18.399635932798098
 30
0.0
 42
0.2216946626429889
  0
VERTEX
  5
FB5
  8
SAPA_PROFIL
 10
24.785865267929129
 20
18.292472215704041
 30
0.0
  0
VERTEX
  5
FB6
  8
SAPA_PROFIL
 10
22.483955556879319
 20
15.549163047732799
 30
0.0
 42
0.1763269807085052
  0
VERTEX
  5
FB7
  8
SAPA_PROFIL
 10
22.249999999998298
 20
14.906375438046039
 30
0.0
  0
VERTEX
  5
FB8
  8
SAPA_PROFIL
 10
22.24999999999898
 20
11.399635932797819
 30
0.0
 42
-0.4142135623732062
  0
VERTEX
  5
FB9
  8
SAPA_PROFIL
 10
21.949999999999019
 20
11.099635932797749
 30
0.0
  0
VERTEX
  5
FBA
  8
SAPA_PROFIL
 10
20.80065844061744
 20
11.099635932797749
 30
0.0
 42
-0.2216946626429129
  0
VERTEX
  5
FBB
  8
SAPA_PROFIL
 10
20.570845107681748
 20
11.20679964989176
 30
0.0
  0
VERTEX
  5
FBC
  8
SAPA_PROFIL
 10
17.63395555687941
 20
14.7068483231111
 30
0.0
 42
-0.4663076581550919
  0
VERTEX
  5
FBD
  8
SAPA_PROFIL
 10
17.899999999998379
 20
16.215661336581999
 30
0.0
  0
VERTEX
  5
FBE
  8
SAPA_PROFIL
 10
18.44748366001226
 20
16.531751175067939
 30
0.0
 42
0.4142135623731708
  0
VERTEX
  5
FBF
  8
SAPA_PROFIL
 10
18.55729128114751
 20
16.94155879620325
 30
0.0
  0
VERTEX
  5
FC0
  8
SAPA_PROFIL
 10
17.686602540376271
 20
18.449635932797548
 30
0.0
 42
0.26794919243117
  0
VERTEX
  5
FC1
  8
SAPA_PROFIL
 10
17.426794919240589
 20
18.599635932797639
 30
0.0
  0
VERTEX
  5
FC2
  8
SAPA_PROFIL
 10
16.399999999998268
 20
18.599635932797639
 30
0.0
 42
-0.4142135623729287
  0
VERTEX
  5
FC3
  8
SAPA_PROFIL
 10
16.0999999999982
 20
18.899635932797711
 30
0.0
  0
VERTEX
  5
FC4
  8
SAPA_PROFIL
 10
16.099999999998769
 20
22.599635932797579
 30
0.0
 42
-0.4142135623730951
  0
VERTEX
  5
FC5
  8
SAPA_PROFIL
 10
16.599999999998769
 20
23.099635932797579
 30
0.0
  0
VERTEX
  5
FC6
  8
SAPA_PROFIL
 10
18.925735931286681
 20
23.099635932798041
 30
0.0
 42
-0.1989123673796819
  0
VERTEX
  5
FC7
  8
SAPA_PROFIL
 10
19.137867965642499
 20
23.01176796715367
 30
0.0
  0
VERTEX
  5
FC8
  8
SAPA_PROFIL
 10
19.70857864376126
 20
22.441057289034919
 30
0.0
 42
-0.6681786379193841
  0
VERTEX
  5
FC9
  8
SAPA_PROFIL
 10
19.567157287524189
 20
22.099635932797579
 30
0.0
  0
VERTEX
  5
FCA
  8
SAPA_PROFIL
 10
18.599999999998769
 20
22.099635932797579
 30
0.0
 42
0.4142135623730951
  0
VERTEX
  5
FCB
  8
SAPA_PROFIL
 10
18.099999999998769
 20
21.599635932798041
 30
0.0
  0
VERTEX
  5
FCC
  8
SAPA_PROFIL
 10
18.099999999998769
 20
21.208827003077431
 30
0.0
 42
0.1763269807084561
  0
VERTEX
  5
FCD
  8
SAPA_PROFIL
 10
18.170186667063032
 20
21.015990720171661
 30
0.0
  0
VERTEX
  5
FCE
  8
SAPA_PROFIL
 10
19.688278226863758
 20
19.206799649891991
 30
0.0
 42
0.2216946626429592
  0
VERTEX
  5
FCF
  8
SAPA_PROFIL
 10
19.918091559799681
 20
19.099635932798041
 30
0.0
  0
VERTEX
  5
FD0
  8
SAPA_PROFIL
 10
22.488646908567041
 20
19.09963593279809
 30
0.0
 42
0.2216946626429736
  0
VERTEX
  5
FD1
  8
SAPA_PROFIL
 10
22.87166913012652
 20
19.278242127954851
 30
0.0
  0
VERTEX
  5
FD2
  8
SAPA_PROFIL
 10
24.32981333293446
 20
21.015990720171661
 30
0.0
 42
0.1763269807084407
  0
VERTEX
  5
FD3
  8
SAPA_PROFIL
 10
24.39999999999873
 20
21.208827003077431
 30
0.0
  0
VERTEX
  5
FD4
  8
SAPA_PROFIL
 10
24.39999999999873
 20
21.599635932798041
 30
0.0
 42
0.4142135623730951
  0
VERTEX
  5
FD5
  8
SAPA_PROFIL
 10
23.89999999999873
 20
22.099635932797579
 30
0.0
  0
VERTEX
  5
FD6
  8
SAPA_PROFIL
 10
22.93284271247353
 20
22.099635932797579
 30
0.0
 42
-0.6681786379193591
  0
VERTEX
  5
FD7
  8
SAPA_PROFIL
 10
22.791421356236011
 20
22.441057289034919
 30
0.0
  0
VERTEX
  5
FD8
  8
SAPA_PROFIL
 10
23.362132034354321
 20
23.01176796715367
 30
0.0
 42
-0.1989123673796749
  0
VERTEX
  5
FD9
  8
SAPA_PROFIL
 10
23.57426406871059
 20
23.099635932797579
 30
0.0
  0
VERTEX
  5
FDA
  8
SAPA_PROFIL
 10
25.350810146332041
 20
23.09963593279809
 30
0.0
 42
0.2216946626428804
  0
VERTEX
  5
FDB
  8
SAPA_PROFIL
 10
26.116854589450782
 20
23.456848323111618
 30
0.0
  0
VERTEX
  5
FDC
  8
SAPA_PROFIL
 10
27.195580281875781
 20
24.742423542482751
 30
0.0
 42
-0.2216946626428499
  0
VERTEX
  5
FDD
  8
SAPA_PROFIL
 10
27.961624724994412
 20
25.099635932796222
 30
0.0
  0
VERTEX
  5
FDE
  8
SAPA_PROFIL
 10
33.249999999998863
 20
25.099635932798041
 30
0.0
 42
0.4142135623730951
  0
VERTEX
  5
FDF
  8
SAPA_PROFIL
 10
33.549999999999038
 20
25.399635932797771
 30
0.0
  0
VERTEX
  5
FE0
  8
SAPA_PROFIL
 10
33.549999999999038
 20
25.799635932797852
 30
0.0
 42
-0.4142135623730951
  0
VERTEX
  5
FE1
  8
SAPA_PROFIL
 10
33.849999999998772
 20
26.099635932798041
 30
0.0
  0
VERTEX
  5
FE2
  8
SAPA_PROFIL
 10
34.24999999999887
 20
26.099635932798041
 30
0.0
 42
-0.4142135623730951
  0
VERTEX
  5
FE3
  8
SAPA_PROFIL
 10
34.549999999999052
 20
25.799635932797852
 30
0.0
  0
VERTEX
  5
FE4
  8
SAPA_PROFIL
 10
34.549999999999052
 20
25.399635932797771
 30
0.0
 42
0.4142135623730951
  0
VERTEX
  5
FE5
  8
SAPA_PROFIL
 10
34.849999999998772
 20
25.099635932798041
 30
0.0
  0
VERTEX
  5
FE6
  8
SAPA_PROFIL
 10
39.275735931287052
 20
25.099635932798041
 30
0.0
 42
-0.1989123673795535
  0
VERTEX
  5
FE7
  8
SAPA_PROFIL
 10
39.48786796564287
 20
25.011767967154132
 30
0.0
  0
VERTEX
  5
FE8
  8
SAPA_PROFIL
 10
39.899999999998947
 20
24.599635932798041
 30
0.0
  0
VERTEX
  5
FE9
  8
SAPA_PROFIL
 10
40.312132034355052
 20
25.011767967154132
 30
0.0
 42
-0.1989123673795536
  0
VERTEX
  5
FEA
  8
SAPA_PROFIL
 10
40.524264068710863
 20
25.099635932798041
 30
0.0
  0
VERTEX
  5
FEB
  8
SAPA_PROFIL
 10
44.949999999998681
 20
25.099635932798041
 30
0.0
 42
0.4142135623730951
  0
VERTEX
  5
FEC
  8
SAPA_PROFIL
 10
45.249999999998863
 20
25.399635932797771
 30
0.0
  0
VERTEX
  5
FED
  8
SAPA_PROFIL
 10
45.249999999998863
 20
25.799635932797852
 30
0.0
 42
-0.4142135623730951
  0
VERTEX
  5
FEE
  8
SAPA_PROFIL
 10
45.549999999999038
 20
26.099635932798041
 30
0.0
  0
VERTEX
  5
FEF
  8
SAPA_PROFIL
 10
45.949999999999129
 20
26.099635932798041
 30
0.0
 42
-0.4142135623730951
  0
VERTEX
  5
FF0
  8
SAPA_PROFIL
 10
46.249999999998863
 20
25.799635932797852
 30
0.0
  0
VERTEX
  5
FF1
  8
SAPA_PROFIL
 10
46.249999999998863
 20
25.399635932797771
 30
0.0
 42
0.414213562373095
  0
VERTEX
  5
FF2
  8
SAPA_PROFIL
 10
46.549999999999038
 20
25.099635932798041
 30
0.0
  0
SEQEND
  5
FF3
  8
SAPA_PROFIL
  0
POLYLINE
  5
CC2
  8
SAPA_PROFIL
 66
     1
 10
0.0
 20
0.0
 30
0.0
 70
     1
  0
VERTEX
  5
FF4
  8
SAPA_PROFIL
 10
21.62705142481855
 20
90.316047330357151
 30
0.0
 42
0.1691807452125083
  0
VERTEX
  5
FF5
  8
SAPA_PROFIL
 10
22.248331477354441
 20
90.099635931806233
 30
0.0
  0
VERTEX
  5
FF6
  8
SAPA_PROFIL
 10
28.599999999999682
 20
90.099635931806233
 30
0.0
 42
0.4142135623730951
  0
VERTEX
  5
FF7
  8
SAPA_PROFIL
 10
28.89999999999964
 20
90.399635931806188
 30
0.0
  0
VERTEX
  5
FF8
  8
SAPA_PROFIL
 10
28.89999999999964
 20
91.099635931806233
 30
0.0
 42
0.4142135623730951
  0
VERTEX
  5
FF9
  8
SAPA_PROFIL
 10
28.599999999999682
 20
91.399635931806188
 30
0.0
  0
VERTEX
  5
FFA
  8
SAPA_PROFIL
 10
25.699999999999822
 20
91.399635931806188
 30
0.0
 42
-0.4142135623730951
  0
VERTEX
  5
FFB
  8
SAPA_PROFIL
 10
25.199999999999822
 20
91.899635931806188
 30
0.0
  0
VERTEX
  5
FFC
  8
SAPA_PROFIL
 10
25.199999999999822
 20
95.099635931806233
 30
0.0
 42
-0.4142135623730951
  0
VERTEX
  5
FFD
  8
SAPA_PROFIL
 10
25.699999999999822
 20
95.599635931806233
 30
0.0
  0
VERTEX
  5
FFE
  8
SAPA_PROFIL
 10
33.899999999999643
 20
95.59963593180629
 30
0.0
 42
-0.4142135623730951
  0
VERTEX
  5
FFF
  8
SAPA_PROFIL
 10
34.899999999999643
 20
94.599635931806304
 30
0.0
  0
VERTEX
  5
1000
  8
SAPA_PROFIL
 10
34.899999999999643
 20
73.399635931806245
 30
0.0
 42
0.4142135623730948
  0
VERTEX
  5
1001
  8
SAPA_PROFIL
 10
35.199999999999818
 20
73.09963593180629
 30
0.0
  0
VERTEX
  5
1002
  8
SAPA_PROFIL
 10
36.689994659130207
 20
73.09963593180629
 30
0.0
 42
0.2135746067194863
  0
VERTEX
  5
1003
  8
SAPA_PROFIL
 10
36.913718361375693
 20
73.19976671193109
 30
0.0
  0
VERTEX
  5
1004
  8
SAPA_PROFIL
 10
37.662132034355643
 20
74.037503897450335
 30
0.0
 42
0.6681786379193474
  0
VERTEX
  5
1005
  8
SAPA_PROFIL
 10
37.449999999999818
 20
74.549635931806108
 30
0.0
  0
VERTEX
  5
1006
  8
SAPA_PROFIL
 10
37.199999999999818
 20
74.549635931806108
 30
0.0
  0
VERTEX
  5
1007
  8
SAPA_PROFIL
 10
37.723280303301642
 20
75.925870525382663
 30
0.0
 42
0.5450207798986705
  0
VERTEX
  5
1008
  8
SAPA_PROFIL
 10
37.449999999999818
 20
76.34963593180629
 30
0.0
  0
VERTEX
  5
1009
  8
SAPA_PROFIL
 10
37.199999999999818
 20
76.34963593180629
 30
0.0
  0
VERTEX
  5
100A
  8
SAPA_PROFIL
 10
37.723280303301642
 20
77.725870525382845
 30
0.0
 42
0.5450207798987319
  0
VERTEX
  5
100B
  8
SAPA_PROFIL
 10
37.449999999999818
 20
78.149635931806245
 30
0.0
  0
VERTEX
  5
100C
  8
SAPA_PROFIL
 10
37.199999999999818
 20
78.149635931806245
 30
0.0
  0
VERTEX
  5
100D
  8
SAPA_PROFIL
 10
37.723280303301642
 20
79.525870525382572
 30
0.0
 42
0.5450207798986705
  0
VERTEX
  5
100E
  8
SAPA_PROFIL
 10
37.449999999999818
 20
79.949635931806199
 30
0.0
  0
VERTEX
  5
100F
  8
SAPA_PROFIL
 10
37.199999999999818
 20
79.949635931806199
 30
0.0
  0
VERTEX
  5
1010
  8
SAPA_PROFIL
 10
37.723280303301642
 20
81.325870525382754
 30
0.0
 42
0.5450207798986705
  0
VERTEX
  5
1011
  8
SAPA_PROFIL
 10
37.449999999999818
 20
81.749635931806381
 30
0.0
  0
VERTEX
  5
1012
  8
SAPA_PROFIL
 10
37.199999999999818
 20
81.749635931806381
 30
0.0
  0
VERTEX
  5
1013
  8
SAPA_PROFIL
 10
37.427762717383757
 20
82.473353226612346
 30
0.0
 42
-0.2945484962562833
  0
VERTEX
  5
1014
  8
SAPA_PROFIL
 10
37.701117531062209
 20
82.649587891560543
 30
0.0
  0
VERTEX
  5
1015
  8
SAPA_PROFIL
 10
38.635700062251551
 20
82.649380709594254
 30
0.0
 42
0.3475954753796645
  0
VERTEX
  5
1016
  8
SAPA_PROFIL
 10
38.927673489321712
 20
82.880134753763116
 30
0.0
 42
-0.7905229096113513
  0
VERTEX
  5
1017
  8
SAPA_PROFIL
 10
40.873664089865322
 20
82.880144958203616
 30
0.0
 42
0.3476065658631767
  0
VERTEX
  5
1018
  8
SAPA_PROFIL
 10
41.16565181088685
 20
82.649393979471654
 30
0.0
  0
VERTEX
  5
1019
  8
SAPA_PROFIL
 10
41.749992662093057
 20
82.64954070018058
 30
0.0
 42
-0.4102317530970184
  0
VERTEX
  5
101A
  8
SAPA_PROFIL
 10
42.050028298585403
 20
82.35368905202705
 30
0.0
 42
0.0712587206050455
  0
VERTEX
  5
101B
  8
SAPA_PROFIL
 10
42.063255612455123
 20
82.269645127098599
 30
0.0
  0
VERTEX
  5
101C
  8
SAPA_PROFIL
 10
42.599999999999682
 20
80.849635931806304
 30
0.0
  0
VERTEX
  5
101D
  8
SAPA_PROFIL
 10
42.349999999999682
 20
80.849635931806304
 30
0.0
 42
0.5450200690651181
  0
VERTEX
  5
101E
  8
SAPA_PROFIL
 10
42.076718999999677
 20
80.425870931806287
 30
0.0
  0
VERTEX
  5
101F
  8
SAPA_PROFIL
 10
42.599999999999682
 20
79.049635931806094
 30
0.0
  0
VERTEX
  5
1020
  8
SAPA_PROFIL
 10
42.349999999999682
 20
79.049635931806336
 30
0.0
 42
0.5450200690652297
  0
VERTEX
  5
1021
  8
SAPA_PROFIL
 10
42.076718999999677
 20
78.625870931806105
 30
0.0
  0
VERTEX
  5
1022
  8
SAPA_PROFIL
 10
42.599999999999682
 20
77.249635931806381
 30
0.0
  0
VERTEX
  5
1023
  8
SAPA_PROFIL
 10
42.349999999999682
 20
77.249635931806381
 30
0.0
 42
0.5450200690651181
  0
VERTEX
  5
1024
  8
SAPA_PROFIL
 10
42.076718999999677
 20
76.825870931806378
 30
0.0
  0
VERTEX
  5
1025
  8
SAPA_PROFIL
 10
42.599999999999682
 20
75.449635931806199
 30
0.0
  0
VERTEX
  5
1026
  8
SAPA_PROFIL
 10
42.04999999999972
 20
75.449635931806199
 30
0.0
  0
VERTEX
  5
1027
  8
SAPA_PROFIL
 10
42.04999999999972
 20
74.249635931806381
 30
0.0
 42
0.1989123673797028
  0
VERTEX
  5
1028
  8
SAPA_PROFIL
 10
42.137867999999791
 20
74.03750393180627
 30
0.0
  0
VERTEX
  5
1029
  8
SAPA_PROFIL
 10
42.886281637859149
 20
73.199766720560604
 30
0.0
 42
0.2135746168025217
  0
VERTEX
  5
102A
  8
SAPA_PROFIL
 10
43.110005347814187
 20
73.09963593180629
 30
0.0
  0
VERTEX
  5
102B
  8
SAPA_PROFIL
 10
44.599999999999667
 20
73.09963593180629
 30
0.0
 42
0.4142135623730951
  0
VERTEX
  5
102C
  8
SAPA_PROFIL
 10
44.899999999999629
 20
73.399635931806245
 30
0.0
  0
VERTEX
  5
102D
  8
SAPA_PROFIL
 10
44.899999999999629
 20
94.599635931806304
 30
0.0
 42
-0.4142135623730951
  0
VERTEX
  5
102E
  8
SAPA_PROFIL
 10
45.899999999999629
 20
95.59963593180629
 30
0.0
  0
VERTEX
  5
102F
  8
SAPA_PROFIL
 10
54.099999999999682
 20
95.59963593180629
 30
0.0
 42
-0.4142135623730951
  0
VERTEX
  5
1030
  8
SAPA_PROFIL
 10
54.599999999999682
 20
95.09963593180629
 30
0.0
  0
VERTEX
  5
1031
  8
SAPA_PROFIL
 10
54.599999999999682
 20
91.899635931806245
 30
0.0
 42
-0.4142135623730951
  0
VERTEX
  5
1032
  8
SAPA_PROFIL
 10
54.099999999999682
 20
91.399635931806245
 30
0.0
  0
VERTEX
  5
1033
  8
SAPA_PROFIL
 10
51.199999999999818
 20
91.399635931806245
 30
0.0
 42
0.4142135623730951
  0
VERTEX
  5
1034
  8
SAPA_PROFIL
 10
50.899999999999643
 20
91.099635931806276
 30
0.0
  0
VERTEX
  5
1035
  8
SAPA_PROFIL
 10
50.899999999999643
 20
90.399635931806245
 30
0.0
 42
0.4142135623730948
  0
VERTEX
  5
1036
  8
SAPA_PROFIL
 10
51.199999999999818
 20
90.09963593180629
 30
0.0
  0
VERTEX
  5
1037
  8
SAPA_PROFIL
 10
57.551668522644832
 20
90.09963593180629
 30
0.0
 42
0.1691807452125083
  0
VERTEX
  5
1038
  8
SAPA_PROFIL
 10
58.172948575180719
 20
90.316047330357193
 30
0.0
  0
VERTEX
  5
1039
  8
SAPA_PROFIL
 10
58.486384015500327
 20
90.564559351165201
 30
0.0
 42
0.7105995019815232
  0
VERTEX
  5
103A
  8
SAPA_PROFIL
 10
58.299999999999727
 20
91.099635931806276
 30
0.0
  0
VERTEX
  5
103B
  8
SAPA_PROFIL
 10
56.399999999999643
 20
91.099635931806276
 30
0.0
 42
-0.4142135623730951
  0
VERTEX
  5
103C
  8
SAPA_PROFIL
 10
56.099999999999682
 20
91.399635931806245
 30
0.0
  0
VERTEX
  5
103D
  8
SAPA_PROFIL
 10
56.099999999999682
 20
95.299635931806336
 30
0.0
 42
-0.4142135623730951
  0
VERTEX
  5
103E
  8
SAPA_PROFIL
 10
56.399999999999643
 20
95.59963593180629
 30
0.0
  0
VERTEX
  5
103F
  8
SAPA_PROFIL
 10
63.099999999999682
 20
95.59963593180629
 30
0.0
 42
-0.4142135623730951
  0
VERTEX
  5
1040
  8
SAPA_PROFIL
 10
63.399999999999643
 20
95.299635931806094
 30
0.0
  0
VERTEX
  5
1041
  8
SAPA_PROFIL
 10
63.399999999999643
 20
91.399635931806245
 30
0.0
 42
-0.4142135623730951
  0
VERTEX
  5
1042
  8
SAPA_PROFIL
 10
63.099999999999682
 20
91.099635931806276
 30
0.0
  0
VERTEX
  5
1043
  8
SAPA_PROFIL
 10
61.899999999999629
 20
91.099635931806276
 30
0.0
 42
0.7105990647992588
  0
VERTEX
  5
1044
  8
SAPA_PROFIL
 10
61.713615999999767
 20
90.564559931806187
 30
0.0
  0
VERTEX
  5
1045
  8
SAPA_PROFIL
 10
62.027051286414462
 20
90.316047716088917
 30
0.0
 42
0.1691809048716788
  0
VERTEX
  5
1046
  8
SAPA_PROFIL
 10
62.648331825454079
 20
90.09963593180629
 30
0.0
  0
VERTEX
  5
1047
  8
SAPA_PROFIL
 10
64.599999999999682
 20
90.09963593180629
 30
0.0
 42
0.4142135623730951
  0
VERTEX
  5
1048
  8
SAPA_PROFIL
 10
64.899999999999636
 20
90.399635931806245
 30
0.0
  0
VERTEX
  5
1049
  8
SAPA_PROFIL
 10
64.899999999999636
 20
209.59963593180609
 30
0.0
 42
0.4142135623730951
  0
VERTEX
  5
104A
  8
SAPA_PROFIL
 10
64.399999999999636
 20
210.09963593180609
 30
0.0
  0
VERTEX
  5
104B
  8
SAPA_PROFIL
 10
15.399999999999631
 20
210.09963593180609
 30
0.0
 42
0.4142135623730951
  0
VERTEX
  5
104C
  8
SAPA_PROFIL
 10
14.899999999999631
 20
209.59963593180609
 30
0.0
  0
VERTEX
  5
104D
  8
SAPA_PROFIL
 10
14.899999999999631
 20
90.399635931806188
 30
0.0
 42
0.4142135623730948
  0
VERTEX
  5
104E
  8
SAPA_PROFIL
 10
15.199999999999809
 20
90.099635931806233
 30
0.0
  0
VERTEX
  5
104F
  8
SAPA_PROFIL
 10
17.151668522644972
 20
90.099635931806233
 30
0.0
 42
0.1691807452125083
  0
VERTEX
  5
1050
  8
SAPA_PROFIL
 10
17.772948575180859
 20
90.316047330357151
 30
0.0
  0
VERTEX
  5
1051
  8
SAPA_PROFIL
 10
18.08638401550024
 20
90.564559351165144
 30
0.0
 42
0.7105995019815232
  0
VERTEX
  5
1052
  8
SAPA_PROFIL
 10
17.899999999999629
 20
91.099635931806276
 30
0.0
  0
VERTEX
  5
1053
  8
SAPA_PROFIL
 10
16.699999999999822
 20
91.099635931806233
 30
0.0
 42
-0.4142135623730948
  0
VERTEX
  5
1054
  8
SAPA_PROFIL
 10
16.399999999999629
 20
91.399635931806188
 30
0.0
  0
VERTEX
  5
1055
  8
SAPA_PROFIL
 10
16.399999999999629
 20
95.299635931806051
 30
0.0
 42
-0.4142135623730951
  0
VERTEX
  5
1056
  8
SAPA_PROFIL
 10
16.699999999999822
 20
95.599635931806233
 30
0.0
  0
VERTEX
  5
1057
  8
SAPA_PROFIL
 10
23.39999999999964
 20
95.599635931806233
 30
0.0
 42
-0.4142135623730951
  0
VERTEX
  5
1058
  8
SAPA_PROFIL
 10
23.699999999999822
 20
95.299635931806279
 30
0.0
  0
VERTEX
  5
1059
  8
SAPA_PROFIL
 10
23.699999999999822
 20
91.399635931806188
 30
0.0
 42
-0.414213562373095
  0
VERTEX
  5
105A
  8
SAPA_PROFIL
 10
23.39999999999964
 20
91.099635931806233
 30
0.0
  0
VERTEX
  5
105B
  8
SAPA_PROFIL
 10
21.499999999999769
 20
91.099635931806233
 30
0.0
 42
0.7105995019815232
  0
VERTEX
  5
105C
  8
SAPA_PROFIL
 10
21.313615984499169
 20
90.564559351165201
 30
0.0
  0
SEQEND
  5
105D
  8
SAPA_PROFIL
  0
POLYLINE
  5
CC3
  8
SAPA_PROFIL
 66
     1
 10
0.0
 20
0.0
 30
0.0
 70
     1
  0
VERTEX
  5
105E
  8
SAPA_PROFIL
 10
37.199999999999818
 20
92.549635931806094
 30
0.0
  0
VERTEX
  5
105F
  8
SAPA_PROFIL
 10
37.549999999999727
 20
92.549635931806094
 30
0.0
 42
-0.545020779898761
  0
VERTEX
  5
1060
  8
SAPA_PROFIL
 10
37.823280303301772
 20
92.125870525382709
 30
0.0
  0
VERTEX
  5
1061
  8
SAPA_PROFIL
 10
37.199999999999818
 20
90.749635931806395
 30
0.0
  0
VERTEX
  5
1062
  8
SAPA_PROFIL
 10
37.549999999999727
 20
90.749635931806395
 30
0.0
 42
-0.54502077989874
  0
VERTEX
  5
1063
  8
SAPA_PROFIL
 10
37.823280303301772
 20
90.325870525382754
 30
0.0
  0
VERTEX
  5
1064
  8
SAPA_PROFIL
 10
37.199999999999818
 20
88.949635931806185
 30
0.0
  0
VERTEX
  5
1065
  8
SAPA_PROFIL
 10
37.549999999999727
 20
88.949635931806185
 30
0.0
 42
-0.545020779898768
  0
VERTEX
  5
1066
  8
SAPA_PROFIL
 10
37.823280303301772
 20
88.525870525382572
 30
0.0
  0
VERTEX
  5
1067
  8
SAPA_PROFIL
 10
37.199999999999818
 20
87.149635931806245
 30
0.0
  0
VERTEX
  5
1068
  8
SAPA_PROFIL
 10
37.549999999999727
 20
87.149635931806245
 30
0.0
 42
-0.5450205149791638
  0
VERTEX
  5
1069
  8
SAPA_PROFIL
 10
37.823279999999613
 20
86.725870931806242
 30
0.0
  0
VERTEX
  5
106A
  8
SAPA_PROFIL
 10
37.199999999999818
 20
85.34963593180629
 30
0.0
  0
VERTEX
  5
106B
  8
SAPA_PROFIL
 10
37.549999999999727
 20
85.34963593180629
 30
0.0
 42
-0.5450207798987328
  0
VERTEX
  5
106C
  8
SAPA_PROFIL
 10
37.823280303301772
 20
84.925870525382663
 30
0.0
  0
VERTEX
  5
106D
  8
SAPA_PROFIL
 10
37.47173236648905
 20
84.149635931806245
 30
0.0
  0
VERTEX
  5
106E
  8
SAPA_PROFIL
 10
42.599999999999682
 20
84.149635931806245
 30
0.0
  0
VERTEX
  5
106F
  8
SAPA_PROFIL
 10
42.599999999999682
 20
84.449635931806199
 30
0.0
  0
VERTEX
  5
1070
  8
SAPA_PROFIL
 10
41.976718999999768
 20
85.825870931806378
 30
0.0
 42
-0.5450200690651692
  0
VERTEX
  5
1071
  8
SAPA_PROFIL
 10
42.249999999999773
 20
86.249635931806381
 30
0.0
  0
VERTEX
  5
1072
  8
SAPA_PROFIL
 10
42.599999999999682
 20
86.249635931806381
 30
0.0
  0
VERTEX
  5
1073
  8
SAPA_PROFIL
 10
41.976718999999768
 20
87.625870931806105
 30
0.0
 42
-0.5450200690651619
  0
VERTEX
  5
1074
  8
SAPA_PROFIL
 10
42.249999999999773
 20
88.049635931806336
 30
0.0
  0
VERTEX
  5
1075
  8
SAPA_PROFIL
 10
42.599999999999682
 20
88.049635931806108
 30
0.0
  0
VERTEX
  5
1076
  8
SAPA_PROFIL
 10
41.976718999999768
 20
89.425870931806287
 30
0.0
 42
-0.5450200690651619
  0
VERTEX
  5
1077
  8
SAPA_PROFIL
 10
42.249999999999773
 20
89.849635931806276
 30
0.0
  0
VERTEX
  5
1078
  8
SAPA_PROFIL
 10
42.599999999999682
 20
89.849635931806276
 30
0.0
  0
VERTEX
  5
1079
  8
SAPA_PROFIL
 10
41.976718999999768
 20
91.225870931806256
 30
0.0
 42
-0.5450200690651692
  0
VERTEX
  5
107A
  8
SAPA_PROFIL
 10
42.249999999999773
 20
91.649635931806245
 30
0.0
  0
VERTEX
  5
107B
  8
SAPA_PROFIL
 10
42.599999999999682
 20
91.649635931806245
 30
0.0
  0
VERTEX
  5
107C
  8
SAPA_PROFIL
 10
41.976718999999768
 20
93.025870931806196
 30
0.0
 42
-0.5450200690651551
  0
VERTEX
  5
107D
  8
SAPA_PROFIL
 10
42.249999999999773
 20
93.449635931806199
 30
0.0
  0
VERTEX
  5
107E
  8
SAPA_PROFIL
 10
42.599999999999682
 20
93.449635931806199
 30
0.0
  0
VERTEX
  5
107F
  8
SAPA_PROFIL
 10
42.599999999999682
 20
94.599635931806304
 30
0.0
 42
0.4142135623730951
  0
VERTEX
  5
1080
  8
SAPA_PROFIL
 10
41.599999999999682
 20
95.59963593180629
 30
0.0
  0
VERTEX
  5
1081
  8
SAPA_PROFIL
 10
38.199999999999818
 20
95.59963593180629
 30
0.0
 42
0.4142135623730951
  0
VERTEX
  5
1082
  8
SAPA_PROFIL
 10
37.199999999999818
 20
94.599635931806304
 30
0.0
  0
VERTEX
  5
1083
  8
SAPA_PROFIL
 10
37.199999999999818
 20
94.34963593180629
 30
0.0
  0
VERTEX
  5
1084
  8
SAPA_PROFIL
 10
37.549999999999727
 20
94.34963593180629
 30
0.0
 42
-0.5450207798987328
  0
VERTEX
  5
1085
  8
SAPA_PROFIL
 10
37.823280303301772
 20
93.925870525382649
 30
0.0
  0
SEQEND
  5
1086
  8
SAPA_PROFIL
  0
POLYLINE
  5
CC4
  8
SAPA_PROFIL
 66
     1
 10
0.0
 20
0.0
 30
0.0
 70
     1
  0
VERTEX
  5
1087
  8
SAPA_PROFIL
 10
17.099999999999682
 20
205.59963593180609
 30
0.0
  0
VERTEX
  5
1088
  8
SAPA_PROFIL
 10
17.099999999999682
 20
203.4239000005181
 30
0.0
 42
0.1989123673796407
  0
VERTEX
  5
1089
  8
SAPA_PROFIL
 10
17.187867965643822
 20
203.211767966162
 30
0.0
  0
VERTEX
  5
108A
  8
SAPA_PROFIL
 10
18.712132034355822
 20
201.6875038974502
 30
0.0
 42
-0.1989123673796753
  0
VERTEX
  5
108B
  8
SAPA_PROFIL
 10
18.799999999999731
 20
201.47537186309421
 30
0.0
  0
VERTEX
  5
108C
  8
SAPA_PROFIL
 10
18.799999999999731
 20
200.8996359318061
 30
0.0
 42
-0.4142135623730951
  0
VERTEX
  5
108D
  8
SAPA_PROFIL
 10
18.499999999999769
 20
200.59963593180609
 30
0.0
  0
VERTEX
  5
108E
  8
SAPA_PROFIL
 10
17.399999999999629
 20
200.59963593180609
 30
0.0
 42
0.4142135623730951
  0
VERTEX
  5
108F
  8
SAPA_PROFIL
 10
17.099999999999682
 20
200.29963593180591
 30
0.0
  0
VERTEX
  5
1090
  8
SAPA_PROFIL
 10
17.099999999999909
 20
197.8996359318061
 30
0.0
 42
0.4142135623730951
  0
VERTEX
  5
1091
  8
SAPA_PROFIL
 10
17.399999999999629
 20
197.59963593180609
 30
0.0
  0
VERTEX
  5
1092
  8
SAPA_PROFIL
 10
18.499999999999769
 20
197.59963593180609
 30
0.0
 42
-0.4142135623730951
  0
VERTEX
  5
1093
  8
SAPA_PROFIL
 10
18.799999999999731
 20
197.29963593180591
 30
0.0
  0
VERTEX
  5
1094
  8
SAPA_PROFIL
 10
18.799999999999731
 20
196.723900000518
 30
0.0
 42
-0.198912367379658
  0
VERTEX
  5
1095
  8
SAPA_PROFIL
 10
18.712132034355822
 20
196.51176796616201
 30
0.0
  0
VERTEX
  5
1096
  8
SAPA_PROFIL
 10
17.187867965643822
 20
194.98750389745001
 30
0.0
 42
0.198912367379658
  0
VERTEX
  5
1097
  8
SAPA_PROFIL
 10
17.099999999999682
 20
194.77537186309391
 30
0.0
  0
VERTEX
  5
1098
  8
SAPA_PROFIL
 10
17.099999999999682
 20
155.5996359318062
 30
0.0
 42
0.4142135623730951
  0
VERTEX
  5
1099
  8
SAPA_PROFIL
 10
18.099999999999682
 20
154.5996359318062
 30
0.0
  0
VERTEX
  5
109A
  8
SAPA_PROFIL
 10
22.299999999999731
 20
154.5996359318062
 30
0.0
 42
-0.4142135623730951
  0
VERTEX
  5
109B
  8
SAPA_PROFIL
 10
22.599999999999682
 20
154.29963593180599
 30
0.0
  0
VERTEX
  5
109C
  8
SAPA_PROFIL
 10
22.599999999999682
 20
151.9996359318063
 30
0.0
 42
-0.4142135623730951
  0
VERTEX
  5
109D
  8
SAPA_PROFIL
 10
22.299999999999731
 20
151.69963593180611
 30
0.0
  0
VERTEX
  5
109E
  8
SAPA_PROFIL
 10
21.799999999999731
 20
151.69963593180611
 30
0.0
 42
-0.4142135623730951
  0
VERTEX
  5
109F
  8
SAPA_PROFIL
 10
21.499999999999769
 20
151.9996359318063
 30
0.0
  0
VERTEX
  5
10A0
  8
SAPA_PROFIL
 10
21.499999999999769
 20
152.3362628564407
 30
0.0
 42
0.5535245743249297
  0
VERTEX
  5
10A1
  8
SAPA_PROFIL
 10
17.18944578846844
 20
150.56374353393079
 30
0.0
  0
VERTEX
  5
10A2
  8
SAPA_PROFIL
 10
17.47677669529639
 20
150.2764126271029
 30
0.0
 42
-0.4142135623729421
  0
VERTEX
  5
10A3
  8
SAPA_PROFIL
 10
17.47677669529639
 20
149.92285923650951
 30
0.0
  0
VERTEX
  5
10A4
  8
SAPA_PROFIL
 10
17.18944578846844
 20
149.63552832968159
 30
0.0
 42
0.5535245743249292
  0
VERTEX
  5
10A5
  8
SAPA_PROFIL
 10
21.499999999999769
 20
147.86300900717171
 30
0.0
  0
VERTEX
  5
10A6
  8
SAPA_PROFIL
 10
21.499999999999769
 20
148.19963593180611
 30
0.0
 42
-0.4142135623730951
  0
VERTEX
  5
10A7
  8
SAPA_PROFIL
 10
21.799999999999731
 20
148.4996359318063
 30
0.0
  0
VERTEX
  5
10A8
  8
SAPA_PROFIL
 10
22.299999999999731
 20
148.4996359318063
 30
0.0
 42
-0.4142135623730951
  0
VERTEX
  5
10A9
  8
SAPA_PROFIL
 10
22.599999999999682
 20
148.19963593180611
 30
0.0
  0
VERTEX
  5
10AA
  8
SAPA_PROFIL
 10
22.599999999999682
 20
147.0996359318062
 30
0.0
 42
-0.4142135623730951
  0
VERTEX
  5
10AB
  8
SAPA_PROFIL
 10
21.099999999999682
 20
145.5996359318062
 30
0.0
  0
VERTEX
  5
10AC
  8
SAPA_PROFIL
 10
18.466025403784212
 20
145.5996359318062
 30
0.0
 42
-0.267949192431143
  0
VERTEX
  5
10AD
  8
SAPA_PROFIL
 10
18.033012701891948
 20
145.8496359318062
 30
0.0
 42
0.767326987978956
  0
VERTEX
  5
10AE
  8
SAPA_PROFIL
 10
17.099999999999682
 20
145.5996359318062
 30
0.0
  0
VERTEX
  5
10AF
  8
SAPA_PROFIL
 10
17.099999999999682
 20
110.5996359318062
 30
0.0
 42
0.4142135623730951
  0
VERTEX
  5
10B0
  8
SAPA_PROFIL
 10
18.099999999999682
 20
109.5996359318062
 30
0.0
  0
VERTEX
  5
10B1
  8
SAPA_PROFIL
 10
22.299999999999731
 20
109.5996359318062
 30
0.0
 42
-0.4142135623730951
  0
VERTEX
  5
10B2
  8
SAPA_PROFIL
 10
22.599999999999682
 20
109.29963593180619
 30
0.0
  0
VERTEX
  5
10B3
  8
SAPA_PROFIL
 10
22.599999999999682
 20
106.9996359318063
 30
0.0
 42
-0.4142135623730951
  0
VERTEX
  5
10B4
  8
SAPA_PROFIL
 10
22.299999999999731
 20
106.6996359318061
 30
0.0
  0
VERTEX
  5
10B5
  8
SAPA_PROFIL
 10
21.799999999999731
 20
106.6996359318061
 30
0.0
 42
-0.4142135623730951
  0
VERTEX
  5
10B6
  8
SAPA_PROFIL
 10
21.499999999999769
 20
106.9996359318063
 30
0.0
  0
VERTEX
  5
10B7
  8
SAPA_PROFIL
 10
21.499999999999769
 20
107.3362628564407
 30
0.0
 42
0.5535245743249297
  0
VERTEX
  5
10B8
  8
SAPA_PROFIL
 10
17.18944578846844
 20
105.5637435339308
 30
0.0
  0
VERTEX
  5
10B9
  8
SAPA_PROFIL
 10
17.47677669529639
 20
105.2764126271029
 30
0.0
 42
-0.4142135623730243
  0
VERTEX
  5
10BA
  8
SAPA_PROFIL
 10
17.47677669529639
 20
104.9228592365095
 30
0.0
  0
VERTEX
  5
10BB
  8
SAPA_PROFIL
 10
17.18944578846844
 20
104.63552832968161
 30
0.0
 42
0.5535245743249292
  0
VERTEX
  5
10BC
  8
SAPA_PROFIL
 10
21.499999999999769
 20
102.8630090071717
 30
0.0
  0
VERTEX
  5
10BD
  8
SAPA_PROFIL
 10
21.499999999999769
 20
103.1996359318061
 30
0.0
 42
-0.4142135623730951
  0
VERTEX
  5
10BE
  8
SAPA_PROFIL
 10
21.799999999999731
 20
103.4996359318063
 30
0.0
  0
VERTEX
  5
10BF
  8
SAPA_PROFIL
 10
22.299999999999731
 20
103.4996359318063
 30
0.0
 42
-0.4142135623730951
  0
VERTEX
  5
10C0
  8
SAPA_PROFIL
 10
22.599999999999682
 20
103.1996359318061
 30
0.0
  0
VERTEX
  5
10C1
  8
SAPA_PROFIL
 10
22.599999999999682
 20
102.0996359318062
 30
0.0
 42
-0.4142135623730951
  0
VERTEX
  5
10C2
  8
SAPA_PROFIL
 10
21.099999999999682
 20
100.5996359318062
 30
0.0
  0
VERTEX
  5
10C3
  8
SAPA_PROFIL
 10
18.119615242270349
 20
100.5996359318062
 30
0.0
 42
-0.2679491924311188
  0
VERTEX
  5
10C4
  8
SAPA_PROFIL
 10
17.859807621135129
 20
100.7496359318063
 30
0.0
 42
0.7673269879789557
  0
VERTEX
  5
10C5
  8
SAPA_PROFIL
 10
17.299999999999731
 20
100.5996359318062
 30
0.0
  0
VERTEX
  5
10C6
  8
SAPA_PROFIL
 10
17.300000000000178
 20
98.599635931806233
 30
0.0
 42
0.4142137811865366
  0
VERTEX
  5
10C7
  8
SAPA_PROFIL
 10
18.299999252924401
 20
97.599635931806233
 30
0.0
  0
VERTEX
  5
10C8
  8
SAPA_PROFIL
 10
61.499999999999773
 20
97.59963593180629
 30
0.0
 42
0.4142140000000124
  0
VERTEX
  5
10C9
  8
SAPA_PROFIL
 10
62.499999999999773
 20
98.599635931806304
 30
0.0
  0
VERTEX
  5
10CA
  8
SAPA_PROFIL
 10
62.499999999999773
 20
100.5996359318063
 30
0.0
 42
0.7673269879789457
  0
VERTEX
  5
10CB
  8
SAPA_PROFIL
 10
61.940192378864587
 20
100.7496359318064
 30
0.0
 42
-0.2679491924311191
  0
VERTEX
  5
10CC
  8
SAPA_PROFIL
 10
61.680384757729144
 20
100.5996359318063
 30
0.0
  0
VERTEX
  5
10CD
  8
SAPA_PROFIL
 10
58.699999999999818
 20
100.5996359318063
 30
0.0
 42
-0.4142135623730951
  0
VERTEX
  5
10CE
  8
SAPA_PROFIL
 10
57.199999999999811
 20
102.0996359318063
 30
0.0
  0
VERTEX
  5
10CF
  8
SAPA_PROFIL
 10
57.199999999999811
 20
103.1996359318062
 30
0.0
 42
-0.4142135623730951
  0
VERTEX
  5
10D0
  8
SAPA_PROFIL
 10
57.499999999999773
 20
103.4996359318063
 30
0.0
  0
VERTEX
  5
10D1
  8
SAPA_PROFIL
 10
57.999999999999773
 20
103.4996359318063
 30
0.0
 42
-0.4142135623730951
  0
VERTEX
  5
10D2
  8
SAPA_PROFIL
 10
58.299999999999727
 20
103.1996359318062
 30
0.0
  0
VERTEX
  5
10D3
  8
SAPA_PROFIL
 10
58.299999999999727
 20
102.8630090071718
 30
0.0
 42
0.5535245743249307
  0
VERTEX
  5
10D4
  8
SAPA_PROFIL
 10
62.610554211531053
 20
104.6355283296817
 30
0.0
  0
VERTEX
  5
10D5
  8
SAPA_PROFIL
 10
62.323223304703099
 20
104.92285923650959
 30
0.0
 42
-0.4142135623730951
  0
VERTEX
  5
10D6
  8
SAPA_PROFIL
 10
62.323223304703099
 20
105.2764126271029
 30
0.0
  0
VERTEX
  5
10D7
  8
SAPA_PROFIL
 10
62.610554211531053
 20
105.5637435339309
 30
0.0
 42
0.553524574324932
  0
VERTEX
  5
10D8
  8
SAPA_PROFIL
 10
58.299999999999727
 20
107.3362628564408
 30
0.0
  0
VERTEX
  5
10D9
  8
SAPA_PROFIL
 10
58.299999999999727
 20
106.9996359318064
 30
0.0
 42
-0.4142135623730951
  0
VERTEX
  5
10DA
  8
SAPA_PROFIL
 10
57.999999999999773
 20
106.6996359318062
 30
0.0
  0
VERTEX
  5
10DB
  8
SAPA_PROFIL
 10
57.499999999999773
 20
106.6996359318062
 30
0.0
 42
-0.4142135623730951
  0
VERTEX
  5
10DC
  8
SAPA_PROFIL
 10
57.199999999999811
 20
106.9996359318064
 30
0.0
  0
VERTEX
  5
10DD
  8
SAPA_PROFIL
 10
57.199999999999811
 20
109.29963593180631
 30
0.0
 42
-0.4142135623730951
  0
VERTEX
  5
10DE
  8
SAPA_PROFIL
 10
57.499999999999773
 20
109.5996359318063
 30
0.0
  0
VERTEX
  5
10DF
  8
SAPA_PROFIL
 10
61.699999999999818
 20
109.5996359318063
 30
0.0
 42
0.4142135623730951
  0
VERTEX
  5
10E0
  8
SAPA_PROFIL
 10
62.699999999999811
 20
110.5996359318063
 30
0.0
  0
VERTEX
  5
10E1
  8
SAPA_PROFIL
 10
62.699999999999811
 20
145.5996359318062
 30
0.0
 42
0.7673269879789505
  0
VERTEX
  5
10E2
  8
SAPA_PROFIL
 10
61.766987298107317
 20
145.8496359318062
 30
0.0
 42
-0.2679491924311202
  0
VERTEX
  5
10E3
  8
SAPA_PROFIL
 10
61.333974596215278
 20
145.5996359318062
 30
0.0
  0
VERTEX
  5
10E4
  8
SAPA_PROFIL
 10
58.699999999999818
 20
145.5996359318062
 30
0.0
 42
-0.4142135623730951
  0
VERTEX
  5
10E5
  8
SAPA_PROFIL
 10
57.199999999999811
 20
147.0996359318062
 30
0.0
  0
VERTEX
  5
10E6
  8
SAPA_PROFIL
 10
57.199999999999811
 20
148.19963593180611
 30
0.0
 42
-0.4142135623730951
  0
VERTEX
  5
10E7
  8
SAPA_PROFIL
 10
57.499999999999773
 20
148.4996359318063
 30
0.0
  0
VERTEX
  5
10E8
  8
SAPA_PROFIL
 10
57.999999999999773
 20
148.4996359318063
 30
0.0
 42
-0.4142135623730951
  0
VERTEX
  5
10E9
  8
SAPA_PROFIL
 10
58.299999999999727
 20
148.19963593180611
 30
0.0
  0
VERTEX
  5
10EA
  8
SAPA_PROFIL
 10
58.299999999999727
 20
147.86300900717171
 30
0.0
 42
0.5535245743249307
  0
VERTEX
  5
10EB
  8
SAPA_PROFIL
 10
62.610554211531053
 20
149.63552832968159
 30
0.0
  0
VERTEX
  5
10EC
  8
SAPA_PROFIL
 10
62.323223304703099
 20
149.92285923650951
 30
0.0
 42
-0.4142135623731068
  0
VERTEX
  5
10ED
  8
SAPA_PROFIL
 10
62.323223304703099
 20
150.2764126271029
 30
0.0
  0
VERTEX
  5
10EE
  8
SAPA_PROFIL
 10
62.610554211531053
 20
150.56374353393079
 30
0.0
 42
0.553524574324932
  0
VERTEX
  5
10EF
  8
SAPA_PROFIL
 10
58.299999999999727
 20
152.3362628564407
 30
0.0
  0
VERTEX
  5
10F0
  8
SAPA_PROFIL
 10
58.299999999999727
 20
151.9996359318063
 30
0.0
 42
-0.4142135623730951
  0
VERTEX
  5
10F1
  8
SAPA_PROFIL
 10
57.999999999999773
 20
151.69963593180611
 30
0.0
  0
VERTEX
  5
10F2
  8
SAPA_PROFIL
 10
57.499999999999773
 20
151.69963593180611
 30
0.0
 42
-0.4142135623730951
  0
VERTEX
  5
10F3
  8
SAPA_PROFIL
 10
57.199999999999811
 20
151.9996359318063
 30
0.0
  0
VERTEX
  5
10F4
  8
SAPA_PROFIL
 10
57.199999999999811
 20
154.29963593180599
 30
0.0
 42
-0.4142135623730951
  0
VERTEX
  5
10F5
  8
SAPA_PROFIL
 10
57.499999999999773
 20
154.5996359318062
 30
0.0
  0
VERTEX
  5
10F6
  8
SAPA_PROFIL
 10
61.699999999999818
 20
154.5996359318062
 30
0.0
 42
0.4142135623730951
  0
VERTEX
  5
10F7
  8
SAPA_PROFIL
 10
62.699999999999811
 20
155.5996359318062
 30
0.0
  0
VERTEX
  5
10F8
  8
SAPA_PROFIL
 10
62.699999999999811
 20
194.77537186309391
 30
0.0
 42
0.198912367379658
  0
VERTEX
  5
10F9
  8
SAPA_PROFIL
 10
62.612132034355682
 20
194.98750389745001
 30
0.0
  0
VERTEX
  5
10FA
  8
SAPA_PROFIL
 10
61.087867965643682
 20
196.5117679661617
 30
0.0
 42
-0.1989123673797102
  0
VERTEX
  5
10FB
  8
SAPA_PROFIL
 10
60.999999999999552
 20
196.723900000518
 30
0.0
  0
VERTEX
  5
10FC
  8
SAPA_PROFIL
 10
60.999999999999773
 20
197.29963593180591
 30
0.0
 42
-0.4142135623730951
  0
VERTEX
  5
10FD
  8
SAPA_PROFIL
 10
61.299999999999727
 20
197.59963593180609
 30
0.0
  0
VERTEX
  5
10FE
  8
SAPA_PROFIL
 10
62.399999999999629
 20
197.59963593180609
 30
0.0
 42
0.4142135623730951
  0
VERTEX
  5
10FF
  8
SAPA_PROFIL
 10
62.699999999999811
 20
197.8996359318061
 30
0.0
  0
VERTEX
  5
1100
  8
SAPA_PROFIL
 10
62.699999999999811
 20
200.29963593180591
 30
0.0
 42
0.4142135623730951
  0
VERTEX
  5
1101
  8
SAPA_PROFIL
 10
62.399999999999629
 20
200.59963593180609
 30
0.0
  0
VERTEX
  5
1102
  8
SAPA_PROFIL
 10
61.299999999999727
 20
200.59963593180609
 30
0.0
 42
-0.4142135623730951
  0
VERTEX
  5
1103
  8
SAPA_PROFIL
 10
60.999999999999773
 20
200.8996359318061
 30
0.0
  0
VERTEX
  5
1104
  8
SAPA_PROFIL
 10
60.999999999999773
 20
201.47537186309421
 30
0.0
 42
-0.1989123673796752
  0
VERTEX
  5
1105
  8
SAPA_PROFIL
 10
61.087867965643909
 20
201.68750389745
 30
0.0
  0
VERTEX
  5
1106
  8
SAPA_PROFIL
 10
62.612132034355682
 20
203.211767966162
 30
0.0
 42
0.1989123673797102
  0
VERTEX
  5
1107
  8
SAPA_PROFIL
 10
62.699999999999811
 20
203.4239000005181
 30
0.0
  0
VERTEX
  5
1108
  8
SAPA_PROFIL
 10
62.699999999999811
 20
205.59963593180609
 30
0.0
 42
0.4142135623730951
  0
VERTEX
  5
1109
  8
SAPA_PROFIL
 10
61.699999999999818
 20
206.59963593180609
 30
0.0
  0
VERTEX
  5
110A
  8
SAPA_PROFIL
 10
18.099999999999682
 20
206.59963593180609
 30
0.0
 42
0.4142135623730951
  0
SEQEND
  5
110B
  8
SAPA_PROFIL
  0
POLYLINE
  5
CC5
  8
SAPA_PROFIL
 66
     1
 10
0.0
 20
0.0
 30
0.0
 70
     1
  0
VERTEX
  5
110C
  8
SAPA_PROFIL
 10
17.099999999999909
 20
18.501160860600059
 30
0.0
  0
VERTEX
  5
110D
  8
SAPA_PROFIL
 10
16.099999999999909
 20
18.501160860600059
 30
0.0
  0
VERTEX
  5
110E
  8
SAPA_PROFIL
 10
16.099999999999909
 20
21.101160860600231
 30
0.0
 42
0.4142135623730951
  0
VERTEX
  5
110F
  8
SAPA_PROFIL
 10
15.599999999999911
 20
21.601160860600231
 30
0.0
  0
VERTEX
  5
1110
  8
SAPA_PROFIL
 10
15.199999999999809
 20
21.601160860600231
 30
0.0
 42
0.4142135623730951
  0
VERTEX
  5
1111
  8
SAPA_PROFIL
 10
14.89999999999986
 20
21.30116086060028
 30
0.0
  0
VERTEX
  5
1112
  8
SAPA_PROFIL
 10
14.89999999999986
 20
3.599635932797582
 30
0.0
 42
0.4142135623730951
  0
VERTEX
  5
1113
  8
SAPA_PROFIL
 10
15.39999999999986
 20
3.099635932797582
 30
0.0
  0
VERTEX
  5
1114
  8
SAPA_PROFIL
 10
64.399999999999864
 20
3.099635932797582
 30
0.0
 42
0.4142135623730951
  0
VERTEX
  5
1115
  8
SAPA_PROFIL
 10
64.899999999999864
 20
3.599635932797582
 30
0.0
  0
VERTEX
  5
1116
  8
SAPA_PROFIL
 10
64.899999999999864
 20
21.30116086060028
 30
0.0
 42
0.4142135623730951
  0
VERTEX
  5
1117
  8
SAPA_PROFIL
 10
64.599999999999909
 20
21.601160860600231
 30
0.0
  0
VERTEX
  5
1118
  8
SAPA_PROFIL
 10
64.199999999999818
 20
21.601160860600231
 30
0.0
 42
0.4142135623730951
  0
VERTEX
  5
1119
  8
SAPA_PROFIL
 10
63.699999999999818
 20
21.101160860600231
 30
0.0
  0
VERTEX
  5
111A
  8
SAPA_PROFIL
 10
63.699999999999818
 20
18.501160860600059
 30
0.0
  0
VERTEX
  5
111B
  8
SAPA_PROFIL
 10
62.699999999999811
 20
18.501160860600059
 30
0.0
  0
VERTEX
  5
111C
  8
SAPA_PROFIL
 10
62.120339221578661
 20
17.497128100967071
 30
0.0
 42
0.4155392929676362
  0
VERTEX
  5
111D
  8
SAPA_PROFIL
 10
62.416312647884517
 20
16.40250912917508
 30
0.0
  0
VERTEX
  5
111E
  8
SAPA_PROFIL
 10
63.699999999999818
 20
15.66137189087612
 30
0.0
  0
VERTEX
  5
111F
  8
SAPA_PROFIL
 10
63.699999999999818
 20
5.499635932797446
 30
0.0
 42
-0.4142135623730951
  0
VERTEX
  5
1120
  8
SAPA_PROFIL
 10
62.699999999999811
 20
4.499635932797446
 30
0.0
  0
VERTEX
  5
1121
  8
SAPA_PROFIL
 10
17.099999999999909
 20
4.499635932797446
 30
0.0
 42
-0.4142135623730951
  0
VERTEX
  5
1122
  8
SAPA_PROFIL
 10
16.099999999999909
 20
5.499635932797446
 30
0.0
  0
VERTEX
  5
1123
  8
SAPA_PROFIL
 10
16.099999999999909
 20
15.66137189087612
 30
0.0
  0
VERTEX
  5
1124
  8
SAPA_PROFIL
 10
17.383687352115199
 20
16.40250912917508
 30
0.0
 42
0.4155392929676362
  0
VERTEX
  5
1125
  8
SAPA_PROFIL
 10
17.679660778421059
 20
17.497128100967071
 30
0.0
  0
SEQEND
  5
1126
  8
SAPA_PROFIL
  0
LINE
  5
CC6
  8
SAPA_PROFIL
 10
2.7047627575209381
 20
10.70917972966731
 30
0.0
 11
0.0
 21
7.5423461263493428
 31
0.0
  0
LINE
  5
CC7
  8
SAPA_PROFIL
 10
7.5665214333112081
 20
27.898018872506778
 30
0.0
 11
2.7047627575209381
 21
10.70917972966731
 31
0.0
  0
LINE
  5
CC8
  8
SAPA_PROFIL
 10
28.89999999999964
 20
27.898018872506778
 30
0.0
 11
7.5665214333112081
 21
27.898018872506778
 31
0.0
  0
LINE
  5
CC9
  8
SAPA_PROFIL
 10
3.6074044776091401
 20
10.226266422909459
 30
0.0
 11
0.7604022489811908
 21
6.8928937264428161
 31
0.0
  0
LINE
  5
CCA
  8
SAPA_PROFIL
 10
8.3229083251288785
 20
26.898018872506778
 30
0.0
 11
3.6074044776091401
 21
10.226266422909459
 31
0.0
  0
LINE
  5
CCB
  8
SAPA_PROFIL
 10
28.89999999999964
 20
26.898018872506778
 30
0.0
 11
8.3229083251288785
 21
26.898018872506778
 31
0.0
  0
LINE
  5
CCC
  8
SAPA_PROFIL
 10
28.89999999999964
 20
27.898018872506778
 30
0.0
 11
28.89999999999964
 21
26.898018872506778
 31
0.0
  0
LINE
  5
CCD
  8
SAPA_PROFIL
 10
0.0
 20
7.5423461263493428
 30
0.0
 11
0.7604022489811914
 21
6.8928937264428161
 31
0.0
  0
POLYLINE
  5
CE0
  8
SAPA_GLAS
 66
     1
 10
0.0
 20
0.0
 30
0.0
  0
VERTEX
  5
1142
  8
SAPA_GLAS
 10
80.899999999994748
 20
51.099635932796332
 30
0.0
  0
VERTEX
  5
1143
  8
SAPA_GLAS
 10
50.899999999994741
 20
51.099635932796332
 30
0.0
  0
VERTEX
  5
1144
  8
SAPA_GLAS
 10
50.899999999994741
 20
55.099635932796332
 30
0.0
  0
VERTEX
  5
1145
  8
SAPA_GLAS
 10
80.899999999994748
 20
55.099635932796332
 30
0.0
  0
SEQEND
  5
1146
  8
SAPA_GLAS
  0
POLYLINE
  5
CE1
  8
SAPA_GLAS
 66
     1
 10
0.0
 20
0.0
 30
0.0
  0
VERTEX
  5
1147
  8
SAPA_GLAS
 10
80.899999999994748
 20
27.099635932796328
 30
0.0
  0
VERTEX
  5
1148
  8
SAPA_GLAS
 10
50.899999999994741
 20
27.099635932796328
 30
0.0
  0
VERTEX
  5
1149
  8
SAPA_GLAS
 10
50.899999999994741
 20
35.099635932796332
 30
0.0
  0
VERTEX
  5
114A
  8
SAPA_GLAS
 10
80.899999999994748
 20
35.099635932796332
 30
0.0
  0
SEQEND
  5
114B
  8
SAPA_GLAS
  0
POLYLINE
  5
CE2
  8
SAPA_GLAS
 66
     1
 10
0.0
 20
0.0
 30
0.0
  0
VERTEX
  5
114C
  8
SAPA_GLAS
 10
80.899999999995657
 20
71.099635932797923
 30
0.0
  0
VERTEX
  5
114D
  8
SAPA_GLAS
 10
50.899999999995657
 20
71.099635932797923
 30
0.0
  0
VERTEX
  5
114E
  8
SAPA_GLAS
 10
50.899999999995657
 20
77.099635932797923
 30
0.0
  0
VERTEX
  5
114F
  8
SAPA_GLAS
 10
80.899999999995657
 20
77.099635932797923
 30
0.0
  0
SEQEND
  5
1150
  8
SAPA_GLAS
  0
POLYLINE
  5
CE3
  8
SAPA_GLAS
 66
     1
 10
0.0
 20
0.0
 30
0.0
  0
VERTEX
  5
1151
  8
SAPA_GLAS
 10
60.899999999994741
 20
35.099635932797923
 30
0.0
  0
VERTEX
  5
1152
  8
SAPA_GLAS
 10
60.899999999994741
 20
51.099635932797923
 30
0.0
  0
VERTEX
  5
1153
  8
SAPA_GLAS
 10
50.899999999995657
 20
51.099635932797923
 30
0.0
  0
VERTEX
  5
1154
  8
SAPA_GLAS
 10
50.899999999995657
 20
35.099635932797923
 30
0.0
  0
VERTEX
  5
1155
  8
SAPA_GLAS
 10
60.899999999994741
 20
35.099635932797923
 30
0.0
  0
SEQEND
  5
1156
  8
SAPA_GLAS
  0
POLYLINE
  5
CE4
  8
SAPA_GLAS
 66
     1
 10
0.0
 20
0.0
 30
0.0
  0
VERTEX
  5
1157
  8
SAPA_GLAS
 10
60.899999999994741
 20
55.099635932797923
 30
0.0
  0
VERTEX
  5
1158
  8
SAPA_GLAS
 10
60.899999999994741
 20
71.099635932797923
 30
0.0
  0
VERTEX
  5
1159
  8
SAPA_GLAS
 10
50.899999999995657
 20
71.099635932797923
 30
0.0
  0
VERTEX
  5
115A
  8
SAPA_GLAS
 10
50.899999999995657
 20
55.099635932797923
 30
0.0
  0
VERTEX
  5
115B
  8
SAPA_GLAS
 10
60.899999999994741
 20
55.099635932797923
 30
0.0
  0
SEQEND
  5
115C
  8
SAPA_GLAS
  0
INSERT
  5
CEC
  8
SAPA_FYLLNING
  6
CONTINUOUS
  2
*X37
 10
0.0
 20
0.0
 30
0.0
1001
ACAD
1000
HATCH
1002
{
1070
    19
1000
HEX
1040
0.25
1040
1.5707963267948959
1000
R14_HATCH_DATA
1000
CEC
1011
1.0
1021
0.0
1031
0.0
1021
0.0
1031
0.0
1011
0.0
1021
0.0
1031
0.0
1021
1.0
1031
0.0
1011
0.0
1021
0.0
1031
0.0
1021
0.0
1031
1.0
1040
0.0
1010
0.0
1020
0.0
1030
1.0
1000
HEX
1070
     0
1070
     0
1071
        1
1071
        5
1071
        1
1070
     3
1040
7.4850405177967332
1040
192.01455787121549
1040
7.4013872152117974
1040
-0.0000000000000005
1040
0.5404392289838516
1040
0.0
1040
6.2831853071795862
1070
     0
1071
        0
1070
     0
1070
     1
1040
1.5707963267948959
1040
0.25
1070
     0
1070
     3
1040
1.5707963267948959
1040
8930.2499468381739
1040
-14711.755012855379
1040
-1.374814999999999
1040
0.0000000000000001
1070
     2
1040
0.79375
1040
-1.587499999999999
1040
3.6651914291880909
1040
8930.2499468381739
1040
-14711.755012855379
1040
0.6874074999999995
1040
-1.190624715503902
1070
     2
1040
0.7937499999999989
1040
-1.587499999999997
1040
2.6179938779914931
1040
8930.2499468381739
1040
-14710.96126285538
1040
-0.6874075000000002
1040
-1.190624715503902
1070
     2
1040
0.79375
1040
-1.587499999999999
1040
0.0689716451332303
1071
        1
1040
7.118773769845574
1040
190.88597420184399
1040
0.0
1002
}
  0
INSERT
  5
CED
  8
SAPA_FYLLNING
  6
CONTINUOUS
  2
*X38
 10
0.0
 20
0.0
 30
0.0
1001
ACAD
1000
HATCH
1002
{
1070
    19
1000
ANSI37
1040
0.25
1040
1.5707963267948959
1000
R14_HATCH_DATA
1000
CED
1011
1.0
1021
0.0
1031
0.0
1021
0.0
1031
0.0
1011
0.0
1021
0.0
1031
0.0
1021
1.0
1031
0.0
1011
0.0
1021
0.0
1031
0.0
1021
0.0
1031
1.0
1040
0.0
1010
0.0
1020
0.0
1030
1.0
1000
ANSI37
1070
     0
1070
     0
1071
        1
1071
        7
1070
     1
1070
     1
1071
        4
1040
14.899999999999631
1040
194.7134549791636
1040
0.0
1040
14.899999999999631
1040
209.59963593180609
1040
-0.2625797940973267
1040
0.1000000000003638
1040
209.59963593180609
1040
0.0
1040
0.1000000000003638
1040
194.7134549791655
1040
-0.2625797940972474
1071
        0
1070
     0
1070
     1
1040
1.5707963267948959
1040
0.25
1070
     0
1070
     2
1040
2.3561944901923439
1040
8930.2499468381739
1040
-14711.755012855379
1040
-0.5612660075668221
1040
-0.5612660075668221
1070
     0
1040
3.926990816987241
1040
8930.2499468381739
1040
-14711.755012855379
1040
0.5612660075668221
1040
-0.5612660075668221
1070
     0
1040
0.2777446059011853
1071
        1
1040
7.9983645695010628
1040
200.8803388615334
1040
0.0
1002
}
  0
INSERT
  5
CEE
  8
SAPA_FYLLNING
  6
CONTINUOUS
  2
*X39
 10
0.0
 20
0.0
 30
0.0
1001
ACAD
1000
HATCH
1002
{
1070
    19
1000
HEX
1040
0.5
1040
1.5707963267948959
1000
R14_HATCH_DATA
1000
CEE
1011
1.0
1021
0.0
1031
0.0
1021
0.0
1031
0.0
1011
0.0
1021
0.0
1031
0.0
1021
1.0
1031
0.0
1011
0.0
1021
0.0
1031
0.0
1021
0.0
1031
1.0
1040
0.0
1010
0.0
1020
0.0
1030
1.0
1000
HEX
1070
     0
1070
     0
1071
        1
1071
        7
1070
     0
1070
     1
1071
        4
1040
0.0
1040
39.185987402033341
1040
15.000000000000229
1040
39.185987402033341
1040
15.000000000000229
1040
59.185987402033327
1040
0.0
1040
59.185987402033327
1071
        0
1070
     0
1070
     1
1040
1.5707963267948959
1040
0.5
1070
     0
1070
     3
1040
1.5707963267948959
1040
8930.2499468381739
1040
-14748.573880672489
1040
-2.7496299999999989
1040
0.0000000000000002
1070
     2
1040
1.587499999999999
1040
-3.1749999999999989
1040
3.6651914291880909
1040
8930.2499468381739
1040
-14748.573880672489
1040
1.374814999999999
1040
-2.381249431007805
1070
     2
1040
1.5874999999999959
1040
-3.1749999999999932
1040
2.6179938779914931
1040
8930.2499468381739
1040
-14746.98638067249
1040
-1.3748149999999999
1040
-2.381249431007805
1070
     2
1040
1.587499999999999
1040
-3.1749999999999989
1040
0.2819629331102995
1071
        1
1040
5.2498153845026527
1040
51.135476348755667
1040
0.0
1002
}
  0
POLYLINE
  5
CFD
  8
SAPA_ISOLATOR
 66
     1
 10
0.0
 20
0.0
 30
0.0
 70
     1
  0
VERTEX
  5
13AD
  8
SAPA_ISOLATOR
 10
48.733947386144742
 20
67.364557878126334
 30
0.0
 42
0.2133140774071598
  0
VERTEX
  5
13AE
  8
SAPA_ISOLATOR
 10
49.399999999999189
 20
68.854720409864285
 30
0.0
  0
VERTEX
  5
13AF
  8
SAPA_ISOLATOR
 10
49.399999999999189
 20
69.026577318523209
 30
0.0
 42
-0.9999999999999998
  0
VERTEX
  5
13B0
  8
SAPA_ISOLATOR
 10
49.899999999999189
 20
69.026577318523209
 30
0.0
  0
VERTEX
  5
13B1
  8
SAPA_ISOLATOR
 10
49.899999999999189
 20
68.067452779236646
 30
0.0
 42
-0.2072397715914422
  0
VERTEX
  5
13B2
  8
SAPA_ISOLATOR
 10
49.110320933701928
 20
66.244048736316245
 30
0.0
 42
-0.1421101772925093
  0
VERTEX
  5
13B3
  8
SAPA_ISOLATOR
 10
44.899999999999189
 20
64.09963593279781
 30
0.0
  0
VERTEX
  5
13B4
  8
SAPA_ISOLATOR
 10
44.899999999999189
 20
65.911801177342795
 30
0.0
 42
0.1860725815673001
  0
SEQEND
  5
13B5
  8
SAPA_ISOLATOR
  0
POLYLINE
  5
CFE
  8
SAPA_ISOLATOR
 66
     1
 10
0.0
 20
0.0
 30
0.0
 70
     1
  0
VERTEX
  5
13B6
  8
SAPA_ISOLATOR
 10
31.066052613853518
 20
67.364557878126334
 30
0.0
 42
-0.2133140774071598
  0
VERTEX
  5
13B7
  8
SAPA_ISOLATOR
 10
30.399999999999071
 20
68.854720409864285
 30
0.0
  0
VERTEX
  5
13B8
  8
SAPA_ISOLATOR
 10
30.399999999999071
 20
69.026577318523209
 30
0.0
 42
0.9999999999999998
  0
VERTEX
  5
13B9
  8
SAPA_ISOLATOR
 10
29.899999999999071
 20
69.026577318523209
 30
0.0
  0
VERTEX
  5
13BA
  8
SAPA_ISOLATOR
 10
29.899999999999071
 20
68.067452779236646
 30
0.0
 42
0.2072397715914422
  0
VERTEX
  5
13BB
  8
SAPA_ISOLATOR
 10
30.689679066296321
 20
66.244048736316245
 30
0.0
 42
0.1421101772925093
  0
VERTEX
  5
13BC
  8
SAPA_ISOLATOR
 10
34.899999999999082
 20
64.09963593279781
 30
0.0
  0
VERTEX
  5
13BD
  8
SAPA_ISOLATOR
 10
34.899999999999082
 20
65.911801177342795
 30
0.0
 42
-0.1860725815673001
  0
SEQEND
  5
13BE
  8
SAPA_ISOLATOR
  0
POLYLINE
  5
CFF
  8
SAPA_ISOLATOR
 66
     1
 10
0.0
 20
0.0
 30
0.0
 70
     1
  0
VERTEX
  5
13BF
  8
SAPA_ISOLATOR
 10
31.066052613853518
 20
50.364557878126327
 30
0.0
 42
-0.2133140774071598
  0
VERTEX
  5
13C0
  8
SAPA_ISOLATOR
 10
30.399999999999071
 20
51.854720409864292
 30
0.0
  0
VERTEX
  5
13C1
  8
SAPA_ISOLATOR
 10
30.399999999999071
 20
52.026577318523209
 30
0.0
 42
0.9999999999999998
  0
VERTEX
  5
13C2
  8
SAPA_ISOLATOR
 10
29.899999999999071
 20
52.026577318523209
 30
0.0
  0
VERTEX
  5
13C3
  8
SAPA_ISOLATOR
 10
29.899999999999071
 20
51.067452779236639
 30
0.0
 42
0.2072397715914422
  0
VERTEX
  5
13C4
  8
SAPA_ISOLATOR
 10
30.689679066296321
 20
49.244048736316238
 30
0.0
 42
0.1421101772925093
  0
VERTEX
  5
13C5
  8
SAPA_ISOLATOR
 10
34.899999999999082
 20
47.099635932797803
 30
0.0
  0
VERTEX
  5
13C6
  8
SAPA_ISOLATOR
 10
34.899999999999082
 20
48.911801177342788
 30
0.0
 42
-0.1860725815673001
  0
SEQEND
  5
13C7
  8
SAPA_ISOLATOR
  0
POLYLINE
  5
D00
  8
SAPA_ISOLATOR
 66
     1
 10
0.0
 20
0.0
 30
0.0
 70
     1
  0
VERTEX
  5
13C8
  8
SAPA_ISOLATOR
 10
31.066052613853579
 20
33.364557878126789
 30
0.0
 42
-0.2133140774071598
  0
VERTEX
  5
13C9
  8
SAPA_ISOLATOR
 10
30.399999999999132
 20
34.85472040986474
 30
0.0
  0
VERTEX
  5
13CA
  8
SAPA_ISOLATOR
 10
30.399999999999132
 20
35.026577318523657
 30
0.0
 42
0.9999999999999998
  0
VERTEX
  5
13CB
  8
SAPA_ISOLATOR
 10
29.899999999999132
 20
35.026577318523657
 30
0.0
  0
VERTEX
  5
13CC
  8
SAPA_ISOLATOR
 10
29.899999999999132
 20
34.067452779237101
 30
0.0
 42
0.2072397715914422
  0
VERTEX
  5
13CD
  8
SAPA_ISOLATOR
 10
30.689679066296382
 20
32.244048736316699
 30
0.0
 42
0.1421101772925093
  0
VERTEX
  5
13CE
  8
SAPA_ISOLATOR
 10
34.899999999999132
 20
30.099635932798261
 30
0.0
  0
VERTEX
  5
13CF
  8
SAPA_ISOLATOR
 10
34.899999999999132
 20
31.91180117734325
 30
0.0
 42
-0.1860725815673001
  0
SEQEND
  5
13D0
  8
SAPA_ISOLATOR
  0
POLYLINE
  5
D01
  8
SAPA_ISOLATOR
 66
     1
 10
0.0
 20
0.0
 30
0.0
 70
     1
  0
VERTEX
  5
13D1
  8
SAPA_ISOLATOR
 10
48.733947386144742
 20
50.364557878126327
 30
0.0
 42
0.2133140774071598
  0
VERTEX
  5
13D2
  8
SAPA_ISOLATOR
 10
49.399999999999189
 20
51.854720409864292
 30
0.0
  0
VERTEX
  5
13D3
  8
SAPA_ISOLATOR
 10
49.399999999999189
 20
52.026577318523209
 30
0.0
 42
-0.9999999999999998
  0
VERTEX
  5
13D4
  8
SAPA_ISOLATOR
 10
49.899999999999189
 20
52.026577318523209
 30
0.0
  0
VERTEX
  5
13D5
  8
SAPA_ISOLATOR
 10
49.899999999999189
 20
51.067452779236639
 30
0.0
 42
-0.2072397715914422
  0
VERTEX
  5
13D6
  8
SAPA_ISOLATOR
 10
49.110320933701928
 20
49.244048736316238
 30
0.0
 42
-0.1421101772925093
  0
VERTEX
  5
13D7
  8
SAPA_ISOLATOR
 10
44.899999999999189
 20
47.099635932797803
 30
0.0
  0
VERTEX
  5
13D8
  8
SAPA_ISOLATOR
 10
44.899999999999189
 20
48.911801177342788
 30
0.0
 42
0.1860725815673001
  0
SEQEND
  5
13D9
  8
SAPA_ISOLATOR
  0
POLYLINE
  5
D02
  8
SAPA_ISOLATOR
 66
     1
 10
0.0
 20
0.0
 30
0.0
 70
     1
  0
VERTEX
  5
13DA
  8
SAPA_ISOLATOR
 10
48.733947386144678
 20
33.364557878126789
 30
0.0
 42
0.2133140774071598
  0
VERTEX
  5
13DB
  8
SAPA_ISOLATOR
 10
49.399999999999132
 20
34.85472040986474
 30
0.0
  0
VERTEX
  5
13DC
  8
SAPA_ISOLATOR
 10
49.399999999999132
 20
35.026577318523657
 30
0.0
 42
-0.9999999999999998
  0
VERTEX
  5
13DD
  8
SAPA_ISOLATOR
 10
49.899999999999132
 20
35.026577318523657
 30
0.0
  0
VERTEX
  5
13DE
  8
SAPA_ISOLATOR
 10
49.899999999999132
 20
34.067452779237101
 30
0.0
 42
-0.2072397715914422
  0
VERTEX
  5
13DF
  8
SAPA_ISOLATOR
 10
49.110320933701878
 20
32.244048736316699
 30
0.0
 42
-0.1421101772925093
  0
VERTEX
  5
13E0
  8
SAPA_ISOLATOR
 10
44.899999999999132
 20
30.099635932798261
 30
0.0
  0
VERTEX
  5
13E1
  8
SAPA_ISOLATOR
 10
44.899999999999132
 20
31.91180117734325
 30
0.0
 42
0.1860725815673001
  0
SEQEND
  5
13E2
  8
SAPA_ISOLATOR
  0
POLYLINE
  5
D03
  8
SAPA_ISOLATOR
 66
     1
 10
0.0
 20
0.0
 30
0.0
 70
     1
  0
VERTEX
  5
13E3
  8
SAPA_ISOLATOR
 10
36.487867965604842
 20
25.187503898218669
 30
0.0
 42
-0.1989123671061558
  0
VERTEX
  5
13E4
  8
SAPA_ISOLATOR
 10
36.275735931472127
 20
25.09963593279792
 30
0.0
  0
VERTEX
  5
13E5
  8
SAPA_ISOLATOR
 10
35.199999999999051
 20
25.099635932798041
 30
0.0
 42
-0.4142135623730605
  0
VERTEX
  5
13E6
  8
SAPA_ISOLATOR
 10
34.899999999999082
 20
25.399635932798049
 30
0.0
  0
VERTEX
  5
13E7
  8
SAPA_ISOLATOR
 10
34.899999999999082
 20
72.599635932797923
 30
0.0
 42
-0.4142135623730951
  0
VERTEX
  5
13E8
  8
SAPA_ISOLATOR
 10
35.399999999999189
 20
73.09963593279781
 30
0.0
  0
VERTEX
  5
13E9
  8
SAPA_ISOLATOR
 10
36.625735931287188
 20
73.099635932797923
 30
0.0
 42
0.1989123673796248
  0
VERTEX
  5
13EA
  8
SAPA_ISOLATOR
 10
36.837867965643177
 20
73.187503898441946
 30
0.0
  0
VERTEX
  5
13EB
  8
SAPA_ISOLATOR
 10
37.512132034355041
 20
73.86176796715381
 30
0.0
 42
0.1989123673796571
  0
VERTEX
  5
13EC
  8
SAPA_ISOLATOR
 10
37.599999999999064
 20
74.073900001509855
 30
0.0
  0
VERTEX
  5
13ED
  8
SAPA_ISOLATOR
 10
37.599999999999064
 20
78.504668891013239
 30
0.0
 42
-0.0912836897734216
  0
VERTEX
  5
13EE
  8
SAPA_ISOLATOR
 10
38.818641667808947
 20
80.624225924615189
 30
0.0
 42
-0.4396415083054796
  0
VERTEX
  5
13EF
  8
SAPA_ISOLATOR
 10
40.981358332189139
 20
80.624225924615303
 30
0.0
 42
-0.0912836897734209
  0
VERTEX
  5
13F0
  8
SAPA_ISOLATOR
 10
42.199999999999093
 20
78.504668891013239
 30
0.0
  0
VERTEX
  5
13F1
  8
SAPA_ISOLATOR
 10
42.199999999999093
 20
74.073900001509855
 30
0.0
 42
0.1989123673796602
  0
VERTEX
  5
13F2
  8
SAPA_ISOLATOR
 10
42.287867965643173
 20
73.86176796715381
 30
0.0
  0
VERTEX
  5
13F3
  8
SAPA_ISOLATOR
 10
42.962132034355022
 20
73.187503898441946
 30
0.0
 42
0.1989123673796276
  0
VERTEX
  5
13F4
  8
SAPA_ISOLATOR
 10
43.174264068711018
 20
73.099635932797923
 30
0.0
  0
VERTEX
  5
13F5
  8
SAPA_ISOLATOR
 10
44.399999999999132
 20
73.099635932797923
 30
0.0
 42
-0.4142135623730951
  0
VERTEX
  5
13F6
  8
SAPA_ISOLATOR
 10
44.899999999999132
 20
72.599635932797923
 30
0.0
  0
VERTEX
  5
13F7
  8
SAPA_ISOLATOR
 10
44.899999999999139
 20
25.399635932797992
 30
0.0
 42
-0.4142135623731471
  0
VERTEX
  5
13F8
  8
SAPA_ISOLATOR
 10
44.599999999999127
 20
25.09963593279798
 30
0.0
  0
VERTEX
  5
13F9
  8
SAPA_ISOLATOR
 10
43.524264068895953
 20
25.09963593279792
 30
0.0
 42
-0.1989123676531289
  0
VERTEX
  5
13FA
  8
SAPA_ISOLATOR
 10
43.31213203431674
 20
25.187503898665231
 30
0.0
  0
VERTEX
  5
13FB
  8
SAPA_ISOLATOR
 10
40.253553397215121
 20
28.2460825422047
 30
0.0
 42
0.4142135623730478
  0
VERTEX
  5
13FC
  8
SAPA_ISOLATOR
 10
39.546446616028568
 20
28.2460825422047
 30
0.0
  0
SEQEND
  5
13FD
  8
SAPA_ISOLATOR
  0
POLYLINE
  5
D04
  8
SAPA_ISOLATOR
 66
     1
 10
0.0
 20
0.0
 30
0.0
 70
     1
  0
VERTEX
  5
13FE
  8
SAPA_ISOLATOR
 10
41.187867965643143
 20
73.406133048543424
 30
0.0
 42
-0.198912367379658
  0
VERTEX
  5
13FF
  8
SAPA_ISOLATOR
 10
41.09999999999912
 20
73.61826508289937
 30
0.0
  0
VERTEX
  5
1400
  8
SAPA_ISOLATOR
 10
41.09999999999912
 20
78.269390821007391
 30
0.0
 42
0.0949127563617268
  0
VERTEX
  5
1401
  8
SAPA_ISOLATOR
 10
41.08584272839277
 20
78.343299415250442
 30
0.0
 42
0.0825355669758324
  0
VERTEX
  5
1402
  8
SAPA_ISOLATOR
 10
40.127916221363407
 20
79.929774184552628
 30
0.0
 42
0.4603672002713016
  0
VERTEX
  5
1403
  8
SAPA_ISOLATOR
 10
39.672083778634779
 20
79.929774184552628
 30
0.0
 42
0.08253556697594
  0
VERTEX
  5
1404
  8
SAPA_ISOLATOR
 10
38.714157271604883
 20
78.343299415248225
 30
0.0
 42
0.0949127563615792
  0
VERTEX
  5
1405
  8
SAPA_ISOLATOR
 10
38.699999999999079
 20
78.269390821005061
 30
0.0
  0
VERTEX
  5
1406
  8
SAPA_ISOLATOR
 10
38.699999999999079
 20
73.61826508289937
 30
0.0
 42
-0.1989123673796566
  0
VERTEX
  5
1407
  8
SAPA_ISOLATOR
 10
38.612132034355056
 20
73.406133048543552
 30
0.0
  0
VERTEX
  5
1408
  8
SAPA_ISOLATOR
 10
37.293502884253549
 20
72.087503898441923
 30
0.0
 42
-0.1989123673796571
  0
VERTEX
  5
1409
  8
SAPA_ISOLATOR
 10
37.081370849897617
 20
71.999635932797901
 30
0.0
  0
VERTEX
  5
140A
  8
SAPA_ISOLATOR
 10
36.299999999999109
 20
71.999635932797901
 30
0.0
 42
0.4142135623730395
  0
VERTEX
  5
140B
  8
SAPA_ISOLATOR
 10
35.999999999999098
 20
71.699635932797946
 30
0.0
  0
VERTEX
  5
140C
  8
SAPA_ISOLATOR
 10
35.999999999999091
 20
59.499635932797958
 30
0.0
 42
0.4142135623730673
  0
VERTEX
  5
140D
  8
SAPA_ISOLATOR
 10
36.299999999999102
 20
59.199635932798003
 30
0.0
  0
VERTEX
  5
140E
  8
SAPA_ISOLATOR
 10
43.499999999999091
 20
59.199635932798003
 30
0.0
 42
0.4142135623731228
  0
VERTEX
  5
140F
  8
SAPA_ISOLATOR
 10
43.799999999999073
 20
59.499635932797958
 30
0.0
  0
VERTEX
  5
1410
  8
SAPA_ISOLATOR
 10
43.799999999999109
 20
71.699635932797946
 30
0.0
 42
0.4142135623730743
  0
VERTEX
  5
1411
  8
SAPA_ISOLATOR
 10
43.499999999999147
 20
71.999635932797901
 30
0.0
  0
VERTEX
  5
1412
  8
SAPA_ISOLATOR
 10
42.71862915010059
 20
71.999635932797901
 30
0.0
 42
-0.1989123673796576
  0
VERTEX
  5
1413
  8
SAPA_ISOLATOR
 10
42.506497115744658
 20
72.087503898442037
 30
0.0
  0
SEQEND
  5
1414
  8
SAPA_ISOLATOR
  0
POLYLINE
  5
D05
  8
SAPA_ISOLATOR
 66
     1
 10
0.0
 20
0.0
 30
0.0
 70
     1
  0
VERTEX
  5
1415
  8
SAPA_ISOLATOR
 10
36.299999999999102
 20
58.09963593279798
 30
0.0
 42
0.4142135623731076
  0
VERTEX
  5
1416
  8
SAPA_ISOLATOR
 10
35.999999999999091
 20
57.799635932797912
 30
0.0
  0
VERTEX
  5
1417
  8
SAPA_ISOLATOR
 10
35.999999999999119
 20
42.499635932798007
 30
0.0
 42
0.4142135623730659
  0
VERTEX
  5
1418
  8
SAPA_ISOLATOR
 10
36.29999999999913
 20
42.19963593279806
 30
0.0
  0
VERTEX
  5
1419
  8
SAPA_ISOLATOR
 10
43.499999999999169
 20
42.199635932797939
 30
0.0
 42
0.414213562373041
  0
VERTEX
  5
141A
  8
SAPA_ISOLATOR
 10
43.799999999999123
 20
42.499635932798007
 30
0.0
  0
VERTEX
  5
141B
  8
SAPA_ISOLATOR
 10
43.799999999999102
 20
57.799635932797912
 30
0.0
 42
0.4142135623730784
  0
VERTEX
  5
141C
  8
SAPA_ISOLATOR
 10
43.499999999999147
 20
58.09963593279786
 30
0.0
  0
SEQEND
  5
141D
  8
SAPA_ISOLATOR
  0
POLYLINE
  5
D06
  8
SAPA_ISOLATOR
 66
     1
 10
0.0
 20
0.0
 30
0.0
 70
     1
  0
VERTEX
  5
141E
  8
SAPA_ISOLATOR
 10
36.29999999999913
 20
41.099635932797923
 30
0.0
 42
0.4142135623730659
  0
VERTEX
  5
141F
  8
SAPA_ISOLATOR
 10
35.999999999999119
 20
40.799635932797969
 30
0.0
  0
VERTEX
  5
1420
  8
SAPA_ISOLATOR
 10
35.999999999999098
 20
26.738113562369112
 30
0.0
 42
0.6681786375387276
  0
VERTEX
  5
1421
  8
SAPA_ISOLATOR
 10
36.341421356087572
 20
26.596692205982951
 30
0.0
  0
VERTEX
  5
1422
  8
SAPA_ISOLATOR
 10
38.768629157541973
 20
29.02390000232845
 30
0.0
 42
-0.4142135623730892
  0
VERTEX
  5
1423
  8
SAPA_ISOLATOR
 10
41.031370856520319
 20
29.023900001509901
 30
0.0
  0
VERTEX
  5
1424
  8
SAPA_ISOLATOR
 10
43.45857864361296
 20
26.596692209308351
 30
0.0
 42
0.6681786382998753
  0
VERTEX
  5
1425
  8
SAPA_ISOLATOR
 10
43.799999999999109
 20
26.738113565396819
 30
0.0
  0
VERTEX
  5
1426
  8
SAPA_ISOLATOR
 10
43.799999999999123
 20
40.799635932797848
 30
0.0
 42
0.4142135623730951
  0
VERTEX
  5
1427
  8
SAPA_ISOLATOR
 10
43.499999999999112
 20
41.099635932797923
 30
0.0
  0
SEQEND
  5
1428
  8
SAPA_ISOLATOR
  0
CIRCLE
  5
D18
  8
SAPA_FOGBAND
 10
21.2878679656427
 20
24.962067712042309
 30
0.0
 40
0.2549509756796394
  0
INSERT
  5
D19
  8
SAPA_FOGBAND
  6
CONTINUOUS
  2
*U42
 10
0.0
 20
0.0
 30
0.0
1001
ACAD
1002
{
1000
R14_HATCH_DATA
1000
D19
1011
1.0
1021
0.0
1031
0.0
1021
0.0
1031
0.0
1011
0.0
1021
0.0
1031
0.0
1021
1.0
1031
0.0
1011
0.0
1021
0.0
1031
0.0
1021
0.0
1031
1.0
1040
0.0
1010
0.0
1020
0.0
1030
1.0
1000
SOLID
1070
     1
1070
     1
1071
        1
1071
        1
1071
        1
1070
     2
1040
21.2878679656427
1040
24.962067712042309
1040
0.2549509756796394
1040
0.0
1040
6.2831853071795862
1070
     1
1071
        1
1005
D18
1070
     0
1070
     1
1071
        1
1040
21.051129064072601
1040
25.043919209371211
1040
0.0
1002
}
  0
POLYLINE
  5
D1A
  8
SAPA_FOGBAND
 66
     1
 10
0.0
 20
0.0
 30
0.0
 70
     1
  0
VERTEX
  5
1501
  8
SAPA_FOGBAND
 10
22.187867965642681
 20
21.999635932797791
 30
0.0
 42
0.9999999999999998
  0
VERTEX
  5
1502
  8
SAPA_FOGBAND
 10
20.38786796564273
 20
21.999635932797791
 30
0.0
  0
VERTEX
  5
1503
  8
SAPA_FOGBAND
 10
20.38786796564273
 20
21.399635932797771
 30
0.0
 42
0.9999999999999998
  0
VERTEX
  5
1504
  8
SAPA_FOGBAND
 10
22.187867965642681
 20
21.399635932797771
 30
0.0
  0
SEQEND
  5
1505
  8
SAPA_FOGBAND
  0
POLYLINE
  5
D1B
  8
SAPA_FOGBAND
 66
     1
 10
0.0
 20
0.0
 30
0.0
 70
     1
  0
VERTEX
  5
1506
  8
SAPA_FOGBAND
 10
12.659991657469501
 20
27.09963593279781
 30
0.0
 42
0.0775891054856093
  0
VERTEX
  5
1507
  8
SAPA_FOGBAND
 10
16.126773387892062
 20
26.78299994873646
 30
0.0
  0
VERTEX
  5
1508
  8
SAPA_FOGBAND
 10
16.36466288072085
 20
26.999635932797851
 30
0.0
 42
-0.5773502691896298
  0
VERTEX
  5
1509
  8
SAPA_FOGBAND
 10
16.711073042234709
 20
26.999635932797851
 30
0.0
  0
VERTEX
  5
150A
  8
SAPA_FOGBAND
 10
16.949120658965509
 20
26.7827260785748
 30
0.0
  0
VERTEX
  5
150B
  8
SAPA_FOGBAND
 10
17.726615268882139
 20
26.7827260785748
 30
0.0
  0
VERTEX
  5
150C
  8
SAPA_FOGBAND
 10
17.96466288072088
 20
26.999635932797851
 30
0.0
 42
-0.577350269189699
  0
VERTEX
  5
150D
  8
SAPA_FOGBAND
 10
18.311073042234622
 20
26.999635932797851
 30
0.0
  0
VERTEX
  5
150E
  8
SAPA_FOGBAND
 10
18.549120658965421
 20
26.7827260785748
 30
0.0
  0
VERTEX
  5
150F
  8
SAPA_FOGBAND
 10
19.326615268882161
 20
26.7827260785748
 30
0.0
  0
VERTEX
  5
1510
  8
SAPA_FOGBAND
 10
19.564662880720899
 20
26.999635932797851
 30
0.0
 42
-0.577350269189699
  0
VERTEX
  5
1511
  8
SAPA_FOGBAND
 10
19.911073042234651
 20
26.999635932797851
 30
0.0
  0
VERTEX
  5
1512
  8
SAPA_FOGBAND
 10
20.14912065896544
 20
26.7827260785748
 30
0.0
  0
VERTEX
  5
1513
  8
SAPA_FOGBAND
 10
20.926615268882191
 20
26.7827260785748
 30
0.0
  0
VERTEX
  5
1514
  8
SAPA_FOGBAND
 10
21.164662880720812
 20
26.999635932797851
 30
0.0
 42
-0.5773502691896298
  0
VERTEX
  5
1515
  8
SAPA_FOGBAND
 10
21.511073042234671
 20
26.999635932797851
 30
0.0
  0
VERTEX
  5
1516
  8
SAPA_FOGBAND
 10
21.74912065896547
 20
26.7827260785748
 30
0.0
  0
VERTEX
  5
1517
  8
SAPA_FOGBAND
 10
22.52661526888221
 20
26.7827260785748
 30
0.0
  0
VERTEX
  5
1518
  8
SAPA_FOGBAND
 10
22.764662880720842
 20
26.999635932797851
 30
0.0
 42
-0.5773502691896298
  0
VERTEX
  5
1519
  8
SAPA_FOGBAND
 10
23.11107304223469
 20
26.999635932797851
 30
0.0
  0
VERTEX
  5
151A
  8
SAPA_FOGBAND
 10
23.349120658965489
 20
26.7827260785748
 30
0.0
  0
VERTEX
  5
151B
  8
SAPA_FOGBAND
 10
24.12661527304715
 20
26.7827260785748
 30
0.0
  0
VERTEX
  5
151C
  8
SAPA_FOGBAND
 10
24.364662884885892
 20
26.999635932797851
 30
0.0
 42
-0.577350269189699
  0
VERTEX
  5
151D
  8
SAPA_FOGBAND
 10
24.71107304639963
 20
26.999635932797851
 30
0.0
  0
VERTEX
  5
151E
  8
SAPA_FOGBAND
 10
25.511073045954731
 20
25.926305864313349
 30
0.0
 42
-0.1316524987190269
  0
VERTEX
  5
151F
  8
SAPA_FOGBAND
 10
25.537867965642711
 20
25.82630586354265
 30
0.0
  0
VERTEX
  5
1520
  8
SAPA_FOGBAND
 10
25.537867965642821
 20
23.299635932797852
 30
0.0
 42
-0.4142135623730951
  0
VERTEX
  5
1521
  8
SAPA_FOGBAND
 10
25.337867965642769
 20
23.09963593279781
 30
0.0
  0
VERTEX
  5
1522
  8
SAPA_FOGBAND
 10
23.287867965642711
 20
23.09963593279781
 30
0.0
 42
0.4142135623730951
  0
VERTEX
  5
1523
  8
SAPA_FOGBAND
 10
22.7878679656427
 20
22.59963593279781
 30
0.0
  0
VERTEX
  5
1524
  8
SAPA_FOGBAND
 10
22.7878679656427
 20
21.872841013554648
 30
0.0
  0
VERTEX
  5
1525
  8
SAPA_FOGBAND
 10
23.039631774663231
 20
21.805381104244251
 30
0.0
 42
-0.4740571810232869
  0
VERTEX
  5
1526
  8
SAPA_FOGBAND
 10
23.16692563702679
 20
21.52309851860559
 30
0.0
  0
VERTEX
  5
1527
  8
SAPA_FOGBAND
 10
22.546825134268261
 20
20.07689238184582
 30
0.0
 42
-0.2846003776495916
  0
VERTEX
  5
1528
  8
SAPA_FOGBAND
 10
22.099180955808041
 20
19.799635932797852
 30
0.0
  0
VERTEX
  5
1529
  8
SAPA_FOGBAND
 10
20.476554975477491
 20
19.799635932797852
 30
0.0
 42
-0.2846003776495917
  0
VERTEX
  5
152A
  8
SAPA_FOGBAND
 10
20.028910797017261
 20
20.07689238184582
 30
0.0
  0
VERTEX
  5
152B
  8
SAPA_FOGBAND
 10
19.408810294258728
 20
21.52309851860559
 30
0.0
 42
-0.4740571810232869
  0
VERTEX
  5
152C
  8
SAPA_FOGBAND
 10
19.53610415662229
 20
21.805381104244251
 30
0.0
  0
VERTEX
  5
152D
  8
SAPA_FOGBAND
 10
19.7878679656427
 20
21.872841013554648
 30
0.0
  0
VERTEX
  5
152E
  8
SAPA_FOGBAND
 10
19.7878679656427
 20
22.59963593279781
 30
0.0
 42
0.4142135623730951
  0
VERTEX
  5
152F
  8
SAPA_FOGBAND
 10
19.2878679656427
 20
23.09963593279781
 30
0.0
  0
VERTEX
  5
1530
  8
SAPA_FOGBAND
 10
16.237867965642749
 20
23.09963593279781
 30
0.0
 42
0.4142135623730951
  0
VERTEX
  5
1531
  8
SAPA_FOGBAND
 10
16.0378679656427
 20
22.899635932797771
 30
0.0
  0
VERTEX
  5
1532
  8
SAPA_FOGBAND
 10
16.037867965642821
 20
21.999635932797791
 30
0.0
 42
-0.4142135623731784
  0
VERTEX
  5
1533
  8
SAPA_FOGBAND
 10
15.83786796564277
 20
21.799635932797859
 30
0.0
  0
VERTEX
  5
1534
  8
SAPA_FOGBAND
 10
15.13786796564273
 20
21.799635932797742
 30
0.0
 42
-0.4142135623730398
  0
VERTEX
  5
1535
  8
SAPA_FOGBAND
 10
14.83786796564277
 20
22.09963593279781
 30
0.0
  0
VERTEX
  5
1536
  8
SAPA_FOGBAND
 10
14.83786796564277
 20
22.910147709449351
 30
0.0
 42
0.1316524975873973
  0
VERTEX
  5
1537
  8
SAPA_FOGBAND
 10
14.56991877321161
 20
23.910147709449351
 30
0.0
  0
VERTEX
  5
1538
  8
SAPA_FOGBAND
 10
9.4070736231711862
 20
26.49971570154128
 30
0.0
 42
-0.7057658529986604
  0
VERTEX
  5
1539
  8
SAPA_FOGBAND
 10
9.6746667985295272
 20
27.09963593279781
 30
0.0
  0
SEQEND
  5
153A
  8
SAPA_FOGBAND
  0
POLYLINE
  5
D1C
  8
SAPA_FOGBAND
 66
     1
 10
0.0
 20
0.0
 30
0.0
 70
     1
  0
VERTEX
  5
153B
  8
SAPA_FOGBAND
 10
63.20132718451498
 20
89.299635932797514
 30
0.0
  0
VERTEX
  5
153C
  8
SAPA_FOGBAND
 10
55.901327184514798
 20
89.299635932797514
 30
0.0
 42
-0.4142135623730951
  0
VERTEX
  5
153D
  8
SAPA_FOGBAND
 10
55.401327184514798
 20
89.799635932797514
 30
0.0
  0
VERTEX
  5
153E
  8
SAPA_FOGBAND
 10
55.401327184514798
 20
90.099635932797469
 30
0.0
  0
VERTEX
  5
153F
  8
SAPA_FOGBAND
 10
58.101327184514503
 20
90.099635932797241
 30
0.0
 42
0.414213562373117
  0
VERTEX
  5
1540
  8
SAPA_FOGBAND
 10
58.601327184514503
 20
90.599635932797227
 30
0.0
  0
VERTEX
  5
1541
  8
SAPA_FOGBAND
 10
58.601327184514503
 20
91.326430852040517
 30
0.0
  0
VERTEX
  5
1542
  8
SAPA_FOGBAND
 10
58.349563375494419
 20
91.393890761350875
 30
0.0
 42
-0.4740571810233732
  0
VERTEX
  5
1543
  8
SAPA_FOGBAND
 10
58.222269513130982
 20
91.676173346989444
 30
0.0
  0
VERTEX
  5
1544
  8
SAPA_FOGBAND
 10
58.842370015888712
 20
93.122379483749285
 30
0.0
 42
-0.2846003776494633
  0
VERTEX
  5
1545
  8
SAPA_FOGBAND
 10
59.290014194349389
 20
93.399635932797423
 30
0.0
  0
VERTEX
  5
1546
  8
SAPA_FOGBAND
 10
60.912640174680519
 20
93.399635932797423
 30
0.0
 42
-0.2846003776496146
  0
VERTEX
  5
1547
  8
SAPA_FOGBAND
 10
61.360284353140401
 20
93.122379483749512
 30
0.0
  0
VERTEX
  5
1548
  8
SAPA_FOGBAND
 10
61.980384855898251
 20
91.676173346989401
 30
0.0
 42
-0.4740571810233364
  0
VERTEX
  5
1549
  8
SAPA_FOGBAND
 10
61.853090993534813
 20
91.393890761350875
 30
0.0
  0
VERTEX
  5
154A
  8
SAPA_FOGBAND
 10
61.601327184514503
 20
91.326430852040517
 30
0.0
  0
VERTEX
  5
154B
  8
SAPA_FOGBAND
 10
61.601327184514503
 20
90.599635932797227
 30
0.0
 42
0.4142135623731218
  0
VERTEX
  5
154C
  8
SAPA_FOGBAND
 10
62.101327184514609
 20
90.099635932797241
 30
0.0
  0
VERTEX
  5
154D
  8
SAPA_FOGBAND
 10
63.701327184514071
 20
90.099635932797398
 30
0.0
  0
VERTEX
  5
154E
  8
SAPA_FOGBAND
 10
63.70132718451498
 20
89.799635932799035
 30
0.0
 42
-0.4142135623739815
  0
SEQEND
  5
154F
  8
SAPA_FOGBAND
  0
POLYLINE
  5
D1D
  8
SAPA_FOGBAND
 10
62.164574318351711
 20
83.486422600180333
 30
0.0
 66
     1
 70
     8
  0
VERTEX
  8
SAPA_FOGBAND
  5
1639
 10
62.1646
 20
83.4864
 30
0.000000
  70
    32
  0
VERTEX
  8
SAPA_FOGBAND
  5
163A
 10
62.1594
 20
83.3703
 30
0.000000
  70
    32
  0
VERTEX
  8
SAPA_FOGBAND
  5
163B
 10
62.1464
 20
83.2544
 30
0.000000
  70
    32
  0
VERTEX
  8
SAPA_FOGBAND
  5
163C
 10
62.1254
 20
83.1393
 30
0.000000
  70
    32
  0
VERTEX
  8
SAPA_FOGBAND
  5
163D
 10
62.0966
 20
83.0250
 30
0.000000
  70
    32
  0
VERTEX
  8
SAPA_FOGBAND
  5
163E
 10
62.0600
 20
82.9120
 30
0.000000
  70
    32
  0
VERTEX
  8
SAPA_FOGBAND
  5
163F
 10
62.0157
 20
82.8003
 30
0.000000
  70
    32
  0
VERTEX
  8
SAPA_FOGBAND
  5
1640
 10
61.9638
 20
82.6905
 30
0.000000
  70
    32
  0
VERTEX
  8
SAPA_FOGBAND
  5
1641
 10
61.9045
 20
82.5826
 30
0.000000
  70
    32
  0
VERTEX
  8
SAPA_FOGBAND
  5
1642
 10
61.8378
 20
82.4770
 30
0.000000
  70
    32
  0
VERTEX
  8
SAPA_FOGBAND
  5
1643
 10
61.7640
 20
82.3739
 30
0.000000
  70
    32
  0
VERTEX
  8
SAPA_FOGBAND
  5
1644
 10
61.6832
 20
82.2735
 30
0.000000
  70
    32
  0
VERTEX
  8
SAPA_FOGBAND
  5
1645
 10
61.5956
 20
82.1762
 30
0.000000
  70
    32
  0
VERTEX
  8
SAPA_FOGBAND
  5
1646
 10
61.5015
 20
82.0821
 30
0.000000
  70
    32
  0
VERTEX
  8
SAPA_FOGBAND
  5
1647
 10
61.4009
 20
81.9914
 30
0.000000
  70
    32
  0
VERTEX
  8
SAPA_FOGBAND
  5
1648
 10
61.2943
 20
81.9045
 30
0.000000
  70
    32
  0
VERTEX
  8
SAPA_FOGBAND
  5
1649
 10
61.1819
 20
81.8214
 30
0.000000
  70
    32
  0
VERTEX
  8
SAPA_FOGBAND
  5
164A
 10
61.0638
 20
81.7424
 30
0.000000
  70
    32
  0
VERTEX
  8
SAPA_FOGBAND
  5
164B
 10
60.9405
 20
81.6677
 30
0.000000
  70
    32
  0
VERTEX
  8
SAPA_FOGBAND
  5
164C
 10
60.8121
 20
81.5974
 30
0.000000
  70
    32
  0
VERTEX
  8
SAPA_FOGBAND
  5
164D
 10
60.6791
 20
81.5318
 30
0.000000
  70
    32
  0
VERTEX
  8
SAPA_FOGBAND
  5
164E
 10
60.5417
 20
81.4710
 30
0.000000
  70
    32
  0
VERTEX
  8
SAPA_FOGBAND
  5
164F
 10
60.4003
 20
81.4151
 30
0.000000
  70
    32
  0
VERTEX
  8
SAPA_FOGBAND
  5
1650
 10
60.2552
 20
81.3643
 30
0.000000
  70
    32
  0
VERTEX
  8
SAPA_FOGBAND
  5
1651
 10
60.1067
 20
81.3186
 30
0.000000
  70
    32
  0
VERTEX
  8
SAPA_FOGBAND
  5
1652
 10
59.9553
 20
81.2783
 30
0.000000
  70
    32
  0
VERTEX
  8
SAPA_FOGBAND
  5
1653
 10
59.8012
 20
81.2434
 30
0.000000
  70
    32
  0
VERTEX
  8
SAPA_FOGBAND
  5
1654
 10
59.6449
 20
81.2139
 30
0.000000
  70
    32
  0
VERTEX
  8
SAPA_FOGBAND
  5
1655
 10
59.4866
 20
81.1900
 30
0.000000
  70
    32
  0
VERTEX
  8
SAPA_FOGBAND
  5
1656
 10
59.3269
 20
81.1717
 30
0.000000
  70
    32
  0
VERTEX
  8
SAPA_FOGBAND
  5
1657
 10
59.1661
 20
81.1591
 30
0.000000
  70
    32
  0
VERTEX
  8
SAPA_FOGBAND
  5
1658
 10
59.0046
 20
81.1522
 30
0.000000
  70
    32
  0
VERTEX
  8
SAPA_FOGBAND
  5
1659
 10
58.8427
 20
81.1509
 30
0.000000
  70
    32
  0
VERTEX
  8
SAPA_FOGBAND
  5
165A
 10
58.6809
 20
81.1554
 30
0.000000
  70
    32
  0
VERTEX
  8
SAPA_FOGBAND
  5
165B
 10
58.5196
 20
81.1656
 30
0.000000
  70
    32
  0
VERTEX
  8
SAPA_FOGBAND
  5
165C
 10
58.3590
 20
81.1814
 30
0.000000
  70
    32
  0
VERTEX
  8
SAPA_FOGBAND
  5
165D
 10
58.1997
 20
81.2028
 30
0.000000
  70
    32
  0
VERTEX
  8
SAPA_FOGBAND
  5
165E
 10
58.0420
 20
81.2299
 30
0.000000
  70
    32
  0
VERTEX
  8
SAPA_FOGBAND
  5
165F
 10
57.8863
 20
81.2624
 30
0.000000
  70
    32
  0
VERTEX
  8
SAPA_FOGBAND
  5
1660
 10
57.7330
 20
81.3004
 30
0.000000
  70
    32
  0
VERTEX
  8
SAPA_FOGBAND
  5
1661
 10
57.5823
 20
81.3438
 30
0.000000
  70
    32
  0
VERTEX
  8
SAPA_FOGBAND
  5
1662
 10
57.4348
 20
81.3923
 30
0.000000
  70
    32
  0
VERTEX
  8
SAPA_FOGBAND
  5
1663
 10
57.2907
 20
81.4461
 30
0.000000
  70
    32
  0
VERTEX
  8
SAPA_FOGBAND
  5
1664
 10
57.1504
 20
81.5048
 30
0.000000
  70
    32
  0
VERTEX
  8
SAPA_FOGBAND
  5
1665
 10
57.0143
 20
81.5683
 30
0.000000
  70
    32
  0
VERTEX
  8
SAPA_FOGBAND
  5
1666
 10
56.8826
 20
81.6366
 30
0.000000
  70
    32
  0
VERTEX
  8
SAPA_FOGBAND
  5
1667
 10
56.7557
 20
81.7093
 30
0.000000
  70
    32
  0
VERTEX
  8
SAPA_FOGBAND
  5
1668
 10
56.6339
 20
81.7865
 30
0.000000
  70
    32
  0
VERTEX
  8
SAPA_FOGBAND
  5
1669
 10
56.5174
 20
81.8678
 30
0.000000
  70
    32
  0
VERTEX
  8
SAPA_FOGBAND
  5
166A
 10
56.4066
 20
81.9531
 30
0.000000
  70
    32
  0
VERTEX
  8
SAPA_FOGBAND
  5
166B
 10
56.3018
 20
82.0422
 30
0.000000
  70
    32
  0
VERTEX
  8
SAPA_FOGBAND
  5
166C
 10
56.2031
 20
82.1348
 30
0.000000
  70
    32
  0
VERTEX
  8
SAPA_FOGBAND
  5
166D
 10
56.1108
 20
82.2308
 30
0.000000
  70
    32
  0
VERTEX
  8
SAPA_FOGBAND
  5
166E
 10
56.0252
 20
82.3298
 30
0.000000
  70
    32
  0
VERTEX
  8
SAPA_FOGBAND
  5
166F
 10
55.9464
 20
82.4318
 30
0.000000
  70
    32
  0
VERTEX
  8
SAPA_FOGBAND
  5
1670
 10
55.8746
 20
82.5363
 30
0.000000
  70
    32
  0
VERTEX
  8
SAPA_FOGBAND
  5
1671
 10
55.8101
 20
82.6433
 30
0.000000
  70
    32
  0
VERTEX
  8
SAPA_FOGBAND
  5
1672
 10
55.7529
 20
82.7523
 30
0.000000
  70
    32
  0
VERTEX
  8
SAPA_FOGBAND
  5
1673
 10
55.7032
 20
82.8632
 30
0.000000
  70
    32
  0
VERTEX
  8
SAPA_FOGBAND
  5
1674
 10
55.6612
 20
82.9756
 30
0.000000
  70
    32
  0
VERTEX
  8
SAPA_FOGBAND
  5
1675
 10
55.6268
 20
83.0894
 30
0.000000
  70
    32
  0
VERTEX
  8
SAPA_FOGBAND
  5
1676
 10
55.6003
 20
83.2042
 30
0.000000
  70
    32
  0
VERTEX
  8
SAPA_FOGBAND
  5
1677
 10
55.5816
 20
83.3198
 30
0.000000
  70
    32
  0
VERTEX
  8
SAPA_FOGBAND
  5
1678
 10
55.5709
 20
83.4358
 30
0.000000
  70
    32
  0
VERTEX
  8
SAPA_FOGBAND
  5
1679
 10
55.5680
 20
83.5521
 30
0.000000
  70
    32
  0
VERTEX
  8
SAPA_FOGBAND
  5
167A
 10
55.5732
 20
83.6682
 30
0.000000
  70
    32
  0
VERTEX
  8
SAPA_FOGBAND
  5
167B
 10
55.5862
 20
83.7841
 30
0.000000
  70
    32
  0
VERTEX
  8
SAPA_FOGBAND
  5
167C
 10
55.6072
 20
83.8992
 30
0.000000
  70
    32
  0
VERTEX
  8
SAPA_FOGBAND
  5
167D
 10
55.6360
 20
84.0135
 30
0.000000
  70
    32
  0
VERTEX
  8
SAPA_FOGBAND
  5
167E
 10
55.6726
 20
84.1266
 30
0.000000
  70
    32
  0
VERTEX
  8
SAPA_FOGBAND
  5
167F
 10
55.7169
 20
84.2382
 30
0.000000
  70
    32
  0
VERTEX
  8
SAPA_FOGBAND
  5
1680
 10
55.7688
 20
84.3480
 30
0.000000
  70
    32
  0
VERTEX
  8
SAPA_FOGBAND
  5
1681
 10
55.8281
 20
84.4559
 30
0.000000
  70
    32
  0
VERTEX
  8
SAPA_FOGBAND
  5
1682
 10
55.8948
 20
84.5615
 30
0.000000
  70
    32
  0
VERTEX
  8
SAPA_FOGBAND
  5
1683
 10
55.9686
 20
84.6646
 30
0.000000
  70
    32
  0
VERTEX
  8
SAPA_FOGBAND
  5
1684
 10
56.0494
 20
84.7650
 30
0.000000
  70
    32
  0
VERTEX
  8
SAPA_FOGBAND
  5
1685
 10
56.1370
 20
84.8623
 30
0.000000
  70
    32
  0
VERTEX
  8
SAPA_FOGBAND
  5
1686
 10
56.2312
 20
84.9564
 30
0.000000
  70
    32
  0
VERTEX
  8
SAPA_FOGBAND
  5
1687
 10
56.3317
 20
85.0471
 30
0.000000
  70
    32
  0
VERTEX
  8
SAPA_FOGBAND
  5
1688
 10
56.4383
 20
85.1340
 30
0.000000
  70
    32
  0
VERTEX
  8
SAPA_FOGBAND
  5
1689
 10
56.5507
 20
85.2171
 30
0.000000
  70
    32
  0
VERTEX
  8
SAPA_FOGBAND
  5
168A
 10
56.6688
 20
85.2961
 30
0.000000
  70
    32
  0
VERTEX
  8
SAPA_FOGBAND
  5
168B
 10
56.7921
 20
85.3708
 30
0.000000
  70
    32
  0
VERTEX
  8
SAPA_FOGBAND
  5
168C
 10
56.9205
 20
85.4411
 30
0.000000
  70
    32
  0
VERTEX
  8
SAPA_FOGBAND
  5
168D
 10
57.0535
 20
85.5067
 30
0.000000
  70
    32
  0
VERTEX
  8
SAPA_FOGBAND
  5
168E
 10
57.1909
 20
85.5675
 30
0.000000
  70
    32
  0
VERTEX
  8
SAPA_FOGBAND
  5
168F
 10
57.3323
 20
85.6234
 30
0.000000
  70
    32
  0
VERTEX
  8
SAPA_FOGBAND
  5
1690
 10
57.4774
 20
85.6742
 30
0.000000
  70
    32
  0
VERTEX
  8
SAPA_FOGBAND
  5
1691
 10
57.6259
 20
85.7199
 30
0.000000
  70
    32
  0
VERTEX
  8
SAPA_FOGBAND
  5
1692
 10
57.7773
 20
85.7602
 30
0.000000
  70
    32
  0
VERTEX
  8
SAPA_FOGBAND
  5
1693
 10
57.9314
 20
85.7951
 30
0.000000
  70
    32
  0
VERTEX
  8
SAPA_FOGBAND
  5
1694
 10
58.0878
 20
85.8246
 30
0.000000
  70
    32
  0
VERTEX
  8
SAPA_FOGBAND
  5
1695
 10
58.2460
 20
85.8485
 30
0.000000
  70
    32
  0
VERTEX
  8
SAPA_FOGBAND
  5
1696
 10
58.4057
 20
85.8668
 30
0.000000
  70
    32
  0
VERTEX
  8
SAPA_FOGBAND
  5
1697
 10
58.5665
 20
85.8794
 30
0.000000
  70
    32
  0
VERTEX
  8
SAPA_FOGBAND
  5
1698
 10
58.7280
 20
85.8863
 30
0.000000
  70
    32
  0
VERTEX
  8
SAPA_FOGBAND
  5
1699
 10
58.8899
 20
85.8876
 30
0.000000
  70
    32
  0
VERTEX
  8
SAPA_FOGBAND
  5
169A
 10
59.0517
 20
85.8831
 30
0.000000
  70
    32
  0
VERTEX
  8
SAPA_FOGBAND
  5
169B
 10
59.2131
 20
85.8730
 30
0.000000
  70
    32
  0
VERTEX
  8
SAPA_FOGBAND
  5
169C
 10
59.3736
 20
85.8571
 30
0.000000
  70
    32
  0
VERTEX
  8
SAPA_FOGBAND
  5
169D
 10
59.5329
 20
85.8357
 30
0.000000
  70
    32
  0
VERTEX
  8
SAPA_FOGBAND
  5
169E
 10
59.6906
 20
85.8086
 30
0.000000
  70
    32
  0
VERTEX
  8
SAPA_FOGBAND
  5
169F
 10
59.8463
 20
85.7761
 30
0.000000
  70
    32
  0
VERTEX
  8
SAPA_FOGBAND
  5
16A0
 10
59.9997
 20
85.7381
 30
0.000000
  70
    32
  0
VERTEX
  8
SAPA_FOGBAND
  5
16A1
 10
60.1503
 20
85.6947
 30
0.000000
  70
    32
  0
VERTEX
  8
SAPA_FOGBAND
  5
16A2
 10
60.2978
 20
85.6462
 30
0.000000
  70
    32
  0
VERTEX
  8
SAPA_FOGBAND
  5
16A3
 10
60.4419
 20
85.5924
 30
0.000000
  70
    32
  0
VERTEX
  8
SAPA_FOGBAND
  5
16A4
 10
60.5822
 20
85.5338
 30
0.000000
  70
    32
  0
VERTEX
  8
SAPA_FOGBAND
  5
16A5
 10
60.7183
 20
85.4702
 30
0.000000
  70
    32
  0
VERTEX
  8
SAPA_FOGBAND
  5
16A6
 10
60.8500
 20
85.4019
 30
0.000000
  70
    32
  0
VERTEX
  8
SAPA_FOGBAND
  5
16A7
 10
60.9769
 20
85.3292
 30
0.000000
  70
    32
  0
VERTEX
  8
SAPA_FOGBAND
  5
16A8
 10
61.0988
 20
85.2520
 30
0.000000
  70
    32
  0
VERTEX
  8
SAPA_FOGBAND
  5
16A9
 10
61.2152
 20
85.1707
 30
0.000000
  70
    32
  0
VERTEX
  8
SAPA_FOGBAND
  5
16AA
 10
61.3260
 20
85.0854
 30
0.000000
  70
    32
  0
VERTEX
  8
SAPA_FOGBAND
  5
16AB
 10
61.4309
 20
84.9963
 30
0.000000
  70
    32
  0
VERTEX
  8
SAPA_FOGBAND
  5
16AC
 10
61.5295
 20
84.9037
 30
0.000000
  70
    32
  0
VERTEX
  8
SAPA_FOGBAND
  5
16AD
 10
61.6218
 20
84.8077
 30
0.000000
  70
    32
  0
VERTEX
  8
SAPA_FOGBAND
  5
16AE
 10
61.7074
 20
84.7087
 30
0.000000
  70
    32
  0
VERTEX
  8
SAPA_FOGBAND
  5
16AF
 10
61.7862
 20
84.6067
 30
0.000000
  70
    32
  0
VERTEX
  8
SAPA_FOGBAND
  5
16B0
 10
61.8580
 20
84.5022
 30
0.000000
  70
    32
  0
VERTEX
  8
SAPA_FOGBAND
  5
16B1
 10
61.9225
 20
84.3952
 30
0.000000
  70
    32
  0
VERTEX
  8
SAPA_FOGBAND
  5
16B2
 10
61.9797
 20
84.2862
 30
0.000000
  70
    32
  0
VERTEX
  8
SAPA_FOGBAND
  5
16B3
 10
62.0294
 20
84.1753
 30
0.000000
  70
    32
  0
VERTEX
  8
SAPA_FOGBAND
  5
16B4
 10
62.0715
 20
84.0629
 30
0.000000
  70
    32
  0
VERTEX
  8
SAPA_FOGBAND
  5
16B5
 10
62.1058
 20
83.9491
 30
0.000000
  70
    32
  0
VERTEX
  8
SAPA_FOGBAND
  5
16B6
 10
62.1323
 20
83.8343
 30
0.000000
  70
    32
  0
VERTEX
  8
SAPA_FOGBAND
  5
16B7
 10
62.1510
 20
83.7187
 30
0.000000
  70
    32
  0
VERTEX
  8
SAPA_FOGBAND
  5
16B8
 10
62.1618
 20
83.6027
 30
0.000000
  70
    32
  0
VERTEX
  8
SAPA_FOGBAND
  5
16B9
 10
62.1646
 20
83.4864
 30
0.000000
  70
    32
  0
SEQEND
  8
SAPA_FOGBAND
  5
16BA
  0
POLYLINE
  5
D1E
  8
SAPA_FOGBAND
 66
     1
 10
0.0
 20
0.0
 30
0.0
 70
     1
  0
VERTEX
  5
1550
  8
SAPA_FOGBAND
 10
48.791324764994563
 20
79.286270434888479
 30
0.0
  0
VERTEX
  5
1551
  8
SAPA_FOGBAND
 10
51.792651927563952
 20
78.794318094998459
 30
0.0
 42
0.4464785874932524
  0
VERTEX
  5
1552
  8
SAPA_FOGBAND
 10
52.901327184514798
 20
79.788395400104363
 30
0.0
  0
VERTEX
  5
1553
  8
SAPA_FOGBAND
 10
52.901327184514798
 20
85.249488186207486
 30
0.0
 42
0.6226769977423571
  0
VERTEX
  5
1554
  8
SAPA_FOGBAND
 10
51.29065269790101
 20
86.041369914370875
 30
0.0
  0
VERTEX
  5
1555
  8
SAPA_FOGBAND
 10
48.289325535331614
 20
83.566334591853874
 30
0.0
 42
0.232531183213058
  0
VERTEX
  5
1556
  8
SAPA_FOGBAND
 10
47.900000021945402
 20
82.774452863690286
 30
0.0
  0
VERTEX
  5
1557
  8
SAPA_FOGBAND
 10
47.900000021945402
 20
80.280347739994227
 30
0.0
 42
0.3826682380870913
  0
SEQEND
  5
1558
  8
SAPA_FOGBAND
  0
POLYLINE
  5
D1F
  8
SAPA_FOGBAND
 66
     1
 10
0.0
 20
0.0
 30
0.0
 70
     1
  0
VERTEX
  5
1559
  8
SAPA_FOGBAND
 10
59.20132718451498
 20
91.799635932797287
 30
0.0
  0
VERTEX
  5
155A
  8
SAPA_FOGBAND
 10
59.20132718451498
 20
91.199635932797378
 30
0.0
 42
0.9999999999999998
  0
VERTEX
  5
155B
  8
SAPA_FOGBAND
 10
61.001327184515162
 20
91.199635932797378
 30
0.0
  0
VERTEX
  5
155C
  8
SAPA_FOGBAND
 10
61.001327184515162
 20
91.799635932797287
 30
0.0
 42
0.9999999999999998
  0
SEQEND
  5
155D
  8
SAPA_FOGBAND
  0
POLYLINE
  5
D20
  8
SAPA_FOGBAND
 66
     1
 10
0.0
 20
0.0
 30
0.0
  0
VERTEX
  5
155E
  8
SAPA_FOGBAND
 10
55.401327184514798
 20
90.099635932797469
 30
0.0
  0
VERTEX
  5
155F
  8
SAPA_FOGBAND
 10
55.073227633779993
 20
90.099635932797469
 30
0.0
 42
0.1657205760184635
  0
VERTEX
  5
1560
  8
SAPA_FOGBAND
 10
54.462553147166091
 20
89.891517660960844
 30
0.0
  0
VERTEX
  5
1561
  8
SAPA_FOGBAND
 10
45.094662756689672
 20
84.496932576104996
 30
0.0
 42
0.2325311832130381
  0
VERTEX
  5
1562
  8
SAPA_FOGBAND
 10
44.89999999999565
 20
84.100991712023074
 30
0.0
  0
VERTEX
  5
1563
  8
SAPA_FOGBAND
 10
44.901207502656689
 20
73.249635930381316
 30
0.0
 42
0.5543163197794524
  0
VERTEX
  5
1564
  8
SAPA_FOGBAND
 10
46.827153058179192
 20
72.255558625275555
 30
0.0
  0
VERTEX
  5
1565
  8
SAPA_FOGBAND
 10
50.156103750886132
 20
77.099635932797014
 30
0.0
  0
VERTEX
  5
1566
  8
SAPA_FOGBAND
 10
65.101327162565781
 20
77.099635932797071
 30
0.0
 42
0.425791769969346
  0
VERTEX
  5
1567
  8
SAPA_FOGBAND
 10
65.401094716163698
 20
77.411443295327786
 30
0.0
  0
VERTEX
  5
1568
  8
SAPA_FOGBAND
 10
64.913254901494497
 20
89.811443295328331
 30
0.0
 42
0.4027293761437539
  0
VERTEX
  5
1569
  8
SAPA_FOGBAND
 10
64.613487347896466
 20
90.099635932797469
 30
0.0
  0
VERTEX
  5
156A
  8
SAPA_FOGBAND
 10
63.701327184514071
 20
90.09963593280213
 30
0.0
  0
SEQEND
  5
156B
  8
SAPA_FOGBAND
  0
CIRCLE
  5
D21
  8
SAPA_FOGBAND
 10
58.529356795613118
 20
24.5711690764482
 30
0.0
 40
0.2549509756796394
  0
POLYLINE
  5
D22
  8
SAPA_FOGBAND
 66
     1
 10
0.0
 20
0.0
 30
0.0
 70
     1
  0
VERTEX
  5
156C
  8
SAPA_FOGBAND
 10
57.629356795613027
 20
21.999635932797329
 30
0.0
 42
-0.9999999999999998
  0
VERTEX
  5
156D
  8
SAPA_FOGBAND
 10
59.429356795612989
 20
21.999635932797329
 30
0.0
  0
VERTEX
  5
156E
  8
SAPA_FOGBAND
 10
59.429356795612989
 20
21.39963593279731
 30
0.0
 42
-0.9999999999999998
  0
VERTEX
  5
156F
  8
SAPA_FOGBAND
 10
57.629356795613027
 20
21.39963593279731
 30
0.0
  0
SEQEND
  5
1570
  8
SAPA_FOGBAND
  0
POLYLINE
  5
D23
  8
SAPA_FOGBAND
 66
     1
 10
0.0
 20
0.0
 30
0.0
 70
     1
  0
VERTEX
  5
1571
  8
SAPA_FOGBAND
 10
54.279356795613118
 20
25.435407227948531
 30
0.0
  0
VERTEX
  5
1572
  8
SAPA_FOGBAND
 10
54.279356795612898
 20
23.299635932797401
 30
0.0
 42
0.4142135623730951
  0
VERTEX
  5
1573
  8
SAPA_FOGBAND
 10
54.479356795612937
 20
23.099635932797359
 30
0.0
  0
VERTEX
  5
1574
  8
SAPA_FOGBAND
 10
56.529356795613133
 20
23.099635932797359
 30
0.0
 42
-0.4142135623730951
  0
VERTEX
  5
1575
  8
SAPA_FOGBAND
 10
57.029356795613133
 20
22.599635932797352
 30
0.0
  0
VERTEX
  5
1576
  8
SAPA_FOGBAND
 10
57.029356795613133
 20
21.872841013554201
 30
0.0
  0
VERTEX
  5
1577
  8
SAPA_FOGBAND
 10
56.777592986592587
 20
21.805381104243789
 30
0.0
 42
0.4740571810232154
  0
VERTEX
  5
1578
  8
SAPA_FOGBAND
 10
56.650299124229029
 20
21.523098518605138
 30
0.0
  0
VERTEX
  5
1579
  8
SAPA_FOGBAND
 10
57.270399626987569
 20
20.076892381845369
 30
0.0
 42
0.2846003776496056
  0
VERTEX
  5
157A
  8
SAPA_FOGBAND
 10
57.718043805447792
 20
19.799635932797401
 30
0.0
  0
VERTEX
  5
157B
  8
SAPA_FOGBAND
 10
59.340669785778232
 20
19.799635932797401
 30
0.0
 42
0.2846003776496054
  0
VERTEX
  5
157C
  8
SAPA_FOGBAND
 10
59.788313964238462
 20
20.076892381845369
 30
0.0
  0
VERTEX
  5
157D
  8
SAPA_FOGBAND
 10
60.40841446699698
 20
21.523098518605138
 30
0.0
 42
0.4740571810232154
  0
VERTEX
  5
157E
  8
SAPA_FOGBAND
 10
60.281120604633422
 20
21.805381104243789
 30
0.0
  0
VERTEX
  5
157F
  8
SAPA_FOGBAND
 10
60.029356795613118
 20
21.872841013554201
 30
0.0
  0
VERTEX
  5
1580
  8
SAPA_FOGBAND
 10
60.029356795613118
 20
22.599635932797352
 30
0.0
 42
-0.4142135623730951
  0
VERTEX
  5
1581
  8
SAPA_FOGBAND
 10
60.529356795613118
 20
23.099635932797359
 30
0.0
  0
VERTEX
  5
1582
  8
SAPA_FOGBAND
 10
63.57935679561308
 20
23.099635932797359
 30
0.0
 42
-0.4142135623730951
  0
VERTEX
  5
1583
  8
SAPA_FOGBAND
 10
63.779356795613118
 20
22.89963593279731
 30
0.0
  0
VERTEX
  5
1584
  8
SAPA_FOGBAND
 10
63.779356795612891
 20
21.999635932797329
 30
0.0
 42
0.4142135623730951
  0
VERTEX
  5
1585
  8
SAPA_FOGBAND
 10
63.979356795612937
 20
21.799635932797401
 30
0.0
  0
VERTEX
  5
1586
  8
SAPA_FOGBAND
 10
64.679356795612989
 20
21.79963593279729
 30
0.0
 42
0.4142135623730951
  0
VERTEX
  5
1587
  8
SAPA_FOGBAND
 10
64.979356795612944
 20
22.099635932797359
 30
0.0
  0
VERTEX
  5
1588
  8
SAPA_FOGBAND
 10
64.979356795612944
 20
22.910147709448889
 30
0.0
 42
-0.1316524975873982
  0
VERTEX
  5
1589
  8
SAPA_FOGBAND
 10
65.247305988044104
 20
23.910147709448889
 30
0.0
  0
VERTEX
  5
158A
  8
SAPA_FOGBAND
 10
69.218018525146249
 20
26.545514627793072
 30
0.0
 42
0.876976462992761
  0
VERTEX
  5
158B
  8
SAPA_FOGBAND
 10
69.11511293523597
 20
27.062855963909559
 30
0.0
  0
VERTEX
  5
158C
  8
SAPA_FOGBAND
 10
63.690451373363771
 20
26.509011167365319
 30
0.0
 42
-0.1353185728426623
  0
VERTEX
  5
158D
  8
SAPA_FOGBAND
 10
63.690451373363771
 20
26.509011167365319
 30
0.0
  0
VERTEX
  5
158E
  8
SAPA_FOGBAND
 10
63.452561880534972
 20
26.921047859765508
 30
0.0
 42
0.5773502691896196
  0
VERTEX
  5
158F
  8
SAPA_FOGBAND
 10
63.106151719021113
 20
26.921047859765508
 30
0.0
  0
VERTEX
  5
1590
  8
SAPA_FOGBAND
 10
62.868104102290197
 20
26.508737297203648
 30
0.0
  0
VERTEX
  5
1591
  8
SAPA_FOGBAND
 10
62.090609492373581
 20
26.508737297203648
 30
0.0
  0
VERTEX
  5
1592
  8
SAPA_FOGBAND
 10
61.852561880534829
 20
26.921047859765508
 30
0.0
 42
0.5773502691896196
  0
VERTEX
  5
1593
  8
SAPA_FOGBAND
 10
61.506151719021211
 20
26.921047859765508
 30
0.0
  0
VERTEX
  5
1594
  8
SAPA_FOGBAND
 10
61.268104102290302
 20
26.508737297203648
 30
0.0
  0
VERTEX
  5
1595
  8
SAPA_FOGBAND
 10
60.490609492373657
 20
26.508737297203648
 30
0.0
  0
VERTEX
  5
1596
  8
SAPA_FOGBAND
 10
60.252561880534927
 20
26.921047859765508
 30
0.0
 42
0.5773502691896196
  0
VERTEX
  5
1597
  8
SAPA_FOGBAND
 10
59.906151719021061
 20
26.921047859765508
 30
0.0
  0
VERTEX
  5
1598
  8
SAPA_FOGBAND
 10
59.668104102290378
 20
26.508737297203648
 30
0.0
  0
VERTEX
  5
1599
  8
SAPA_FOGBAND
 10
58.890609492373528
 20
26.508737297203648
 30
0.0
  0
VERTEX
  5
159A
  8
SAPA_FOGBAND
 10
58.652561880535018
 20
26.921047859765508
 30
0.0
 42
0.5773502691896196
  0
VERTEX
  5
159B
  8
SAPA_FOGBAND
 10
58.306151719021159
 20
26.921047859765508
 30
0.0
  0
VERTEX
  5
159C
  8
SAPA_FOGBAND
 10
58.068104102290249
 20
26.508737297203648
 30
0.0
  0
VERTEX
  5
159D
  8
SAPA_FOGBAND
 10
57.290609492373619
 20
26.508737297203648
 30
0.0
  0
VERTEX
  5
159E
  8
SAPA_FOGBAND
 10
57.052561880534881
 20
26.921047859765508
 30
0.0
 42
0.5773502691896196
  0
VERTEX
  5
159F
  8
SAPA_FOGBAND
 10
56.706151719021022
 20
26.921047859765508
 30
0.0
  0
VERTEX
  5
15A0
  8
SAPA_FOGBAND
 10
56.46810410229034
 20
26.508737297203648
 30
0.0
  0
VERTEX
  5
15A1
  8
SAPA_FOGBAND
 10
55.690609488208679
 20
26.508737297203648
 30
0.0
  0
VERTEX
  5
15A2
  8
SAPA_FOGBAND
 10
55.452561876369941
 20
26.921047859765508
 30
0.0
 42
0.5773502691896196
  0
VERTEX
  5
15A3
  8
SAPA_FOGBAND
 10
55.106151714856082
 20
26.921047859765508
 30
0.0
  0
VERTEX
  5
15A4
  8
SAPA_FOGBAND
 10
54.306151715301098
 20
25.53540722871924
 30
0.0
 42
0.1316524987190407
  0
SEQEND
  5
15A5
  8
SAPA_FOGBAND
  0
INSERT
  5
D24
  8
SAPA_FOGBAND
  6
CONTINUOUS
  2
*U43
 10
0.0
 20
0.0
 30
0.0
1001
ACAD
1002
{
1000
R14_HATCH_DATA
1000
D24
1011
1.0
1021
0.0
1031
0.0
1021
0.0
1031
0.0
1011
0.0
1021
0.0
1031
0.0
1021
1.0
1031
0.0
1011
0.0
1021
0.0
1031
0.0
1021
0.0
1031
1.0
1040
0.0
1010
0.0
1020
0.0
1030
1.0
1000
SOLID
1070
     1
1070
     1
1071
        1
1071
        1
1071
        1
1070
     2
1040
58.529356795613118
1040
24.5711690764482
1040
0.2549509756796394
1040
-3.1415926535897931
1040
3.1415926535897931
1070
     0
1071
        1
1005
D21
1070
     0
1070
     1
1071
        1
1040
58.766095697183232
1040
24.653020573777098
1040
0.0
1002
}
  0
VIEWPORT
  5
C4
 67
     1
  8
0
 10
160.5543545598442
 20
116.00969601843509
 30
0.0
 40
404.96977709277462
 41
256.8421457311839
 68
     1
 69
     1
1001
ACAD
1000
MVIEW
1002
{
1070
    16
1010
0.0
1020
0.0
1030
0.0
1010
0.0
1020
0.0
1030
1.0
1040
-1.5707963267948959
1040
256.8421457311839
1040
102.1562485694885
1040
-121.90624046325679
1040
50.0
1040
0.0
1040
0.0
1070
     0
1070
     0
1070
     1
1070
     1
1070
     0
1070
     0
1070
     0
1070
     0
1040
0.0
1040
0.0
1040
0.0
1040
10.0
1040
10.0
1040
10.0
1040
10.0
1070
     0
1002
{
1002
}
1002
}
  0
ENDSEC
  0
EOF
