  0
SECTION
  2
HEADER
  9
$ACADVER
  1
AC1009
  9
$INSBASE
 10
0.0
 20
0.0
 30
0.0
  9
$EXTMIN
 10
-144.50822640736479
 20
-85.700228228480455
 30
0.0
  9
$EXTMAX
 10
108.68481476691341
 20
75.302532676130895
 30
0.0
  9
$LIMMIN
 10
0.0
 20
0.0
  9
$LIMMAX
 10
790.0
 20
790.0
  9
$ORTHOMODE
 70
     0
  9
$REGENMODE
 70
     1
  9
$FILLMODE
 70
     1
  9
$QTEXTMODE
 70
     0
  9
$MIRRTEXT
 70
     1
  9
$DRAGMODE
 70
     2
  9
$LTSCALE
 40
4.0
  9
$OSMODE
 70
   167
  9
$ATTMODE
 70
     1
  9
$TEXTSIZE
 40
3.5
  9
$TRACEWID
 40
0.05
  9
$TEXTSTYLE
  7
ISO
  9
$CLAYER
  8
0
  9
$CELTYPE
  6
BYLAYER
  9
$CECOLOR
 62
   256
  9
$DIMSCALE
 40
0.0
  9
$DIMASZ
 40
3.0
  9
$DIMEXO
 40
1.5
  9
$DIMDLI
 40
10.0
  9
$DIMRND
 40
0.0
  9
$DIMDLE
 40
0.0
  9
$DIMEXE
 40
1.5
  9
$DIMTP
 40
0.0
  9
$DIMTM
 40
0.0
  9
$DIMTXT
 40
3.0
  9
$DIMCEN
 40
-5.0
  9
$DIMTSZ
 40
0.0
  9
$DIMTOL
 70
     0
  9
$DIMLIM
 70
     0
  9
$DIMTIH
 70
     0
  9
$DIMTOH
 70
     0
  9
$DIMSE1
 70
     0
  9
$DIMSE2
 70
     0
  9
$DIMTAD
 70
     1
  9
$DIMZIN
 70
     8
  9
$DIMBLK
  1

  9
$DIMASO
 70
     1
  9
$DIMSHO
 70
     1
  9
$DIMPOST
  1

  9
$DIMAPOST
  1

  9
$DIMALT
 70
     0
  9
$DIMALTD
 70
     0
  9
$DIMALTF
 40
25.399999999999999
  9
$DIMLFAC
 40
-1.0
  9
$DIMTOFL
 70
     1
  9
$DIMTVP
 40
0.0
  9
$DIMTIX
 70
     0
  9
$DIMSOXD
 70
     0
  9
$DIMSAH
 70
     0
  9
$DIMBLK1
  1

  9
$DIMBLK2
  1

  9
$DIMSTYLE
  2
MASKIN
  9
$DIMCLRD
 70
   256
  9
$DIMCLRE
 70
   256
  9
$DIMCLRT
 70
     2
  9
$DIMTFAC
 40
1.0
  9
$DIMGAP
 40
1.0
  9
$LUNITS
 70
     2
  9
$LUPREC
 70
     8
  9
$SKETCHINC
 40
0.1
  9
$FILLETRAD
 40
0.0
  9
$AUNITS
 70
     0
  9
$AUPREC
 70
     8
  9
$MENU
  1
ACAD
  9
$ELEVATION
 40
0.0
  9
$PELEVATION
 40
0.0
  9
$THICKNESS
 40
0.0
  9
$LIMCHECK
 70
     0
  9
$BLIPMODE
 70
     0
  9
$CHAMFERA
 40
0.0
  9
$CHAMFERB
 40
0.0
  9
$SKPOLY
 70
     0
  9
$TDCREATE
 40
2457435.6047598729
  9
$TDUPDATE
 40
2457795.6454674769
  9
$TDINDWG
 40
0.0460503819
  9
$TDUSRTIMER
 40
0.0460503819
  9
$USRTIMER
 70
     1
  9
$ANGBASE
 50
0.0
  9
$ANGDIR
 70
     0
  9
$PDMODE
 70
     0
  9
$PDSIZE
 40
0.0
  9
$PLINEWID
 40
0.0
  9
$COORDS
 70
     1
  9
$SPLFRAME
 70
     0
  9
$SPLINETYPE
 70
     6
  9
$SPLINESEGS
 70
     8
  9
$ATTDIA
 70
     1
  9
$ATTREQ
 70
     1
  9
$HANDLING
 70
     1
  9
$HANDSEED
  5
19A6
  9
$SURFTAB1
 70
     6
  9
$SURFTAB2
 70
     6
  9
$SURFTYPE
 70
     6
  9
$SURFU
 70
     6
  9
$SURFV
 70
     6
  9
$UCSNAME
  2

  9
$UCSORG
 10
0.0
 20
0.0
 30
0.0
  9
$UCSXDIR
 10
1.0
 20
0.0
 30
0.0
  9
$UCSYDIR
 10
0.0
 20
1.0
 30
0.0
  9
$PUCSNAME
  2

  9
$PUCSORG
 10
0.0
 20
0.0
 30
0.0
  9
$PUCSXDIR
 10
1.0
 20
0.0
 30
0.0
  9
$PUCSYDIR
 10
0.0
 20
1.0
 30
0.0
  9
$USERI1
 70
     0
  9
$USERI2
 70
     0
  9
$USERI3
 70
     0
  9
$USERI4
 70
     0
  9
$USERI5
 70
     0
  9
$USERR1
 40
0.0
  9
$USERR2
 40
0.0
  9
$USERR3
 40
0.0
  9
$USERR4
 40
0.0
  9
$USERR5
 40
0.0
  9
$WORLDVIEW
 70
     1
  9
$SHADEDGE
 70
     3
  9
$SHADEDIF
 70
    70
  9
$TILEMODE
 70
     1
  9
$MAXACTVP
 70
    16
  9
$PLIMCHECK
 70
     0
  9
$PEXTMIN
 10
1.0000000000000000E+020
 20
1.0000000000000000E+020
 30
1.0000000000000000E+020
  9
$PEXTMAX
 10
-1.0000000000000000E+020
 20
-1.0000000000000000E+020
 30
-1.0000000000000000E+020
  9
$PLIMMIN
 10
-5.069427490234375
 20
-5.8737497329711914
  9
$PLIMMAX
 10
291.89889526367187
 20
204.0995779037475
  9
$UNITMODE
 70
     0
  9
$VISRETAIN
 70
     1
  9
$PLINEGEN
 70
     0
  9
$PSLTSCALE
 70
     1
  0
ENDSEC
  0
SECTION
  2
TABLES
  0
TABLE
  2
VPORT
 70
     1
  0
VPORT
  2
*ACTIVE
 70
     0
 10
0.0
 20
0.0
 11
1.0
 21
1.0
 12
-17.912704089111941
 22
114.3095325275136
 13
0.0
 23
0.0
 14
1.0
 24
1.0
 15
0.0
 25
0.0
 16
0.0
 26
0.0
 36
1.0
 17
0.0
 27
0.0
 37
0.0
 40
259.14317114197308
 41
1.459044368600682
 42
50.0
 43
0.0
 44
0.0
 50
0.0
 51
0.0
 71
     0
 72
   100
 73
     1
 74
     1
 75
     0
 76
     0
 77
     0
 78
     0
  0
ENDTAB
  0
TABLE
  2
LTYPE
 70
    32
  0
LTYPE
  2
CONTINUOUS
 70
     0
  3
Solid line
 72
    65
 73
     0
 40
0.0
  0
LTYPE
  2
BYGG-014279$0$NEWDOT
 70
     0
  3
____ . ____ . ____ . ____ . ____ . ____ . ____
 72
    65
 73
     4
 40
2.0
 49
1.0
 49
-0.5
 49
0.0
 49
-0.5
  0
LTYPE
  2
BYGG-014279$0$ZIGZAG
 70
     0
  3
Zig zag /\/\/\/\/\/\/\/\/\/\/\/\/\/\/\/\/\/\/\/\/\/\/\/
 72
    65
 73
     4
 40
20.32254
 49
0.00254
 49
-5.0800000000000001
 49
-10.16
 49
-5.0800000000000001
  0
LTYPE
  2
BYGG-01482301$0$NEWDOT
 70
     0
  3
____ . ____ . ____ . ____ . ____ . ____ . ____
 72
    65
 73
     4
 40
2.0
 49
1.0
 49
-0.5
 49
0.0
 49
-0.5
  0
LTYPE
  2
BYGG-01482301$0$ZIGZAG
 70
     0
  3
Zig zag /\/\/\/\/\/\/\/\/\/\/\/\/\/\/\/\/\/\/\/\/\/\/\/
 72
    65
 73
     4
 40
20.32254
 49
0.00254
 49
-5.0800000000000001
 49
-10.16
 49
-5.0800000000000001
  0
LTYPE
  2
BYGG-021480$0$NEWDOT
 70
     0
  3
____ . ____ . ____ . ____ . ____ . ____ . ____
 72
    65
 73
     4
 40
2.0
 49
1.0
 49
-0.5
 49
0.0
 49
-0.5
  0
LTYPE
  2
BYGG-021480$0$DASHDOT
 70
     0
  3
__ . __ . __ . __ . __ . __ . __ . __ . __ . __
 72
    65
 73
     4
 40
1.0
 49
0.5
 49
-0.25
 49
0.0
 49
-0.25
  0
LTYPE
  2
BYGG-021480$0$DASHED
 70
     0
  3
__ __ __ __ __ __ __ __ __ __ __ __ __ __ __
 72
    65
 73
     2
 40
0.75
 49
0.5
 49
-0.25
  0
LTYPE
  2
BYGG-021480$0$PHANTOM
 70
     0
  3
Phantom ______  __  __  ______  __  __  ______
 72
    65
 73
     6
 40
63.5
 49
31.75
 49
-6.3499999999999988
 49
6.3499999999999988
 49
-6.3499999999999988
 49
6.3499999999999988
 49
-6.3499999999999988
  0
LTYPE
  2
BYGG-035293$0$NEWDOT
 70
     0
  3
____ . ____ . ____ . ____ . ____ . ____ . ____
 72
    65
 73
     4
 40
2.0
 49
1.0
 49
-0.5
 49
0.0
 49
-0.5
  0
LTYPE
  2
BYGG-035293$0$DASHDOT
 70
     0
  3
__ . __ . __ . __ . __ . __ . __ . __ . __ . __
 72
    65
 73
     4
 40
1.0
 49
0.5
 49
-0.25
 49
0.0
 49
-0.25
  0
LTYPE
  2
BYGG-035293$0$DASHED
 70
     0
  3
__ __ __ __ __ __ __ __ __ __ __ __ __ __ __
 72
    65
 73
     2
 40
0.75
 49
0.5
 49
-0.25
  0
LTYPE
  2
BYGG-035293$0$PHANTOM
 70
     0
  3
Phantom ______  __  __  ______  __  __  ______
 72
    65
 73
     6
 40
63.5
 49
31.75
 49
-6.3499999999999988
 49
6.3499999999999988
 49
-6.3499999999999988
 49
6.3499999999999988
 49
-6.3499999999999988
  0
LTYPE
  2
BYGG-020805$0$NEWDOT
 70
     0
  3
____ . ____ . ____ . ____ . ____ . ____ . ____
 72
    65
 73
     4
 40
2.0
 49
1.0
 49
-0.5
 49
0.0
 49
-0.5
  0
LTYPE
  2
BYGG-020805$0$DASHDOT
 70
     0
  3
__ . __ . __ . __ . __ . __ . __ . __ . __ . __
 72
    65
 73
     4
 40
1.0
 49
0.5
 49
-0.25
 49
0.0
 49
-0.25
  0
LTYPE
  2
BYGG-020805$0$DASHED
 70
     0
  3
__ __ __ __ __ __ __ __ __ __ __ __ __ __ __
 72
    65
 73
     2
 40
0.75
 49
0.5
 49
-0.25
  0
LTYPE
  2
BYGG-020805$0$PHANTOM
 70
     0
  3
Phantom ______  __  __  ______  __  __  ______
 72
    65
 73
     6
 40
63.5
 49
31.75
 49
-6.3499999999999988
 49
6.3499999999999988
 49
-6.3499999999999988
 49
6.3499999999999988
 49
-6.3499999999999988
  0
LTYPE
  2
BYGG-023714$0$NEWDOT
 70
     0
  3
____ . ____ . ____ . ____ . ____ . ____ . ____
 72
    65
 73
     4
 40
2.0
 49
1.0
 49
-0.5
 49
0.0
 49
-0.5
  0
LTYPE
  2
BYGG-023714$0$DASHDOT
 70
     0
  3
__ . __ . __ . __ . __ . __ . __ . __ . __ . __
 72
    65
 73
     4
 40
1.0
 49
0.5
 49
-0.25
 49
0.0
 49
-0.25
  0
LTYPE
  2
BYGG-023714$0$DASHED
 70
     0
  3
__ __ __ __ __ __ __ __ __ __ __ __ __ __ __
 72
    65
 73
     2
 40
0.75
 49
0.5
 49
-0.25
  0
LTYPE
  2
BYGG-023714$0$PHANTOM
 70
     0
  3
Phantom ______  __  __  ______  __  __  ______
 72
    65
 73
     6
 40
63.5
 49
31.75
 49
-6.3499999999999988
 49
6.3499999999999988
 49
-6.3499999999999988
 49
6.3499999999999988
 49
-6.3499999999999988
  0
LTYPE
  2
BYGG-023714$0$ZIGZAG
 70
     0
  3
Zig zag /\/\/\/\/\/\/\/\/\/\/\/\/\/\/\/\/\/\/\/\/\/\/\/
 72
    65
 73
     4
 40
20.32254
 49
0.00254
 49
-5.0800000000000001
 49
-10.16
 49
-5.0800000000000001
  0
LTYPE
  2
BYGG-025115$0$NEWDOT
 70
     0
  3
____ . ____ . ____ . ____ . ____ . ____ . ____
 72
    65
 73
     4
 40
2.0
 49
1.0
 49
-0.5
 49
0.0
 49
-0.5
  0
LTYPE
  2
BYGG-025115$0$DASHDOT
 70
     0
  3
__ . __ . __ . __ . __ . __ . __ . __ . __ . __
 72
    65
 73
     4
 40
1.0
 49
0.5
 49
-0.25
 49
0.0
 49
-0.25
  0
LTYPE
  2
BYGG-025115$0$DASHED
 70
     0
  3
__ __ __ __ __ __ __ __ __ __ __ __ __ __ __
 72
    65
 73
     2
 40
0.75
 49
0.5
 49
-0.25
  0
LTYPE
  2
BYGG-025115$0$PHANTOM
 70
     0
  3
Phantom ______  __  __  ______  __  __  ______
 72
    65
 73
     6
 40
63.5
 49
31.75
 49
-6.3499999999999988
 49
6.3499999999999988
 49
-6.3499999999999988
 49
6.3499999999999988
 49
-6.3499999999999988
  0
LTYPE
  2
DASHED
 70
     0
  3
__ __ __ __ __ __ __ __ __ __ __ __ __ __ __
 72
    65
 73
     2
 40
0.75
 49
0.5
 49
-0.25
  0
LTYPE
  2
DASHDOT
 70
     0
  3
__ . __ . __ . __ . __ . __ . __ . __ . __ . __
 72
    65
 73
     4
 40
1.0
 49
0.5
 49
-0.25
 49
0.0
 49
-0.25
  0
LTYPE
  2
NEWDOT
 70
     0
  3
____ . ____ . ____ . ____ . ____ . ____ . ____
 72
    65
 73
     4
 40
2.0
 49
1.0
 49
-0.5
 49
0.0
 49
-0.5
  0
LTYPE
  2
PHANTOM
 70
     0
  3
Phantom ______  __  __  ______  __  __  ______
 72
    65
 73
     6
 40
63.5
 49
31.75
 49
-6.3499999999999988
 49
6.3499999999999988
 49
-6.3499999999999988
 49
6.3499999999999988
 49
-6.3499999999999988
  0
LTYPE
  2
ZIGZAG
 70
     0
  3
Zig zag /\/\/\/\/\/\/\/\/\/\/\/\/\/\/\/\/\/\/\/\/\/\/\/
 72
    65
 73
     4
 40
20.32254
 49
0.00254
 49
-5.0800000000000001
 49
-10.16
 49
-5.0800000000000001
  0
LTYPE
  2
BYGG-035294$0$PHANTOM2
 70
     0
  3
Phantom (.5x) ___ _ _ ___ _ _ ___ _ _ ___ _ _
 72
    65
 73
     6
 40
1.25
 49
0.625
 49
-0.125
 49
0.125
 49
-0.125
 49
0.125
 49
-0.125
  0
ENDTAB
  0
TABLE
  2
LAYER
 70
   214
  0
LAYER
  2
0
 70
     0
 62
     7
  6
CONTINUOUS
  0
LAYER
  2
SAPA_FYLLNING
 70
     0
 62
     4
  6
CONTINUOUS
  0
LAYER
  2
SAPA_ANSLUTNING
 70
     0
 62
     6
  6
CONTINUOUS
  0
LAYER
  2
SAPA_PROFIL
 70
     0
 62
     7
  6
CONTINUOUS
  0
LAYER
  2
SAPA_FOGBAND
 70
     0
 62
     2
  6
CONTINUOUS
  0
LAYER
  2
SAPA_ISOLATOR
 70
     0
 62
     4
  6
CONTINUOUS
  0
ENDTAB
  0
TABLE
  2
STYLE
 70
    32
  0
STYLE
  2
STANDARD
 70
     0
 40
0.0
 41
1.0
 50
0.0
 71
     0
 42
0.2
  3
txt
  4

  0
STYLE
  2
ISO
 70
     0
 40
0.0
 41
1.0
 50
0.0
 71
     0
 42
3.5
  3
txt
  4

  0
STYLE
  2
ANNOTATIVE
 70
     0
 40
0.0
 41
1.0
 50
0.0
 71
     0
 42
0.2
  3
txt
  4

  0
STYLE
  2

 70
     1
 40
0.0
 41
1.0
 50
0.0
 71
     0
 42
0.2
  3
ltypeshp.shx
  4

  0
STYLE
  2
BYGG-021582$0$STANDARD
 70
     0
 40
0.0
 41
1.0
 50
0.0
 71
     0
 42
0.2
  3
txt
  4

  0
STYLE
  2
BYGG-021582$0$ISO
 70
     0
 40
0.0
 41
1.0
 50
0.0
 71
     0
 42
3.5
  3
isocp3.shx
  4

  0
STYLE
  2
BYGG-014279$0$STANDARD
 70
     0
 40
0.0
 41
1.0
 50
0.0
 71
     0
 42
0.2
  3
TXT.shx
  4

  0
STYLE
  2
BYGG-014279$0$ISO
 70
     0
 40
0.0
 41
1.0
 50
0.0
 71
     0
 42
3.5
  3
iso
  4

  0
STYLE
  2
BYGG-021667$0$STANDARD
 70
     0
 40
0.0
 41
1.0
 50
0.0
 71
     0
 42
0.2
  3
txt
  4

  0
STYLE
  2
BYGG-021667$0$ISO
 70
     0
 40
0.0
 41
1.0
 50
0.0
 71
     0
 42
3.5
  3
isocp3.shx
  4

  0
STYLE
  2
BYGG-01482301$0$STANDARD
 70
     0
 40
0.0
 41
1.0
 50
0.0
 71
     0
 42
0.2
  3
txt
  4

  0
STYLE
  2
BYGG-01482301$0$ISO
 70
     0
 40
0.0
 41
1.0
 50
0.0
 71
     0
 42
3.5
  3
isocp3.shx
  4

  0
STYLE
  2
BYGG-022681$0$STANDARD
 70
     0
 40
0.0
 41
1.0
 50
0.0
 71
     0
 42
0.2
  3
txt
  4

  0
STYLE
  2
BYGG-022681$0$ISO
 70
     0
 40
0.0
 41
1.0
 50
0.0
 71
     0
 42
3.5
  3
txt
  4

  0
STYLE
  2
BYGG-014306$0$STANDARD
 70
     0
 40
0.0
 41
1.0
 50
0.0
 71
     0
 42
0.2
  3
txt
  4

  0
STYLE
  2
BYGG-035294$0$STANDARD
 70
     0
 40
0.0
 41
1.0
 50
0.0
 71
     0
 42
0.2
  3
txt
  4

  0
STYLE
  2
BYGG-035294$0$ISO
 70
     0
 40
0.0
 41
1.0
 50
0.0
 71
     0
 42
3.5
  3
txt
  4

  0
STYLE
  2
BYGG-035294$0$ANNOTATIVE
 70
     0
 40
0.0
 41
1.0
 50
0.0
 71
     0
 42
0.2
  3
txt
  4

  0
STYLE
  2
BYGG-021480$0$STANDARD
 70
     0
 40
0.0
 41
1.0
 50
0.0
 71
     0
 42
0.2
  3
txt
  4

  0
STYLE
  2
BYGG-021480$0$ISO
 70
     0
 40
0.0
 41
1.0
 50
0.0
 71
     0
 42
3.5
  3
txt
  4

  0
STYLE
  2
BYGG-021480$0$ROMANS
 70
     0
 40
0.0
 41
1.0
 50
0.0
 71
     0
 42
3.5
  3
romans.shx
  4

  0
STYLE
  2
BYGG-035293$0$STANDARD
 70
     0
 40
0.0
 41
1.0
 50
0.0
 71
     0
 42
0.2
  3
txt
  4

  0
STYLE
  2
BYGG-035293$0$ISO
 70
     0
 40
0.0
 41
1.0
 50
0.0
 71
     0
 42
3.5
  3
txt
  4

  0
STYLE
  2
BYGG-014117$0$STANDARD
 70
     0
 40
0.0
 41
1.0
 50
0.0
 71
     0
 42
0.2
  3
txt
  4

  0
STYLE
  2
BYGG-014117$0$ISO
 70
     0
 40
0.0
 41
1.0
 50
0.0
 71
     0
 42
3.5
  3
isocp3.shx
  4

  0
STYLE
  2
BYGG-023714$0$STANDARD
 70
     0
 40
0.0
 41
1.0
 50
0.0
 71
     0
 42
0.2
  3
txt
  4

  0
STYLE
  2
BYGG-023714$0$ISO
 70
     0
 40
0.0
 41
1.0
 50
0.0
 71
     0
 42
3.5
  3
txt
  4

  0
STYLE
  2
BYGG-020805$0$STANDARD
 70
     0
 40
0.0
 41
1.0
 50
0.0
 71
     0
 42
0.2
  3
txt
  4

  0
STYLE
  2
BYGG-020805$0$ISO
 70
     0
 40
0.0
 41
1.0
 50
0.0
 71
     0
 42
3.5
  3
txt
  4

  0
STYLE
  2
BYGG-025115$0$STANDARD
 70
     0
 40
0.0
 41
1.0
 50
0.0
 71
     0
 42
0.2
  3
txt
  4

  0
STYLE
  2
BYGG-025115$0$ISO
 70
     0
 40
0.0
 41
1.0
 50
0.0
 71
     0
 42
3.5
  3
txt
  4

  0
ENDTAB
  0
TABLE
  2
VIEW
 70
     0
  0
ENDTAB
  0
TABLE
  2
UCS
 70
     0
  0
ENDTAB
  0
TABLE
  2
APPID
 70
    27
  0
APPID
  2
ACAD
 70
     0
  0
APPID
  2
ACAD_DSTYLE_DIMTEXT_FILL
 70
     0
  0
APPID
  2
ACAD_DSTYLE_DIMEXT_LENGTH
 70
     0
  0
APPID
  2
ACAD_DSTYLE_DIMEXT_ENABLED
 70
     0
  0
APPID
  2
ACAD_DSTYLE_DIM_LINETYPE
 70
     0
  0
APPID
  2
ACAD_DSTYLE_DIM_EXT1_LINETYPE
 70
     0
  0
APPID
  2
ACAD_DSTYLE_DIM_EXT2_LINETYPE
 70
     0
  0
APPID
  2
ACAD_DSTYLE_DIMJOGGED_JOGA
 70
     0
  0
APPID
  2
ACAD_DSTYLE_DIMARC_LENGTH_
 70
     0
  0
APPID
  2
ACAD_PSEXT
 70
     0
  0
APPID
  2
ACAD_MLEADERVER
 70
     0
  0
APPID
  2
ACAD_NAV_VCDISPLAY
 70
     0
  0
APPID
  2
AMG_ARCHIVE11
 70
     0
  0
APPID
  2
ACAD_EXEMPT_FROM_CAD_STANDARDS
 70
     0
  0
APPID
  2
ACADANNOTATIVE
 70
     0
  0
APPID
  2
ACAECLAYERSTANDARD
 70
     0
  0
APPID
  2
DCO15
 70
     0
  0
APPID
  2
ACAD_DSTYLE_DIMJAG
 70
     0
  0
APPID
  2
ACAD_DSTYLE_DIMBREAK
 70
     0
  0
APPID
  2
ACAD_DSTYLE_DIMTALN
 70
     0
  0
APPID
  2
ACDBDYNAMICBLOCKGUID
 70
     0
  0
APPID
  2
ACDBBLOCKREPETAG
 70
     0
  0
APPID
  2
AME_SOL
 70
     0
  0
APPID
  2
ACCMTRANSPARENCY
 70
     0
  0
APPID
  2
ACAUTHENVIRON
 70
     0
  0
APPID
  2
ACDBDYNAMICBLOCKTRUENAME
 70
     0
  0
APPID
  2
AEC_XDATA_BOUND_SPACE
 70
     0
  0
ENDTAB
  0
TABLE
  2
DIMSTYLE
 70
    27
  0
DIMSTYLE
  2
STANDARD
 70
     0
  3

  4

  5

  6

  7

 40
1.0
 41
0.18
 42
0.0625
 43
0.38
 44
0.18
 45
0.0
 46
0.0
 47
0.0
 48
0.0
140
0.18
141
0.09
142
0.0
143
25.399999999999999
144
1.0
145
0.0
146
1.0
147
0.09
 71
     0
 72
     0
 73
     1
 74
     1
 75
     0
 76
     0
 77
     0
 78
     0
170
     0
171
     2
172
     0
173
     0
174
     0
175
     0
176
     0
177
     0
178
     0
  0
DIMSTYLE
  2
MASKIN
 70
     0
  3

  4

  5

  6

  7

 40
0.0
 41
3.0
 42
1.5
 43
10.0
 44
1.5
 45
0.0
 46
0.0
 47
0.0
 48
0.0
140
3.0
141
-5.0
142
0.0
143
25.399999999999999
144
-1.0
145
0.0
146
1.0
147
1.0
 71
     0
 72
     0
 73
     0
 74
     0
 75
     0
 76
     0
 77
     1
 78
     8
170
     0
171
     0
172
     1
173
     0
174
     0
175
     0
176
   256
177
   256
178
     2
  0
DIMSTYLE
  2
ANNOTATIVE
 70
     0
  3

  4

  5

  6

  7

 40
1.0
 41
0.18
 42
0.0625
 43
0.38
 44
0.18
 45
0.0
 46
0.0
 47
0.0
 48
0.0
140
0.18
141
0.09
142
0.0
143
25.399999999999999
144
1.0
145
0.0
146
1.0
147
0.09
 71
     0
 72
     0
 73
     1
 74
     1
 75
     0
 76
     0
 77
     0
 78
     0
170
     0
171
     2
172
     0
173
     0
174
     0
175
     0
176
     0
177
     0
178
     0
  0
DIMSTYLE
  2
BYGG-021582$0$MASKIN
 70
     0
  3

  4

  5

  6

  7

 40
0.0
 41
3.0
 42
1.5
 43
10.0
 44
1.5
 45
0.0
 46
0.0
 47
0.0
 48
0.0
140
3.0
141
-5.0
142
0.0
143
25.399999999999999
144
-1.0
145
0.0
146
1.0
147
1.0
 71
     0
 72
     0
 73
     0
 74
     0
 75
     0
 76
     0
 77
     1
 78
     8
170
     0
171
     0
172
     1
173
     0
174
     0
175
     0
176
   256
177
   256
178
   256
  0
DIMSTYLE
  2
BYGG-014279$0$STANDARD
 70
     0
  3

  4

  5

  6

  7

 40
1.0
 41
0.18
 42
0.0625
 43
0.38
 44
0.18
 45
0.0
 46
0.0
 47
0.0
 48
0.0
140
0.18
141
0.09
142
0.0
143
25.399999999999999
144
1.0
145
0.0
146
1.0
147
0.09
 71
     0
 72
     0
 73
     1
 74
     1
 75
     0
 76
     0
 77
     0
 78
     0
170
     0
171
     2
172
     0
173
     0
174
     0
175
     0
176
     0
177
     0
178
     0
  0
DIMSTYLE
  2
BYGG-014279$0$MASKIN
 70
     0
  3

  4

  5

  6

  7

 40
0.0
 41
3.0
 42
1.5
 43
10.0
 44
1.5
 45
0.0
 46
0.0
 47
0.0
 48
0.0
140
3.0
141
-5.0
142
0.0
143
25.399999999999999
144
-1.0
145
0.0
146
1.0
147
1.0
 71
     0
 72
     0
 73
     0
 74
     1
 75
     0
 76
     0
 77
     1
 78
     8
170
     0
171
     0
172
     1
173
     0
174
     0
175
     0
176
   256
177
   256
178
     2
  0
DIMSTYLE
  2
BYGG-021667$0$MASKIN
 70
     0
  3

  4

  5

  6

  7

 40
0.0
 41
3.0
 42
1.5
 43
10.0
 44
1.5
 45
0.0
 46
0.0
 47
0.0
 48
0.0
140
3.0
141
-5.0
142
0.0
143
25.399999999999999
144
-1.0
145
0.0
146
1.0
147
1.0
 71
     0
 72
     0
 73
     0
 74
     0
 75
     0
 76
     0
 77
     1
 78
     8
170
     0
171
     0
172
     1
173
     0
174
     0
175
     0
176
   256
177
   256
178
   256
  0
DIMSTYLE
  2
BYGG-01482301$0$STANDARD
 70
     0
  3

  4

  5

  6

  7

 40
1.0
 41
0.18
 42
0.0625
 43
0.38
 44
0.18
 45
0.0
 46
0.0
 47
0.0
 48
0.0
140
0.18
141
0.09
142
0.0
143
25.399999999999999
144
1.0
145
0.0
146
1.0
147
0.09
 71
     0
 72
     0
 73
     1
 74
     1
 75
     0
 76
     0
 77
     0
 78
     0
170
     0
171
     2
172
     0
173
     0
174
     0
175
     0
176
     0
177
     0
178
     0
  0
DIMSTYLE
  2
BYGG-01482301$0$MASKIN
 70
     0
  3

  4

  5

  6

  7

 40
0.0
 41
3.0
 42
1.5
 43
10.0
 44
1.5
 45
0.0
 46
0.0
 47
0.0
 48
0.0
140
3.0
141
-5.0
142
0.0
143
25.399999999999999
144
-1.0
145
0.0
146
1.0
147
1.0
 71
     0
 72
     0
 73
     0
 74
     1
 75
     0
 76
     0
 77
     1
 78
     8
170
     0
171
     0
172
     1
173
     0
174
     0
175
     0
176
   256
177
   256
178
     2
  0
DIMSTYLE
  2
BYGG-022681$0$STANDARD
 70
     0
  3

  4

  5

  6

  7

 40
1.0
 41
0.18
 42
0.0625
 43
0.38
 44
0.18
 45
0.0
 46
0.0
 47
0.0
 48
0.0
140
0.18
141
0.09
142
0.0
143
25.399999999999999
144
1.0
145
0.0
146
1.0
147
0.09
 71
     0
 72
     0
 73
     1
 74
     1
 75
     0
 76
     0
 77
     0
 78
     0
170
     0
171
     2
172
     0
173
     0
174
     0
175
     0
176
     0
177
     0
178
     0
  0
DIMSTYLE
  2
BYGG-022681$0$MASKIN
 70
     0
  3

  4

  5

  6

  7

 40
0.0
 41
3.0
 42
1.5
 43
10.0
 44
1.5
 45
0.0
 46
0.0
 47
0.0
 48
0.0
140
3.0
141
-5.0
142
0.0
143
25.399999999999999
144
-1.0
145
0.0
146
1.0
147
1.0
 71
     0
 72
     0
 73
     0
 74
     0
 75
     0
 76
     0
 77
     1
 78
     8
170
     0
171
     0
172
     1
173
     0
174
     0
175
     0
176
   256
177
   256
178
     2
  0
DIMSTYLE
  2
BYGG-014306$0$STANDARD
 70
     0
  3

  4

  5

  6

  7

 40
1.0
 41
0.18
 42
0.0625
 43
0.38
 44
0.18
 45
0.0
 46
0.0
 47
0.0
 48
0.0
140
0.18
141
0.09
142
0.0
143
25.399999999999999
144
1.0
145
0.0
146
1.0
147
0.09
 71
     0
 72
     0
 73
     1
 74
     1
 75
     0
 76
     0
 77
     0
 78
     0
170
     0
171
     2
172
     0
173
     0
174
     0
175
     0
176
     0
177
     0
178
     0
  0
DIMSTYLE
  2
BYGG-035294$0$STANDARD
 70
     0
  3

  4

  5

  6

  7

 40
1.0
 41
0.18
 42
0.0625
 43
0.38
 44
0.18
 45
0.0
 46
0.0
 47
0.0
 48
0.0
140
0.18
141
0.09
142
0.0
143
25.399999999999999
144
1.0
145
0.0
146
1.0
147
0.09
 71
     0
 72
     0
 73
     1
 74
     1
 75
     0
 76
     0
 77
     0
 78
     0
170
     0
171
     2
172
     0
173
     0
174
     0
175
     0
176
     0
177
     0
178
     0
  0
DIMSTYLE
  2
BYGG-035294$0$MASKIN
 70
     0
  3

  4

  5

  6

  7

 40
0.0
 41
3.0
 42
1.5
 43
10.0
 44
1.5
 45
0.0
 46
0.0
 47
0.0
 48
0.0
140
3.0
141
-5.0
142
0.0
143
25.399999999999999
144
-1.0
145
0.0
146
1.0
147
1.0
 71
     0
 72
     0
 73
     0
 74
     0
 75
     0
 76
     0
 77
     1
 78
     8
170
     0
171
     0
172
     1
173
     0
174
     0
175
     0
176
   256
177
   256
178
     2
  0
DIMSTYLE
  2
BYGG-035294$0$ANNOTATIVE
 70
     0
  3

  4

  5

  6

  7

 40
1.0
 41
0.18
 42
0.0625
 43
0.38
 44
0.18
 45
0.0
 46
0.0
 47
0.0
 48
0.0
140
0.18
141
0.09
142
0.0
143
25.399999999999999
144
1.0
145
0.0
146
1.0
147
0.09
 71
     0
 72
     0
 73
     1
 74
     1
 75
     0
 76
     0
 77
     0
 78
     0
170
     0
171
     2
172
     0
173
     0
174
     0
175
     0
176
     0
177
     0
178
     0
  0
DIMSTYLE
  2
BYGG-021480$0$STANDARD
 70
     0
  3

  4

  5

  6

  7

 40
1.0
 41
0.18
 42
0.0625
 43
0.38
 44
0.18
 45
0.0
 46
0.0
 47
0.0
 48
0.0
140
0.18
141
0.09
142
0.0
143
25.399999999999999
144
1.0
145
0.0
146
1.0
147
0.09
 71
     0
 72
     0
 73
     1
 74
     1
 75
     0
 76
     0
 77
     0
 78
     0
170
     0
171
     2
172
     0
173
     0
174
     0
175
     0
176
     0
177
     0
178
     0
  0
DIMSTYLE
  2
BYGG-021480$0$MASKIN
 70
     0
  3

  4

  5

  6

  7

 40
0.0
 41
3.0
 42
1.5
 43
10.0
 44
1.5
 45
0.0
 46
0.0
 47
0.0
 48
0.0
140
3.0
141
-5.0
142
0.0
143
25.399999999999999
144
-1.0
145
0.0
146
1.0
147
1.0
 71
     0
 72
     0
 73
     0
 74
     0
 75
     0
 76
     0
 77
     1
 78
     8
170
     0
171
     0
172
     1
173
     0
174
     0
175
     0
176
   256
177
   256
178
     2
  0
DIMSTYLE
  2
BYGG-021480$0$PRIMO_2_5-1
 70
     0
  3

  4

  5

  6

  7

 40
0.4
 41
3.0
 42
1.0
 43
5.0
 44
1.0
 45
0.0
 46
0.0
 47
0.0
 48
0.0
140
3.0
141
3.0
142
0.0
143
25.399999999999999
144
1.0
145
0.0
146
1.0
147
1.0
 71
     0
 72
     0
 73
     0
 74
     0
 75
     0
 76
     0
 77
     1
 78
     8
170
     0
171
     2
172
     0
173
     0
174
     0
175
     0
176
   256
177
   256
178
     6
  0
DIMSTYLE
  2
BYGG-035293$0$STANDARD
 70
     0
  3

  4

  5

  6

  7

 40
1.0
 41
0.18
 42
0.0625
 43
0.38
 44
0.18
 45
0.0
 46
0.0
 47
0.0
 48
0.0
140
0.18
141
0.09
142
0.0
143
25.399999999999999
144
1.0
145
0.0
146
1.0
147
0.09
 71
     0
 72
     0
 73
     1
 74
     1
 75
     0
 76
     0
 77
     0
 78
     0
170
     0
171
     2
172
     0
173
     0
174
     0
175
     0
176
     0
177
     0
178
     0
  0
DIMSTYLE
  2
BYGG-035293$0$MASKIN
 70
     0
  3

  4

  5

  6

  7

 40
0.0
 41
3.0
 42
1.5
 43
10.0
 44
1.5
 45
0.0
 46
0.0
 47
0.0
 48
0.0
140
3.0
141
-5.0
142
0.0
143
25.399999999999999
144
-1.0
145
0.0
146
1.0
147
1.0
 71
     0
 72
     0
 73
     0
 74
     0
 75
     0
 76
     0
 77
     1
 78
     8
170
     0
171
     0
172
     1
173
     0
174
     0
175
     0
176
   256
177
   256
178
     2
  0
DIMSTYLE
  2
BYGG-014117$0$MASKIN
 70
     0
  3

  4

  5

  6

  7

 40
0.0
 41
3.0
 42
1.5
 43
10.0
 44
1.5
 45
0.0
 46
0.0
 47
0.0
 48
0.0
140
3.0
141
-5.0
142
0.0
143
25.399999999999999
144
-1.0
145
0.0
146
1.0
147
1.0
 71
     0
 72
     0
 73
     0
 74
     0
 75
     0
 76
     0
 77
     1
 78
     8
170
     0
171
     0
172
     1
173
     0
174
     0
175
     0
176
   256
177
   256
178
   256
  0
DIMSTYLE
  2
BYGG-023714$0$STANDARD
 70
     0
  3

  4

  5

  6

  7

 40
1.0
 41
0.18
 42
0.0625
 43
0.38
 44
0.18
 45
0.0
 46
0.0
 47
0.0
 48
0.0
140
0.18
141
0.09
142
0.0
143
25.399999999999999
144
1.0
145
0.0
146
1.0
147
0.09
 71
     0
 72
     0
 73
     1
 74
     1
 75
     0
 76
     0
 77
     0
 78
     0
170
     0
171
     2
172
     0
173
     0
174
     0
175
     0
176
     0
177
     0
178
     0
  0
DIMSTYLE
  2
BYGG-023714$0$MASKIN
 70
     0
  3

  4

  5

  6

  7

 40
0.0
 41
3.0
 42
1.5
 43
10.0
 44
1.5
 45
0.0
 46
0.0
 47
0.0
 48
0.0
140
3.0
141
-5.0
142
0.0
143
25.399999999999999
144
-1.0
145
0.0
146
1.0
147
1.0
 71
     0
 72
     0
 73
     0
 74
     0
 75
     0
 76
     0
 77
     1
 78
     8
170
     0
171
     0
172
     1
173
     0
174
     0
175
     0
176
   256
177
   256
178
     2
  0
DIMSTYLE
  2
BYGG-020805$0$STANDARD
 70
     0
  3

  4

  5

  6

  7

 40
1.0
 41
0.18
 42
0.0625
 43
0.38
 44
0.18
 45
0.0
 46
0.0
 47
0.0
 48
0.0
140
0.18
141
0.09
142
0.0
143
25.399999999999999
144
1.0
145
0.0
146
1.0
147
0.09
 71
     0
 72
     0
 73
     1
 74
     1
 75
     0
 76
     0
 77
     0
 78
     0
170
     0
171
     2
172
     0
173
     0
174
     0
175
     0
176
     0
177
     0
178
     0
  0
DIMSTYLE
  2
BYGG-020805$0$MASKIN
 70
     0
  3

  4

  5

  6

  7

 40
0.0
 41
3.0
 42
1.5
 43
10.0
 44
1.5
 45
0.0
 46
0.0
 47
0.0
 48
0.0
140
3.0
141
-5.0
142
0.0
143
25.399999999999999
144
-1.0
145
0.0
146
1.0
147
1.0
 71
     0
 72
     0
 73
     0
 74
     0
 75
     0
 76
     0
 77
     1
 78
     8
170
     0
171
     0
172
     1
173
     0
174
     0
175
     0
176
   256
177
   256
178
     2
  0
DIMSTYLE
  2
BYGG-025115$0$STANDARD
 70
     0
  3

  4

  5

  6

  7

 40
1.0
 41
0.18
 42
0.0625
 43
0.38
 44
0.18
 45
0.0
 46
0.0
 47
0.0
 48
0.0
140
0.18
141
0.09
142
0.0
143
25.399999999999999
144
1.0
145
0.0
146
1.0
147
0.09
 71
     0
 72
     0
 73
     1
 74
     1
 75
     0
 76
     0
 77
     0
 78
     0
170
     0
171
     2
172
     0
173
     0
174
     0
175
     0
176
     0
177
     0
178
     0
  0
DIMSTYLE
  2
BYGG-025115$0$MASKIN
 70
     0
  3

  4

  5

  6

  7

 40
0.0
 41
3.0
 42
1.5
 43
10.0
 44
1.5
 45
0.0
 46
0.0
 47
0.0
 48
0.0
140
3.0
141
-5.0
142
0.0
143
25.399999999999999
144
-1.0
145
0.0
146
1.0
147
1.0
 71
     0
 72
     0
 73
     0
 74
     0
 75
     0
 76
     0
 77
     1
 78
     8
170
     0
171
     0
172
     1
173
     0
174
     0
175
     0
176
   256
177
   256
178
     2
  0
ENDTAB
  0
ENDSEC
  0
SECTION
  2
BLOCKS
  0
BLOCK
  8
0
  2
$MODEL_SPACE
 70
     0
 10
0.0
 20
0.0
 30
0.0
  3
$MODEL_SPACE
  1

  0
ENDBLK
  5
37
  8
0
  0
BLOCK
 67
     1
  8
0
  2
$PAPER_SPACE
 70
     0
 10
0.0
 20
0.0
 30
0.0
  3
$PAPER_SPACE
  1

  0
ENDBLK
  5
35
 67
     1
  8
0
  0
BLOCK
  8
0
  2
*X37
 70
     1
 10
0.0
 20
0.0
 30
0.0
  3
*X37
  1

  0
LINE
  5
1565
  8
0
 62
     0
 10
70.060667341041508
 20
-34.093463348845439
 30
0.0
 11
70.381936355445745
 21
-33.53700909299971
 31
0.0
  0
LINE
  5
1566
  8
0
 62
     0
 10
68.870042341041511
 20
-36.155686341607129
 30
0.0
 11
69.266917341041506
 21
-35.468278677353233
 31
0.0
  0
LINE
  5
1567
  8
0
 62
     0
 10
67.679417341041514
 20
-38.217909334368819
 30
0.0
 11
68.076292341041508
 21
-37.53050167011493
 31
0.0
  0
LINE
  5
1568
  8
0
 62
     0
 10
66.650526287394314
 20
-40.000000914738848
 30
0.0
 11
66.885667341041511
 21
-39.592724662876613
 31
0.0
  0
LINE
  5
1569
  8
0
 62
     0
 10
70.060667625538343
 20
-31.34383285608299
 30
0.0
 11
70.307070358267069
 21
-30.917050803873039
 31
0.0
  0
LINE
  5
156A
  8
0
 62
     0
 10
68.87004262553836
 20
-33.40605584884468
 30
0.0
 11
69.266917625538355
 21
-32.718648184590791
 31
0.0
  0
LINE
  5
156B
  8
0
 62
     0
 10
67.679417625538363
 20
-35.46827884160637
 30
0.0
 11
68.076292625538343
 21
-34.780871177352481
 31
0.0
  0
LINE
  5
156C
  8
0
 62
     0
 10
66.488792625538366
 20
-37.53050183436806
 30
0.0
 11
66.88566762553836
 21
-36.843094170114163
 31
0.0
  0
LINE
  5
156D
  8
0
 62
     0
 10
65.298167625538369
 20
-39.59272482712975
 30
0.0
 11
65.695042625538363
 21
-38.905317162875853
 31
0.0
  0
LINE
  5
156E
  8
0
 62
     0
 10
68.87004291003376
 20
-30.65642535608259
 30
0.0
 11
69.266917910033754
 21
-29.969017691828689
 31
0.0
  0
LINE
  5
156F
  8
0
 62
     0
 10
67.679417910033763
 20
-32.718648348844283
 30
0.0
 11
68.076292910033757
 21
-32.031240684590379
 31
0.0
  0
LINE
  5
1570
  8
0
 62
     0
 10
66.488792910033766
 20
-34.780871341605973
 30
0.0
 11
66.88566791003376
 21
-34.093463677352069
 31
0.0
  0
LINE
  5
1571
  8
0
 62
     0
 10
65.298167910033754
 20
-36.843094334367663
 30
0.0
 11
65.695042910033763
 21
-36.155686670113759
 31
0.0
  0
LINE
  5
1572
  8
0
 62
     0
 10
64.189366374269412
 20
-38.76359492982192
 30
0.0
 11
64.504417910033766
 21
-38.217909662875449
 31
0.0
  0
LINE
  5
1573
  8
0
 62
     0
 10
68.870043194531704
 20
-27.90679486331992
 30
0.0
 11
69.209435400603965
 21
-27.318950318709881
 31
0.0
  0
LINE
  5
1574
  8
0
 62
     0
 10
67.679418194531706
 20
-29.969017856081621
 30
0.0
 11
68.076293194531701
 21
-29.281610191827721
 31
0.0
  0
LINE
  5
1575
  8
0
 62
     0
 10
66.488793194531709
 20
-32.031240848843311
 30
0.0
 11
66.885668194531704
 21
-31.343833184589421
 31
0.0
  0
LINE
  5
1576
  8
0
 62
     0
 10
65.298168194531712
 20
-34.093463841605001
 30
0.0
 11
65.695043194531706
 21
-33.406056177351111
 31
0.0
  0
LINE
  5
1577
  8
0
 62
     0
 10
64.107543194531715
 20
-36.155686834366691
 30
0.0
 11
64.504418194531709
 21
-35.468279170112801
 31
0.0
  0
LINE
  5
1578
  8
0
 62
     0
 10
67.679418479026012
 20
-27.219387363321321
 30
0.0
 11
68.076293479026006
 21
-26.531979699067421
 31
0.0
  0
LINE
  5
1579
  8
0
 62
     0
 10
66.488793479026015
 20
-29.281610356083011
 30
0.0
 11
66.885668479026009
 21
-28.594202691829121
 31
0.0
  0
LINE
  5
157A
  8
0
 62
     0
 10
65.298168479026003
 20
-31.343833348844711
 30
0.0
 11
65.695043479026012
 21
-30.656425684590811
 31
0.0
  0
LINE
  5
157B
  8
0
 62
     0
 10
64.10754347902602
 20
-33.406056341606401
 30
0.0
 11
64.504418479026015
 21
-32.718648677352512
 31
0.0
  0
LINE
  5
157C
  8
0
 62
     0
 10
62.916918479026023
 20
-35.468279334368091
 30
0.0
 11
63.313793479026018
 21
-34.780871670114202
 31
0.0
  0
LINE
  5
157D
  8
0
 62
     0
 10
66.488793763524143
 20
-26.531979863319371
 30
0.0
 11
66.885668763524137
 21
-25.844572199065482
 31
0.0
  0
LINE
  5
157E
  8
0
 62
     0
 10
65.298168763524146
 20
-28.594202856081068
 30
0.0
 11
65.69504376352414
 21
-27.906795191827172
 31
0.0
  0
LINE
  5
157F
  8
0
 62
     0
 10
64.107543763524134
 20
-30.656425848842758
 30
0.0
 11
64.504418763524143
 21
-29.969018184588869
 31
0.0
  0
LINE
  5
1580
  8
0
 62
     0
 10
62.916918763524151
 20
-32.718648841604463
 30
0.0
 11
63.313793763524153
 21
-32.031241177350559
 31
0.0
  0
LINE
  5
1581
  8
0
 62
     0
 10
65.298169048019545
 20
-25.84457236332042
 30
0.0
 11
65.567847223982412
 21
-25.377476060860229
 31
0.0
  0
LINE
  5
1582
  8
0
 62
     0
 10
64.107544048019548
 20
-27.90679535608211
 30
0.0
 11
64.504419048019543
 21
-27.219387691828221
 31
0.0
  0
LINE
  5
1583
  8
0
 62
     0
 10
62.916919048019551
 20
-29.969018348843811
 30
0.0
 11
63.313794048019552
 21
-29.281610684589911
 31
0.0
  0
LINE
  5
1584
  8
0
 62
     0
 10
68.074618366010043
 20
-26.53506405876502
 30
0.0
 11
67.677743366010048
 21
-25.84765639451113
 31
0.0
  0
LINE
  5
1585
  8
0
 62
     0
 10
69.26524336601004
 20
-28.59728705152672
 30
0.0
 11
68.868368366010046
 21
-27.90987938727282
 31
0.0
  0
LINE
  5
1586
  8
0
 62
     0
 10
70.197142684021429
 20
-30.211384017861239
 30
0.0
 11
70.058993366010043
 21
-29.972102380034521
 31
0.0
  0
LINE
  5
1587
  8
0
 62
     0
 10
66.883993650506127
 20
-27.22247155876455
 30
0.0
 11
66.487118650506133
 21
-26.53506389451065
 31
0.0
  0
LINE
  5
1588
  8
0
 62
     0
 10
68.074618650506125
 20
-29.28469455152625
 30
0.0
 11
67.67774365050613
 21
-28.59728688727235
 31
0.0
  0
LINE
  5
1589
  8
0
 62
     0
 10
69.265243650506122
 20
-31.34691754428794
 30
0.0
 11
68.868368650506127
 21
-30.65950988003404
 31
0.0
  0
LINE
  5
158A
  8
0
 62
     0
 10
70.395733143549805
 20
-33.30498278366241
 30
0.0
 11
70.058993650506125
 21
-32.721732872795727
 31
0.0
  0
LINE
  5
158B
  8
0
 62
     0
 10
65.693368935002326
 20
-27.9098790587643
 30
0.0
 11
65.296493935002331
 21
-27.2224713945104
 31
0.0
  0
LINE
  5
158C
  8
0
 62
     0
 10
66.883993935002323
 20
-29.97210205152599
 30
0.0
 11
66.487118935002329
 21
-29.28469438727209
 31
0.0
  0
LINE
  5
158D
  8
0
 62
     0
 10
68.07461893500232
 20
-32.034325044287677
 30
0.0
 11
67.677743935002326
 21
-31.346917380033791
 31
0.0
  0
LINE
  5
158E
  8
0
 62
     0
 10
69.265243935002317
 20
-34.096548037049367
 30
0.0
 11
68.868368935002323
 21
-33.409140372795477
 31
0.0
  0
LINE
  5
158F
  8
0
 62
     0
 10
70.090281188391231
 20
-35.525554478056051
 30
0.0
 11
70.05899393500232
 21
-35.471363365557167
 31
0.0
  0
LINE
  5
1590
  8
0
 62
     0
 10
64.502744219498439
 20
-28.597286558763869
 30
0.0
 11
64.105869219498445
 21
-27.90987889450998
 31
0.0
  0
LINE
  5
1591
  8
0
 62
     0
 10
65.693369219498436
 20
-30.65950955152557
 30
0.0
 11
65.296494219498442
 21
-29.97210188727167
 31
0.0
  0
LINE
  5
1592
  8
0
 62
     0
 10
66.883994219498433
 20
-32.721732544287264
 30
0.0
 11
66.487119219498439
 21
-32.03432488003336
 31
0.0
  0
LINE
  5
1593
  8
0
 62
     0
 10
68.07461921949843
 20
-34.783955537048953
 30
0.0
 11
67.677744219498436
 21
-34.09654787279505
 31
0.0
  0
LINE
  5
1594
  8
0
 62
     0
 10
69.265244219498413
 20
-36.846178529810643
 30
0.0
 11
68.868369219498433
 21
-36.15877086555674
 31
0.0
  0
LINE
  5
1595
  8
0
 62
     0
 10
63.312119503995341
 20
-29.284694058764849
 30
0.0
 11
63.001826610172699
 21
-28.74725100143646
 31
0.0
  0
LINE
  5
1596
  8
0
 62
     0
 10
64.502744503995331
 20
-31.34691705152655
 30
0.0
 11
64.105869503995336
 21
-30.659509387272649
 31
0.0
  0
LINE
  5
1597
  8
0
 62
     0
 10
65.693369503995328
 20
-33.409140044288243
 30
0.0
 11
65.296494503995334
 21
-32.721732380034339
 31
0.0
  0
LINE
  5
1598
  8
0
 62
     0
 10
66.883994503995325
 20
-35.471363037049933
 30
0.0
 11
66.487119503995331
 21
-34.783955372796029
 31
0.0
  0
LINE
  5
1599
  8
0
 62
     0
 10
68.074619503995322
 20
-37.533586029811623
 30
0.0
 11
67.677744503995314
 21
-36.846178365557719
 31
0.0
  0
LINE
  5
159A
  8
0
 62
     0
 10
63.312119788490669
 20
-32.034324551526602
 30
0.0
 11
62.915244788490661
 21
-31.346916887272709
 31
0.0
  0
LINE
  5
159B
  8
0
 62
     0
 10
64.502744788490659
 20
-34.096547544288292
 30
0.0
 11
64.105869788490665
 21
-33.409139880034388
 31
0.0
  0
LINE
  5
159C
  8
0
 62
     0
 10
65.693369788490656
 20
-36.158770537049982
 30
0.0
 11
65.296494788490662
 21
-35.471362872796092
 31
0.0
  0
LINE
  5
159D
  8
0
 62
     0
 10
66.883994788490654
 20
-38.220993529811672
 30
0.0
 11
66.487119788490659
 21
-37.533585865557782
 31
0.0
  0
LINE
  5
159E
  8
0
 62
     0
 10
67.693769233193592
 20
-39.623564010708037
 30
0.0
 11
67.677744788490656
 21
-39.595808858319472
 31
0.0
  0
LINE
  5
159F
  8
0
 62
     0
 10
63.312120072986822
 20
-34.783955044287907
 30
0.0
 11
62.915245072986821
 21
-34.096547380034018
 31
0.0
  0
LINE
  5
15A0
  8
0
 62
     0
 10
64.502745072986812
 20
-36.846178037049611
 30
0.0
 11
64.105870072986818
 21
-36.158770372795708
 31
0.0
  0
LINE
  5
15A1
  8
0
 62
     0
 10
65.693370072986809
 20
-38.908401029811301
 30
0.0
 11
65.296495072986815
 21
-38.220993365557398
 31
0.0
  0
LINE
  5
15A2
  8
0
 62
     0
 10
66.887502056367893
 20
-39.595714905088258
 30
0.0
 11
67.681252056367896
 21
-39.595714905088258
 31
0.0
  0
LINE
  5
15A3
  8
0
 62
     0
 10
65.089167657157304
 20
-39.595714905088258
 30
0.0
 11
65.300002056367873
 21
-39.595714905088258
 31
0.0
  0
LINE
  5
15A4
  8
0
 62
     0
 10
66.887502056367524
 20
-38.220899905088132
 30
0.0
 11
67.681252056367526
 21
-38.220899905088132
 31
0.0
  0
LINE
  5
15A5
  8
0
 62
     0
 10
64.506252056367515
 20
-38.220899905088132
 30
0.0
 11
65.300002056367518
 21
-38.220899905088132
 31
0.0
  0
LINE
  5
15A6
  8
0
 62
     0
 10
69.268752056367532
 20
-36.846084905088013
 30
0.0
 11
69.694015958049945
 21
-36.846084905088013
 31
0.0
  0
LINE
  5
15A7
  8
0
 62
     0
 10
66.887502056367524
 20
-36.846084905088013
 30
0.0
 11
67.681252056367526
 21
-36.846084905088013
 31
0.0
  0
LINE
  5
15A8
  8
0
 62
     0
 10
64.506252056367515
 20
-36.846084905088013
 30
0.0
 11
65.300002056367518
 21
-36.846084905088013
 31
0.0
  0
LINE
  5
15A9
  8
0
 62
     0
 10
69.268752056367546
 20
-35.471269905088789
 30
0.0
 11
70.062502056367549
 21
-35.471269905088789
 31
0.0
  0
LINE
  5
15AA
  8
0
 62
     0
 10
66.887502056367538
 20
-35.471269905088789
 30
0.0
 11
67.681252056367541
 21
-35.471269905088789
 31
0.0
  0
LINE
  5
15AB
  8
0
 62
     0
 10
64.506252056367529
 20
-35.471269905088789
 30
0.0
 11
65.300002056367532
 21
-35.471269905088789
 31
0.0
  0
LINE
  5
15AC
  8
0
 62
     0
 10
62.723937533697608
 20
-35.471269905088789
 30
0.0
 11
62.918752056367531
 21
-35.471269905088789
 31
0.0
  0
LINE
  5
15AD
  8
0
 62
     0
 10
69.268752056367546
 20
-34.09645490508867
 30
0.0
 11
70.062502056367549
 21
-34.09645490508867
 31
0.0
  0
LINE
  5
15AE
  8
0
 62
     0
 10
66.887502056367538
 20
-34.09645490508867
 30
0.0
 11
67.681252056367541
 21
-34.09645490508867
 31
0.0
  0
LINE
  5
15AF
  8
0
 62
     0
 10
64.506252056367529
 20
-34.09645490508867
 30
0.0
 11
65.300002056367532
 21
-34.09645490508867
 31
0.0
  0
LINE
  5
15B0
  8
0
 62
     0
 10
62.494640662533129
 20
-34.09645490508867
 30
0.0
 11
62.918752056367531
 21
-34.09645490508867
 31
0.0
  0
LINE
  5
15B1
  8
0
 62
     0
 10
69.268752056367546
 20
-32.721639905088537
 30
0.0
 11
70.062502056367549
 21
-32.721639905088537
 31
0.0
  0
LINE
  5
15B2
  8
0
 62
     0
 10
66.887502056367538
 20
-32.721639905088537
 30
0.0
 11
67.681252056367541
 21
-32.721639905088537
 31
0.0
  0
LINE
  5
15B3
  8
0
 62
     0
 10
64.506252056367529
 20
-32.721639905088537
 30
0.0
 11
65.300002056367532
 21
-32.721639905088537
 31
0.0
  0
LINE
  5
15B4
  8
0
 62
     0
 10
62.413764577424438
 20
-32.721639905088537
 30
0.0
 11
62.918752056367531
 21
-32.721639905088537
 31
0.0
  0
LINE
  5
15B5
  8
0
 62
     0
 10
69.268752056367546
 20
-31.346824905088411
 30
0.0
 11
70.062502056367549
 21
-31.346824905088411
 31
0.0
  0
LINE
  5
15B6
  8
0
 62
     0
 10
66.887502056367538
 20
-31.346824905088411
 30
0.0
 11
67.681252056367541
 21
-31.346824905088411
 31
0.0
  0
LINE
  5
15B7
  8
0
 62
     0
 10
64.506252056367529
 20
-31.346824905088411
 30
0.0
 11
65.300002056367532
 21
-31.346824905088411
 31
0.0
  0
LINE
  5
15B8
  8
0
 62
     0
 10
62.47216148798725
 20
-31.346824905088411
 30
0.0
 11
62.918752056367531
 21
-31.346824905088411
 31
0.0
  0
LINE
  5
15B9
  8
0
 62
     0
 10
69.268752056367546
 20
-29.972009905088282
 30
0.0
 11
70.062502056367549
 21
-29.972009905088282
 31
0.0
  0
LINE
  5
15BA
  8
0
 62
     0
 10
66.887502056367538
 20
-29.972009905088282
 30
0.0
 11
67.681252056367541
 21
-29.972009905088282
 31
0.0
  0
LINE
  5
15BB
  8
0
 62
     0
 10
64.506252056367529
 20
-29.972009905088282
 30
0.0
 11
65.300002056367532
 21
-29.972009905088282
 31
0.0
  0
LINE
  5
15BC
  8
0
 62
     0
 10
62.676354880830331
 20
-29.972009905088282
 30
0.0
 11
62.918752056367531
 21
-29.972009905088282
 31
0.0
  0
LINE
  5
15BD
  8
0
 62
     0
 10
69.268752056367532
 20
-28.597194905088159
 30
0.0
 11
69.773828114777658
 21
-28.597194905088159
 31
0.0
  0
LINE
  5
15BE
  8
0
 62
     0
 10
66.887502056367524
 20
-28.597194905088159
 30
0.0
 11
67.681252056367526
 21
-28.597194905088159
 31
0.0
  0
LINE
  5
15BF
  8
0
 62
     0
 10
64.506252056367515
 20
-28.597194905088159
 30
0.0
 11
65.300002056367518
 21
-28.597194905088159
 31
0.0
  0
LINE
  5
15C0
  8
0
 62
     0
 10
66.887502056367524
 20
-27.22237990508803
 30
0.0
 11
67.681252056367526
 21
-27.22237990508803
 31
0.0
  0
LINE
  5
15C1
  8
0
 62
     0
 10
64.506252056367515
 20
-27.22237990508803
 30
0.0
 11
65.300002056367518
 21
-27.22237990508803
 31
0.0
  0
LINE
  5
15C2
  8
0
 62
     0
 10
66.887502056367893
 20
-25.8475649050879
 30
0.0
 11
67.681252056367896
 21
-25.8475649050879
 31
0.0
  0
LINE
  5
15C3
  8
0
 62
     0
 10
64.789499899345174
 20
-25.8475649050879
 30
0.0
 11
65.300002056367873
 21
-25.8475649050879
 31
0.0
  0
ENDBLK
  5
15C5
  8
0
  0
BLOCK
  8
0
  2
*X38
 70
     1
 10
0.0
 20
0.0
 30
0.0
  3
*X38
  1

  0
LINE
  5
15C7
  8
0
 62
     0
 10
83.814511216302904
 20
-25.53260576478397
 30
0.0
 11
83.478584966689596
 21
-25.196679515170221
 31
0.0
  0
LINE
  5
15C8
  8
0
 62
     0
 10
83.442403903508875
 20
-26.283030467122899
 30
0.0
 11
82.356052951556634
 21
-25.196679515170668
 31
0.0
  0
LINE
  5
15C9
  8
0
 62
     0
 10
83.106138470915994
 20
-27.069297049663419
 30
0.0
 11
81.233520936422806
 21
-25.196679515170221
 31
0.0
  0
LINE
  5
15CA
  8
0
 62
     0
 10
82.808259599454686
 20
-27.89395019333779
 30
0.0
 11
80.110988921288026
 21
-25.196679515170668
 31
0.0
  0
LINE
  5
15CB
  8
0
 62
     0
 10
82.552063226039991
 20
-28.760285835054219
 30
0.0
 11
78.988456906155989
 21
-25.196679515170221
 31
0.0
  0
LINE
  5
15CC
  8
0
 62
     0
 10
82.341858827453507
 20
-29.672613451602949
 30
0.0
 11
77.865924891021223
 21
-25.196679515170668
 31
0.0
  0
LINE
  5
15CD
  8
0
 62
     0
 10
82.183378656876812
 20
-30.636665296160121
 30
0.0
 11
76.743392875889185
 21
-25.19667951517204
 31
0.0
  0
LINE
  5
15CE
  8
0
 62
     0
 10
82.084446336241854
 20
-31.66026499065811
 30
0.0
 11
75.620860860754419
 21
-25.196679515170668
 31
0.0
  0
LINE
  5
15CF
  8
0
 62
     0
 10
82.056137059877528
 20
-32.75448772942719
 30
0.0
 11
74.498328845622382
 21
-25.19667951517204
 31
0.0
  0
LINE
  5
15D0
  8
0
 62
     0
 10
82.114958934626884
 20
-33.93584161930994
 30
0.0
 11
73.375796830487616
 21
-25.196679515170668
 31
0.0
  0
LINE
  5
15D1
  8
0
 62
     0
 10
82.287434173704696
 20
-35.230848873522973
 30
0.0
 11
72.253264815353745
 21
-25.19667951517204
 31
0.0
  0
LINE
  5
15D2
  8
0
 62
     0
 10
82.621427168940954
 20
-36.687373883890807
 30
0.0
 11
71.130732800219448
 21
-25.196679515169311
 31
0.0
  0
LINE
  5
15D3
  8
0
 62
     0
 10
83.222921956374634
 20
-38.411400686459729
 30
0.0
 11
70.008200785085592
 21
-25.19667951517113
 31
0.0
  0
LINE
  5
15D4
  8
0
 62
     0
 10
83.685668769952827
 20
-39.996679515171309
 30
0.0
 11
69.377978148153943
 21
-25.688988893372429
 31
0.0
  0
LINE
  5
15D5
  8
0
 62
     0
 10
82.563136754818061
 20
-39.996679515169951
 30
0.0
 11
70.221689710112955
 21
-27.655232470464849
 31
0.0
  0
LINE
  5
15D6
  8
0
 62
     0
 10
81.440604739686023
 20
-39.996679515171309
 30
0.0
 11
70.674333618989294
 21
-29.23040839447458
 31
0.0
  0
LINE
  5
15D7
  8
0
 62
     0
 10
80.318072724551243
 20
-39.996679515169951
 30
0.0
 11
70.922537235529035
 21
-30.601144026147718
 31
0.0
  0
LINE
  5
15D8
  8
0
 62
     0
 10
79.195540709417401
 20
-39.996679515171309
 30
0.0
 11
71.03615576498305
 21
-31.837294570736962
 31
0.0
  0
LINE
  5
15D9
  8
0
 62
     0
 10
78.073008694284454
 20
-39.996679515169951
 30
0.0
 11
71.050577403539592
 21
-32.974248224425082
 31
0.0
  0
LINE
  5
15DA
  8
0
 62
     0
 10
76.950476679149233
 20
-39.996679515170399
 30
0.0
 11
70.986683034272119
 21
-34.03288587029283
 31
0.0
  0
LINE
  5
15DB
  8
0
 62
     0
 10
75.82794466401765
 20
-39.996679515169951
 30
0.0
 11
70.857996371714293
 21
-35.026731222866601
 31
0.0
  0
LINE
  5
15DC
  8
0
 62
     0
 10
74.705412648882429
 20
-39.996679515170399
 30
0.0
 11
70.673839234103525
 21
-35.96510610039104
 31
0.0
  0
LINE
  5
15DD
  8
0
 62
     0
 10
73.582880633750847
 20
-39.99667951517177
 30
0.0
 11
70.440923609640322
 21
-36.854722491061239
 31
0.0
  0
LINE
  5
15DE
  8
0
 62
     0
 10
72.460348618615626
 20
-39.996679515170399
 30
0.0
 11
70.164234323841356
 21
-37.700565220395667
 31
0.0
  0
LINE
  5
15DF
  8
0
 62
     0
 10
71.337816603482679
 20
-39.996679515170399
 30
0.0
 11
69.847553722342127
 21
-38.506416634030302
 31
0.0
  0
LINE
  5
15E0
  8
0
 62
     0
 10
70.215284588347913
 20
-39.996679515169042
 30
0.0
 11
69.493790512206488
 21
-39.275185439027609
 31
0.0
  0
LINE
  5
15E1
  8
0
 62
     0
 10
82.992925655580621
 20
-39.996679515172218
 30
0.0
 11
83.649259238552986
 21
-39.340345932199853
 31
0.0
  0
LINE
  5
15E2
  8
0
 62
     0
 10
81.870393640447205
 20
-39.996679515170399
 30
0.0
 11
83.292386707787955
 21
-38.57468644782967
 31
0.0
  0
LINE
  5
15E3
  8
0
 62
     0
 10
80.747861625313817
 20
-39.996679515170399
 30
0.0
 11
82.972377517668065
 21
-37.772163622816151
 31
0.0
  0
LINE
  5
15E4
  8
0
 62
     0
 10
79.625329610180415
 20
-39.996679515170399
 30
0.0
 11
82.692075803668558
 21
-36.929933321682263
 31
0.0
  0
LINE
  5
15E5
  8
0
 62
     0
 10
78.502797595047014
 20
-39.996679515170399
 30
0.0
 11
82.455176966297586
 21
-36.044300143919827
 31
0.0
  0
LINE
  5
15E6
  8
0
 62
     0
 10
77.380265579911793
 20
-39.996679515172218
 30
0.0
 11
82.266544076066566
 21
-35.110401019017452
 31
0.0
  0
LINE
  5
15E7
  8
0
 62
     0
 10
76.257733564778391
 20
-39.996679515170399
 30
0.0
 11
82.132710715897716
 21
-34.121702364051089
 31
0.0
  0
LINE
  5
15E8
  8
0
 62
     0
 10
75.135201549644989
 20
-39.996679515170399
 30
0.0
 11
82.062722528737154
 21
-33.069158536078248
 31
0.0
  0
LINE
  5
15E9
  8
0
 62
     0
 10
74.012669534511588
 20
-39.996679515170399
 30
0.0
 11
82.069644702309233
 21
-31.939704347372761
 31
0.0
  0
LINE
  5
15EA
  8
0
 62
     0
 10
72.890137519378186
 20
-39.996679515170399
 30
0.0
 11
82.173521450835324
 21
-30.713295583713261
 31
0.0
  0
LINE
  5
15EB
  8
0
 62
     0
 10
71.767605504244784
 20
-39.996679515170399
 30
0.0
 11
82.407990029058055
 21
-29.356294990357132
 31
0.0
  0
LINE
  5
15EC
  8
0
 62
     0
 10
70.645073489111383
 20
-39.996679515170399
 30
0.0
 11
82.838327959532762
 21
-27.803425044749019
 31
0.0
  0
LINE
  5
15ED
  8
0
 62
     0
 10
69.522541473976162
 20
-39.996679515172218
 30
0.0
 11
83.632369593893586
 21
-25.88685139525478
 31
0.0
  0
LINE
  5
15EE
  8
0
 62
     0
 10
69.815359920545234
 20
-38.581329053469751
 30
0.0
 11
83.200009458843866
 21
-25.19667951517113
 31
0.0
  0
LINE
  5
15EF
  8
0
 62
     0
 10
70.449853788279142
 20
-36.824303170602427
 30
0.0
 11
82.077477443708631
 21
-25.196679515172949
 31
0.0
  0
LINE
  5
15F0
  8
0
 62
     0
 10
70.801506465322745
 20
-35.35011847842361
 30
0.0
 11
80.954945428575215
 21
-25.19667951517113
 31
0.0
  0
LINE
  5
15F1
  8
0
 62
     0
 10
70.985669991798204
 20
-34.04342293681475
 30
0.0
 11
79.832413413441813
 21
-25.19667951517113
 31
0.0
  0
LINE
  5
15F2
  8
0
 62
     0
 10
71.053121810358789
 20
-32.853439103120763
 30
0.0
 11
78.709881398308426
 21
-25.19667951517113
 31
0.0
  0
LINE
  5
15F3
  8
0
 62
     0
 10
71.031630017097996
 20
-31.752398881248158
 30
0.0
 11
77.587349383175024
 21
-25.19667951517113
 31
0.0
  0
LINE
  5
15F4
  8
0
 62
     0
 10
70.938338905811179
 20
-30.72315797740157
 30
0.0
 11
76.464817368039803
 21
-25.196679515172949
 31
0.0
  0
LINE
  5
15F5
  8
0
 62
     0
 10
70.784688270467086
 20
-29.754276597610438
 30
0.0
 11
75.342285352904582
 21
-25.196679515172949
 31
0.0
  0
LINE
  5
15F6
  8
0
 62
     0
 10
70.578728614580541
 20
-28.837704238363589
 30
0.0
 11
74.219753337773
 21
-25.19667951517113
 31
0.0
  0
LINE
  5
15F7
  8
0
 62
     0
 10
70.326342499320162
 20
-27.967558338492381
 30
0.0
 11
73.097221322639598
 21
-25.196679515172949
 31
0.0
  0
LINE
  5
15F8
  8
0
 62
     0
 10
70.031944110598474
 20
-27.139424712080661
 30
0.0
 11
71.974689307506196
 21
-25.196679515172949
 31
0.0
  0
LINE
  5
15F9
  8
0
 62
     0
 10
69.698905482257032
 20
-26.349931325286889
 30
0.0
 11
70.852157292370975
 21
-25.196679515172949
 31
0.0
  0
LINE
  5
15FA
  8
0
 62
     0
 10
69.329828706917397
 20
-25.596476085493119
 30
0.0
 11
69.729625277239393
 21
-25.19667951517113
 31
0.0
  0
ENDBLK
  5
15FC
  8
0
  0
BLOCK
  8
0
  2
*X39
 70
     1
 10
0.0
 20
0.0
 30
0.0
  3
*X39
  1

  0
LINE
  5
15FE
  8
0
 62
     0
 10
70.060667341041508
 20
-34.093463348845439
 30
0.0
 11
70.381936355445745
 21
-33.53700909299971
 31
0.0
  0
LINE
  5
15FF
  8
0
 62
     0
 10
68.870042341041511
 20
-36.155686341607129
 30
0.0
 11
69.266917341041506
 21
-35.468278677353233
 31
0.0
  0
LINE
  5
1600
  8
0
 62
     0
 10
67.679417341041514
 20
-38.217909334368819
 30
0.0
 11
68.076292341041508
 21
-37.53050167011493
 31
0.0
  0
LINE
  5
1601
  8
0
 62
     0
 10
66.650526287394314
 20
-40.000000914738848
 30
0.0
 11
66.885667341041511
 21
-39.592724662876613
 31
0.0
  0
LINE
  5
1602
  8
0
 62
     0
 10
70.060667625538343
 20
-31.34383285608299
 30
0.0
 11
70.307070358267069
 21
-30.917050803873039
 31
0.0
  0
LINE
  5
1603
  8
0
 62
     0
 10
68.87004262553836
 20
-33.40605584884468
 30
0.0
 11
69.266917625538355
 21
-32.718648184590791
 31
0.0
  0
LINE
  5
1604
  8
0
 62
     0
 10
67.679417625538363
 20
-35.46827884160637
 30
0.0
 11
68.076292625538343
 21
-34.780871177352481
 31
0.0
  0
LINE
  5
1605
  8
0
 62
     0
 10
66.488792625538366
 20
-37.53050183436806
 30
0.0
 11
66.88566762553836
 21
-36.843094170114163
 31
0.0
  0
LINE
  5
1606
  8
0
 62
     0
 10
65.298167625538369
 20
-39.59272482712975
 30
0.0
 11
65.695042625538363
 21
-38.905317162875853
 31
0.0
  0
LINE
  5
1607
  8
0
 62
     0
 10
68.87004291003376
 20
-30.65642535608259
 30
0.0
 11
69.266917910033754
 21
-29.969017691828689
 31
0.0
  0
LINE
  5
1608
  8
0
 62
     0
 10
67.679417910033763
 20
-32.718648348844283
 30
0.0
 11
68.076292910033757
 21
-32.031240684590379
 31
0.0
  0
LINE
  5
1609
  8
0
 62
     0
 10
66.488792910033766
 20
-34.780871341605973
 30
0.0
 11
66.88566791003376
 21
-34.093463677352069
 31
0.0
  0
LINE
  5
160A
  8
0
 62
     0
 10
65.298167910033754
 20
-36.843094334367663
 30
0.0
 11
65.695042910033763
 21
-36.155686670113759
 31
0.0
  0
LINE
  5
160B
  8
0
 62
     0
 10
64.189366374269412
 20
-38.76359492982192
 30
0.0
 11
64.504417910033766
 21
-38.217909662875449
 31
0.0
  0
LINE
  5
160C
  8
0
 62
     0
 10
68.870043194531704
 20
-27.90679486331992
 30
0.0
 11
69.209435400603965
 21
-27.318950318709881
 31
0.0
  0
LINE
  5
160D
  8
0
 62
     0
 10
67.679418194531706
 20
-29.969017856081621
 30
0.0
 11
68.076293194531701
 21
-29.281610191827721
 31
0.0
  0
LINE
  5
160E
  8
0
 62
     0
 10
66.488793194531709
 20
-32.031240848843311
 30
0.0
 11
66.885668194531704
 21
-31.343833184589421
 31
0.0
  0
LINE
  5
160F
  8
0
 62
     0
 10
65.298168194531712
 20
-34.093463841605001
 30
0.0
 11
65.695043194531706
 21
-33.406056177351111
 31
0.0
  0
LINE
  5
1610
  8
0
 62
     0
 10
64.107543194531715
 20
-36.155686834366691
 30
0.0
 11
64.504418194531709
 21
-35.468279170112801
 31
0.0
  0
LINE
  5
1611
  8
0
 62
     0
 10
67.679418479026012
 20
-27.219387363321321
 30
0.0
 11
68.076293479026006
 21
-26.531979699067421
 31
0.0
  0
LINE
  5
1612
  8
0
 62
     0
 10
66.488793479026015
 20
-29.281610356083011
 30
0.0
 11
66.885668479026009
 21
-28.594202691829121
 31
0.0
  0
LINE
  5
1613
  8
0
 62
     0
 10
65.298168479026003
 20
-31.343833348844711
 30
0.0
 11
65.695043479026012
 21
-30.656425684590811
 31
0.0
  0
LINE
  5
1614
  8
0
 62
     0
 10
64.10754347902602
 20
-33.406056341606401
 30
0.0
 11
64.504418479026015
 21
-32.718648677352512
 31
0.0
  0
LINE
  5
1615
  8
0
 62
     0
 10
62.916918479026023
 20
-35.468279334368091
 30
0.0
 11
63.313793479026018
 21
-34.780871670114202
 31
0.0
  0
LINE
  5
1616
  8
0
 62
     0
 10
66.488793763524143
 20
-26.531979863319371
 30
0.0
 11
66.885668763524137
 21
-25.844572199065482
 31
0.0
  0
LINE
  5
1617
  8
0
 62
     0
 10
65.298168763524146
 20
-28.594202856081068
 30
0.0
 11
65.69504376352414
 21
-27.906795191827172
 31
0.0
  0
LINE
  5
1618
  8
0
 62
     0
 10
64.107543763524134
 20
-30.656425848842758
 30
0.0
 11
64.504418763524143
 21
-29.969018184588869
 31
0.0
  0
LINE
  5
1619
  8
0
 62
     0
 10
62.916918763524151
 20
-32.718648841604463
 30
0.0
 11
63.313793763524153
 21
-32.031241177350559
 31
0.0
  0
LINE
  5
161A
  8
0
 62
     0
 10
65.298169048019545
 20
-25.84457236332042
 30
0.0
 11
65.567847223982412
 21
-25.377476060860229
 31
0.0
  0
LINE
  5
161B
  8
0
 62
     0
 10
64.107544048019548
 20
-27.90679535608211
 30
0.0
 11
64.504419048019543
 21
-27.219387691828221
 31
0.0
  0
LINE
  5
161C
  8
0
 62
     0
 10
62.916919048019551
 20
-29.969018348843811
 30
0.0
 11
63.313794048019552
 21
-29.281610684589911
 31
0.0
  0
LINE
  5
161D
  8
0
 62
     0
 10
68.074618366010043
 20
-26.53506405876502
 30
0.0
 11
67.677743366010048
 21
-25.84765639451113
 31
0.0
  0
LINE
  5
161E
  8
0
 62
     0
 10
69.26524336601004
 20
-28.59728705152672
 30
0.0
 11
68.868368366010046
 21
-27.90987938727282
 31
0.0
  0
LINE
  5
161F
  8
0
 62
     0
 10
70.197142684021429
 20
-30.211384017861239
 30
0.0
 11
70.058993366010043
 21
-29.972102380034521
 31
0.0
  0
LINE
  5
1620
  8
0
 62
     0
 10
66.883993650506127
 20
-27.22247155876455
 30
0.0
 11
66.487118650506133
 21
-26.53506389451065
 31
0.0
  0
LINE
  5
1621
  8
0
 62
     0
 10
68.074618650506125
 20
-29.28469455152625
 30
0.0
 11
67.67774365050613
 21
-28.59728688727235
 31
0.0
  0
LINE
  5
1622
  8
0
 62
     0
 10
69.265243650506122
 20
-31.34691754428794
 30
0.0
 11
68.868368650506127
 21
-30.65950988003404
 31
0.0
  0
LINE
  5
1623
  8
0
 62
     0
 10
70.395733143549805
 20
-33.30498278366241
 30
0.0
 11
70.058993650506125
 21
-32.721732872795727
 31
0.0
  0
LINE
  5
1624
  8
0
 62
     0
 10
65.693368935002326
 20
-27.9098790587643
 30
0.0
 11
65.296493935002331
 21
-27.2224713945104
 31
0.0
  0
LINE
  5
1625
  8
0
 62
     0
 10
66.883993935002323
 20
-29.97210205152599
 30
0.0
 11
66.487118935002329
 21
-29.28469438727209
 31
0.0
  0
LINE
  5
1626
  8
0
 62
     0
 10
68.07461893500232
 20
-32.034325044287677
 30
0.0
 11
67.677743935002326
 21
-31.346917380033791
 31
0.0
  0
LINE
  5
1627
  8
0
 62
     0
 10
69.265243935002317
 20
-34.096548037049367
 30
0.0
 11
68.868368935002323
 21
-33.409140372795477
 31
0.0
  0
LINE
  5
1628
  8
0
 62
     0
 10
70.090281188391231
 20
-35.525554478056051
 30
0.0
 11
70.05899393500232
 21
-35.471363365557167
 31
0.0
  0
LINE
  5
1629
  8
0
 62
     0
 10
64.502744219498439
 20
-28.597286558763869
 30
0.0
 11
64.105869219498445
 21
-27.90987889450998
 31
0.0
  0
LINE
  5
162A
  8
0
 62
     0
 10
65.693369219498436
 20
-30.65950955152557
 30
0.0
 11
65.296494219498442
 21
-29.97210188727167
 31
0.0
  0
LINE
  5
162B
  8
0
 62
     0
 10
66.883994219498433
 20
-32.721732544287264
 30
0.0
 11
66.487119219498439
 21
-32.03432488003336
 31
0.0
  0
LINE
  5
162C
  8
0
 62
     0
 10
68.07461921949843
 20
-34.783955537048953
 30
0.0
 11
67.677744219498436
 21
-34.09654787279505
 31
0.0
  0
LINE
  5
162D
  8
0
 62
     0
 10
69.265244219498413
 20
-36.846178529810643
 30
0.0
 11
68.868369219498433
 21
-36.15877086555674
 31
0.0
  0
LINE
  5
162E
  8
0
 62
     0
 10
63.312119503995341
 20
-29.284694058764849
 30
0.0
 11
63.001826610172699
 21
-28.74725100143646
 31
0.0
  0
LINE
  5
162F
  8
0
 62
     0
 10
64.502744503995331
 20
-31.34691705152655
 30
0.0
 11
64.105869503995336
 21
-30.659509387272649
 31
0.0
  0
LINE
  5
1630
  8
0
 62
     0
 10
65.693369503995328
 20
-33.409140044288243
 30
0.0
 11
65.296494503995334
 21
-32.721732380034339
 31
0.0
  0
LINE
  5
1631
  8
0
 62
     0
 10
66.883994503995325
 20
-35.471363037049933
 30
0.0
 11
66.487119503995331
 21
-34.783955372796029
 31
0.0
  0
LINE
  5
1632
  8
0
 62
     0
 10
68.074619503995322
 20
-37.533586029811623
 30
0.0
 11
67.677744503995314
 21
-36.846178365557719
 31
0.0
  0
LINE
  5
1633
  8
0
 62
     0
 10
63.312119788490669
 20
-32.034324551526602
 30
0.0
 11
62.915244788490661
 21
-31.346916887272709
 31
0.0
  0
LINE
  5
1634
  8
0
 62
     0
 10
64.502744788490659
 20
-34.096547544288292
 30
0.0
 11
64.105869788490665
 21
-33.409139880034388
 31
0.0
  0
LINE
  5
1635
  8
0
 62
     0
 10
65.693369788490656
 20
-36.158770537049982
 30
0.0
 11
65.296494788490662
 21
-35.471362872796092
 31
0.0
  0
LINE
  5
1636
  8
0
 62
     0
 10
66.883994788490654
 20
-38.220993529811672
 30
0.0
 11
66.487119788490659
 21
-37.533585865557782
 31
0.0
  0
LINE
  5
1637
  8
0
 62
     0
 10
67.693769233193592
 20
-39.623564010708037
 30
0.0
 11
67.677744788490656
 21
-39.595808858319472
 31
0.0
  0
LINE
  5
1638
  8
0
 62
     0
 10
63.312120072986822
 20
-34.783955044287907
 30
0.0
 11
62.915245072986821
 21
-34.096547380034018
 31
0.0
  0
LINE
  5
1639
  8
0
 62
     0
 10
64.502745072986812
 20
-36.846178037049611
 30
0.0
 11
64.105870072986818
 21
-36.158770372795708
 31
0.0
  0
LINE
  5
163A
  8
0
 62
     0
 10
65.693370072986809
 20
-38.908401029811301
 30
0.0
 11
65.296495072986815
 21
-38.220993365557398
 31
0.0
  0
LINE
  5
163B
  8
0
 62
     0
 10
66.887502056367893
 20
-39.595714905088258
 30
0.0
 11
67.681252056367896
 21
-39.595714905088258
 31
0.0
  0
LINE
  5
163C
  8
0
 62
     0
 10
65.089167657157304
 20
-39.595714905088258
 30
0.0
 11
65.300002056367873
 21
-39.595714905088258
 31
0.0
  0
LINE
  5
163D
  8
0
 62
     0
 10
66.887502056367524
 20
-38.220899905088132
 30
0.0
 11
67.681252056367526
 21
-38.220899905088132
 31
0.0
  0
LINE
  5
163E
  8
0
 62
     0
 10
64.506252056367515
 20
-38.220899905088132
 30
0.0
 11
65.300002056367518
 21
-38.220899905088132
 31
0.0
  0
LINE
  5
163F
  8
0
 62
     0
 10
69.268752056367532
 20
-36.846084905088013
 30
0.0
 11
69.694015958049945
 21
-36.846084905088013
 31
0.0
  0
LINE
  5
1640
  8
0
 62
     0
 10
66.887502056367524
 20
-36.846084905088013
 30
0.0
 11
67.681252056367526
 21
-36.846084905088013
 31
0.0
  0
LINE
  5
1641
  8
0
 62
     0
 10
64.506252056367515
 20
-36.846084905088013
 30
0.0
 11
65.300002056367518
 21
-36.846084905088013
 31
0.0
  0
LINE
  5
1642
  8
0
 62
     0
 10
69.268752056367546
 20
-35.471269905088789
 30
0.0
 11
70.062502056367549
 21
-35.471269905088789
 31
0.0
  0
LINE
  5
1643
  8
0
 62
     0
 10
66.887502056367538
 20
-35.471269905088789
 30
0.0
 11
67.681252056367541
 21
-35.471269905088789
 31
0.0
  0
LINE
  5
1644
  8
0
 62
     0
 10
64.506252056367529
 20
-35.471269905088789
 30
0.0
 11
65.300002056367532
 21
-35.471269905088789
 31
0.0
  0
LINE
  5
1645
  8
0
 62
     0
 10
62.723937533697608
 20
-35.471269905088789
 30
0.0
 11
62.918752056367531
 21
-35.471269905088789
 31
0.0
  0
LINE
  5
1646
  8
0
 62
     0
 10
69.268752056367546
 20
-34.09645490508867
 30
0.0
 11
70.062502056367549
 21
-34.09645490508867
 31
0.0
  0
LINE
  5
1647
  8
0
 62
     0
 10
66.887502056367538
 20
-34.09645490508867
 30
0.0
 11
67.681252056367541
 21
-34.09645490508867
 31
0.0
  0
LINE
  5
1648
  8
0
 62
     0
 10
64.506252056367529
 20
-34.09645490508867
 30
0.0
 11
65.300002056367532
 21
-34.09645490508867
 31
0.0
  0
LINE
  5
1649
  8
0
 62
     0
 10
62.494640662533129
 20
-34.09645490508867
 30
0.0
 11
62.918752056367531
 21
-34.09645490508867
 31
0.0
  0
LINE
  5
164A
  8
0
 62
     0
 10
69.268752056367546
 20
-32.721639905088537
 30
0.0
 11
70.062502056367549
 21
-32.721639905088537
 31
0.0
  0
LINE
  5
164B
  8
0
 62
     0
 10
66.887502056367538
 20
-32.721639905088537
 30
0.0
 11
67.681252056367541
 21
-32.721639905088537
 31
0.0
  0
LINE
  5
164C
  8
0
 62
     0
 10
64.506252056367529
 20
-32.721639905088537
 30
0.0
 11
65.300002056367532
 21
-32.721639905088537
 31
0.0
  0
LINE
  5
164D
  8
0
 62
     0
 10
62.413764577424438
 20
-32.721639905088537
 30
0.0
 11
62.918752056367531
 21
-32.721639905088537
 31
0.0
  0
LINE
  5
164E
  8
0
 62
     0
 10
69.268752056367546
 20
-31.346824905088411
 30
0.0
 11
70.062502056367549
 21
-31.346824905088411
 31
0.0
  0
LINE
  5
164F
  8
0
 62
     0
 10
66.887502056367538
 20
-31.346824905088411
 30
0.0
 11
67.681252056367541
 21
-31.346824905088411
 31
0.0
  0
LINE
  5
1650
  8
0
 62
     0
 10
64.506252056367529
 20
-31.346824905088411
 30
0.0
 11
65.300002056367532
 21
-31.346824905088411
 31
0.0
  0
LINE
  5
1651
  8
0
 62
     0
 10
62.47216148798725
 20
-31.346824905088411
 30
0.0
 11
62.918752056367531
 21
-31.346824905088411
 31
0.0
  0
LINE
  5
1652
  8
0
 62
     0
 10
69.268752056367546
 20
-29.972009905088282
 30
0.0
 11
70.062502056367549
 21
-29.972009905088282
 31
0.0
  0
LINE
  5
1653
  8
0
 62
     0
 10
66.887502056367538
 20
-29.972009905088282
 30
0.0
 11
67.681252056367541
 21
-29.972009905088282
 31
0.0
  0
LINE
  5
1654
  8
0
 62
     0
 10
64.506252056367529
 20
-29.972009905088282
 30
0.0
 11
65.300002056367532
 21
-29.972009905088282
 31
0.0
  0
LINE
  5
1655
  8
0
 62
     0
 10
62.676354880830331
 20
-29.972009905088282
 30
0.0
 11
62.918752056367531
 21
-29.972009905088282
 31
0.0
  0
LINE
  5
1656
  8
0
 62
     0
 10
69.268752056367532
 20
-28.597194905088159
 30
0.0
 11
69.773828114777658
 21
-28.597194905088159
 31
0.0
  0
LINE
  5
1657
  8
0
 62
     0
 10
66.887502056367524
 20
-28.597194905088159
 30
0.0
 11
67.681252056367526
 21
-28.597194905088159
 31
0.0
  0
LINE
  5
1658
  8
0
 62
     0
 10
64.506252056367515
 20
-28.597194905088159
 30
0.0
 11
65.300002056367518
 21
-28.597194905088159
 31
0.0
  0
LINE
  5
1659
  8
0
 62
     0
 10
66.887502056367524
 20
-27.22237990508803
 30
0.0
 11
67.681252056367526
 21
-27.22237990508803
 31
0.0
  0
LINE
  5
165A
  8
0
 62
     0
 10
64.506252056367515
 20
-27.22237990508803
 30
0.0
 11
65.300002056367518
 21
-27.22237990508803
 31
0.0
  0
LINE
  5
165B
  8
0
 62
     0
 10
66.887502056367893
 20
-25.8475649050879
 30
0.0
 11
67.681252056367896
 21
-25.8475649050879
 31
0.0
  0
LINE
  5
165C
  8
0
 62
     0
 10
64.789499899345174
 20
-25.8475649050879
 30
0.0
 11
65.300002056367873
 21
-25.8475649050879
 31
0.0
  0
ENDBLK
  5
165E
  8
0
  0
BLOCK
  8
0
  2
*X40
 70
     1
 10
0.0
 20
0.0
 30
0.0
  3
*X40
  1

  0
LINE
  5
1660
  8
0
 62
     0
 10
83.814511216302904
 20
-25.53260576478397
 30
0.0
 11
83.478584966689596
 21
-25.196679515170221
 31
0.0
  0
LINE
  5
1661
  8
0
 62
     0
 10
83.442403903508875
 20
-26.283030467122899
 30
0.0
 11
82.356052951556634
 21
-25.196679515170668
 31
0.0
  0
LINE
  5
1662
  8
0
 62
     0
 10
83.106138470915994
 20
-27.069297049663419
 30
0.0
 11
81.233520936422806
 21
-25.196679515170221
 31
0.0
  0
LINE
  5
1663
  8
0
 62
     0
 10
82.808259599454686
 20
-27.89395019333779
 30
0.0
 11
80.110988921288026
 21
-25.196679515170668
 31
0.0
  0
LINE
  5
1664
  8
0
 62
     0
 10
82.552063226039991
 20
-28.760285835054219
 30
0.0
 11
78.988456906155989
 21
-25.196679515170221
 31
0.0
  0
LINE
  5
1665
  8
0
 62
     0
 10
82.341858827453507
 20
-29.672613451602949
 30
0.0
 11
77.865924891021223
 21
-25.196679515170668
 31
0.0
  0
LINE
  5
1666
  8
0
 62
     0
 10
82.183378656876812
 20
-30.636665296160121
 30
0.0
 11
76.743392875889185
 21
-25.19667951517204
 31
0.0
  0
LINE
  5
1667
  8
0
 62
     0
 10
82.084446336241854
 20
-31.66026499065811
 30
0.0
 11
75.620860860754419
 21
-25.196679515170668
 31
0.0
  0
LINE
  5
1668
  8
0
 62
     0
 10
82.056137059877528
 20
-32.75448772942719
 30
0.0
 11
74.498328845622382
 21
-25.19667951517204
 31
0.0
  0
LINE
  5
1669
  8
0
 62
     0
 10
82.114958934626884
 20
-33.93584161930994
 30
0.0
 11
73.375796830487616
 21
-25.196679515170668
 31
0.0
  0
LINE
  5
166A
  8
0
 62
     0
 10
82.287434173704696
 20
-35.230848873522973
 30
0.0
 11
72.253264815353745
 21
-25.19667951517204
 31
0.0
  0
LINE
  5
166B
  8
0
 62
     0
 10
82.621427168940954
 20
-36.687373883890807
 30
0.0
 11
71.130732800219448
 21
-25.196679515169311
 31
0.0
  0
LINE
  5
166C
  8
0
 62
     0
 10
83.222921956374634
 20
-38.411400686459729
 30
0.0
 11
70.008200785085592
 21
-25.19667951517113
 31
0.0
  0
LINE
  5
166D
  8
0
 62
     0
 10
83.685668769952827
 20
-39.996679515171309
 30
0.0
 11
69.377978148153943
 21
-25.688988893372429
 31
0.0
  0
LINE
  5
166E
  8
0
 62
     0
 10
82.563136754818061
 20
-39.996679515169951
 30
0.0
 11
70.221689710112955
 21
-27.655232470464849
 31
0.0
  0
LINE
  5
166F
  8
0
 62
     0
 10
81.440604739686023
 20
-39.996679515171309
 30
0.0
 11
70.674333618989294
 21
-29.23040839447458
 31
0.0
  0
LINE
  5
1670
  8
0
 62
     0
 10
80.318072724551243
 20
-39.996679515169951
 30
0.0
 11
70.922537235529035
 21
-30.601144026147718
 31
0.0
  0
LINE
  5
1671
  8
0
 62
     0
 10
79.195540709417401
 20
-39.996679515171309
 30
0.0
 11
71.03615576498305
 21
-31.837294570736962
 31
0.0
  0
LINE
  5
1672
  8
0
 62
     0
 10
78.073008694284454
 20
-39.996679515169951
 30
0.0
 11
71.050577403539592
 21
-32.974248224425082
 31
0.0
  0
LINE
  5
1673
  8
0
 62
     0
 10
76.950476679149233
 20
-39.996679515170399
 30
0.0
 11
70.986683034272119
 21
-34.03288587029283
 31
0.0
  0
LINE
  5
1674
  8
0
 62
     0
 10
75.82794466401765
 20
-39.996679515169951
 30
0.0
 11
70.857996371714293
 21
-35.026731222866601
 31
0.0
  0
LINE
  5
1675
  8
0
 62
     0
 10
74.705412648882429
 20
-39.996679515170399
 30
0.0
 11
70.673839234103525
 21
-35.96510610039104
 31
0.0
  0
LINE
  5
1676
  8
0
 62
     0
 10
73.582880633750847
 20
-39.99667951517177
 30
0.0
 11
70.440923609640322
 21
-36.854722491061239
 31
0.0
  0
LINE
  5
1677
  8
0
 62
     0
 10
72.460348618615626
 20
-39.996679515170399
 30
0.0
 11
70.164234323841356
 21
-37.700565220395667
 31
0.0
  0
LINE
  5
1678
  8
0
 62
     0
 10
71.337816603482679
 20
-39.996679515170399
 30
0.0
 11
69.847553722342127
 21
-38.506416634030302
 31
0.0
  0
LINE
  5
1679
  8
0
 62
     0
 10
70.215284588347913
 20
-39.996679515169042
 30
0.0
 11
69.493790512206488
 21
-39.275185439027609
 31
0.0
  0
LINE
  5
167A
  8
0
 62
     0
 10
82.992925655580621
 20
-39.996679515172218
 30
0.0
 11
83.649259238552986
 21
-39.340345932199853
 31
0.0
  0
LINE
  5
167B
  8
0
 62
     0
 10
81.870393640447205
 20
-39.996679515170399
 30
0.0
 11
83.292386707787955
 21
-38.57468644782967
 31
0.0
  0
LINE
  5
167C
  8
0
 62
     0
 10
80.747861625313817
 20
-39.996679515170399
 30
0.0
 11
82.972377517668065
 21
-37.772163622816151
 31
0.0
  0
LINE
  5
167D
  8
0
 62
     0
 10
79.625329610180415
 20
-39.996679515170399
 30
0.0
 11
82.692075803668558
 21
-36.929933321682263
 31
0.0
  0
LINE
  5
167E
  8
0
 62
     0
 10
78.502797595047014
 20
-39.996679515170399
 30
0.0
 11
82.455176966297586
 21
-36.044300143919827
 31
0.0
  0
LINE
  5
167F
  8
0
 62
     0
 10
77.380265579911793
 20
-39.996679515172218
 30
0.0
 11
82.266544076066566
 21
-35.110401019017452
 31
0.0
  0
LINE
  5
1680
  8
0
 62
     0
 10
76.257733564778391
 20
-39.996679515170399
 30
0.0
 11
82.132710715897716
 21
-34.121702364051089
 31
0.0
  0
LINE
  5
1681
  8
0
 62
     0
 10
75.135201549644989
 20
-39.996679515170399
 30
0.0
 11
82.062722528737154
 21
-33.069158536078248
 31
0.0
  0
LINE
  5
1682
  8
0
 62
     0
 10
74.012669534511588
 20
-39.996679515170399
 30
0.0
 11
82.069644702309233
 21
-31.939704347372761
 31
0.0
  0
LINE
  5
1683
  8
0
 62
     0
 10
72.890137519378186
 20
-39.996679515170399
 30
0.0
 11
82.173521450835324
 21
-30.713295583713261
 31
0.0
  0
LINE
  5
1684
  8
0
 62
     0
 10
71.767605504244784
 20
-39.996679515170399
 30
0.0
 11
82.407990029058055
 21
-29.356294990357132
 31
0.0
  0
LINE
  5
1685
  8
0
 62
     0
 10
70.645073489111383
 20
-39.996679515170399
 30
0.0
 11
82.838327959532762
 21
-27.803425044749019
 31
0.0
  0
LINE
  5
1686
  8
0
 62
     0
 10
69.522541473976162
 20
-39.996679515172218
 30
0.0
 11
83.632369593893586
 21
-25.88685139525478
 31
0.0
  0
LINE
  5
1687
  8
0
 62
     0
 10
69.815359920545234
 20
-38.581329053469751
 30
0.0
 11
83.200009458843866
 21
-25.19667951517113
 31
0.0
  0
LINE
  5
1688
  8
0
 62
     0
 10
70.449853788279142
 20
-36.824303170602427
 30
0.0
 11
82.077477443708631
 21
-25.196679515172949
 31
0.0
  0
LINE
  5
1689
  8
0
 62
     0
 10
70.801506465322745
 20
-35.35011847842361
 30
0.0
 11
80.954945428575215
 21
-25.19667951517113
 31
0.0
  0
LINE
  5
168A
  8
0
 62
     0
 10
70.985669991798204
 20
-34.04342293681475
 30
0.0
 11
79.832413413441813
 21
-25.19667951517113
 31
0.0
  0
LINE
  5
168B
  8
0
 62
     0
 10
71.053121810358789
 20
-32.853439103120763
 30
0.0
 11
78.709881398308426
 21
-25.19667951517113
 31
0.0
  0
LINE
  5
168C
  8
0
 62
     0
 10
71.031630017097996
 20
-31.752398881248158
 30
0.0
 11
77.587349383175024
 21
-25.19667951517113
 31
0.0
  0
LINE
  5
168D
  8
0
 62
     0
 10
70.938338905811179
 20
-30.72315797740157
 30
0.0
 11
76.464817368039803
 21
-25.196679515172949
 31
0.0
  0
LINE
  5
168E
  8
0
 62
     0
 10
70.784688270467086
 20
-29.754276597610438
 30
0.0
 11
75.342285352904582
 21
-25.196679515172949
 31
0.0
  0
LINE
  5
168F
  8
0
 62
     0
 10
70.578728614580541
 20
-28.837704238363589
 30
0.0
 11
74.219753337773
 21
-25.19667951517113
 31
0.0
  0
LINE
  5
1690
  8
0
 62
     0
 10
70.326342499320162
 20
-27.967558338492381
 30
0.0
 11
73.097221322639598
 21
-25.196679515172949
 31
0.0
  0
LINE
  5
1691
  8
0
 62
     0
 10
70.031944110598474
 20
-27.139424712080661
 30
0.0
 11
71.974689307506196
 21
-25.196679515172949
 31
0.0
  0
LINE
  5
1692
  8
0
 62
     0
 10
69.698905482257032
 20
-26.349931325286889
 30
0.0
 11
70.852157292370975
 21
-25.196679515172949
 31
0.0
  0
LINE
  5
1693
  8
0
 62
     0
 10
69.329828706917397
 20
-25.596476085493119
 30
0.0
 11
69.729625277239393
 21
-25.19667951517113
 31
0.0
  0
ENDBLK
  5
1695
  8
0
  0
BLOCK
  8
0
  2
*U41
 70
     1
 10
0.0
 20
0.0
 30
0.0
  3
*U41
  1

  0
SOLID
  5
178F
  8
SAPA_FOGBAND
  6
CONTINUOUS
 10
-100.6375682207575
 20
19.010328293501608
 30
0.0
 11
-100.8178457845307
 21
18.935654881595159
 31
0.0
 12
-100.4572906569843
 22
18.935654881595159
 32
0.0
 13
-100.4572906569843
 23
18.935654881595159
 33
0.0
210
0.0
220
0.0
230
1.0
  0
SOLID
  5
1790
  8
SAPA_FOGBAND
  6
CONTINUOUS
 10
-100.8178457845307
 20
18.935654881595159
 30
0.0
 11
-100.89251919643721
 21
18.755377317821971
 31
0.0
 12
-100.3826172450779
 22
18.755377317821971
 32
0.0
 13
-100.3826172450779
 23
18.755377317821971
 33
0.0
210
0.0
220
0.0
230
1.0
  0
SOLID
  5
1791
  8
SAPA_FOGBAND
  6
CONTINUOUS
 10
100.8178457845307
 20
18.935654881595159
 30
0.0
 11
100.4572906569843
 21
18.935654881595159
 31
0.0
 12
100.3826172450779
 22
18.755377317821971
 32
0.0
 13
100.3826172450779
 23
18.755377317821971
 33
0.0
210
0.0
220
0.0
230
-1.0
  0
SOLID
  5
1792
  8
SAPA_FOGBAND
  6
CONTINUOUS
 10
100.8178457845307
 20
18.575099754048772
 30
0.0
 11
100.4572906569843
 21
18.575099754048772
 31
0.0
 12
100.6375682207575
 22
18.500426342142319
 32
0.0
 13
100.6375682207575
 23
18.500426342142319
 33
0.0
210
0.0
220
0.0
230
-1.0
  0
SOLID
  5
1793
  8
SAPA_FOGBAND
  6
CONTINUOUS
 10
-100.89251919643721
 20
18.755377317821971
 30
0.0
 11
-100.8178457845307
 21
18.575099754048772
 31
0.0
 12
-100.4572906569843
 22
18.575099754048772
 32
0.0
 13
-100.4572906569843
 23
18.575099754048772
 33
0.0
210
0.0
220
0.0
230
1.0
  0
SOLID
  5
1794
  8
SAPA_FOGBAND
  6
CONTINUOUS
 10
100.89251919643721
 20
18.755377317821971
 30
0.0
 11
100.3826172450779
 21
18.755377317821971
 31
0.0
 12
100.4572906569843
 22
18.575099754048772
 32
0.0
 13
100.4572906569843
 23
18.575099754048772
 33
0.0
210
0.0
220
0.0
230
-1.0
  0
LINE
  5
1795
  8
SAPA_FOGBAND
  6
CONTINUOUS
 10
-100.6375682207575
 20
19.010328293501608
 30
0.0
 11
-100.8178457845307
 21
18.935654881595159
 31
0.0
  0
LINE
  5
1796
  8
SAPA_FOGBAND
  6
CONTINUOUS
 10
-100.4572906569843
 20
18.935654881595159
 30
0.0
 11
-100.6375682207575
 21
19.010328293501608
 31
0.0
  0
LINE
  5
1797
  8
SAPA_FOGBAND
  6
CONTINUOUS
 10
-100.8178457845307
 20
18.935654881595159
 30
0.0
 11
-100.89251919643721
 21
18.755377317821971
 31
0.0
  0
LINE
  5
1798
  8
SAPA_FOGBAND
  6
CONTINUOUS
 10
-100.4572906569843
 20
18.935654881595159
 30
0.0
 11
-100.3826172450779
 21
18.755377317821971
 31
0.0
  0
LINE
  5
1799
  8
SAPA_FOGBAND
  6
CONTINUOUS
 10
-100.4572906569843
 20
18.575099754048772
 30
0.0
 11
-100.6375682207575
 21
18.500426342142319
 31
0.0
  0
LINE
  5
179A
  8
SAPA_FOGBAND
  6
CONTINUOUS
 10
-100.6375682207575
 20
18.500426342142319
 30
0.0
 11
-100.8178457845307
 21
18.575099754048772
 31
0.0
  0
LINE
  5
179B
  8
SAPA_FOGBAND
  6
CONTINUOUS
 10
-100.89251919643721
 20
18.755377317821971
 30
0.0
 11
-100.8178457845307
 21
18.575099754048772
 31
0.0
  0
LINE
  5
179C
  8
SAPA_FOGBAND
  6
CONTINUOUS
 10
-100.3826172450779
 20
18.755377317821971
 30
0.0
 11
-100.4572906569843
 21
18.575099754048772
 31
0.0
  0
ENDBLK
  5
179E
  8
0
  0
BLOCK
  8
0
  2
*U42
 70
     1
 10
0.0
 20
0.0
 30
0.0
  3
*U42
  1

  0
SOLID
  5
180F
  8
SAPA_FOGBAND
  6
CONTINUOUS
 10
-100.6375682207573
 20
-18.357181058676382
 30
0.0
 11
-100.8178457845305
 21
-18.43185447058282
 31
0.0
 12
-100.4572906569841
 22
-18.43185447058282
 32
0.0
 13
-100.4572906569841
 23
-18.43185447058282
 33
0.0
210
0.0
220
0.0
230
1.0
  0
SOLID
  5
1810
  8
SAPA_FOGBAND
  6
CONTINUOUS
 10
-100.8178457845305
 20
-18.43185447058282
 30
0.0
 11
-100.89251919643689
 21
-18.612132034356019
 31
0.0
 12
-100.3826172450777
 22
-18.612132034356019
 32
0.0
 13
-100.3826172450777
 23
-18.612132034356019
 33
0.0
210
0.0
220
0.0
230
1.0
  0
SOLID
  5
1811
  8
SAPA_FOGBAND
  6
CONTINUOUS
 10
100.8178457845305
 20
-18.43185447058282
 30
0.0
 11
100.4572906569841
 21
-18.43185447058282
 31
0.0
 12
100.3826172450777
 22
-18.612132034356019
 32
0.0
 13
100.3826172450777
 23
-18.612132034356019
 33
0.0
210
0.0
220
0.0
230
-1.0
  0
SOLID
  5
1812
  8
SAPA_FOGBAND
  6
CONTINUOUS
 10
100.8178457845305
 20
-18.792409598129218
 30
0.0
 11
100.4572906569841
 21
-18.792409598129218
 31
0.0
 12
100.6375682207573
 22
-18.86708301003566
 32
0.0
 13
100.6375682207573
 23
-18.86708301003566
 33
0.0
210
0.0
220
0.0
230
-1.0
  0
SOLID
  5
1813
  8
SAPA_FOGBAND
  6
CONTINUOUS
 10
-100.89251919643689
 20
-18.612132034356019
 30
0.0
 11
-100.8178457845305
 21
-18.792409598129218
 31
0.0
 12
-100.4572906569841
 22
-18.792409598129218
 32
0.0
 13
-100.4572906569841
 23
-18.792409598129218
 33
0.0
210
0.0
220
0.0
230
1.0
  0
SOLID
  5
1814
  8
SAPA_FOGBAND
  6
CONTINUOUS
 10
100.89251919643689
 20
-18.612132034356019
 30
0.0
 11
100.3826172450777
 21
-18.612132034356019
 31
0.0
 12
100.4572906569841
 22
-18.792409598129218
 32
0.0
 13
100.4572906569841
 23
-18.792409598129218
 33
0.0
210
0.0
220
0.0
230
-1.0
  0
LINE
  5
1815
  8
SAPA_FOGBAND
  6
CONTINUOUS
 10
-100.6375682207573
 20
-18.357181058676382
 30
0.0
 11
-100.8178457845305
 21
-18.43185447058282
 31
0.0
  0
LINE
  5
1816
  8
SAPA_FOGBAND
  6
CONTINUOUS
 10
-100.4572906569841
 20
-18.43185447058282
 30
0.0
 11
-100.6375682207573
 21
-18.357181058676382
 31
0.0
  0
LINE
  5
1817
  8
SAPA_FOGBAND
  6
CONTINUOUS
 10
-100.8178457845305
 20
-18.43185447058282
 30
0.0
 11
-100.89251919643689
 21
-18.612132034356019
 31
0.0
  0
LINE
  5
1818
  8
SAPA_FOGBAND
  6
CONTINUOUS
 10
-100.4572906569841
 20
-18.43185447058282
 30
0.0
 11
-100.3826172450777
 21
-18.612132034356019
 31
0.0
  0
LINE
  5
1819
  8
SAPA_FOGBAND
  6
CONTINUOUS
 10
-100.4572906569841
 20
-18.792409598129218
 30
0.0
 11
-100.6375682207573
 21
-18.86708301003566
 31
0.0
  0
LINE
  5
181A
  8
SAPA_FOGBAND
  6
CONTINUOUS
 10
-100.6375682207573
 20
-18.86708301003566
 30
0.0
 11
-100.8178457845305
 21
-18.792409598129218
 31
0.0
  0
LINE
  5
181B
  8
SAPA_FOGBAND
  6
CONTINUOUS
 10
-100.89251919643689
 20
-18.612132034356019
 30
0.0
 11
-100.8178457845305
 21
-18.792409598129218
 31
0.0
  0
LINE
  5
181C
  8
SAPA_FOGBAND
  6
CONTINUOUS
 10
-100.3826172450777
 20
-18.612132034356019
 30
0.0
 11
-100.4572906569841
 21
-18.792409598129218
 31
0.0
  0
ENDBLK
  5
181E
  8
0
  0
BLOCK
  8
0
  2
*U43
 70
     1
 10
0.0
 20
0.0
 30
0.0
  3
*U43
  1

  0
SOLID
  5
185A
  8
SAPA_FOGBAND
  6
CONTINUOUS
 10
-100.6375682207575
 20
19.010328293501608
 30
0.0
 11
-100.8178457845307
 21
18.935654881595159
 31
0.0
 12
-100.4572906569843
 22
18.935654881595159
 32
0.0
 13
-100.4572906569843
 23
18.935654881595159
 33
0.0
210
0.0
220
0.0
230
1.0
  0
SOLID
  5
185B
  8
SAPA_FOGBAND
  6
CONTINUOUS
 10
-100.8178457845307
 20
18.935654881595159
 30
0.0
 11
-100.89251919643721
 21
18.755377317821971
 31
0.0
 12
-100.3826172450779
 22
18.755377317821971
 32
0.0
 13
-100.3826172450779
 23
18.755377317821971
 33
0.0
210
0.0
220
0.0
230
1.0
  0
SOLID
  5
185C
  8
SAPA_FOGBAND
  6
CONTINUOUS
 10
100.8178457845307
 20
18.935654881595159
 30
0.0
 11
100.4572906569843
 21
18.935654881595159
 31
0.0
 12
100.3826172450779
 22
18.755377317821971
 32
0.0
 13
100.3826172450779
 23
18.755377317821971
 33
0.0
210
0.0
220
0.0
230
-1.0
  0
SOLID
  5
185D
  8
SAPA_FOGBAND
  6
CONTINUOUS
 10
100.8178457845307
 20
18.575099754048772
 30
0.0
 11
100.4572906569843
 21
18.575099754048772
 31
0.0
 12
100.6375682207575
 22
18.500426342142319
 32
0.0
 13
100.6375682207575
 23
18.500426342142319
 33
0.0
210
0.0
220
0.0
230
-1.0
  0
SOLID
  5
185E
  8
SAPA_FOGBAND
  6
CONTINUOUS
 10
-100.89251919643721
 20
18.755377317821971
 30
0.0
 11
-100.8178457845307
 21
18.575099754048772
 31
0.0
 12
-100.4572906569843
 22
18.575099754048772
 32
0.0
 13
-100.4572906569843
 23
18.575099754048772
 33
0.0
210
0.0
220
0.0
230
1.0
  0
SOLID
  5
185F
  8
SAPA_FOGBAND
  6
CONTINUOUS
 10
100.89251919643721
 20
18.755377317821971
 30
0.0
 11
100.3826172450779
 21
18.755377317821971
 31
0.0
 12
100.4572906569843
 22
18.575099754048772
 32
0.0
 13
100.4572906569843
 23
18.575099754048772
 33
0.0
210
0.0
220
0.0
230
-1.0
  0
LINE
  5
1860
  8
SAPA_FOGBAND
  6
CONTINUOUS
 10
-100.6375682207575
 20
19.010328293501608
 30
0.0
 11
-100.8178457845307
 21
18.935654881595159
 31
0.0
  0
LINE
  5
1861
  8
SAPA_FOGBAND
  6
CONTINUOUS
 10
-100.4572906569843
 20
18.935654881595159
 30
0.0
 11
-100.6375682207575
 21
19.010328293501608
 31
0.0
  0
LINE
  5
1862
  8
SAPA_FOGBAND
  6
CONTINUOUS
 10
-100.8178457845307
 20
18.935654881595159
 30
0.0
 11
-100.89251919643721
 21
18.755377317821971
 31
0.0
  0
LINE
  5
1863
  8
SAPA_FOGBAND
  6
CONTINUOUS
 10
-100.4572906569843
 20
18.935654881595159
 30
0.0
 11
-100.3826172450779
 21
18.755377317821971
 31
0.0
  0
LINE
  5
1864
  8
SAPA_FOGBAND
  6
CONTINUOUS
 10
-100.4572906569843
 20
18.575099754048772
 30
0.0
 11
-100.6375682207575
 21
18.500426342142319
 31
0.0
  0
LINE
  5
1865
  8
SAPA_FOGBAND
  6
CONTINUOUS
 10
-100.6375682207575
 20
18.500426342142319
 30
0.0
 11
-100.8178457845307
 21
18.575099754048772
 31
0.0
  0
LINE
  5
1866
  8
SAPA_FOGBAND
  6
CONTINUOUS
 10
-100.89251919643721
 20
18.755377317821971
 30
0.0
 11
-100.8178457845307
 21
18.575099754048772
 31
0.0
  0
LINE
  5
1867
  8
SAPA_FOGBAND
  6
CONTINUOUS
 10
-100.3826172450779
 20
18.755377317821971
 30
0.0
 11
-100.4572906569843
 21
18.575099754048772
 31
0.0
  0
ENDBLK
  5
1869
  8
0
  0
BLOCK
  8
0
  2
*U44
 70
     1
 10
0.0
 20
0.0
 30
0.0
  3
*U44
  1

  0
SOLID
  5
18DA
  8
SAPA_FOGBAND
  6
CONTINUOUS
 10
-100.6375682207573
 20
-18.357181058676382
 30
0.0
 11
-100.8178457845305
 21
-18.43185447058282
 31
0.0
 12
-100.4572906569841
 22
-18.43185447058282
 32
0.0
 13
-100.4572906569841
 23
-18.43185447058282
 33
0.0
210
0.0
220
0.0
230
1.0
  0
SOLID
  5
18DB
  8
SAPA_FOGBAND
  6
CONTINUOUS
 10
-100.8178457845305
 20
-18.43185447058282
 30
0.0
 11
-100.89251919643689
 21
-18.612132034356019
 31
0.0
 12
-100.3826172450777
 22
-18.612132034356019
 32
0.0
 13
-100.3826172450777
 23
-18.612132034356019
 33
0.0
210
0.0
220
0.0
230
1.0
  0
SOLID
  5
18DC
  8
SAPA_FOGBAND
  6
CONTINUOUS
 10
100.8178457845305
 20
-18.43185447058282
 30
0.0
 11
100.4572906569841
 21
-18.43185447058282
 31
0.0
 12
100.3826172450777
 22
-18.612132034356019
 32
0.0
 13
100.3826172450777
 23
-18.612132034356019
 33
0.0
210
0.0
220
0.0
230
-1.0
  0
SOLID
  5
18DD
  8
SAPA_FOGBAND
  6
CONTINUOUS
 10
100.8178457845305
 20
-18.792409598129218
 30
0.0
 11
100.4572906569841
 21
-18.792409598129218
 31
0.0
 12
100.6375682207573
 22
-18.86708301003566
 32
0.0
 13
100.6375682207573
 23
-18.86708301003566
 33
0.0
210
0.0
220
0.0
230
-1.0
  0
SOLID
  5
18DE
  8
SAPA_FOGBAND
  6
CONTINUOUS
 10
-100.89251919643689
 20
-18.612132034356019
 30
0.0
 11
-100.8178457845305
 21
-18.792409598129218
 31
0.0
 12
-100.4572906569841
 22
-18.792409598129218
 32
0.0
 13
-100.4572906569841
 23
-18.792409598129218
 33
0.0
210
0.0
220
0.0
230
1.0
  0
SOLID
  5
18DF
  8
SAPA_FOGBAND
  6
CONTINUOUS
 10
100.89251919643689
 20
-18.612132034356019
 30
0.0
 11
100.3826172450777
 21
-18.612132034356019
 31
0.0
 12
100.4572906569841
 22
-18.792409598129218
 32
0.0
 13
100.4572906569841
 23
-18.792409598129218
 33
0.0
210
0.0
220
0.0
230
-1.0
  0
LINE
  5
18E0
  8
SAPA_FOGBAND
  6
CONTINUOUS
 10
-100.6375682207573
 20
-18.357181058676382
 30
0.0
 11
-100.8178457845305
 21
-18.43185447058282
 31
0.0
  0
LINE
  5
18E1
  8
SAPA_FOGBAND
  6
CONTINUOUS
 10
-100.4572906569841
 20
-18.43185447058282
 30
0.0
 11
-100.6375682207573
 21
-18.357181058676382
 31
0.0
  0
LINE
  5
18E2
  8
SAPA_FOGBAND
  6
CONTINUOUS
 10
-100.8178457845305
 20
-18.43185447058282
 30
0.0
 11
-100.89251919643689
 21
-18.612132034356019
 31
0.0
  0
LINE
  5
18E3
  8
SAPA_FOGBAND
  6
CONTINUOUS
 10
-100.4572906569841
 20
-18.43185447058282
 30
0.0
 11
-100.3826172450777
 21
-18.612132034356019
 31
0.0
  0
LINE
  5
18E4
  8
SAPA_FOGBAND
  6
CONTINUOUS
 10
-100.4572906569841
 20
-18.792409598129218
 30
0.0
 11
-100.6375682207573
 21
-18.86708301003566
 31
0.0
  0
LINE
  5
18E5
  8
SAPA_FOGBAND
  6
CONTINUOUS
 10
-100.6375682207573
 20
-18.86708301003566
 30
0.0
 11
-100.8178457845305
 21
-18.792409598129218
 31
0.0
  0
LINE
  5
18E6
  8
SAPA_FOGBAND
  6
CONTINUOUS
 10
-100.89251919643689
 20
-18.612132034356019
 30
0.0
 11
-100.8178457845305
 21
-18.792409598129218
 31
0.0
  0
LINE
  5
18E7
  8
SAPA_FOGBAND
  6
CONTINUOUS
 10
-100.3826172450777
 20
-18.612132034356019
 30
0.0
 11
-100.4572906569841
 21
-18.792409598129218
 31
0.0
  0
ENDBLK
  5
18E9
  8
0
  0
ENDSEC
  0
SECTION
  2
ENTITIES
  0
LINE
  5
8DA
  8
SAPA_ANSLUTNING
 10
-31.586668917196679
 20
-40.000000747074637
 30
0.0
 11
108.68481476691341
 21
-40.000000747074637
 31
0.0
  0
LINE
  5
8DC
  8
SAPA_ANSLUTNING
 10
-31.586668917196679
 20
-40.000000747074637
 30
0.0
 11
-117.0903844870286
 21
-59.497269440770879
 31
0.0
  0
LINE
  5
8DD
  8
SAPA_ANSLUTNING
 10
-20.458875149834508
 20
-17.632565406979889
 30
0.0
 11
-20.458875149834508
 21
-34.902634796834953
 31
0.0
  0
POLYLINE
  5
8DE
  8
SAPA_ANSLUTNING
 62
     7
 66
     1
 10
0.0
 20
0.0
 30
0.0
 70
     1
  0
VERTEX
  5
10C6
  8
SAPA_ANSLUTNING
 62
     7
 10
-13.579019859833799
 20
-31.066960146546311
 30
0.0
  0
VERTEX
  5
10C7
  8
SAPA_ANSLUTNING
 62
     7
 10
-13.579019859833799
 20
-27.066960146546311
 30
0.0
 42
0.4142135623730956
  0
VERTEX
  5
10C8
  8
SAPA_ANSLUTNING
 62
     7
 10
-14.07901985983381
 20
-26.566960146546311
 30
0.0
  0
VERTEX
  5
10C9
  8
SAPA_ANSLUTNING
 62
     7
 10
-33.079019859833807
 20
-26.566960146546311
 30
0.0
 42
0.4142135623730951
  0
VERTEX
  5
10CA
  8
SAPA_ANSLUTNING
 62
     7
 10
-33.579019859833807
 20
-27.066960146546311
 30
0.0
  0
VERTEX
  5
10CB
  8
SAPA_ANSLUTNING
 62
     7
 10
-33.579019859833807
 20
-31.066960146546311
 30
0.0
 42
0.4142135623730951
  0
VERTEX
  5
10CC
  8
SAPA_ANSLUTNING
 62
     7
 10
-33.079019859833807
 20
-31.566960146546311
 30
0.0
  0
VERTEX
  5
10CD
  8
SAPA_ANSLUTNING
 62
     7
 10
-14.07901985983381
 20
-31.566960146546311
 30
0.0
 42
0.4142135623730951
  0
SEQEND
  5
10CE
  8
SAPA_ANSLUTNING
 62
     7
  0
LINE
  5
8DF
  8
SAPA_ANSLUTNING
 10
-86.815642625619617
 20
-44.843517872591519
 30
0.0
 11
-86.497118130817839
 21
-46.320102744364021
 31
0.0
  0
LINE
  5
8E0
  8
SAPA_ANSLUTNING
 10
-43.801815384364538
 20
-35.085169227382039
 30
0.0
 11
-43.457881871011061
 21
-36.568748594084582
 31
0.0
  0
LINE
  5
8E1
  8
SAPA_ANSLUTNING
 10
-31.41195683248452
 20
-25.066960146546311
 30
0.0
 11
-31.41195683248452
 21
-26.566960146546311
 31
0.0
  0
LINE
  5
8E2
  8
SAPA_ANSLUTNING
 62
     3
 10
-34.30083012719524
 20
-25.803347214806539
 30
0.0
 11
-31.41195683248452
 21
-25.816960146546311
 31
0.0
  0
LINE
  5
8E3
  8
SAPA_ANSLUTNING
 62
     3
 10
-34.415640935022111
 20
-33.298132989107451
 30
0.0
 11
-34.30083012719524
 21
-25.803347214806539
 31
0.0
  0
LINE
  5
8E4
  8
SAPA_ANSLUTNING
 62
     3
 10
-34.699094668060297
 20
-33.674087933456804
 30
0.0
 11
-43.629848627686897
 21
-35.82695891073422
 31
0.0
  0
LINE
  5
8E5
  8
SAPA_ANSLUTNING
 62
     3
 10
-74.814641720364762
 20
-43.013002148008347
 30
0.0
 11
-86.656380378219623
 21
-45.58181030847777
 31
0.0
  0
LINE
  5
8F7
  8
SAPA_ANSLUTNING
 10
-75.004286633099127
 20
-42.28092184682577
 30
0.0
 11
-74.624996807630396
 21
-43.745082449189113
 31
0.0
  0
LINE
  5
8F9
  8
SAPA_ANSLUTNING
 10
-124.06972493260631
 20
-59.154710966166249
 30
0.0
 11
-122.57229267937549
 21
-59.154398814780727
 31
0.0
  0
LINE
  5
8FA
  8
SAPA_ANSLUTNING
 62
     3
 10
-123.3210088059918
 20
-59.154554890472582
 30
0.0
 11
-123.3210088059918
 21
-75.430538425129498
 31
0.0
  0
LINE
  5
8FB
  8
SAPA_ANSLUTNING
 10
-65.168929859092259
 20
-40.163271610598933
 30
0.0
 11
-64.850405364290509
 21
-41.639856482371442
 31
0.0
  0
LINE
  5
8FC
  8
SAPA_ANSLUTNING
 62
     3
 10
-53.207281196659551
 20
-38.169971677108379
 30
0.0
 11
-65.009667611692294
 21
-40.901564046485191
 31
0.0
  0
LINE
  5
8FD
  8
SAPA_ANSLUTNING
 10
-53.394460152709598
 20
-37.447168399138953
 30
0.0
 11
-53.020102240611322
 21
-38.892774955077812
 31
0.0
  0
LINE
  5
8FE
  8
SAPA_ANSLUTNING
 10
-33.876264099852513
 20
-37.530796510506889
 30
0.0
 11
-49.829572156579609
 21
-41.185214542472067
 31
0.0
  0
LINE
  5
8FF
  8
SAPA_ANSLUTNING
 10
-49.829572156579609
 20
-41.185214542472067
 30
0.0
 11
-47.411480128969281
 21
-42.790379946548683
 31
0.0
  0
LINE
  5
900
  8
SAPA_ANSLUTNING
 10
-49.829572156579609
 20
-41.185214542472067
 30
0.0
 11
-48.327167342248231
 21
-38.915609775419632
 31
0.0
  0
LINE
  5
901
  8
SAPA_ANSLUTNING
 10
-70.264070928815727
 20
-45.287944257182289
 30
0.0
 11
-86.217378985542837
 21
-48.942362289147461
 31
0.0
  0
LINE
  5
902
  8
SAPA_ANSLUTNING
 10
-86.217378985542837
 20
-48.942362289147461
 30
0.0
 11
-83.799286957932509
 21
-50.54752769322409
 31
0.0
  0
LINE
  5
903
  8
SAPA_ANSLUTNING
 10
-86.217378985542837
 20
-48.942362289147461
 30
0.0
 11
-84.714974171211452
 21
-46.672757522096838
 31
0.0
  0
LINE
  5
904
  8
SAPA_ANSLUTNING
 10
-117.0903844870286
 20
-59.497269440770879
 30
0.0
 11
-117.0903844870286
 21
-85.700228228480455
 31
0.0
  0
LINE
  5
905
  8
SAPA_ANSLUTNING
 10
-119.962815204854
 20
-63.669129881515111
 30
0.0
 11
-119.962815204854
 21
-75.391822223529971
 31
0.0
  0
LINE
  5
906
  8
SAPA_ANSLUTNING
 10
-119.962815204854
 20
-75.391822223529971
 30
0.0
 11
-121.44482074507729
 21
-73.798378118999835
 31
0.0
  0
LINE
  5
907
  8
SAPA_ANSLUTNING
 10
-119.962815204854
 20
-75.391822223529971
 30
0.0
 11
-118.3050426233699
 21
-73.967371832472281
 31
0.0
  0
LINE
  5
908
  8
SAPA_ANSLUTNING
 10
-110.555748275056
 20
-49.946873731048299
 30
0.0
 11
-110.2372237802542
 21
-51.42345860282262
 31
0.0
  0
LINE
  5
909
  8
SAPA_ANSLUTNING
 62
     3
 10
-98.554747369801134
 20
-48.116358006465127
 30
0.0
 11
-110.39648602765421
 21
-50.68516616693455
 31
0.0
  0
LINE
  5
90A
  8
SAPA_ANSLUTNING
 10
-98.7443922825355
 20
-47.384277705282557
 30
0.0
 11
-98.365102457066754
 21
-48.848438307647712
 31
0.0
  0
POLYLINE
  5
914
  8
SAPA_ANSLUTNING
 62
     3
 66
     1
 10
0.0
 20
0.0
 30
0.0
  0
VERTEX
  5
10CF
  8
SAPA_ANSLUTNING
 62
     3
 10
-130.5761392448762
 20
-39.614183205231647
 30
0.0
  0
VERTEX
  5
10D0
  8
SAPA_ANSLUTNING
 62
     3
 10
-112.8276170360746
 20
-35.696021222413663
 30
0.0
  0
VERTEX
  5
10D1
  8
SAPA_ANSLUTNING
 62
     3
 10
-100.21994850696269
 20
-46.185244649338763
 30
0.0
  0
VERTEX
  5
10D2
  8
SAPA_ANSLUTNING
 62
     3
 10
-83.297327444147868
 20
-42.518635377127097
 30
0.0
  0
SEQEND
  5
10D3
  8
SAPA_ANSLUTNING
 62
     3
  0
LINE
  5
918
  8
SAPA_ANSLUTNING
 10
-21.543833336027319
 20
-25.066960146546311
 30
0.0
 11
-21.543833336027319
 21
-26.566960146546311
 31
0.0
  0
LINE
  5
919
  8
SAPA_ANSLUTNING
 62
     3
 10
-21.543833336027319
 20
-25.816960146546311
 30
0.0
 11
-12.165640935022109
 21
-25.816960146546311
 31
0.0
  0
POLYLINE
  5
924
  8
SAPA_ANSLUTNING
 66
     1
 10
0.0
 20
0.0
 30
0.0
 70
     1
1001
ACAD
1000
ASC_BOUNDS
1002
{
1070
    19
1005
1027
1002
}
  0
VERTEX
  5
10D4
  8
SAPA_ANSLUTNING
 10
69.112219890913366
 20
-39.996679515170683
 30
0.0
  0
VERTEX
  5
10D5
  8
SAPA_ANSLUTNING
 10
83.998400843554009
 20
-39.996679515170683
 30
0.0
 42
-0.2625797940973267
  0
VERTEX
  5
10D6
  8
SAPA_ANSLUTNING
 10
83.998400843554009
 20
-25.196679515171411
 30
0.0
  0
VERTEX
  5
10D7
  8
SAPA_ANSLUTNING
 10
69.112219890911547
 20
-25.196679515171411
 30
0.0
 42
-0.2625797940972474
  0
SEQEND
  5
10D8
  8
SAPA_ANSLUTNING
  0
POLYLINE
  5
926
  8
SAPA_ANSLUTNING
 10
66.413322782963405
 20
-25.210251782162509
 30
0.0
 66
     1
 70
     8
  0
VERTEX
  8
SAPA_ANSLUTNING
  5
1924
 10
66.4133
 20
-25.2103
 30
0.000000
  70
    32
  0
VERTEX
  8
SAPA_ANSLUTNING
  5
1925
 10
66.2171
 20
-25.2192
 30
0.000000
  70
    32
  0
VERTEX
  8
SAPA_ANSLUTNING
  5
1926
 10
66.0213
 20
-25.2459
 30
0.000000
  70
    32
  0
VERTEX
  8
SAPA_ANSLUTNING
  5
1927
 10
65.8264
 20
-25.2904
 30
0.000000
  70
    32
  0
VERTEX
  8
SAPA_ANSLUTNING
  5
1928
 10
65.6330
 20
-25.3525
 30
0.000000
  70
    32
  0
VERTEX
  8
SAPA_ANSLUTNING
  5
1929
 10
65.4414
 20
-25.4321
 30
0.000000
  70
    32
  0
VERTEX
  8
SAPA_ANSLUTNING
  5
192A
 10
65.2522
 20
-25.5290
 30
0.000000
  70
    32
  0
VERTEX
  8
SAPA_ANSLUTNING
  5
192B
 10
65.0658
 20
-25.6429
 30
0.000000
  70
    32
  0
VERTEX
  8
SAPA_ANSLUTNING
  5
192C
 10
64.8826
 20
-25.7736
 30
0.000000
  70
    32
  0
VERTEX
  8
SAPA_ANSLUTNING
  5
192D
 10
64.7031
 20
-25.9209
 30
0.000000
  70
    32
  0
VERTEX
  8
SAPA_ANSLUTNING
  5
192E
 10
64.5277
 20
-26.0842
 30
0.000000
  70
    32
  0
VERTEX
  8
SAPA_ANSLUTNING
  5
192F
 10
64.3569
 20
-26.2633
 30
0.000000
  70
    32
  0
VERTEX
  8
SAPA_ANSLUTNING
  5
1930
 10
64.1910
 20
-26.4576
 30
0.000000
  70
    32
  0
VERTEX
  8
SAPA_ANSLUTNING
  5
1931
 10
64.0305
 20
-26.6668
 30
0.000000
  70
    32
  0
VERTEX
  8
SAPA_ANSLUTNING
  5
1932
 10
63.8757
 20
-26.8903
 30
0.000000
  70
    32
  0
VERTEX
  8
SAPA_ANSLUTNING
  5
1933
 10
63.7271
 20
-27.1276
 30
0.000000
  70
    32
  0
VERTEX
  8
SAPA_ANSLUTNING
  5
1934
 10
63.5849
 20
-27.3781
 30
0.000000
  70
    32
  0
VERTEX
  8
SAPA_ANSLUTNING
  5
1935
 10
63.4495
 20
-27.6412
 30
0.000000
  70
    32
  0
VERTEX
  8
SAPA_ANSLUTNING
  5
1936
 10
63.3213
 20
-27.9162
 30
0.000000
  70
    32
  0
VERTEX
  8
SAPA_ANSLUTNING
  5
1937
 10
63.2005
 20
-28.2026
 30
0.000000
  70
    32
  0
VERTEX
  8
SAPA_ANSLUTNING
  5
1938
 10
63.0874
 20
-28.4996
 30
0.000000
  70
    32
  0
VERTEX
  8
SAPA_ANSLUTNING
  5
1939
 10
62.9824
 20
-28.8066
 30
0.000000
  70
    32
  0
VERTEX
  8
SAPA_ANSLUTNING
  5
193A
 10
62.8856
 20
-29.1226
 30
0.000000
  70
    32
  0
VERTEX
  8
SAPA_ANSLUTNING
  5
193B
 10
62.7974
 20
-29.4471
 30
0.000000
  70
    32
  0
VERTEX
  8
SAPA_ANSLUTNING
  5
193C
 10
62.7178
 20
-29.7793
 30
0.000000
  70
    32
  0
VERTEX
  8
SAPA_ANSLUTNING
  5
193D
 10
62.6471
 20
-30.1182
 30
0.000000
  70
    32
  0
VERTEX
  8
SAPA_ANSLUTNING
  5
193E
 10
62.5856
 20
-30.4631
 30
0.000000
  70
    32
  0
VERTEX
  8
SAPA_ANSLUTNING
  5
193F
 10
62.5332
 20
-30.8132
 30
0.000000
  70
    32
  0
VERTEX
  8
SAPA_ANSLUTNING
  5
1940
 10
62.4902
 20
-31.1677
 30
0.000000
  70
    32
  0
VERTEX
  8
SAPA_ANSLUTNING
  5
1941
 10
62.4566
 20
-31.5256
 30
0.000000
  70
    32
  0
VERTEX
  8
SAPA_ANSLUTNING
  5
1942
 10
62.4326
 20
-31.8862
 30
0.000000
  70
    32
  0
VERTEX
  8
SAPA_ANSLUTNING
  5
1943
 10
62.4181
 20
-32.2485
 30
0.000000
  70
    32
  0
VERTEX
  8
SAPA_ANSLUTNING
  5
1944
 10
62.4133
 20
-32.6116
 30
0.000000
  70
    32
  0
VERTEX
  8
SAPA_ANSLUTNING
  5
1945
 10
62.4181
 20
-32.9748
 30
0.000000
  70
    32
  0
VERTEX
  8
SAPA_ANSLUTNING
  5
1946
 10
62.4326
 20
-33.3371
 30
0.000000
  70
    32
  0
VERTEX
  8
SAPA_ANSLUTNING
  5
1947
 10
62.4566
 20
-33.6976
 30
0.000000
  70
    32
  0
VERTEX
  8
SAPA_ANSLUTNING
  5
1948
 10
62.4902
 20
-34.0556
 30
0.000000
  70
    32
  0
VERTEX
  8
SAPA_ANSLUTNING
  5
1949
 10
62.5332
 20
-34.4100
 30
0.000000
  70
    32
  0
VERTEX
  8
SAPA_ANSLUTNING
  5
194A
 10
62.5856
 20
-34.7601
 30
0.000000
  70
    32
  0
VERTEX
  8
SAPA_ANSLUTNING
  5
194B
 10
62.6471
 20
-35.1051
 30
0.000000
  70
    32
  0
VERTEX
  8
SAPA_ANSLUTNING
  5
194C
 10
62.7178
 20
-35.4440
 30
0.000000
  70
    32
  0
VERTEX
  8
SAPA_ANSLUTNING
  5
194D
 10
62.7974
 20
-35.7761
 30
0.000000
  70
    32
  0
VERTEX
  8
SAPA_ANSLUTNING
  5
194E
 10
62.8856
 20
-36.1006
 30
0.000000
  70
    32
  0
VERTEX
  8
SAPA_ANSLUTNING
  5
194F
 10
62.9824
 20
-36.4167
 30
0.000000
  70
    32
  0
VERTEX
  8
SAPA_ANSLUTNING
  5
1950
 10
63.0874
 20
-36.7236
 30
0.000000
  70
    32
  0
VERTEX
  8
SAPA_ANSLUTNING
  5
1951
 10
63.2005
 20
-37.0206
 30
0.000000
  70
    32
  0
VERTEX
  8
SAPA_ANSLUTNING
  5
1952
 10
63.3213
 20
-37.3070
 30
0.000000
  70
    32
  0
VERTEX
  8
SAPA_ANSLUTNING
  5
1953
 10
63.4495
 20
-37.5821
 30
0.000000
  70
    32
  0
VERTEX
  8
SAPA_ANSLUTNING
  5
1954
 10
63.5849
 20
-37.8452
 30
0.000000
  70
    32
  0
VERTEX
  8
SAPA_ANSLUTNING
  5
1955
 10
63.7271
 20
-38.0957
 30
0.000000
  70
    32
  0
VERTEX
  8
SAPA_ANSLUTNING
  5
1956
 10
63.8757
 20
-38.3330
 30
0.000000
  70
    32
  0
VERTEX
  8
SAPA_ANSLUTNING
  5
1957
 10
64.0305
 20
-38.5565
 30
0.000000
  70
    32
  0
VERTEX
  8
SAPA_ANSLUTNING
  5
1958
 10
64.1910
 20
-38.7657
 30
0.000000
  70
    32
  0
VERTEX
  8
SAPA_ANSLUTNING
  5
1959
 10
64.3569
 20
-38.9600
 30
0.000000
  70
    32
  0
VERTEX
  8
SAPA_ANSLUTNING
  5
195A
 10
64.5277
 20
-39.1391
 30
0.000000
  70
    32
  0
VERTEX
  8
SAPA_ANSLUTNING
  5
195B
 10
64.7031
 20
-39.3024
 30
0.000000
  70
    32
  0
VERTEX
  8
SAPA_ANSLUTNING
  5
195C
 10
64.8826
 20
-39.4496
 30
0.000000
  70
    32
  0
VERTEX
  8
SAPA_ANSLUTNING
  5
195D
 10
65.0658
 20
-39.5804
 30
0.000000
  70
    32
  0
VERTEX
  8
SAPA_ANSLUTNING
  5
195E
 10
65.2522
 20
-39.6943
 30
0.000000
  70
    32
  0
VERTEX
  8
SAPA_ANSLUTNING
  5
195F
 10
65.4414
 20
-39.7912
 30
0.000000
  70
    32
  0
VERTEX
  8
SAPA_ANSLUTNING
  5
1960
 10
65.6330
 20
-39.8708
 30
0.000000
  70
    32
  0
VERTEX
  8
SAPA_ANSLUTNING
  5
1961
 10
65.8264
 20
-39.9329
 30
0.000000
  70
    32
  0
VERTEX
  8
SAPA_ANSLUTNING
  5
1962
 10
66.0213
 20
-39.9774
 30
0.000000
  70
    32
  0
VERTEX
  8
SAPA_ANSLUTNING
  5
1963
 10
66.2171
 20
-40.0041
 30
0.000000
  70
    32
  0
VERTEX
  8
SAPA_ANSLUTNING
  5
1964
 10
66.4133
 20
-40.0130
 30
0.000000
  70
    32
  0
VERTEX
  8
SAPA_ANSLUTNING
  5
1965
 10
66.6096
 20
-40.0041
 30
0.000000
  70
    32
  0
VERTEX
  8
SAPA_ANSLUTNING
  5
1966
 10
66.8054
 20
-39.9774
 30
0.000000
  70
    32
  0
VERTEX
  8
SAPA_ANSLUTNING
  5
1967
 10
67.0002
 20
-39.9329
 30
0.000000
  70
    32
  0
VERTEX
  8
SAPA_ANSLUTNING
  5
1968
 10
67.1937
 20
-39.8708
 30
0.000000
  70
    32
  0
VERTEX
  8
SAPA_ANSLUTNING
  5
1969
 10
67.3852
 20
-39.7912
 30
0.000000
  70
    32
  0
VERTEX
  8
SAPA_ANSLUTNING
  5
196A
 10
67.5745
 20
-39.6943
 30
0.000000
  70
    32
  0
VERTEX
  8
SAPA_ANSLUTNING
  5
196B
 10
67.7609
 20
-39.5804
 30
0.000000
  70
    32
  0
VERTEX
  8
SAPA_ANSLUTNING
  5
196C
 10
67.9441
 20
-39.4496
 30
0.000000
  70
    32
  0
VERTEX
  8
SAPA_ANSLUTNING
  5
196D
 10
68.1235
 20
-39.3024
 30
0.000000
  70
    32
  0
VERTEX
  8
SAPA_ANSLUTNING
  5
196E
 10
68.2989
 20
-39.1391
 30
0.000000
  70
    32
  0
VERTEX
  8
SAPA_ANSLUTNING
  5
196F
 10
68.4697
 20
-38.9600
 30
0.000000
  70
    32
  0
VERTEX
  8
SAPA_ANSLUTNING
  5
1970
 10
68.6356
 20
-38.7657
 30
0.000000
  70
    32
  0
VERTEX
  8
SAPA_ANSLUTNING
  5
1971
 10
68.7961
 20
-38.5565
 30
0.000000
  70
    32
  0
VERTEX
  8
SAPA_ANSLUTNING
  5
1972
 10
68.9509
 20
-38.3330
 30
0.000000
  70
    32
  0
VERTEX
  8
SAPA_ANSLUTNING
  5
1973
 10
69.0996
 20
-38.0957
 30
0.000000
  70
    32
  0
VERTEX
  8
SAPA_ANSLUTNING
  5
1974
 10
69.2417
 20
-37.8452
 30
0.000000
  70
    32
  0
VERTEX
  8
SAPA_ANSLUTNING
  5
1975
 10
69.3771
 20
-37.5821
 30
0.000000
  70
    32
  0
VERTEX
  8
SAPA_ANSLUTNING
  5
1976
 10
69.5054
 20
-37.3070
 30
0.000000
  70
    32
  0
VERTEX
  8
SAPA_ANSLUTNING
  5
1977
 10
69.6262
 20
-37.0206
 30
0.000000
  70
    32
  0
VERTEX
  8
SAPA_ANSLUTNING
  5
1978
 10
69.7392
 20
-36.7236
 30
0.000000
  70
    32
  0
VERTEX
  8
SAPA_ANSLUTNING
  5
1979
 10
69.8442
 20
-36.4167
 30
0.000000
  70
    32
  0
VERTEX
  8
SAPA_ANSLUTNING
  5
197A
 10
69.9410
 20
-36.1006
 30
0.000000
  70
    32
  0
VERTEX
  8
SAPA_ANSLUTNING
  5
197B
 10
70.0293
 20
-35.7761
 30
0.000000
  70
    32
  0
VERTEX
  8
SAPA_ANSLUTNING
  5
197C
 10
70.1088
 20
-35.4440
 30
0.000000
  70
    32
  0
VERTEX
  8
SAPA_ANSLUTNING
  5
197D
 10
70.1795
 20
-35.1051
 30
0.000000
  70
    32
  0
VERTEX
  8
SAPA_ANSLUTNING
  5
197E
 10
70.2411
 20
-34.7601
 30
0.000000
  70
    32
  0
VERTEX
  8
SAPA_ANSLUTNING
  5
197F
 10
70.2934
 20
-34.4100
 30
0.000000
  70
    32
  0
VERTEX
  8
SAPA_ANSLUTNING
  5
1980
 10
70.3365
 20
-34.0556
 30
0.000000
  70
    32
  0
VERTEX
  8
SAPA_ANSLUTNING
  5
1981
 10
70.3700
 20
-33.6976
 30
0.000000
  70
    32
  0
VERTEX
  8
SAPA_ANSLUTNING
  5
1982
 10
70.3941
 20
-33.3371
 30
0.000000
  70
    32
  0
VERTEX
  8
SAPA_ANSLUTNING
  5
1983
 10
70.4085
 20
-32.9748
 30
0.000000
  70
    32
  0
VERTEX
  8
SAPA_ANSLUTNING
  5
1984
 10
70.4133
 20
-32.6116
 30
0.000000
  70
    32
  0
VERTEX
  8
SAPA_ANSLUTNING
  5
1985
 10
70.4085
 20
-32.2485
 30
0.000000
  70
    32
  0
VERTEX
  8
SAPA_ANSLUTNING
  5
1986
 10
70.3941
 20
-31.8862
 30
0.000000
  70
    32
  0
VERTEX
  8
SAPA_ANSLUTNING
  5
1987
 10
70.3700
 20
-31.5256
 30
0.000000
  70
    32
  0
VERTEX
  8
SAPA_ANSLUTNING
  5
1988
 10
70.3365
 20
-31.1677
 30
0.000000
  70
    32
  0
VERTEX
  8
SAPA_ANSLUTNING
  5
1989
 10
70.2934
 20
-30.8132
 30
0.000000
  70
    32
  0
VERTEX
  8
SAPA_ANSLUTNING
  5
198A
 10
70.2411
 20
-30.4631
 30
0.000000
  70
    32
  0
VERTEX
  8
SAPA_ANSLUTNING
  5
198B
 10
70.1795
 20
-30.1182
 30
0.000000
  70
    32
  0
VERTEX
  8
SAPA_ANSLUTNING
  5
198C
 10
70.1088
 20
-29.7793
 30
0.000000
  70
    32
  0
VERTEX
  8
SAPA_ANSLUTNING
  5
198D
 10
70.0293
 20
-29.4471
 30
0.000000
  70
    32
  0
VERTEX
  8
SAPA_ANSLUTNING
  5
198E
 10
69.9410
 20
-29.1226
 30
0.000000
  70
    32
  0
VERTEX
  8
SAPA_ANSLUTNING
  5
198F
 10
69.8442
 20
-28.8066
 30
0.000000
  70
    32
  0
VERTEX
  8
SAPA_ANSLUTNING
  5
1990
 10
69.7392
 20
-28.4996
 30
0.000000
  70
    32
  0
VERTEX
  8
SAPA_ANSLUTNING
  5
1991
 10
69.6262
 20
-28.2026
 30
0.000000
  70
    32
  0
VERTEX
  8
SAPA_ANSLUTNING
  5
1992
 10
69.5054
 20
-27.9162
 30
0.000000
  70
    32
  0
VERTEX
  8
SAPA_ANSLUTNING
  5
1993
 10
69.3771
 20
-27.6412
 30
0.000000
  70
    32
  0
VERTEX
  8
SAPA_ANSLUTNING
  5
1994
 10
69.2417
 20
-27.3781
 30
0.000000
  70
    32
  0
VERTEX
  8
SAPA_ANSLUTNING
  5
1995
 10
69.0996
 20
-27.1276
 30
0.000000
  70
    32
  0
VERTEX
  8
SAPA_ANSLUTNING
  5
1996
 10
68.9509
 20
-26.8903
 30
0.000000
  70
    32
  0
VERTEX
  8
SAPA_ANSLUTNING
  5
1997
 10
68.7961
 20
-26.6668
 30
0.000000
  70
    32
  0
VERTEX
  8
SAPA_ANSLUTNING
  5
1998
 10
68.6356
 20
-26.4576
 30
0.000000
  70
    32
  0
VERTEX
  8
SAPA_ANSLUTNING
  5
1999
 10
68.4697
 20
-26.2633
 30
0.000000
  70
    32
  0
VERTEX
  8
SAPA_ANSLUTNING
  5
199A
 10
68.2989
 20
-26.0842
 30
0.000000
  70
    32
  0
VERTEX
  8
SAPA_ANSLUTNING
  5
199B
 10
68.1235
 20
-25.9209
 30
0.000000
  70
    32
  0
VERTEX
  8
SAPA_ANSLUTNING
  5
199C
 10
67.9441
 20
-25.7736
 30
0.000000
  70
    32
  0
VERTEX
  8
SAPA_ANSLUTNING
  5
199D
 10
67.7609
 20
-25.6429
 30
0.000000
  70
    32
  0
VERTEX
  8
SAPA_ANSLUTNING
  5
199E
 10
67.5745
 20
-25.5290
 30
0.000000
  70
    32
  0
VERTEX
  8
SAPA_ANSLUTNING
  5
199F
 10
67.3852
 20
-25.4321
 30
0.000000
  70
    32
  0
VERTEX
  8
SAPA_ANSLUTNING
  5
19A0
 10
67.1937
 20
-25.3525
 30
0.000000
  70
    32
  0
VERTEX
  8
SAPA_ANSLUTNING
  5
19A1
 10
67.0002
 20
-25.2904
 30
0.000000
  70
    32
  0
VERTEX
  8
SAPA_ANSLUTNING
  5
19A2
 10
66.8054
 20
-25.2459
 30
0.000000
  70
    32
  0
VERTEX
  8
SAPA_ANSLUTNING
  5
19A3
 10
66.6096
 20
-25.2192
 30
0.000000
  70
    32
  0
VERTEX
  8
SAPA_ANSLUTNING
  5
19A4
 10
66.4133
 20
-25.2103
 30
0.000000
  70
    32
  0
SEQEND
  8
SAPA_ANSLUTNING
  5
19A5
  0
POLYLINE
  5
928
  8
SAPA_ANSLUTNING
 66
     1
 10
0.0
 20
0.0
 30
0.0
 70
     1
  0
VERTEX
  5
10D9
  8
SAPA_ANSLUTNING
 10
-141.50822640736479
 20
-79.154301500974952
 30
0.0
  0
VERTEX
  5
10DA
  8
SAPA_ANSLUTNING
 10
-141.50822640736479
 20
-66.931836733093633
 30
0.0
  0
VERTEX
  5
10DB
  8
SAPA_ANSLUTNING
 10
-142.50822640736479
 20
-66.931836733093633
 30
0.0
  0
VERTEX
  5
10DC
  8
SAPA_ANSLUTNING
 10
-142.50822640736479
 20
-79.154301500974952
 30
0.0
 42
-0.9999999999999998
  0
VERTEX
  5
10DD
  8
SAPA_ANSLUTNING
 10
-143.50822640736479
 20
-79.154301500974952
 30
0.0
  0
VERTEX
  5
10DE
  8
SAPA_ANSLUTNING
 10
-143.508226407363
 20
-41.40197123897201
 30
0.0
  0
VERTEX
  5
10DF
  8
SAPA_ANSLUTNING
 10
-97.499999999011038
 20
-31.485357801839481
 30
0.0
  0
VERTEX
  5
10E0
  8
SAPA_ANSLUTNING
 10
-97.499999999011038
 20
-13.000000747069411
 30
0.0
  0
VERTEX
  5
10E1
  8
SAPA_ANSLUTNING
 10
-98.499999999011038
 20
-13.000000747069411
 30
0.0
  0
VERTEX
  5
10E2
  8
SAPA_ANSLUTNING
 10
-98.499999999011038
 20
-30.666471922761449
 30
0.0
  0
VERTEX
  5
10E3
  8
SAPA_ANSLUTNING
 10
-144.50822640736479
 20
-40.557257959436583
 30
0.0
  0
VERTEX
  5
10E4
  8
SAPA_ANSLUTNING
 10
-144.50822640736479
 20
-79.154301500974952
 30
0.0
 42
0.9999999999999998
  0
SEQEND
  5
10E5
  8
SAPA_ANSLUTNING
  0
POLYLINE
  5
92B
  8
SAPA_ANSLUTNING
 66
     1
 10
0.0
 20
0.0
 30
0.0
 70
     1
  0
VERTEX
  5
10E6
  8
SAPA_ANSLUTNING
 10
-122.18174935408069
 20
-53.96164753520884
 30
0.0
  0
VERTEX
  5
10E7
  8
SAPA_ANSLUTNING
 10
-60.192092489970037
 20
-40.635873707881949
 30
0.0
  0
VERTEX
  5
10E8
  8
SAPA_ANSLUTNING
 10
-34.232548401100303
 20
-34.326600082096093
 30
0.0
  0
VERTEX
  5
10E9
  8
SAPA_ANSLUTNING
 10
-33.665640935022111
 20
-33.562797054784141
 30
0.0
  0
VERTEX
  5
10EA
  8
SAPA_ANSLUTNING
 10
-33.665640935022111
 20
-27.566960146546311
 30
0.0
 42
-0.4142135623730951
  0
VERTEX
  5
10EB
  8
SAPA_ANSLUTNING
 10
-32.665640935022111
 20
-26.566960146546311
 30
0.0
  0
VERTEX
  5
10EC
  8
SAPA_ANSLUTNING
 10
-12.165640935022109
 20
-26.566960146546311
 30
0.0
  0
VERTEX
  5
10ED
  8
SAPA_ANSLUTNING
 10
-12.165640935022109
 20
-25.066960146546311
 30
0.0
  0
VERTEX
  5
10EE
  8
SAPA_ANSLUTNING
 10
-34.165640935022111
 20
-25.066960146546311
 30
0.0
  0
VERTEX
  5
10EF
  8
SAPA_ANSLUTNING
 10
-35.165640935022111
 20
-25.727570711412451
 30
0.0
  0
VERTEX
  5
10F0
  8
SAPA_ANSLUTNING
 10
-35.165640935022111
 20
-33.066960146546307
 30
0.0
  0
VERTEX
  5
10F1
  8
SAPA_ANSLUTNING
 10
-35.165640935022111
 20
-33.066960146546307
 30
0.0
  0
VERTEX
  5
10F2
  8
SAPA_ANSLUTNING
 10
-60.571382315436949
 20
-39.171713105516801
 30
0.0
  0
VERTEX
  5
10F3
  8
SAPA_ANSLUTNING
 10
-123.6786198021732
 20
-52.638519548902202
 30
0.0
 42
0.3539501159972302
  0
VERTEX
  5
10F4
  8
SAPA_ANSLUTNING
 10
-124.0742714363876
 20
-53.127611679499971
 30
0.0
  0
VERTEX
  5
10F5
  8
SAPA_ANSLUTNING
 10
-124.06972493260631
 20
-75.430694500821346
 30
0.0
  0
VERTEX
  5
10F6
  8
SAPA_ANSLUTNING
 10
-122.57229267937549
 20
-75.43038234943765
 30
0.0
  0
VERTEX
  5
10F7
  8
SAPA_ANSLUTNING
 10
-122.5766660811919
 20
-54.450584565815241
 30
0.0
 42
-0.3535286019381543
  0
SEQEND
  5
10F8
  8
SAPA_ANSLUTNING
  0
ARC
  5
962
  8
SAPA_ANSLUTNING
 10
-33.405851152147541
 20
-33.524590752630729
 30
0.0
 40
1.999999999998181
 50
359.99999999994787
 51
90.0
  0
LINE
  5
963
  8
SAPA_ANSLUTNING
 10
-31.405851152149349
 20
-33.524590752632548
 30
0.0
 11
-31.40585115214753
 21
-38.000000747074637
 31
0.0
  0
ARC
  5
964
  8
SAPA_ANSLUTNING
 10
-29.405851152147541
 20
-38.000000747074637
 30
0.0
 40
2.0
 50
180.0
 51
0.0
  0
LINE
  5
965
  8
SAPA_ANSLUTNING
 10
-27.405851152147541
 20
-38.000000747074637
 30
0.0
 11
-27.405851152152991
 21
-33.566960146546307
 31
0.0
  0
ARC
  5
966
  8
SAPA_ANSLUTNING
 10
-25.405851152152991
 20
-33.566960146546307
 30
0.0
 40
2.0
 50
0.0
 51
180.0
  0
LINE
  5
967
  8
SAPA_ANSLUTNING
 10
-23.405851152152991
 20
-33.566960146546307
 30
0.0
 11
-23.405851152152991
 21
-38.000000747074637
 31
0.0
  0
ARC
  5
968
  8
SAPA_ANSLUTNING
 10
-21.405851152152991
 20
-38.000000747074637
 30
0.0
 40
2.0
 50
180.0
 51
0.0
  0
LINE
  5
969
  8
SAPA_ANSLUTNING
 10
-19.405851152152991
 20
-38.000000747074637
 30
0.0
 11
-19.405851152158451
 21
-33.566960146546307
 31
0.0
  0
ARC
  5
96A
  8
SAPA_ANSLUTNING
 10
-17.405851152158451
 20
-33.566960146546307
 30
0.0
 40
2.0
 50
0.0
 51
180.0
  0
LINE
  5
96B
  8
SAPA_ANSLUTNING
 10
-15.40585115215845
 20
-33.566960146546307
 30
0.0
 11
-15.40585115215845
 21
-38.000000747074637
 31
0.0
  0
ARC
  5
96C
  8
SAPA_ANSLUTNING
 10
-13.40585115215845
 20
-38.000000747074637
 30
0.0
 40
2.0
 50
180.0
 51
0.0
  0
LINE
  5
96D
  8
SAPA_ANSLUTNING
 10
-11.40585115215845
 20
-38.000000747074637
 30
0.0
 11
-11.40585115216208
 21
-27.00000074707464
 31
0.0
  0
ARC
  5
96E
  8
SAPA_ANSLUTNING
 10
-9.4058511521620858
 20
-27.00000074707464
 30
0.0
 40
2.0
 50
0.0
 51
180.0
  0
LINE
  5
96F
  8
SAPA_ANSLUTNING
 10
-7.4058511521620849
 20
-27.00000074707464
 30
0.0
 11
-7.4058511521620849
 21
-36.347735362163121
 31
0.0
  0
LINE
  5
970
  8
SAPA_ANSLUTNING
 10
-7.4058511521620849
 20
-36.347735362163121
 30
0.0
 11
-7.4058511521620849
 21
-38.000000747074637
 31
0.0
  0
ARC
  5
971
  8
SAPA_ANSLUTNING
 10
-5.4058511521620849
 20
-38.000000747074637
 30
0.0
 40
2.0
 50
180.0
 51
0.0
  0
LINE
  5
972
  8
SAPA_ANSLUTNING
 10
-3.4058511521620849
 20
-38.000000747074637
 30
0.0
 11
-3.4058511521657229
 21
-27.00000074707464
 31
0.0
  0
ARC
  5
973
  8
SAPA_ANSLUTNING
 10
-1.4058511521657231
 20
-27.00000074707464
 30
0.0
 40
2.0
 50
0.0
 51
180.0
  0
LINE
  5
974
  8
SAPA_ANSLUTNING
 10
0.5941488478342764
 20
-27.00000074707464
 30
0.0
 11
0.5941488478379143
 21
-38.000000747074637
 31
0.0
  0
ARC
  5
975
  8
SAPA_ANSLUTNING
 10
2.5941488478379142
 20
-38.000000747073727
 30
0.0
 40
2.0
 50
180.00000000002601
 51
0.0000000000781653
  0
LINE
  5
976
  8
SAPA_ANSLUTNING
 10
4.5941488478379142
 20
-38.000000747070999
 30
0.0
 11
4.5941488478324572
 21
-27.00000074707464
 31
0.0
  0
ARC
  5
977
  8
SAPA_ANSLUTNING
 10
6.5941488478324572
 20
-27.000000747071908
 30
0.0
 40
2.0
 50
0.0000000000781653
 51
180.0000000000781
  0
LINE
  5
978
  8
SAPA_ANSLUTNING
 10
8.5941488478324572
 20
-27.00000074706918
 30
0.0
 11
8.5941488478342762
 21
-38.000000747074637
 31
0.0
  0
ARC
  5
979
  8
SAPA_ANSLUTNING
 10
10.59414884783336
 20
-38.000000747074637
 30
0.0
 40
1.9999999999990901
 50
180.0
 51
0.0
  0
LINE
  5
97A
  8
SAPA_ANSLUTNING
 10
12.594148847832461
 20
-38.000000747074637
 30
0.0
 11
12.594148847828819
 21
-27.00000074706918
 31
0.0
  0
ARC
  5
97B
  8
SAPA_ANSLUTNING
 10
14.594148847828819
 20
-27.00000074706918
 30
0.0
 40
2.0
 50
0.0
 51
180.0
  0
LINE
  5
97C
  8
SAPA_ANSLUTNING
 10
16.594148847828819
 20
-27.00000074706918
 30
0.0
 11
16.59414884783245
 21
-38.000000747067361
 31
0.0
  0
ARC
  5
97D
  8
SAPA_ANSLUTNING
 10
18.594148847832461
 20
-38.000000747067361
 30
0.0
 40
2.0
 50
180.0
 51
0.0
  0
LINE
  5
97E
  8
SAPA_ANSLUTNING
 10
20.594148847832461
 20
-38.000000747067361
 30
0.0
 11
20.594148847828819
 21
-27.00000074706918
 31
0.0
  0
ARC
  5
97F
  8
SAPA_ANSLUTNING
 10
22.594148847828819
 20
-27.000000747067361
 30
0.0
 40
2.0
 50
0.0000000000521102
 51
180.0000000000521
  0
LINE
  5
980
  8
SAPA_ANSLUTNING
 10
24.594148847828819
 20
-27.000000747065538
 30
0.0
 11
24.594148847828819
 21
-38.000000747065542
 31
0.0
  0
ARC
  5
981
  8
SAPA_ANSLUTNING
 10
26.594148847828819
 20
-38.000000747064632
 30
0.0
 40
2.0
 50
180.00000000002601
 51
0.0000000000260551
  0
LINE
  5
982
  8
SAPA_ANSLUTNING
 10
28.594148847828819
 20
-38.000000747063723
 30
0.0
 11
28.594148847823359
 21
-27.000000747065538
 31
0.0
  0
ARC
  5
983
  8
SAPA_ANSLUTNING
 10
30.594148847823369
 20
-27.000000747064629
 30
0.0
 40
2.0
 50
0.0000000000260551
 51
180.00000000002601
  0
LINE
  5
984
  8
SAPA_ANSLUTNING
 10
32.594148847823362
 20
-27.000000747063719
 30
0.0
 11
32.594148847827
 21
-38.000000747061897
 31
0.0
  0
ARC
  5
985
  8
SAPA_ANSLUTNING
 10
34.594148847827
 20
-38.000000747061897
 30
0.0
 40
2.0
 50
180.0
 51
0.0
  0
LINE
  5
986
  8
SAPA_ANSLUTNING
 10
36.594148847827
 20
-38.000000747061897
 30
0.0
 11
36.594148847823362
 21
-27.000000747063719
 31
0.0
  0
ARC
  5
987
  8
SAPA_ANSLUTNING
 10
38.594148847823362
 20
-27.000000747061911
 30
0.0
 40
2.0
 50
0.0000000000521102
 51
180.0000000000521
  0
LINE
  5
988
  8
SAPA_ANSLUTNING
 10
40.594148847823362
 20
-27.000000747058269
 30
0.0
 11
40.594148847823362
 21
-38.000000747058273
 31
0.0
  0
ARC
  5
989
  8
SAPA_ANSLUTNING
 10
42.594148847823362
 20
-38.000000747057349
 30
0.0
 40
2.0
 50
180.00000000002601
 51
0.0000000000260551
  0
LINE
  5
98A
  8
SAPA_ANSLUTNING
 10
44.594148847823362
 20
-38.000000747056447
 30
0.0
 11
44.594148847817898
 21
-27.000000747058269
 31
0.0
  0
ARC
  5
98B
  8
SAPA_ANSLUTNING
 10
46.594148847817898
 20
-27.00000074705736
 30
0.0
 40
2.0
 50
0.0000000000260551
 51
180.00000000002601
  0
LINE
  5
98C
  8
SAPA_ANSLUTNING
 10
48.594148847817912
 20
-27.00000074705645
 30
0.0
 11
48.594148847821543
 21
-38.000000747054628
 31
0.0
  0
ARC
  5
98D
  8
SAPA_ANSLUTNING
 10
50.594148847821543
 20
-38.000000747054628
 30
0.0
 40
2.0
 50
180.0
 51
0.0
  0
LINE
  5
98E
  8
SAPA_ANSLUTNING
 10
52.594148847821543
 20
-38.000000747054628
 30
0.0
 11
52.594148847817898
 21
-27.00000074705645
 31
0.0
  0
ARC
  5
98F
  8
SAPA_ANSLUTNING
 10
54.594148847817898
 20
-27.000000747054631
 30
0.0
 40
2.0
 50
0.0000000000521102
 51
180.0000000000521
  0
LINE
  5
990
  8
SAPA_ANSLUTNING
 10
56.594148847817898
 20
-27.000000747052809
 30
0.0
 11
56.59414884782155
 21
-38.00000074705099
 31
0.0
  0
ARC
  5
991
  8
SAPA_ANSLUTNING
 10
58.594148847821543
 20
-38.00000074705099
 30
0.0
 40
2.0
 50
180.0
 51
0.0
  0
LINE
  5
992
  8
SAPA_ANSLUTNING
 10
60.594148847821543
 20
-38.00000074705099
 30
0.0
 11
60.594148847817912
 21
-27.000000747052809
 31
0.0
  0
ARC
  5
993
  8
SAPA_ANSLUTNING
 10
62.594148847817898
 20
-27.00000074705099
 30
0.0
 40
2.0
 50
0.0000000000521102
 51
180.0000000000521
  0
LINE
  5
F12
  8
SAPA_FYLLNING
 10
-29.499999585314981
 20
27.294602967803709
 30
0.0
 11
60.682222443510902
 21
27.294602967803829
 31
0.0
  0
ARC
  5
F13
  8
SAPA_FYLLNING
 10
61.30559593298716
 20
33.283324761515843
 30
0.0
 40
6.0210782447883089
 50
264.05741210644578
 51
93.269439526873285
  0
LINE
  5
F14
  8
SAPA_FYLLNING
 10
60.962204674421621
 20
39.294602967804742
 30
0.0
 11
-29.499999585314981
 21
39.294602967805531
 31
0.0
  0
ARC
  5
F15
  8
SAPA_FYLLNING
 10
-29.499999585314981
 20
45.294602967804622
 30
0.0
 40
5.9999999999990896
 50
90.0
 51
270.0
  0
LINE
  5
F16
  8
SAPA_FYLLNING
 10
-29.499999585314981
 20
51.294602967803712
 30
0.0
 11
63.986932509127648
 21
51.302532676132728
 31
0.0
  0
ARC
  5
F17
  8
SAPA_FYLLNING
 10
64.966883819424595
 20
57.263806918015142
 30
0.0
 40
6.041282575536707
 50
260.66485350050573
 51
93.376383040387367
  0
LINE
  5
F18
  8
SAPA_FYLLNING
 10
64.611083083990707
 20
63.294602967803939
 30
0.0
 11
-29.499999585314981
 21
63.294602967803712
 31
0.0
  0
ARC
  5
F19
  8
SAPA_FYLLNING
 10
-29.499999585314981
 20
69.294602967802803
 30
0.0
 40
5.9999999999990896
 50
90.0
 51
270.0
  0
LINE
  5
F1A
  8
SAPA_FYLLNING
 10
-29.499999585314981
 20
75.294602967801893
 30
0.0
 11
63.986932509127648
 21
75.302532676130895
 31
0.0
  0
LINE
  5
FEB
  8
SAPA_PROFIL
 10
-52.500000000001819
 20
-11.000000747074409
 30
0.0
 11
-98.000000000001805
 21
-11.000000747074409
 31
0.0
  0
LINE
  5
FEC
  8
SAPA_PROFIL
 10
-52.500000000001819
 20
-5.0000007470744086
 30
0.0
 11
-52.500000000001819
 21
-11.000000747074409
 31
0.0
  0
LINE
  5
FED
  8
SAPA_PROFIL
 10
-35.500000000001819
 20
-5.0000007470744086
 30
0.0
 11
-52.500000000001819
 21
-5.0000007470744086
 31
0.0
  0
LINE
  5
FEE
  8
SAPA_PROFIL
 10
-35.500000000001819
 20
-25.000000747074409
 30
0.0
 11
-35.500000000001819
 21
-5.0000007470744086
 31
0.0
  0
LINE
  5
FEF
  8
SAPA_PROFIL
 10
-98.000000000001805
 20
-25.000000747074409
 30
0.0
 11
-35.500000000001819
 21
-25.000000747074409
 31
0.0
  0
LINE
  5
FF0
  8
SAPA_PROFIL
 10
-98.000000000001805
 20
-11.000000747074409
 30
0.0
 11
-98.000000000001805
 21
-25.000000747074409
 31
0.0
  0
POLYLINE
  5
FF1
  8
SAPA_PROFIL
 62
     4
 66
     1
 10
0.0
 20
0.0
 30
0.0
 70
     1
  0
VERTEX
  5
1330
  8
SAPA_PROFIL
 62
     4
 10
-49.561617285539612
 20
7.000000365252748
 30
0.0
 42
-0.414213562373114
  0
VERTEX
  5
1331
  8
SAPA_PROFIL
 62
     4
 10
-51.561617285539739
 20
5.0000003652527472
 30
0.0
  0
VERTEX
  5
1332
  8
SAPA_PROFIL
 62
     4
 10
-56.06161728553964
 20
5.0000003652530234
 30
0.0
 42
-0.4142135623730807
  0
VERTEX
  5
1333
  8
SAPA_PROFIL
 62
     4
 10
-56.561617285539612
 20
5.5000003652530234
 30
0.0
  0
VERTEX
  5
1334
  8
SAPA_PROFIL
 62
     4
 10
-56.561617285539612
 20
6.0000003652536549
 30
0.0
 42
-0.4142135623730951
  0
VERTEX
  5
1335
  8
SAPA_PROFIL
 62
     4
 10
-56.061617285539612
 20
6.5000003652536558
 30
0.0
  0
VERTEX
  5
1336
  8
SAPA_PROFIL
 62
     4
 10
-51.561617285539548
 20
6.5000003652536558
 30
0.0
 42
0.4142135623730847
  0
VERTEX
  5
1337
  8
SAPA_PROFIL
 62
     4
 10
-51.061617285539562
 20
7.0000003652536558
 30
0.0
  0
VERTEX
  5
1338
  8
SAPA_PROFIL
 62
     4
 10
-51.061617285539491
 20
8.7000003652507463
 30
0.0
 42
0.4142135623731284
  0
VERTEX
  5
1339
  8
SAPA_PROFIL
 62
     4
 10
-51.561617285539498
 20
9.200000365250748
 30
0.0
  0
VERTEX
  5
133A
  8
SAPA_PROFIL
 62
     4
 10
-79.561617285539512
 20
9.2000003652489202
 30
0.0
 42
0.4142135623730959
  0
VERTEX
  5
133B
  8
SAPA_PROFIL
 62
     4
 10
-80.061617285539512
 20
8.7000003652489202
 30
0.0
  0
VERTEX
  5
133C
  8
SAPA_PROFIL
 62
     4
 10
-80.061617285539626
 20
7.0000003652536513
 30
0.0
 42
0.4142135623730951
  0
VERTEX
  5
133D
  8
SAPA_PROFIL
 62
     4
 10
-79.561617285539626
 20
6.5000003652536513
 30
0.0
  0
VERTEX
  5
133E
  8
SAPA_PROFIL
 62
     4
 10
-75.061617285540464
 20
6.5000003652536522
 30
0.0
 42
-0.4142135623730951
  0
VERTEX
  5
133F
  8
SAPA_PROFIL
 62
     4
 10
-74.561617285540478
 20
6.0000003652536522
 30
0.0
  0
VERTEX
  5
1340
  8
SAPA_PROFIL
 62
     4
 10
-74.561617285540478
 20
5.5000003652541922
 30
0.0
 42
-0.4142135623731129
  0
VERTEX
  5
1341
  8
SAPA_PROFIL
 62
     4
 10
-75.061617285540507
 20
5.0000003652541922
 30
0.0
  0
VERTEX
  5
1342
  8
SAPA_PROFIL
 62
     4
 10
-81.061617285540464
 20
5.000000365254559
 30
0.0
 42
-0.4142135623730951
  0
VERTEX
  5
1343
  8
SAPA_PROFIL
 62
     4
 10
-81.561617285540478
 20
5.500000365254559
 30
0.0
  0
VERTEX
  5
1344
  8
SAPA_PROFIL
 62
     4
 10
-81.561617285539796
 20
17.800000365251101
 30
0.0
  0
VERTEX
  5
1345
  8
SAPA_PROFIL
 62
     4
 10
-81.096693865973975
 20
18.386384381011919
 30
0.0
 42
-0.7105995015669819
  0
VERTEX
  5
1346
  8
SAPA_PROFIL
 62
     4
 10
-80.561617285538887
 20
18.200000365250741
 30
0.0
  0
VERTEX
  5
1347
  8
SAPA_PROFIL
 62
     4
 10
-80.561617285539796
 20
17.200000365250741
 30
0.0
 42
0.4142135623731117
  0
VERTEX
  5
1348
  8
SAPA_PROFIL
 62
     4
 10
-80.061617285539796
 20
16.700000365250741
 30
0.0
  0
VERTEX
  5
1349
  8
SAPA_PROFIL
 62
     4
 10
-76.061617285539796
 20
16.700000365250741
 30
0.0
 42
0.4142135623730951
  0
VERTEX
  5
134A
  8
SAPA_PROFIL
 62
     4
 10
-75.561617285539796
 20
17.200000365250741
 30
0.0
  0
VERTEX
  5
134B
  8
SAPA_PROFIL
 62
     4
 10
-75.561617285539796
 20
22.800000365251108
 30
0.0
 42
0.4142135623730951
  0
VERTEX
  5
134C
  8
SAPA_PROFIL
 62
     4
 10
-76.061617285539796
 20
23.300000365251108
 30
0.0
  0
VERTEX
  5
134D
  8
SAPA_PROFIL
 62
     4
 10
-80.061617285538887
 20
23.300000365251108
 30
0.0
 42
0.4142135623730784
  0
VERTEX
  5
134E
  8
SAPA_PROFIL
 62
     4
 10
-80.561617285538887
 20
22.800000365251108
 30
0.0
  0
VERTEX
  5
134F
  8
SAPA_PROFIL
 62
     4
 10
-80.561617285539796
 20
21.800000365251108
 30
0.0
 42
-0.7105995015654651
  0
VERTEX
  5
1350
  8
SAPA_PROFIL
 62
     4
 10
-81.096693865973975
 20
21.61361634949084
 30
0.0
  0
VERTEX
  5
1351
  8
SAPA_PROFIL
 62
     4
 10
-81.561617285539796
 20
22.200000365250741
 30
0.0
  0
VERTEX
  5
1352
  8
SAPA_PROFIL
 62
     4
 10
-81.561617285539796
 20
24.300000365251108
 30
0.0
 42
-0.4142135623730951
  0
VERTEX
  5
1353
  8
SAPA_PROFIL
 62
     4
 10
-81.061617285539796
 20
24.800000365251101
 30
0.0
  0
VERTEX
  5
1354
  8
SAPA_PROFIL
 62
     4
 10
-74.061617285539796
 20
24.800000365251101
 30
0.0
 42
-0.4142135623730951
  0
VERTEX
  5
1355
  8
SAPA_PROFIL
 62
     4
 10
-73.561617285539796
 20
24.300000365251108
 30
0.0
  0
VERTEX
  5
1356
  8
SAPA_PROFIL
 62
     4
 10
-73.561617285538887
 20
22.700000365250741
 30
0.0
  0
VERTEX
  5
1357
  8
SAPA_PROFIL
 62
     4
 10
-73.561617285538887
 20
22.700000365250741
 30
0.0
 42
0.4142135623730951
  0
VERTEX
  5
1358
  8
SAPA_PROFIL
 62
     4
 10
-74.061617285538887
 20
22.200000365250741
 30
0.0
  0
VERTEX
  5
1359
  8
SAPA_PROFIL
 62
     4
 10
-74.061617285538887
 20
15.70000036525165
 30
0.0
 42
-0.4142135623730951
  0
VERTEX
  5
135A
  8
SAPA_PROFIL
 62
     4
 10
-74.561617285538887
 20
15.20000036525165
 30
0.0
  0
VERTEX
  5
135B
  8
SAPA_PROFIL
 62
     4
 10
-79.561617285539796
 20
15.20000036525164
 30
0.0
 42
0.4142135623730951
  0
VERTEX
  5
135C
  8
SAPA_PROFIL
 62
     4
 10
-80.061617285539796
 20
14.70000036525165
 30
0.0
  0
VERTEX
  5
135D
  8
SAPA_PROFIL
 62
     4
 10
-80.061617285539668
 20
11.20000036525073
 30
0.0
 42
0.4142135623731117
  0
VERTEX
  5
135E
  8
SAPA_PROFIL
 62
     4
 10
-79.561617285539683
 20
10.700000365250739
 30
0.0
  0
VERTEX
  5
135F
  8
SAPA_PROFIL
 62
     4
 10
-34.061617285539072
 20
10.700000365252571
 30
0.0
 42
0.4142135623724291
  0
VERTEX
  5
1360
  8
SAPA_PROFIL
 62
     4
 10
-33.76161728553889
 20
11.000000365251839
 30
0.0
  0
VERTEX
  5
1361
  8
SAPA_PROFIL
 62
     4
 10
-33.76161728553889
 20
12.30000036525262
 30
0.0
 42
-0.6681786379194817
  0
VERTEX
  5
1362
  8
SAPA_PROFIL
 62
     4
 10
-33.24948525118289
 20
12.51213239960844
 30
0.0
  0
VERTEX
  5
1363
  8
SAPA_PROFIL
 62
     4
 10
-31.049485251182791
 20
10.312132399609251
 30
0.0
 42
-0.1989123673797118
  0
VERTEX
  5
1364
  8
SAPA_PROFIL
 62
     4
 10
-30.961617285538711
 20
10.100000365253241
 30
0.0
  0
VERTEX
  5
1365
  8
SAPA_PROFIL
 62
     4
 10
-30.961617285538711
 20
9.5000003652518448
 30
0.0
 42
-0.4142135623724291
  0
VERTEX
  5
1366
  8
SAPA_PROFIL
 62
     4
 10
-31.26161728553889
 20
9.2000003652525724
 30
0.0
  0
VERTEX
  5
1367
  8
SAPA_PROFIL
 62
     4
 10
-49.061617285539612
 20
9.200000365252567
 30
0.0
 42
0.4142135623730951
  0
VERTEX
  5
1368
  8
SAPA_PROFIL
 62
     4
 10
-49.561617285539612
 20
8.700000365252567
 30
0.0
  0
SEQEND
  5
1369
  8
SAPA_PROFIL
 62
     4
  0
LINE
  5
FF2
  8
SAPA_PROFIL
 62
     4
 10
-73.500000000001933
 20
12.99999999999932
 30
0.0
 11
-73.500000000001918
 21
75.000000000000284
 31
0.0
  0
LINE
  5
FF3
  8
SAPA_PROFIL
 62
     4
 10
-65.500000000001933
 20
12.99999999999932
 30
0.0
 11
-73.500000000001933
 21
12.99999999999932
 31
0.0
  0
LINE
  5
FF4
  8
SAPA_PROFIL
 62
     4
 10
-65.500000000001918
 20
75.000000000000284
 30
0.0
 11
-65.500000000001933
 21
12.99999999999932
 31
0.0
  0
LINE
  5
FF5
  8
SAPA_PROFIL
 62
     4
 10
-98.500000000001876
 20
11.00000000000035
 30
0.0
 11
-98.500000000001862
 21
75.000000000000284
 31
0.0
  0
LINE
  5
FF6
  8
SAPA_PROFIL
 62
     4
 10
-92.500000000001876
 20
11.00000000000035
 30
0.0
 11
-98.500000000001876
 21
11.00000000000035
 31
0.0
  0
LINE
  5
FF7
  8
SAPA_PROFIL
 62
     4
 10
-92.500000000001862
 20
75.000000000000284
 30
0.0
 11
-92.500000000001876
 21
11.00000000000035
 31
0.0
  0
POLYLINE
  5
FF8
  8
SAPA_PROFIL
 66
     1
 10
0.0
 20
0.0
 30
0.0
 70
     1
  0
VERTEX
  5
136A
  8
SAPA_PROFIL
 10
-100.5000000000035
 20
11.93837527500483
 30
0.0
 42
0.2216946626428728
  0
VERTEX
  5
136B
  8
SAPA_PROFIL
 10
-100.857212390317
 20
12.704419718123461
 30
0.0
  0
VERTEX
  5
136C
  8
SAPA_PROFIL
 10
-102.1427876096882
 20
13.78314541054834
 30
0.0
 42
-0.2216946626428911
  0
VERTEX
  5
136D
  8
SAPA_PROFIL
 10
-102.50000000000161
 20
14.549189853667089
 30
0.0
  0
VERTEX
  5
136E
  8
SAPA_PROFIL
 10
-102.5000000000021
 20
16.325735931288651
 30
0.0
 42
0.1989123673796749
  0
VERTEX
  5
136F
  8
SAPA_PROFIL
 10
-102.587867965646
 20
16.537867965644921
 30
0.0
  0
VERTEX
  5
1370
  8
SAPA_PROFIL
 10
-103.1585786437648
 20
17.108578643763231
 30
0.0
 42
0.6681786379193591
  0
VERTEX
  5
1371
  8
SAPA_PROFIL
 10
-103.5000000000021
 20
16.967157287525708
 30
0.0
  0
VERTEX
  5
1372
  8
SAPA_PROFIL
 10
-103.5000000000019
 20
16.000000000000512
 30
0.0
 42
-0.4142135623730951
  0
VERTEX
  5
1373
  8
SAPA_PROFIL
 10
-104.00000000000171
 20
15.50000000000051
 30
0.0
  0
VERTEX
  5
1374
  8
SAPA_PROFIL
 10
-104.3908089297223
 20
15.50000000000051
 30
0.0
 42
-0.1763269807084316
  0
VERTEX
  5
1375
  8
SAPA_PROFIL
 10
-104.583645212628
 20
15.570186667064769
 30
0.0
  0
VERTEX
  5
1376
  8
SAPA_PROFIL
 10
-106.3213938048448
 20
17.028330869872718
 30
0.0
 42
-0.2216946626429586
  0
VERTEX
  5
1377
  8
SAPA_PROFIL
 10
-106.50000000000161
 20
17.411353091432211
 30
0.0
  0
VERTEX
  5
1378
  8
SAPA_PROFIL
 10
-106.50000000000171
 20
19.981908440199561
 30
0.0
 42
-0.2216946626429592
  0
VERTEX
  5
1379
  8
SAPA_PROFIL
 10
-106.39283628290769
 20
20.21172177313548
 30
0.0
  0
VERTEX
  5
137A
  8
SAPA_PROFIL
 10
-104.583645212628
 20
21.72981333293621
 30
0.0
 42
-0.1763269807084563
  0
VERTEX
  5
137B
  8
SAPA_PROFIL
 10
-104.3908089297223
 20
21.80000000000047
 30
0.0
  0
VERTEX
  5
137C
  8
SAPA_PROFIL
 10
-104.00000000000171
 20
21.80000000000047
 30
0.0
 42
-0.4142135623730951
  0
VERTEX
  5
137D
  8
SAPA_PROFIL
 10
-103.5000000000021
 20
21.30000000000047
 30
0.0
  0
VERTEX
  5
137E
  8
SAPA_PROFIL
 10
-103.5000000000021
 20
20.332842712475038
 30
0.0
 42
0.6681786379193841
  0
VERTEX
  5
137F
  8
SAPA_PROFIL
 10
-103.1585786437648
 20
20.191421356237981
 30
0.0
  0
VERTEX
  5
1380
  8
SAPA_PROFIL
 10
-102.587867965646
 20
20.762132034356739
 30
0.0
 42
0.1989123673796471
  0
VERTEX
  5
1381
  8
SAPA_PROFIL
 10
-102.50000000000171
 20
20.974264068712561
 30
0.0
  0
VERTEX
  5
1382
  8
SAPA_PROFIL
 10
-102.5000000000021
 20
23.30000000000047
 30
0.0
 42
0.4142135623730951
  0
VERTEX
  5
1383
  8
SAPA_PROFIL
 10
-103.0000000000021
 20
23.80000000000047
 30
0.0
  0
VERTEX
  5
1384
  8
SAPA_PROFIL
 10
-106.70000000000201
 20
23.800000000001042
 30
0.0
 42
0.4142135623729843
  0
VERTEX
  5
1385
  8
SAPA_PROFIL
 10
-107.0000000000022
 20
23.50000000000097
 30
0.0
  0
VERTEX
  5
1386
  8
SAPA_PROFIL
 10
-107.0000000000021
 20
22.47320508075865
 30
0.0
 42
-0.26794919243117
  0
VERTEX
  5
1387
  8
SAPA_PROFIL
 10
-107.15000000000219
 20
22.213397459622971
 30
0.0
  0
VERTEX
  5
1388
  8
SAPA_PROFIL
 10
-108.6580771365964
 20
21.342708718851728
 30
0.0
 42
-0.4142135623734465
  0
VERTEX
  5
1389
  8
SAPA_PROFIL
 10
-109.0678847577317
 20
21.452516339986978
 30
0.0
  0
VERTEX
  5
138A
  8
SAPA_PROFIL
 10
-109.3839745962177
 20
22.00000000000086
 30
0.0
 42
0.4663076581550835
  0
VERTEX
  5
138B
  8
SAPA_PROFIL
 10
-110.8927876096885
 20
22.266044443119831
 30
0.0
  0
VERTEX
  5
138C
  8
SAPA_PROFIL
 10
-114.39283628290789
 20
19.329154892317611
 30
0.0
 42
0.2216946626429129
  0
VERTEX
  5
138D
  8
SAPA_PROFIL
 10
-114.500000000002
 20
19.099341559381909
 30
0.0
  0
VERTEX
  5
138E
  8
SAPA_PROFIL
 10
-114.500000000002
 20
17.95000000000033
 30
0.0
 42
0.4142135623732061
  0
VERTEX
  5
138F
  8
SAPA_PROFIL
 10
-114.20000000000191
 20
17.650000000000379
 30
0.0
  0
VERTEX
  5
1390
  8
SAPA_PROFIL
 10
-110.6932604947535
 20
17.65000000000094
 30
0.0
 42
-0.1763269807085094
  0
VERTEX
  5
1391
  8
SAPA_PROFIL
 10
-110.0504728850668
 20
17.416044443119919
 30
0.0
  0
VERTEX
  5
1392
  8
SAPA_PROFIL
 10
-107.3071637170957
 20
15.114134732070109
 30
0.0
 42
-0.2216946626429509
  0
VERTEX
  5
1393
  8
SAPA_PROFIL
 10
-107.20000000000159
 20
14.88432139913442
 30
0.0
  0
VERTEX
  5
1394
  8
SAPA_PROFIL
 10
-107.20000000000159
 20
14.02421369658094
 30
0.0
 42
0.4142135623731506
  0
VERTEX
  5
1395
  8
SAPA_PROFIL
 10
-106.9000000000016
 20
13.724213696580991
 30
0.0
  0
VERTEX
  5
1396
  8
SAPA_PROFIL
 10
-105.7599113999087
 20
13.724213696580991
 30
0.0
 42
-0.1763269807084654
  0
VERTEX
  5
1397
  8
SAPA_PROFIL
 10
-105.5670751170028
 20
13.65402702951673
 30
0.0
  0
VERTEX
  5
1398
  8
SAPA_PROFIL
 10
-103.557212390315
 20
11.967551956836081
 30
0.0
 42
-0.2216946626429509
  0
VERTEX
  5
1399
  8
SAPA_PROFIL
 10
-103.20000000000149
 20
11.201507513717109
 30
0.0
  0
VERTEX
  5
139A
  8
SAPA_PROFIL
 10
-103.20000000000159
 20
-11.20150751371653
 30
0.0
 42
-0.2216946626429508
  0
VERTEX
  5
139B
  8
SAPA_PROFIL
 10
-103.5572123903151
 20
-11.9675519568355
 30
0.0
  0
VERTEX
  5
139C
  8
SAPA_PROFIL
 10
-105.5670751170028
 20
-13.654027029516151
 30
0.0
 42
-0.1763269807084657
  0
VERTEX
  5
139D
  8
SAPA_PROFIL
 10
-105.7599113999088
 20
-13.72421369658041
 30
0.0
  0
VERTEX
  5
139E
  8
SAPA_PROFIL
 10
-106.9000000000016
 20
-13.72421369658041
 30
0.0
 42
0.4142135623730951
  0
VERTEX
  5
139F
  8
SAPA_PROFIL
 10
-107.20000000000159
 20
-14.02421369658037
 30
0.0
  0
VERTEX
  5
13A0
  8
SAPA_PROFIL
 10
-107.20000000000159
 20
-14.884321399133849
 30
0.0
 42
-0.2216946626429889
  0
VERTEX
  5
13A1
  8
SAPA_PROFIL
 10
-107.30716371709561
 20
-15.114134732069539
 30
0.0
  0
VERTEX
  5
13A2
  8
SAPA_PROFIL
 10
-110.0504728850669
 20
-17.41604444311934
 30
0.0
 42
-0.1763269807085052
  0
VERTEX
  5
13A3
  8
SAPA_PROFIL
 10
-110.6932604947536
 20
-17.650000000000372
 30
0.0
  0
VERTEX
  5
13A4
  8
SAPA_PROFIL
 10
-114.20000000000191
 20
-17.649999999999689
 30
0.0
 42
0.4142135623732062
  0
VERTEX
  5
13A5
  8
SAPA_PROFIL
 10
-114.5000000000019
 20
-17.94999999999964
 30
0.0
  0
VERTEX
  5
13A6
  8
SAPA_PROFIL
 10
-114.5000000000019
 20
-19.099341559381219
 30
0.0
 42
0.2216946626429129
  0
VERTEX
  5
13A7
  8
SAPA_PROFIL
 10
-114.39283628290789
 20
-19.329154892316922
 30
0.0
  0
VERTEX
  5
13A8
  8
SAPA_PROFIL
 10
-110.8927876096886
 20
-22.266044443119249
 30
0.0
 42
0.4663076581550919
  0
VERTEX
  5
13A9
  8
SAPA_PROFIL
 10
-109.3839745962177
 20
-22.000000000000281
 30
0.0
  0
VERTEX
  5
13AA
  8
SAPA_PROFIL
 10
-109.0678847577317
 20
-21.452516339986399
 30
0.0
 42
-0.4142135623731708
  0
VERTEX
  5
13AB
  8
SAPA_PROFIL
 10
-108.6580771365964
 20
-21.342708718851149
 30
0.0
  0
VERTEX
  5
13AC
  8
SAPA_PROFIL
 10
-107.15000000000209
 20
-22.213397459622389
 30
0.0
 42
-0.26794919243117
  0
VERTEX
  5
13AD
  8
SAPA_PROFIL
 10
-107.000000000002
 20
-22.473205080758071
 30
0.0
  0
VERTEX
  5
13AE
  8
SAPA_PROFIL
 10
-107.000000000002
 20
-23.500000000000401
 30
0.0
 42
0.4142135623729287
  0
VERTEX
  5
13AF
  8
SAPA_PROFIL
 10
-106.70000000000201
 20
-23.800000000000459
 30
0.0
  0
VERTEX
  5
13B0
  8
SAPA_PROFIL
 10
-103.0000000000021
 20
-23.799999999999891
 30
0.0
 42
0.4142135623730951
  0
VERTEX
  5
13B1
  8
SAPA_PROFIL
 10
-102.5000000000021
 20
-23.299999999999891
 30
0.0
  0
VERTEX
  5
13B2
  8
SAPA_PROFIL
 10
-102.50000000000171
 20
-20.974264068711982
 30
0.0
 42
0.1989123673796819
  0
VERTEX
  5
13B3
  8
SAPA_PROFIL
 10
-102.587867965646
 20
-20.76213203435616
 30
0.0
  0
VERTEX
  5
13B4
  8
SAPA_PROFIL
 10
-103.1585786437648
 20
-20.191421356237409
 30
0.0
 42
0.6681786379193841
  0
VERTEX
  5
13B5
  8
SAPA_PROFIL
 10
-103.5000000000021
 20
-20.33284271247447
 30
0.0
  0
VERTEX
  5
13B6
  8
SAPA_PROFIL
 10
-103.5000000000021
 20
-21.299999999999891
 30
0.0
 42
-0.4142135623730951
  0
VERTEX
  5
13B7
  8
SAPA_PROFIL
 10
-104.00000000000161
 20
-21.799999999999891
 30
0.0
  0
VERTEX
  5
13B8
  8
SAPA_PROFIL
 10
-104.3908089297223
 20
-21.799999999999891
 30
0.0
 42
-0.1763269807084561
  0
VERTEX
  5
13B9
  8
SAPA_PROFIL
 10
-104.583645212628
 20
-21.729813332935631
 30
0.0
  0
VERTEX
  5
13BA
  8
SAPA_PROFIL
 10
-106.39283628290769
 20
-20.211721773134901
 30
0.0
 42
-0.2216946626429592
  0
VERTEX
  5
13BB
  8
SAPA_PROFIL
 10
-106.50000000000171
 20
-19.981908440198978
 30
0.0
  0
VERTEX
  5
13BC
  8
SAPA_PROFIL
 10
-106.50000000000161
 20
-17.411353091431629
 30
0.0
 42
-0.2216946626429736
  0
VERTEX
  5
13BD
  8
SAPA_PROFIL
 10
-106.3213938048448
 20
-17.028330869872139
 30
0.0
  0
VERTEX
  5
13BE
  8
SAPA_PROFIL
 10
-104.583645212628
 20
-15.570186667064201
 30
0.0
 42
-0.1763269807084407
  0
VERTEX
  5
13BF
  8
SAPA_PROFIL
 10
-104.3908089297223
 20
-15.49999999999994
 30
0.0
  0
VERTEX
  5
13C0
  8
SAPA_PROFIL
 10
-104.00000000000161
 20
-15.49999999999994
 30
0.0
 42
-0.4142135623730951
  0
VERTEX
  5
13C1
  8
SAPA_PROFIL
 10
-103.5000000000021
 20
-15.999999999999931
 30
0.0
  0
VERTEX
  5
13C2
  8
SAPA_PROFIL
 10
-103.5000000000021
 20
-16.967157287525129
 30
0.0
 42
0.6681786379193591
  0
VERTEX
  5
13C3
  8
SAPA_PROFIL
 10
-103.1585786437648
 20
-17.108578643762652
 30
0.0
  0
VERTEX
  5
13C4
  8
SAPA_PROFIL
 10
-102.587867965646
 20
-16.537867965644342
 30
0.0
 42
0.1989123673796749
  0
VERTEX
  5
13C5
  8
SAPA_PROFIL
 10
-102.5000000000021
 20
-16.325735931288069
 30
0.0
  0
VERTEX
  5
13C6
  8
SAPA_PROFIL
 10
-102.50000000000161
 20
-14.54918985366662
 30
0.0
 42
-0.2216946626428804
  0
VERTEX
  5
13C7
  8
SAPA_PROFIL
 10
-102.1427876096881
 20
-13.783145410547879
 30
0.0
  0
VERTEX
  5
13C8
  8
SAPA_PROFIL
 10
-100.8572123903169
 20
-12.70441971812288
 30
0.0
 42
0.2216946626428499
  0
VERTEX
  5
13C9
  8
SAPA_PROFIL
 10
-100.5000000000035
 20
-11.938375275004249
 30
0.0
  0
VERTEX
  5
13CA
  8
SAPA_PROFIL
 10
-100.50000000000161
 20
-6.6499999999997987
 30
0.0
 42
-0.4142135623730951
  0
VERTEX
  5
13CB
  8
SAPA_PROFIL
 10
-100.20000000000191
 20
-6.3499999999996168
 30
0.0
  0
VERTEX
  5
13CC
  8
SAPA_PROFIL
 10
-99.800000000001859
 20
-6.3499999999996168
 30
0.0
 42
0.4142135623730951
  0
VERTEX
  5
13CD
  8
SAPA_PROFIL
 10
-99.500000000001677
 20
-6.0499999999998897
 30
0.0
  0
VERTEX
  5
13CE
  8
SAPA_PROFIL
 10
-99.500000000001677
 20
-5.6499999999997987
 30
0.0
 42
0.4142135623730951
  0
VERTEX
  5
13CF
  8
SAPA_PROFIL
 10
-99.800000000001859
 20
-5.3499999999996168
 30
0.0
  0
VERTEX
  5
13D0
  8
SAPA_PROFIL
 10
-100.20000000000191
 20
-5.3499999999996168
 30
0.0
 42
-0.4142135623730951
  0
VERTEX
  5
13D1
  8
SAPA_PROFIL
 10
-100.50000000000161
 20
-5.0499999999998897
 30
0.0
  0
VERTEX
  5
13D2
  8
SAPA_PROFIL
 10
-100.50000000000161
 20
-0.6242640687116179
 30
0.0
 42
0.1989123673795535
  0
VERTEX
  5
13D3
  8
SAPA_PROFIL
 10
-100.5878679656456
 20
-0.4121320343557997
 30
0.0
  0
VERTEX
  5
13D4
  8
SAPA_PROFIL
 10
-101.00000000000171
 20
0.0000000000002913
 30
0.0
  0
VERTEX
  5
13D5
  8
SAPA_PROFIL
 10
-100.5878679656456
 20
0.4121320343563824
 30
0.0
 42
0.1989123673795536
  0
VERTEX
  5
13D6
  8
SAPA_PROFIL
 10
-100.50000000000161
 20
0.6242640687122006
 30
0.0
  0
VERTEX
  5
13D7
  8
SAPA_PROFIL
 10
-100.50000000000161
 20
5.0500000000000176
 30
0.0
 42
-0.4142135623730951
  0
VERTEX
  5
13D8
  8
SAPA_PROFIL
 10
-100.20000000000191
 20
5.3500000000002004
 30
0.0
  0
VERTEX
  5
13D9
  8
SAPA_PROFIL
 10
-99.800000000001859
 20
5.3500000000002004
 30
0.0
 42
0.4142135623730951
  0
VERTEX
  5
13DA
  8
SAPA_PROFIL
 10
-99.500000000001677
 20
5.6500000000003823
 30
0.0
  0
VERTEX
  5
13DB
  8
SAPA_PROFIL
 10
-99.500000000001677
 20
6.0500000000004732
 30
0.0
 42
0.4142135623730951
  0
VERTEX
  5
13DC
  8
SAPA_PROFIL
 10
-99.800000000001859
 20
6.3500000000002004
 30
0.0
  0
VERTEX
  5
13DD
  8
SAPA_PROFIL
 10
-100.20000000000191
 20
6.3500000000002004
 30
0.0
 42
-0.414213562373095
  0
VERTEX
  5
13DE
  8
SAPA_PROFIL
 10
-100.50000000000161
 20
6.6500000000003823
 30
0.0
  0
SEQEND
  5
13DF
  8
SAPA_PROFIL
  0
POLYLINE
  5
FF9
  8
SAPA_PROFIL
 66
     1
 10
0.0
 20
0.0
 30
0.0
 70
     1
  0
VERTEX
  5
13E0
  8
SAPA_PROFIL
 10
68.799999999998363
 20
45.000000000000341
 30
0.0
  0
VERTEX
  5
13E1
  8
SAPA_PROFIL
 10
70.799999999998363
 20
45.000000000000341
 30
0.0
  0
VERTEX
  5
13E2
  8
SAPA_PROFIL
 10
70.799999999998363
 20
30.65685424949277
 30
0.0
  0
VERTEX
  5
13E3
  8
SAPA_PROFIL
 10
65.143145750505937
 20
25.000000000000341
 30
0.0
  0
VERTEX
  5
13E4
  8
SAPA_PROFIL
 10
45.799999999998363
 20
25.000000000000341
 30
0.0
  0
VERTEX
  5
13E5
  8
SAPA_PROFIL
 10
45.799999999998363
 20
27.000000000000341
 30
0.0
  0
VERTEX
  5
13E6
  8
SAPA_PROFIL
 10
51.107179676970873
 20
27.000000000000341
 30
0.0
  0
VERTEX
  5
13E7
  8
SAPA_PROFIL
 10
51.799999999998363
 20
26.600000000000481
 30
0.0
  0
VERTEX
  5
13E8
  8
SAPA_PROFIL
 10
52.492820323026081
 20
27.000000000000341
 30
0.0
  0
VERTEX
  5
13E9
  8
SAPA_PROFIL
 10
63.486291501013731
 20
27.000000000000341
 30
0.0
 42
0.1989123673796584
  0
VERTEX
  5
13EA
  8
SAPA_PROFIL
 10
64.900505063386845
 20
27.585786437627231
 30
0.0
  0
VERTEX
  5
13EB
  8
SAPA_PROFIL
 10
68.214213562371469
 20
30.89949493661209
 30
0.0
 42
0.1989123673796572
  0
VERTEX
  5
13EC
  8
SAPA_PROFIL
 10
68.799999999998363
 20
32.3137084989852
 30
0.0
  0
VERTEX
  5
13ED
  8
SAPA_PROFIL
 10
68.799999999998363
 20
38.307179676972851
 30
0.0
  0
VERTEX
  5
13EE
  8
SAPA_PROFIL
 10
69.199999999998454
 20
39.000000000000341
 30
0.0
  0
VERTEX
  5
13EF
  8
SAPA_PROFIL
 10
68.799999999998363
 20
39.692820323028059
 30
0.0
  0
SEQEND
  5
13F0
  8
SAPA_PROFIL
  0
POLYLINE
  5
FFA
  8
SAPA_PROFIL
 66
     1
 10
0.0
 20
0.0
 30
0.0
 70
     1
  0
VERTEX
  5
13F1
  8
SAPA_PROFIL
 10
-35.283588601450901
 20
-18.272948575180401
 30
0.0
 42
-0.1691807452125083
  0
VERTEX
  5
13F2
  8
SAPA_PROFIL
 10
-35.500000000001819
 20
-17.65166852264451
 30
0.0
  0
VERTEX
  5
13F3
  8
SAPA_PROFIL
 10
-35.500000000001819
 20
-11.299999999999271
 30
0.0
 42
-0.4142135623730951
  0
VERTEX
  5
13F4
  8
SAPA_PROFIL
 10
-35.200000000001857
 20
-10.99999999999932
 30
0.0
  0
VERTEX
  5
13F5
  8
SAPA_PROFIL
 10
-34.500000000001819
 20
-10.99999999999932
 30
0.0
 42
-0.4142135623730951
  0
VERTEX
  5
13F6
  8
SAPA_PROFIL
 10
-34.200000000001857
 20
-11.299999999999271
 30
0.0
  0
VERTEX
  5
13F7
  8
SAPA_PROFIL
 10
-34.200000000001857
 20
-14.199999999999131
 30
0.0
 42
0.4142135623730951
  0
VERTEX
  5
13F8
  8
SAPA_PROFIL
 10
-33.700000000001872
 20
-14.699999999999131
 30
0.0
  0
VERTEX
  5
13F9
  8
SAPA_PROFIL
 10
-30.500000000001819
 20
-14.699999999999131
 30
0.0
 42
0.4142135623730951
  0
VERTEX
  5
13FA
  8
SAPA_PROFIL
 10
-30.000000000001819
 20
-14.199999999999131
 30
0.0
  0
VERTEX
  5
13FB
  8
SAPA_PROFIL
 10
-30.000000000001759
 20
-5.999999999999317
 30
0.0
 42
0.4142135623730951
  0
VERTEX
  5
13FC
  8
SAPA_PROFIL
 10
-31.000000000001759
 20
-4.999999999999317
 30
0.0
  0
VERTEX
  5
13FD
  8
SAPA_PROFIL
 10
-52.200000000001801
 20
-4.999999999999317
 30
0.0
 42
-0.4142135623730948
  0
VERTEX
  5
13FE
  8
SAPA_PROFIL
 10
-52.500000000001762
 20
-4.6999999999991351
 30
0.0
  0
VERTEX
  5
13FF
  8
SAPA_PROFIL
 10
-52.500000000001762
 20
-3.2100053408687468
 30
0.0
 42
-0.2135746067194863
  0
VERTEX
  5
1400
  8
SAPA_PROFIL
 10
-52.399869219876962
 20
-2.986281638623268
 30
0.0
  0
VERTEX
  5
1401
  8
SAPA_PROFIL
 10
-51.562132034357717
 20
-2.2378679656433169
 30
0.0
 42
-0.6681786379193474
  0
VERTEX
  5
1402
  8
SAPA_PROFIL
 10
-51.050000000001937
 20
-2.4499999999991351
 30
0.0
  0
VERTEX
  5
1403
  8
SAPA_PROFIL
 10
-51.050000000001937
 20
-2.6999999999991351
 30
0.0
  0
VERTEX
  5
1404
  8
SAPA_PROFIL
 10
-49.673765406425389
 20
-2.1767196966973179
 30
0.0
 42
-0.5450207798986705
  0
VERTEX
  5
1405
  8
SAPA_PROFIL
 10
-49.250000000001762
 20
-2.4499999999991351
 30
0.0
  0
VERTEX
  5
1406
  8
SAPA_PROFIL
 10
-49.250000000001762
 20
-2.6999999999991351
 30
0.0
  0
VERTEX
  5
1407
  8
SAPA_PROFIL
 10
-47.873765406425207
 20
-2.1767196966973179
 30
0.0
 42
-0.5450207798987319
  0
VERTEX
  5
1408
  8
SAPA_PROFIL
 10
-47.450000000001808
 20
-2.4499999999991351
 30
0.0
  0
VERTEX
  5
1409
  8
SAPA_PROFIL
 10
-47.450000000001808
 20
-2.6999999999991351
 30
0.0
  0
VERTEX
  5
140A
  8
SAPA_PROFIL
 10
-46.073765406425473
 20
-2.1767196966973179
 30
0.0
 42
-0.5450207798986705
  0
VERTEX
  5
140B
  8
SAPA_PROFIL
 10
-45.650000000001853
 20
-2.4499999999991351
 30
0.0
  0
VERTEX
  5
140C
  8
SAPA_PROFIL
 10
-45.650000000001853
 20
-2.6999999999991351
 30
0.0
  0
VERTEX
  5
140D
  8
SAPA_PROFIL
 10
-44.273765406425291
 20
-2.1767196966973179
 30
0.0
 42
-0.5450207798986705
  0
VERTEX
  5
140E
  8
SAPA_PROFIL
 10
-43.850000000001671
 20
-2.4499999999991351
 30
0.0
  0
VERTEX
  5
140F
  8
SAPA_PROFIL
 10
-43.850000000001671
 20
-2.6999999999991351
 30
0.0
  0
VERTEX
  5
1410
  8
SAPA_PROFIL
 10
-43.126282705195699
 20
-2.4722372826151959
 30
0.0
 42
0.2945484962562833
  0
VERTEX
  5
1411
  8
SAPA_PROFIL
 10
-42.950048040247509
 20
-2.1988824689367439
 30
0.0
  0
VERTEX
  5
1412
  8
SAPA_PROFIL
 10
-42.950255222213791
 20
-1.2642999377474089
 30
0.0
 42
-0.3475954753796645
  0
VERTEX
  5
1413
  8
SAPA_PROFIL
 10
-42.719501178044929
 20
-0.9723265106772487
 30
0.0
 42
0.7905229096113513
  0
VERTEX
  5
1414
  8
SAPA_PROFIL
 10
-42.719490973604422
 20
0.9736640898663608
 30
0.0
 42
-0.3476065658631767
  0
VERTEX
  5
1415
  8
SAPA_PROFIL
 10
-42.950241952336391
 20
1.265651810887902
 30
0.0
  0
VERTEX
  5
1416
  8
SAPA_PROFIL
 10
-42.950095231627472
 20
1.849992662094109
 30
0.0
 42
0.4102317530970184
  0
VERTEX
  5
1417
  8
SAPA_PROFIL
 10
-43.245946879781002
 20
2.1500282985864478
 30
0.0
 42
-0.0712587206050455
  0
VERTEX
  5
1418
  8
SAPA_PROFIL
 10
-43.329990804709432
 20
2.1632556124561679
 30
0.0
  0
VERTEX
  5
1419
  8
SAPA_PROFIL
 10
-44.750000000001762
 20
2.7000000000007272
 30
0.0
  0
VERTEX
  5
141A
  8
SAPA_PROFIL
 10
-44.750000000001762
 20
2.4500000000007272
 30
0.0
 42
-0.5450200690651181
  0
VERTEX
  5
141B
  8
SAPA_PROFIL
 10
-45.173765000001758
 20
2.1767190000007299
 30
0.0
  0
VERTEX
  5
141C
  8
SAPA_PROFIL
 10
-46.550000000001937
 20
2.7000000000007272
 30
0.0
  0
VERTEX
  5
141D
  8
SAPA_PROFIL
 10
-46.55000000000171
 20
2.4500000000007272
 30
0.0
 42
-0.5450200690652297
  0
VERTEX
  5
141E
  8
SAPA_PROFIL
 10
-46.973765000001947
 20
2.1767190000007299
 30
0.0
  0
VERTEX
  5
141F
  8
SAPA_PROFIL
 10
-48.350000000001671
 20
2.7000000000007272
 30
0.0
  0
VERTEX
  5
1420
  8
SAPA_PROFIL
 10
-48.350000000001671
 20
2.4500000000007272
 30
0.0
 42
-0.5450200690651181
  0
VERTEX
  5
1421
  8
SAPA_PROFIL
 10
-48.773765000001667
 20
2.1767190000007299
 30
0.0
  0
VERTEX
  5
1422
  8
SAPA_PROFIL
 10
-50.150000000001853
 20
2.7000000000007272
 30
0.0
  0
VERTEX
  5
1423
  8
SAPA_PROFIL
 10
-50.150000000001853
 20
2.1500000000007731
 30
0.0
  0
VERTEX
  5
1424
  8
SAPA_PROFIL
 10
-51.350000000001671
 20
2.1500000000007731
 30
0.0
 42
-0.1989123673797028
  0
VERTEX
  5
1425
  8
SAPA_PROFIL
 10
-51.562132000001782
 20
2.237868000000844
 30
0.0
  0
VERTEX
  5
1426
  8
SAPA_PROFIL
 10
-52.399869211247449
 20
2.9862816378602011
 30
0.0
 42
-0.2135746168025217
  0
VERTEX
  5
1427
  8
SAPA_PROFIL
 10
-52.500000000001762
 20
3.2100053478152399
 30
0.0
  0
VERTEX
  5
1428
  8
SAPA_PROFIL
 10
-52.500000000001762
 20
4.7000000000007267
 30
0.0
 42
-0.4142135623730951
  0
VERTEX
  5
1429
  8
SAPA_PROFIL
 10
-52.200000000001801
 20
5.0000000000006821
 30
0.0
  0
VERTEX
  5
142A
  8
SAPA_PROFIL
 10
-31.000000000001759
 20
5.0000000000006821
 30
0.0
 42
0.4142135623730951
  0
VERTEX
  5
142B
  8
SAPA_PROFIL
 10
-30.000000000001759
 20
6.0000000000006821
 30
0.0
  0
VERTEX
  5
142C
  8
SAPA_PROFIL
 10
-30.000000000001759
 20
14.20000000000072
 30
0.0
 42
0.4142135623730951
  0
VERTEX
  5
142D
  8
SAPA_PROFIL
 10
-30.500000000001769
 20
14.700000000000729
 30
0.0
  0
VERTEX
  5
142E
  8
SAPA_PROFIL
 10
-33.700000000001808
 20
14.700000000000729
 30
0.0
 42
0.4142135623730951
  0
VERTEX
  5
142F
  8
SAPA_PROFIL
 10
-34.200000000001808
 20
14.20000000000072
 30
0.0
  0
VERTEX
  5
1430
  8
SAPA_PROFIL
 10
-34.200000000001808
 20
11.30000000000086
 30
0.0
 42
-0.4142135623730951
  0
VERTEX
  5
1431
  8
SAPA_PROFIL
 10
-34.500000000001762
 20
11.00000000000068
 30
0.0
  0
VERTEX
  5
1432
  8
SAPA_PROFIL
 10
-35.200000000001808
 20
11.00000000000068
 30
0.0
 42
-0.4142135623730948
  0
VERTEX
  5
1433
  8
SAPA_PROFIL
 10
-35.500000000001769
 20
11.30000000000086
 30
0.0
  0
VERTEX
  5
1434
  8
SAPA_PROFIL
 10
-35.500000000001769
 20
17.651668522645881
 30
0.0
 42
-0.1691807452125083
  0
VERTEX
  5
1435
  8
SAPA_PROFIL
 10
-35.283588601450852
 20
18.272948575181768
 30
0.0
  0
VERTEX
  5
1436
  8
SAPA_PROFIL
 10
-35.035076580642851
 20
18.58638401550138
 30
0.0
 42
-0.7105995019815232
  0
VERTEX
  5
1437
  8
SAPA_PROFIL
 10
-34.500000000001762
 20
18.40000000000077
 30
0.0
  0
VERTEX
  5
1438
  8
SAPA_PROFIL
 10
-34.500000000001762
 20
16.500000000000679
 30
0.0
 42
0.4142135623730951
  0
VERTEX
  5
1439
  8
SAPA_PROFIL
 10
-34.200000000001808
 20
16.200000000000731
 30
0.0
  0
VERTEX
  5
143A
  8
SAPA_PROFIL
 10
-30.30000000000172
 20
16.200000000000731
 30
0.0
 42
0.4142135623730951
  0
VERTEX
  5
143B
  8
SAPA_PROFIL
 10
-30.000000000001759
 20
16.500000000000679
 30
0.0
  0
VERTEX
  5
143C
  8
SAPA_PROFIL
 10
-30.000000000001759
 20
23.200000000000731
 30
0.0
 42
0.4142135623730951
  0
VERTEX
  5
143D
  8
SAPA_PROFIL
 10
-30.300000000001951
 20
23.500000000000679
 30
0.0
  0
VERTEX
  5
143E
  8
SAPA_PROFIL
 10
-34.200000000001808
 20
23.500000000000679
 30
0.0
 42
0.4142135623730951
  0
VERTEX
  5
143F
  8
SAPA_PROFIL
 10
-34.500000000001762
 20
23.200000000000731
 30
0.0
  0
VERTEX
  5
1440
  8
SAPA_PROFIL
 10
-34.500000000001762
 20
22.000000000000679
 30
0.0
 42
-0.7105990647992588
  0
VERTEX
  5
1441
  8
SAPA_PROFIL
 10
-35.035076000001879
 20
21.81361600000082
 30
0.0
  0
VERTEX
  5
1442
  8
SAPA_PROFIL
 10
-35.283588215719128
 20
22.127051286415512
 30
0.0
 42
-0.1691809048716788
  0
VERTEX
  5
1443
  8
SAPA_PROFIL
 10
-35.500000000001769
 20
22.748331825455129
 30
0.0
  0
VERTEX
  5
1444
  8
SAPA_PROFIL
 10
-35.500000000001769
 20
24.700000000000731
 30
0.0
 42
-0.4142135623730951
  0
VERTEX
  5
1445
  8
SAPA_PROFIL
 10
-35.200000000001808
 20
25.000000000000679
 30
0.0
  0
VERTEX
  5
1446
  8
SAPA_PROFIL
 10
83.999999999998053
 20
25.000000000000679
 30
0.0
 42
-0.4142135623730951
  0
VERTEX
  5
1447
  8
SAPA_PROFIL
 10
84.499999999998067
 20
24.500000000000689
 30
0.0
  0
VERTEX
  5
1448
  8
SAPA_PROFIL
 10
84.499999999998067
 20
-24.499999999999321
 30
0.0
 42
-0.4142135623730951
  0
VERTEX
  5
1449
  8
SAPA_PROFIL
 10
83.999999999998053
 20
-24.999999999999321
 30
0.0
  0
VERTEX
  5
144A
  8
SAPA_PROFIL
 10
-35.200000000001857
 20
-24.999999999999321
 30
0.0
 42
-0.4142135623730948
  0
VERTEX
  5
144B
  8
SAPA_PROFIL
 10
-35.500000000001819
 20
-24.69999999999914
 30
0.0
  0
VERTEX
  5
144C
  8
SAPA_PROFIL
 10
-35.500000000001819
 20
-22.74833147735399
 30
0.0
 42
-0.1691807452125083
  0
VERTEX
  5
144D
  8
SAPA_PROFIL
 10
-35.283588601450901
 20
-22.127051424818092
 30
0.0
  0
VERTEX
  5
144E
  8
SAPA_PROFIL
 10
-35.035076580642908
 20
-21.813615984498711
 30
0.0
 42
-0.7105995019815232
  0
VERTEX
  5
144F
  8
SAPA_PROFIL
 10
-34.500000000001762
 20
-21.999999999999321
 30
0.0
  0
VERTEX
  5
1450
  8
SAPA_PROFIL
 10
-34.500000000001819
 20
-23.19999999999914
 30
0.0
 42
0.4142135623730948
  0
VERTEX
  5
1451
  8
SAPA_PROFIL
 10
-34.200000000001857
 20
-23.499999999999321
 30
0.0
  0
VERTEX
  5
1452
  8
SAPA_PROFIL
 10
-30.300000000002001
 20
-23.499999999999321
 30
0.0
 42
0.4142135623730951
  0
VERTEX
  5
1453
  8
SAPA_PROFIL
 10
-30.000000000001819
 20
-23.19999999999914
 30
0.0
  0
VERTEX
  5
1454
  8
SAPA_PROFIL
 10
-30.000000000001819
 20
-16.499999999999321
 30
0.0
 42
0.4142135623730951
  0
VERTEX
  5
1455
  8
SAPA_PROFIL
 10
-30.30000000000177
 20
-16.199999999999129
 30
0.0
  0
VERTEX
  5
1456
  8
SAPA_PROFIL
 10
-34.200000000001857
 20
-16.199999999999129
 30
0.0
 42
0.414213562373095
  0
VERTEX
  5
1457
  8
SAPA_PROFIL
 10
-34.500000000001819
 20
-16.499999999999321
 30
0.0
  0
VERTEX
  5
1458
  8
SAPA_PROFIL
 10
-34.500000000001819
 20
-18.399999999999181
 30
0.0
 42
-0.7105995019815232
  0
VERTEX
  5
1459
  8
SAPA_PROFIL
 10
-35.035076580642851
 20
-18.586384015499789
 30
0.0
  0
SEQEND
  5
145A
  8
SAPA_PROFIL
  0
POLYLINE
  5
FFB
  8
SAPA_PROFIL
 66
     1
 10
0.0
 20
0.0
 30
0.0
 70
     1
  0
VERTEX
  5
145B
  8
SAPA_PROFIL
 10
-33.050000000001951
 20
-2.6999999999991351
 30
0.0
  0
VERTEX
  5
145C
  8
SAPA_PROFIL
 10
-33.050000000001951
 20
-2.349999999999226
 30
0.0
 42
0.545020779898761
  0
VERTEX
  5
145D
  8
SAPA_PROFIL
 10
-33.473765406425343
 20
-2.0767196966971819
 30
0.0
  0
VERTEX
  5
145E
  8
SAPA_PROFIL
 10
-34.850000000001671
 20
-2.6999999999991351
 30
0.0
  0
VERTEX
  5
145F
  8
SAPA_PROFIL
 10
-34.850000000001671
 20
-2.349999999999226
 30
0.0
 42
0.54502077989874
  0
VERTEX
  5
1460
  8
SAPA_PROFIL
 10
-35.273765406425298
 20
-2.0767196966971819
 30
0.0
  0
VERTEX
  5
1461
  8
SAPA_PROFIL
 10
-36.65000000000186
 20
-2.6999999999991351
 30
0.0
  0
VERTEX
  5
1462
  8
SAPA_PROFIL
 10
-36.65000000000186
 20
-2.349999999999226
 30
0.0
 42
0.545020779898768
  0
VERTEX
  5
1463
  8
SAPA_PROFIL
 10
-37.07376540642548
 20
-2.0767196966971819
 30
0.0
  0
VERTEX
  5
1464
  8
SAPA_PROFIL
 10
-38.450000000001808
 20
-2.6999999999991351
 30
0.0
  0
VERTEX
  5
1465
  8
SAPA_PROFIL
 10
-38.450000000001808
 20
-2.349999999999226
 30
0.0
 42
0.5450205149791638
  0
VERTEX
  5
1466
  8
SAPA_PROFIL
 10
-38.873765000001811
 20
-2.07671999999934
 30
0.0
  0
VERTEX
  5
1467
  8
SAPA_PROFIL
 10
-40.250000000001762
 20
-2.6999999999991351
 30
0.0
  0
VERTEX
  5
1468
  8
SAPA_PROFIL
 10
-40.250000000001762
 20
-2.349999999999226
 30
0.0
 42
0.5450207798987328
  0
VERTEX
  5
1469
  8
SAPA_PROFIL
 10
-40.673765406425389
 20
-2.0767196966971819
 30
0.0
  0
VERTEX
  5
146A
  8
SAPA_PROFIL
 10
-41.450000000001801
 20
-2.428267633509904
 30
0.0
  0
VERTEX
  5
146B
  8
SAPA_PROFIL
 10
-41.450000000001801
 20
2.7000000000007272
 30
0.0
  0
VERTEX
  5
146C
  8
SAPA_PROFIL
 10
-41.150000000001853
 20
2.7000000000007272
 30
0.0
  0
VERTEX
  5
146D
  8
SAPA_PROFIL
 10
-39.773765000001667
 20
2.0767190000008209
 30
0.0
 42
0.5450200690651692
  0
VERTEX
  5
146E
  8
SAPA_PROFIL
 10
-39.350000000001671
 20
2.3500000000008181
 30
0.0
  0
VERTEX
  5
146F
  8
SAPA_PROFIL
 10
-39.350000000001671
 20
2.7000000000007272
 30
0.0
  0
VERTEX
  5
1470
  8
SAPA_PROFIL
 10
-37.973765000001947
 20
2.0767190000008209
 30
0.0
 42
0.5450200690651619
  0
VERTEX
  5
1471
  8
SAPA_PROFIL
 10
-37.550000000001717
 20
2.3500000000008181
 30
0.0
  0
VERTEX
  5
1472
  8
SAPA_PROFIL
 10
-37.550000000001937
 20
2.7000000000007272
 30
0.0
  0
VERTEX
  5
1473
  8
SAPA_PROFIL
 10
-36.173765000001758
 20
2.0767190000008209
 30
0.0
 42
0.5450200690651619
  0
VERTEX
  5
1474
  8
SAPA_PROFIL
 10
-35.750000000001762
 20
2.3500000000008181
 30
0.0
  0
VERTEX
  5
1475
  8
SAPA_PROFIL
 10
-35.750000000001762
 20
2.7000000000007272
 30
0.0
  0
VERTEX
  5
1476
  8
SAPA_PROFIL
 10
-34.373765000001811
 20
2.0767190000008209
 30
0.0
 42
0.5450200690651692
  0
VERTEX
  5
1477
  8
SAPA_PROFIL
 10
-33.950000000001808
 20
2.3500000000008181
 30
0.0
  0
VERTEX
  5
1478
  8
SAPA_PROFIL
 10
-33.950000000001808
 20
2.7000000000007272
 30
0.0
  0
VERTEX
  5
1479
  8
SAPA_PROFIL
 10
-32.573765000001863
 20
2.0767190000008209
 30
0.0
 42
0.5450200690651551
  0
VERTEX
  5
147A
  8
SAPA_PROFIL
 10
-32.150000000001853
 20
2.3500000000008181
 30
0.0
  0
VERTEX
  5
147B
  8
SAPA_PROFIL
 10
-32.150000000001853
 20
2.7000000000007272
 30
0.0
  0
VERTEX
  5
147C
  8
SAPA_PROFIL
 10
-31.000000000001759
 20
2.7000000000007272
 30
0.0
 42
-0.4142135623730951
  0
VERTEX
  5
147D
  8
SAPA_PROFIL
 10
-30.000000000001759
 20
1.7000000000007269
 30
0.0
  0
VERTEX
  5
147E
  8
SAPA_PROFIL
 10
-30.000000000001759
 20
-1.6999999999991351
 30
0.0
 42
-0.4142135623730951
  0
VERTEX
  5
147F
  8
SAPA_PROFIL
 10
-31.000000000001759
 20
-2.6999999999991351
 30
0.0
  0
VERTEX
  5
1480
  8
SAPA_PROFIL
 10
-31.250000000001759
 20
-2.6999999999991351
 30
0.0
  0
VERTEX
  5
1481
  8
SAPA_PROFIL
 10
-31.250000000001759
 20
-2.349999999999226
 30
0.0
 42
0.5450207798987328
  0
VERTEX
  5
1482
  8
SAPA_PROFIL
 10
-31.673765406425389
 20
-2.0767196966971819
 30
0.0
  0
SEQEND
  5
1483
  8
SAPA_PROFIL
  0
POLYLINE
  5
FFC
  8
SAPA_PROFIL
 66
     1
 10
0.0
 20
0.0
 30
0.0
 70
     1
  0
VERTEX
  5
1484
  8
SAPA_PROFIL
 10
79.999999999998067
 20
-22.799999999999269
 30
0.0
  0
VERTEX
  5
1485
  8
SAPA_PROFIL
 10
77.824264068710022
 20
-22.799999999999269
 30
0.0
 42
-0.1989123673796407
  0
VERTEX
  5
1486
  8
SAPA_PROFIL
 10
77.612132034353976
 20
-22.71213203435514
 30
0.0
  0
VERTEX
  5
1487
  8
SAPA_PROFIL
 10
76.087867965642204
 20
-21.187867965643139
 30
0.0
 42
0.1989123673796753
  0
VERTEX
  5
1488
  8
SAPA_PROFIL
 10
75.875735931286158
 20
-21.09999999999923
 30
0.0
  0
VERTEX
  5
1489
  8
SAPA_PROFIL
 10
75.299999999998022
 20
-21.09999999999923
 30
0.0
 42
0.4142135623730951
  0
VERTEX
  5
148A
  8
SAPA_PROFIL
 10
74.999999999998067
 20
-21.399999999999181
 30
0.0
  0
VERTEX
  5
148B
  8
SAPA_PROFIL
 10
74.999999999998067
 20
-22.499999999999321
 30
0.0
 42
-0.4142135623730951
  0
VERTEX
  5
148C
  8
SAPA_PROFIL
 10
74.699999999997885
 20
-22.799999999999269
 30
0.0
  0
VERTEX
  5
148D
  8
SAPA_PROFIL
 10
72.299999999998022
 20
-22.799999999999049
 30
0.0
 42
-0.4142135623730951
  0
VERTEX
  5
148E
  8
SAPA_PROFIL
 10
71.999999999998067
 20
-22.499999999999321
 30
0.0
  0
VERTEX
  5
148F
  8
SAPA_PROFIL
 10
71.999999999998067
 20
-21.399999999999181
 30
0.0
 42
0.4142135623730951
  0
VERTEX
  5
1490
  8
SAPA_PROFIL
 10
71.699999999997885
 20
-21.09999999999923
 30
0.0
  0
VERTEX
  5
1491
  8
SAPA_PROFIL
 10
71.124264068709977
 20
-21.09999999999923
 30
0.0
 42
0.198912367379658
  0
VERTEX
  5
1492
  8
SAPA_PROFIL
 10
70.912132034353931
 20
-21.187867965643139
 30
0.0
  0
VERTEX
  5
1493
  8
SAPA_PROFIL
 10
69.387867965641931
 20
-22.71213203435514
 30
0.0
 42
-0.198912367379658
  0
VERTEX
  5
1494
  8
SAPA_PROFIL
 10
69.175735931285885
 20
-22.799999999999269
 30
0.0
  0
VERTEX
  5
1495
  8
SAPA_PROFIL
 10
29.999999999998181
 20
-22.799999999999269
 30
0.0
 42
-0.4142135623730951
  0
VERTEX
  5
1496
  8
SAPA_PROFIL
 10
28.999999999998181
 20
-21.799999999999269
 30
0.0
  0
VERTEX
  5
1497
  8
SAPA_PROFIL
 10
28.999999999998181
 20
-17.59999999999922
 30
0.0
 42
0.4142135623730951
  0
VERTEX
  5
1498
  8
SAPA_PROFIL
 10
28.699999999997999
 20
-17.299999999999269
 30
0.0
  0
VERTEX
  5
1499
  8
SAPA_PROFIL
 10
26.399999999998268
 20
-17.299999999999269
 30
0.0
 42
0.4142135623730951
  0
VERTEX
  5
149A
  8
SAPA_PROFIL
 10
26.09999999999809
 20
-17.59999999999922
 30
0.0
  0
VERTEX
  5
149B
  8
SAPA_PROFIL
 10
26.09999999999809
 20
-18.09999999999923
 30
0.0
 42
0.4142135623730951
  0
VERTEX
  5
149C
  8
SAPA_PROFIL
 10
26.399999999998268
 20
-18.399999999999181
 30
0.0
  0
VERTEX
  5
149D
  8
SAPA_PROFIL
 10
26.73662692463267
 20
-18.399999999999181
 30
0.0
 42
-0.5535245743249297
  0
VERTEX
  5
149E
  8
SAPA_PROFIL
 10
24.964107602122802
 20
-22.710554211530511
 30
0.0
  0
VERTEX
  5
149F
  8
SAPA_PROFIL
 10
24.676776695294851
 20
-22.42322330470256
 30
0.0
 42
0.4142135623729421
  0
VERTEX
  5
14A0
  8
SAPA_PROFIL
 10
24.323223304701521
 20
-22.42322330470256
 30
0.0
  0
VERTEX
  5
14A1
  8
SAPA_PROFIL
 10
24.035892397873571
 20
-22.710554211530511
 30
0.0
 42
-0.5535245743249292
  0
VERTEX
  5
14A2
  8
SAPA_PROFIL
 10
22.263373075363688
 20
-18.399999999999181
 30
0.0
  0
VERTEX
  5
14A3
  8
SAPA_PROFIL
 10
22.59999999999809
 20
-18.399999999999181
 30
0.0
 42
0.4142135623730951
  0
VERTEX
  5
14A4
  8
SAPA_PROFIL
 10
22.899999999998268
 20
-18.09999999999923
 30
0.0
  0
VERTEX
  5
14A5
  8
SAPA_PROFIL
 10
22.899999999998268
 20
-17.59999999999922
 30
0.0
 42
0.4142135623730951
  0
VERTEX
  5
14A6
  8
SAPA_PROFIL
 10
22.59999999999809
 20
-17.299999999999269
 30
0.0
  0
VERTEX
  5
14A7
  8
SAPA_PROFIL
 10
21.499999999998181
 20
-17.299999999999269
 30
0.0
 42
0.4142135623730951
  0
VERTEX
  5
14A8
  8
SAPA_PROFIL
 10
19.999999999998181
 20
-18.799999999999269
 30
0.0
  0
VERTEX
  5
14A9
  8
SAPA_PROFIL
 10
19.999999999998181
 20
-21.433974596214739
 30
0.0
 42
0.267949192431143
  0
VERTEX
  5
14AA
  8
SAPA_PROFIL
 10
20.249999999998181
 20
-21.866987298107009
 30
0.0
 42
-0.767326987978956
  0
VERTEX
  5
14AB
  8
SAPA_PROFIL
 10
19.999999999998181
 20
-22.799999999999269
 30
0.0
  0
VERTEX
  5
14AC
  8
SAPA_PROFIL
 10
-15.000000000001821
 20
-22.799999999999269
 30
0.0
 42
-0.4142135623730951
  0
VERTEX
  5
14AD
  8
SAPA_PROFIL
 10
-16.000000000001819
 20
-21.799999999999269
 30
0.0
  0
VERTEX
  5
14AE
  8
SAPA_PROFIL
 10
-16.000000000001819
 20
-17.59999999999922
 30
0.0
 42
0.4142135623730951
  0
VERTEX
  5
14AF
  8
SAPA_PROFIL
 10
-16.30000000000177
 20
-17.299999999999269
 30
0.0
  0
VERTEX
  5
14B0
  8
SAPA_PROFIL
 10
-18.600000000001732
 20
-17.299999999999269
 30
0.0
 42
0.4142135623730951
  0
VERTEX
  5
14B1
  8
SAPA_PROFIL
 10
-18.90000000000191
 20
-17.59999999999922
 30
0.0
  0
VERTEX
  5
14B2
  8
SAPA_PROFIL
 10
-18.90000000000191
 20
-18.09999999999923
 30
0.0
 42
0.4142135623730951
  0
VERTEX
  5
14B3
  8
SAPA_PROFIL
 10
-18.600000000001732
 20
-18.399999999999181
 30
0.0
  0
VERTEX
  5
14B4
  8
SAPA_PROFIL
 10
-18.263373075367319
 20
-18.399999999999181
 30
0.0
 42
-0.5535245743249297
  0
VERTEX
  5
14B5
  8
SAPA_PROFIL
 10
-20.035892397877209
 20
-22.710554211530511
 30
0.0
  0
VERTEX
  5
14B6
  8
SAPA_PROFIL
 10
-20.323223304705149
 20
-22.42322330470256
 30
0.0
 42
0.4142135623730243
  0
VERTEX
  5
14B7
  8
SAPA_PROFIL
 10
-20.676776695298489
 20
-22.42322330470256
 30
0.0
  0
VERTEX
  5
14B8
  8
SAPA_PROFIL
 10
-20.964107602126429
 20
-22.710554211530511
 30
0.0
 42
-0.5535245743249292
  0
VERTEX
  5
14B9
  8
SAPA_PROFIL
 10
-22.736626924636312
 20
-18.399999999999181
 30
0.0
  0
VERTEX
  5
14BA
  8
SAPA_PROFIL
 10
-22.40000000000191
 20
-18.399999999999181
 30
0.0
 42
0.4142135623730951
  0
VERTEX
  5
14BB
  8
SAPA_PROFIL
 10
-22.100000000001732
 20
-18.09999999999923
 30
0.0
  0
VERTEX
  5
14BC
  8
SAPA_PROFIL
 10
-22.100000000001732
 20
-17.59999999999922
 30
0.0
 42
0.4142135623730951
  0
VERTEX
  5
14BD
  8
SAPA_PROFIL
 10
-22.40000000000191
 20
-17.299999999999269
 30
0.0
  0
VERTEX
  5
14BE
  8
SAPA_PROFIL
 10
-23.500000000001819
 20
-17.299999999999269
 30
0.0
 42
0.4142135623730951
  0
VERTEX
  5
14BF
  8
SAPA_PROFIL
 10
-25.000000000001819
 20
-18.799999999999269
 30
0.0
  0
VERTEX
  5
14C0
  8
SAPA_PROFIL
 10
-25.000000000001819
 20
-21.780384757728601
 30
0.0
 42
0.2679491924311188
  0
VERTEX
  5
14C1
  8
SAPA_PROFIL
 10
-24.850000000001732
 20
-22.040192378863821
 30
0.0
 42
-0.7673269879789557
  0
VERTEX
  5
14C2
  8
SAPA_PROFIL
 10
-25.000000000001819
 20
-22.59999999999923
 30
0.0
  0
VERTEX
  5
14C3
  8
SAPA_PROFIL
 10
-27.000000000001819
 20
-22.599999999998769
 30
0.0
 42
-0.4142137811865366
  0
VERTEX
  5
14C4
  8
SAPA_PROFIL
 10
-28.000000000001819
 20
-21.600000747074549
 30
0.0
  0
VERTEX
  5
14C5
  8
SAPA_PROFIL
 10
-28.000000000001759
 20
21.600000000000819
 30
0.0
 42
-0.4142140000000124
  0
VERTEX
  5
14C6
  8
SAPA_PROFIL
 10
-27.000000000001759
 20
22.600000000000819
 30
0.0
  0
VERTEX
  5
14C7
  8
SAPA_PROFIL
 10
-25.000000000001759
 20
22.600000000000819
 30
0.0
 42
-0.7673269879789457
  0
VERTEX
  5
14C8
  8
SAPA_PROFIL
 10
-24.850000000001671
 20
22.04019237886564
 30
0.0
 42
0.2679491924311191
  0
VERTEX
  5
14C9
  8
SAPA_PROFIL
 10
-25.000000000001759
 20
21.780384757730189
 30
0.0
  0
VERTEX
  5
14CA
  8
SAPA_PROFIL
 10
-25.000000000001759
 20
18.80000000000086
 30
0.0
 42
0.4142135623730951
  0
VERTEX
  5
14CB
  8
SAPA_PROFIL
 10
-23.500000000001759
 20
17.30000000000086
 30
0.0
  0
VERTEX
  5
14CC
  8
SAPA_PROFIL
 10
-22.40000000000185
 20
17.30000000000086
 30
0.0
 42
0.4142135623730951
  0
VERTEX
  5
14CD
  8
SAPA_PROFIL
 10
-22.100000000001671
 20
17.600000000000819
 30
0.0
  0
VERTEX
  5
14CE
  8
SAPA_PROFIL
 10
-22.100000000001671
 20
18.100000000000819
 30
0.0
 42
0.4142135623730951
  0
VERTEX
  5
14CF
  8
SAPA_PROFIL
 10
-22.40000000000185
 20
18.40000000000077
 30
0.0
  0
VERTEX
  5
14D0
  8
SAPA_PROFIL
 10
-22.736626924636251
 20
18.40000000000077
 30
0.0
 42
-0.5535245743249307
  0
VERTEX
  5
14D1
  8
SAPA_PROFIL
 10
-20.964107602126379
 20
22.710554211532099
 30
0.0
  0
VERTEX
  5
14D2
  8
SAPA_PROFIL
 10
-20.676776695298429
 20
22.423223304704148
 30
0.0
 42
0.4142135623730951
  0
VERTEX
  5
14D3
  8
SAPA_PROFIL
 10
-20.323223304705099
 20
22.423223304704148
 30
0.0
  0
VERTEX
  5
14D4
  8
SAPA_PROFIL
 10
-20.035892397877149
 20
22.710554211532099
 30
0.0
 42
-0.553524574324932
  0
VERTEX
  5
14D5
  8
SAPA_PROFIL
 10
-18.263373075367269
 20
18.40000000000077
 30
0.0
  0
VERTEX
  5
14D6
  8
SAPA_PROFIL
 10
-18.600000000001671
 20
18.40000000000077
 30
0.0
 42
0.4142135623730951
  0
VERTEX
  5
14D7
  8
SAPA_PROFIL
 10
-18.90000000000185
 20
18.100000000000819
 30
0.0
  0
VERTEX
  5
14D8
  8
SAPA_PROFIL
 10
-18.90000000000185
 20
17.600000000000819
 30
0.0
 42
0.4142135623730951
  0
VERTEX
  5
14D9
  8
SAPA_PROFIL
 10
-18.600000000001671
 20
17.30000000000086
 30
0.0
  0
VERTEX
  5
14DA
  8
SAPA_PROFIL
 10
-16.30000000000172
 20
17.30000000000086
 30
0.0
 42
0.4142135623730951
  0
VERTEX
  5
14DB
  8
SAPA_PROFIL
 10
-16.000000000001759
 20
17.600000000000819
 30
0.0
  0
VERTEX
  5
14DC
  8
SAPA_PROFIL
 10
-16.000000000001759
 20
21.80000000000086
 30
0.0
 42
-0.4142135623730951
  0
VERTEX
  5
14DD
  8
SAPA_PROFIL
 10
-15.00000000000176
 20
22.80000000000086
 30
0.0
  0
VERTEX
  5
14DE
  8
SAPA_PROFIL
 10
19.999999999998181
 20
22.80000000000086
 30
0.0
 42
-0.7673269879789505
  0
VERTEX
  5
14DF
  8
SAPA_PROFIL
 10
20.249999999998181
 20
21.86698729810837
 30
0.0
 42
0.2679491924311202
  0
VERTEX
  5
14E0
  8
SAPA_PROFIL
 10
19.999999999998181
 20
21.433974596216331
 30
0.0
  0
VERTEX
  5
14E1
  8
SAPA_PROFIL
 10
19.999999999998181
 20
18.80000000000086
 30
0.0
 42
0.4142135623730951
  0
VERTEX
  5
14E2
  8
SAPA_PROFIL
 10
21.499999999998181
 20
17.30000000000086
 30
0.0
  0
VERTEX
  5
14E3
  8
SAPA_PROFIL
 10
22.59999999999809
 20
17.30000000000086
 30
0.0
 42
0.4142135623730951
  0
VERTEX
  5
14E4
  8
SAPA_PROFIL
 10
22.899999999998268
 20
17.600000000000819
 30
0.0
  0
VERTEX
  5
14E5
  8
SAPA_PROFIL
 10
22.899999999998268
 20
18.100000000000819
 30
0.0
 42
0.4142135623730951
  0
VERTEX
  5
14E6
  8
SAPA_PROFIL
 10
22.59999999999809
 20
18.40000000000077
 30
0.0
  0
VERTEX
  5
14E7
  8
SAPA_PROFIL
 10
22.263373075363688
 20
18.40000000000077
 30
0.0
 42
-0.5535245743249307
  0
VERTEX
  5
14E8
  8
SAPA_PROFIL
 10
24.035892397873571
 20
22.710554211532099
 30
0.0
  0
VERTEX
  5
14E9
  8
SAPA_PROFIL
 10
24.323223304701521
 20
22.423223304704148
 30
0.0
 42
0.4142135623731068
  0
VERTEX
  5
14EA
  8
SAPA_PROFIL
 10
24.676776695294851
 20
22.423223304704148
 30
0.0
  0
VERTEX
  5
14EB
  8
SAPA_PROFIL
 10
24.964107602122802
 20
22.710554211532099
 30
0.0
 42
-0.553524574324932
  0
VERTEX
  5
14EC
  8
SAPA_PROFIL
 10
26.73662692463267
 20
18.40000000000077
 30
0.0
  0
VERTEX
  5
14ED
  8
SAPA_PROFIL
 10
26.399999999998268
 20
18.40000000000077
 30
0.0
 42
0.4142135623730951
  0
VERTEX
  5
14EE
  8
SAPA_PROFIL
 10
26.09999999999809
 20
18.100000000000819
 30
0.0
  0
VERTEX
  5
14EF
  8
SAPA_PROFIL
 10
26.09999999999809
 20
17.600000000000819
 30
0.0
 42
0.4142135623730951
  0
VERTEX
  5
14F0
  8
SAPA_PROFIL
 10
26.399999999998268
 20
17.30000000000086
 30
0.0
  0
VERTEX
  5
14F1
  8
SAPA_PROFIL
 10
28.699999999997999
 20
17.30000000000086
 30
0.0
 42
0.4142135623730951
  0
VERTEX
  5
14F2
  8
SAPA_PROFIL
 10
28.999999999998181
 20
17.600000000000819
 30
0.0
  0
VERTEX
  5
14F3
  8
SAPA_PROFIL
 10
28.999999999998181
 20
21.80000000000086
 30
0.0
 42
-0.4142135623730951
  0
VERTEX
  5
14F4
  8
SAPA_PROFIL
 10
29.999999999998181
 20
22.80000000000086
 30
0.0
  0
VERTEX
  5
14F5
  8
SAPA_PROFIL
 10
69.175735931285885
 20
22.80000000000086
 30
0.0
 42
-0.198912367379658
  0
VERTEX
  5
14F6
  8
SAPA_PROFIL
 10
69.387867965641931
 20
22.712132034356731
 30
0.0
  0
VERTEX
  5
14F7
  8
SAPA_PROFIL
 10
70.912132034353704
 20
21.187867965644731
 30
0.0
 42
0.1989123673797102
  0
VERTEX
  5
14F8
  8
SAPA_PROFIL
 10
71.124264068709977
 20
21.100000000000591
 30
0.0
  0
VERTEX
  5
14F9
  8
SAPA_PROFIL
 10
71.699999999997885
 20
21.100000000000819
 30
0.0
 42
0.4142135623730951
  0
VERTEX
  5
14FA
  8
SAPA_PROFIL
 10
71.999999999998067
 20
21.40000000000077
 30
0.0
  0
VERTEX
  5
14FB
  8
SAPA_PROFIL
 10
71.999999999998067
 20
22.500000000000679
 30
0.0
 42
-0.4142135623730951
  0
VERTEX
  5
14FC
  8
SAPA_PROFIL
 10
72.299999999998022
 20
22.80000000000086
 30
0.0
  0
VERTEX
  5
14FD
  8
SAPA_PROFIL
 10
74.699999999997885
 20
22.80000000000086
 30
0.0
 42
-0.4142135623730951
  0
VERTEX
  5
14FE
  8
SAPA_PROFIL
 10
74.999999999998067
 20
22.500000000000679
 30
0.0
  0
VERTEX
  5
14FF
  8
SAPA_PROFIL
 10
74.999999999998067
 20
21.40000000000077
 30
0.0
 42
0.4142135623730951
  0
VERTEX
  5
1500
  8
SAPA_PROFIL
 10
75.299999999998022
 20
21.100000000000819
 30
0.0
  0
VERTEX
  5
1501
  8
SAPA_PROFIL
 10
75.875735931286158
 20
21.100000000000819
 30
0.0
 42
0.1989123673796752
  0
VERTEX
  5
1502
  8
SAPA_PROFIL
 10
76.087867965641976
 20
21.187867965644958
 30
0.0
  0
VERTEX
  5
1503
  8
SAPA_PROFIL
 10
77.612132034353976
 20
22.712132034356731
 30
0.0
 42
-0.1989123673797102
  0
VERTEX
  5
1504
  8
SAPA_PROFIL
 10
77.824264068710022
 20
22.80000000000086
 30
0.0
  0
VERTEX
  5
1505
  8
SAPA_PROFIL
 10
79.999999999998067
 20
22.80000000000086
 30
0.0
 42
-0.4142135623730951
  0
VERTEX
  5
1506
  8
SAPA_PROFIL
 10
80.999999999998067
 20
21.80000000000086
 30
0.0
  0
VERTEX
  5
1507
  8
SAPA_PROFIL
 10
80.999999999998067
 20
-21.799999999999269
 30
0.0
 42
-0.4142135623730951
  0
SEQEND
  5
1508
  8
SAPA_PROFIL
  0
POLYLINE
  5
FFD
  8
SAPA_PROFIL
 66
     1
 10
0.0
 20
0.0
 30
0.0
 70
     1
  0
VERTEX
  5
1509
  8
SAPA_PROFIL
 10
-107.09847507219931
 20
-22.799999999999049
 30
0.0
  0
VERTEX
  5
150A
  8
SAPA_PROFIL
 10
-107.09847507219931
 20
-23.799999999999049
 30
0.0
  0
VERTEX
  5
150B
  8
SAPA_PROFIL
 10
-104.4984750721992
 20
-23.799999999999049
 30
0.0
 42
-0.4142135623730951
  0
VERTEX
  5
150C
  8
SAPA_PROFIL
 10
-103.9984750721992
 20
-24.299999999999059
 30
0.0
  0
VERTEX
  5
150D
  8
SAPA_PROFIL
 10
-103.9984750721992
 20
-24.69999999999914
 30
0.0
 42
-0.4142135623730951
  0
VERTEX
  5
150E
  8
SAPA_PROFIL
 10
-104.2984750721991
 20
-24.999999999999101
 30
0.0
  0
VERTEX
  5
150F
  8
SAPA_PROFIL
 10
-122.0000000000018
 20
-24.999999999999091
 30
0.0
 42
-0.4142135623730951
  0
VERTEX
  5
1510
  8
SAPA_PROFIL
 10
-122.5000000000018
 20
-24.499999999999091
 30
0.0
  0
VERTEX
  5
1511
  8
SAPA_PROFIL
 10
-122.5000000000018
 20
24.500000000000909
 30
0.0
 42
-0.4142135623730951
  0
VERTEX
  5
1512
  8
SAPA_PROFIL
 10
-122.0000000000018
 20
25.000000000000909
 30
0.0
  0
VERTEX
  5
1513
  8
SAPA_PROFIL
 10
-104.2984750721991
 20
25.000000000000909
 30
0.0
 42
-0.4142135623730951
  0
VERTEX
  5
1514
  8
SAPA_PROFIL
 10
-103.9984750721991
 20
24.700000000000951
 30
0.0
  0
VERTEX
  5
1515
  8
SAPA_PROFIL
 10
-103.9984750721991
 20
24.30000000000086
 30
0.0
 42
-0.4142135623730951
  0
VERTEX
  5
1516
  8
SAPA_PROFIL
 10
-104.4984750721992
 20
23.80000000000086
 30
0.0
  0
VERTEX
  5
1517
  8
SAPA_PROFIL
 10
-107.09847507219931
 20
23.80000000000086
 30
0.0
  0
VERTEX
  5
1518
  8
SAPA_PROFIL
 10
-107.09847507219931
 20
22.80000000000086
 30
0.0
  0
VERTEX
  5
1519
  8
SAPA_PROFIL
 10
-108.1025078318323
 20
22.22033922157971
 30
0.0
 42
-0.4155392929676362
  0
VERTEX
  5
151A
  8
SAPA_PROFIL
 10
-109.1971268036243
 20
22.51631264788557
 30
0.0
  0
VERTEX
  5
151B
  8
SAPA_PROFIL
 10
-109.9382640419233
 20
23.80000000000086
 30
0.0
  0
VERTEX
  5
151C
  8
SAPA_PROFIL
 10
-120.1000000000019
 20
23.80000000000086
 30
0.0
 42
0.4142135623730951
  0
VERTEX
  5
151D
  8
SAPA_PROFIL
 10
-121.1000000000019
 20
22.80000000000086
 30
0.0
  0
VERTEX
  5
151E
  8
SAPA_PROFIL
 10
-121.1000000000019
 20
-22.799999999999049
 30
0.0
 42
0.4142135623730951
  0
VERTEX
  5
151F
  8
SAPA_PROFIL
 10
-120.100000000002
 20
-23.799999999999041
 30
0.0
  0
VERTEX
  5
1520
  8
SAPA_PROFIL
 10
-109.9382640419233
 20
-23.799999999999049
 30
0.0
  0
VERTEX
  5
1521
  8
SAPA_PROFIL
 10
-109.1971268036243
 20
-22.516312647883758
 30
0.0
 42
-0.4155392929676362
  0
VERTEX
  5
1522
  8
SAPA_PROFIL
 10
-108.1025078318323
 20
-22.220339221577891
 30
0.0
  0
SEQEND
  5
1523
  8
SAPA_PROFIL
  0
LINE
  5
1020
  8
SAPA_FYLLNING
 10
72.499999999998067
 20
26.0
 30
0.0
 11
72.499999999998025
 21
75.0
 31
0.0
  0
POLYLINE
  5
1021
  8
SAPA_FYLLNING
 66
     1
 10
0.0
 20
0.0
 30
0.0
  0
VERTEX
  5
1544
  8
SAPA_FYLLNING
 10
70.999999999998025
 20
75.0
 30
0.0
  0
VERTEX
  5
1545
  8
SAPA_FYLLNING
 10
70.99999999999801
 20
26.0
 30
0.0
  0
VERTEX
  5
1546
  8
SAPA_FYLLNING
 10
82.499999999998053
 20
26.000000000000011
 30
0.0
  0
VERTEX
  5
1547
  8
SAPA_FYLLNING
 10
82.499999999998082
 20
75.0
 30
0.0
  0
SEQEND
  5
1548
  8
SAPA_FYLLNING
  0
POLYLINE
  5
1022
  8
SAPA_FYLLNING
 66
     1
 10
0.0
 20
0.0
 30
0.0
  0
VERTEX
  5
1549
  8
SAPA_FYLLNING
 10
-37.982758669925033
 20
10.700000365252439
 30
0.0
 42
0.9999999999999998
  0
VERTEX
  5
154A
  8
SAPA_FYLLNING
 10
-37.98275865593655
 20
15.665517691110381
 30
0.0
  0
VERTEX
  5
154B
  8
SAPA_FYLLNING
 10
-63.058620532135819
 20
15.66551784568083
 30
0.0
 42
-0.9999999999999998
  0
VERTEX
  5
154C
  8
SAPA_FYLLNING
 10
-63.058620532135819
 20
20.63103506968265
 30
0.0
  0
VERTEX
  5
154D
  8
SAPA_FYLLNING
 10
-37.98275865593655
 20
20.631034915112199
 30
0.0
 42
1.0
  0
VERTEX
  5
154E
  8
SAPA_FYLLNING
 10
-37.982758634954507
 20
25.596552139110379
 30
0.0
  0
VERTEX
  5
154F
  8
SAPA_FYLLNING
 10
-63.058620504158853
 20
25.596552293680819
 30
0.0
 42
-0.9999999999999998
  0
VERTEX
  5
1550
  8
SAPA_FYLLNING
 10
-63.058620504158853
 20
30.562069517682641
 30
0.0
  0
VERTEX
  5
1551
  8
SAPA_FYLLNING
 10
-37.982758627960493
 20
30.56206926125606
 30
0.0
 42
0.9999999999999998
  0
VERTEX
  5
1552
  8
SAPA_FYLLNING
 10
-37.982758613972457
 20
35.527586587114008
 30
0.0
  0
VERTEX
  5
1553
  8
SAPA_FYLLNING
 10
-63.058620490170817
 20
35.527586741684452
 30
0.0
 42
-0.9999999999999998
  0
VERTEX
  5
1554
  8
SAPA_FYLLNING
 10
-63.058620490170817
 20
40.493103965686267
 30
0.0
  0
VERTEX
  5
1555
  8
SAPA_FYLLNING
 10
-37.982758613972457
 20
40.493103811115823
 30
0.0
 42
1.0
  0
VERTEX
  5
1556
  8
SAPA_FYLLNING
 10
-37.982758592990407
 20
45.458621035113993
 30
0.0
  0
VERTEX
  5
1557
  8
SAPA_FYLLNING
 10
-63.05862046219476
 20
45.458621189684443
 30
0.0
 42
-0.9999999999999998
  0
VERTEX
  5
1558
  8
SAPA_FYLLNING
 10
-63.05862046219476
 20
50.424138413686258
 30
0.0
  0
VERTEX
  5
1559
  8
SAPA_FYLLNING
 10
-37.9827585859964
 20
50.424138157259677
 30
0.0
 42
0.9999999999999998
  0
VERTEX
  5
155A
  8
SAPA_FYLLNING
 10
-37.982758572008372
 20
55.389655483117629
 30
0.0
  0
VERTEX
  5
155B
  8
SAPA_FYLLNING
 10
-63.058620448206732
 20
55.389655637688072
 30
0.0
 42
-0.9999999999999998
  0
VERTEX
  5
155C
  8
SAPA_FYLLNING
 10
-63.058620448206732
 20
60.355172861689887
 30
0.0
  0
VERTEX
  5
155D
  8
SAPA_FYLLNING
 10
-37.982758572008372
 20
60.355172707119443
 30
0.0
 42
1.0000000000000011
  0
VERTEX
  5
155E
  8
SAPA_FYLLNING
 10
-37.982758551026343
 20
65.320689931117613
 30
0.0
  0
VERTEX
  5
155F
  8
SAPA_FYLLNING
 10
-63.058620420230667
 20
65.320690085688071
 30
0.0
 42
-0.9999999999999998
  0
VERTEX
  5
1560
  8
SAPA_FYLLNING
 10
-63.058620420230667
 20
70.286207309689885
 30
0.0
  0
VERTEX
  5
1561
  8
SAPA_FYLLNING
 10
-37.982758544032322
 20
70.286207053263297
 30
0.0
 42
0.9999999999999998
  0
VERTEX
  5
1562
  8
SAPA_FYLLNING
 10
-37.9827585300443
 20
75.251724379121242
 30
0.0
  0
SEQEND
  5
1563
  8
SAPA_FYLLNING
  0
INSERT
  5
1029
  8
SAPA_FYLLNING
  6
CONTINUOUS
  2
*X39
 10
0.0
 20
0.0
 30
0.0
1001
ACAD
1000
HATCH
1002
{
1070
    19
1000
HEX
1040
0.25
1040
-0.0000000000000002
1000
R14_HATCH_DATA
1000
1029
1011
1.0
1021
0.0
1031
0.0
1021
0.0
1031
0.0
1011
0.0
1021
0.0
1031
0.0
1021
1.0
1031
0.0
1011
0.0
1021
0.0
1031
0.0
1021
0.0
1031
1.0
1040
0.0
1010
0.0
1020
0.0
1030
1.0
1000
HEX
1070
     0
1070
     0
1071
        1
1071
        5
1071
        1
1070
     3
1040
66.413322782963405
1040
-32.611638997374307
1040
0.0000000000000018
1040
7.4013872152117974
1040
0.5404392289838516
1040
0.0
1040
6.2831853071795862
1070
     1
1071
        0
1070
     0
1070
     1
1040
-0.0000000000000002
1040
0.25
1070
     0
1070
     3
1040
6.2831853071795862
1040
-14837.35624794363
1040
-8120.7582849050841
1040
0.0000000000000003
1040
1.374814999999999
1070
     2
1040
0.79375
1040
-1.587499999999999
1040
2.094395102393193
1040
-14837.35624794363
1040
-8120.7582849050841
1040
-1.1906247155039029
1040
-0.6874074999999993
1070
     2
1040
0.7937499999999989
1040
-1.587499999999997
1040
1.047197551196597
1040
-14836.562497943631
1040
-8120.7582849050841
1040
-1.190624715503902
1040
0.6874075000000004
1070
     2
1040
0.79375
1040
-1.587499999999999
1040
0.1869524274666423
1071
        1
1040
65.593972493358706
1040
-31.824579569284939
1040
0.0
1002
}
  0
INSERT
  5
102A
  8
SAPA_FYLLNING
  6
CONTINUOUS
  2
*X40
 10
0.0
 20
0.0
 30
0.0
1001
ACAD
1000
HATCH
1002
{
1070
    19
1000
ANSI37
1040
0.25
1040
-0.0000000000000002
1000
R14_HATCH_DATA
1000
102A
1011
1.0
1021
0.0
1031
0.0
1021
0.0
1031
0.0
1011
0.0
1021
0.0
1031
0.0
1021
1.0
1031
0.0
1011
0.0
1021
0.0
1031
0.0
1021
0.0
1031
1.0
1040
0.0
1010
0.0
1020
0.0
1030
1.0
1000
ANSI37
1070
     0
1070
     0
1071
        1
1071
        7
1070
     1
1070
     1
1071
        4
1040
69.112219890913366
1040
-39.996679515170683
1040
0.0
1040
83.998400843554009
1040
-39.996679515170683
1040
-0.2625797940973267
1040
83.998400843554009
1040
-25.196679515171411
1040
0.0
1040
69.112219890911547
1040
-25.196679515171411
1040
-0.2625797940972474
1071
        0
1070
     0
1070
     1
1040
-0.0000000000000002
1040
0.25
1070
     0
1070
     2
1040
0.7853981633974481
1040
-14837.35624794363
1040
-8120.7582849050841
1040
-0.5612660075668219
1040
0.5612660075668222
1070
     0
1040
2.3561944901923439
1040
-14837.35624794363
1040
-8120.7582849050841
1040
-0.5612660075668222
1040
-0.5612660075668219
1070
     0
1040
0.1869524274666423
1071
        1
1040
75.507074765774632
1040
-33.320159230986349
1040
0.0
1002
}
  0
POLYLINE
  5
1039
  8
SAPA_ISOLATOR
 66
     1
 10
0.0
 20
0.0
 30
0.0
 70
     1
  0
VERTEX
  5
1712
  8
SAPA_ISOLATOR
 10
-58.235078054673288
 20
8.8339473861459155
 30
0.0
 42
-0.2133140774071598
  0
VERTEX
  5
1713
  8
SAPA_ISOLATOR
 10
-56.744915522935351
 20
9.5000000000003624
 30
0.0
  0
VERTEX
  5
1714
  8
SAPA_ISOLATOR
 10
-56.57305861427642
 20
9.5000000000003624
 30
0.0
 42
0.9999999999999998
  0
VERTEX
  5
1715
  8
SAPA_ISOLATOR
 10
-56.57305861427642
 20
10.000000000000361
 30
0.0
  0
VERTEX
  5
1716
  8
SAPA_ISOLATOR
 10
-57.532183153562983
 20
10.000000000000361
 30
0.0
 42
0.2072397715914422
  0
VERTEX
  5
1717
  8
SAPA_ISOLATOR
 10
-59.355587196483377
 20
9.2103209337031071
 30
0.0
 42
0.1421101772925093
  0
VERTEX
  5
1718
  8
SAPA_ISOLATOR
 10
-61.500000000001819
 20
5.0000000000003624
 30
0.0
  0
VERTEX
  5
1719
  8
SAPA_ISOLATOR
 10
-59.687834755456826
 20
5.0000000000003624
 30
0.0
 42
-0.1860725815673001
  0
SEQEND
  5
171A
  8
SAPA_ISOLATOR
  0
POLYLINE
  5
103A
  8
SAPA_ISOLATOR
 66
     1
 10
0.0
 20
0.0
 30
0.0
 70
     1
  0
VERTEX
  5
171B
  8
SAPA_ISOLATOR
 10
-58.235078054673288
 20
-8.8339473861453062
 30
0.0
 42
0.2133140774071598
  0
VERTEX
  5
171C
  8
SAPA_ISOLATOR
 10
-56.744915522935351
 20
-9.4999999999997531
 30
0.0
  0
VERTEX
  5
171D
  8
SAPA_ISOLATOR
 10
-56.57305861427642
 20
-9.4999999999997531
 30
0.0
 42
-0.9999999999999998
  0
VERTEX
  5
171E
  8
SAPA_ISOLATOR
 10
-56.57305861427642
 20
-9.9999999999997531
 30
0.0
  0
VERTEX
  5
171F
  8
SAPA_ISOLATOR
 10
-57.532183153562983
 20
-9.9999999999997531
 30
0.0
 42
-0.2072397715914422
  0
VERTEX
  5
1720
  8
SAPA_ISOLATOR
 10
-59.355587196483377
 20
-9.2103209337025014
 30
0.0
 42
-0.1421101772925093
  0
VERTEX
  5
1721
  8
SAPA_ISOLATOR
 10
-61.500000000001819
 20
-4.9999999999997504
 30
0.0
  0
VERTEX
  5
1722
  8
SAPA_ISOLATOR
 10
-59.687834755456826
 20
-4.9999999999997504
 30
0.0
 42
0.1860725815673001
  0
SEQEND
  5
1723
  8
SAPA_ISOLATOR
  0
POLYLINE
  5
103B
  8
SAPA_ISOLATOR
 66
     1
 10
0.0
 20
0.0
 30
0.0
 70
     1
  0
VERTEX
  5
1724
  8
SAPA_ISOLATOR
 10
-75.235078054673295
 20
-8.8339473861453097
 30
0.0
 42
0.2133140774071598
  0
VERTEX
  5
1725
  8
SAPA_ISOLATOR
 10
-73.744915522935344
 20
-9.4999999999997566
 30
0.0
  0
VERTEX
  5
1726
  8
SAPA_ISOLATOR
 10
-73.57305861427642
 20
-9.4999999999997566
 30
0.0
 42
-0.9999999999999998
  0
VERTEX
  5
1727
  8
SAPA_ISOLATOR
 10
-73.57305861427642
 20
-9.9999999999997566
 30
0.0
  0
VERTEX
  5
1728
  8
SAPA_ISOLATOR
 10
-74.532183153562983
 20
-9.9999999999997584
 30
0.0
 42
-0.2072397715914422
  0
VERTEX
  5
1729
  8
SAPA_ISOLATOR
 10
-76.355587196483384
 20
-9.2103209337025032
 30
0.0
 42
-0.1421101772925093
  0
VERTEX
  5
172A
  8
SAPA_ISOLATOR
 10
-78.500000000001819
 20
-4.999999999999754
 30
0.0
  0
VERTEX
  5
172B
  8
SAPA_ISOLATOR
 10
-76.687834755456834
 20
-4.9999999999997531
 30
0.0
 42
0.1860725815673001
  0
SEQEND
  5
172C
  8
SAPA_ISOLATOR
  0
POLYLINE
  5
103C
  8
SAPA_ISOLATOR
 66
     1
 10
0.0
 20
0.0
 30
0.0
 70
     1
  0
VERTEX
  5
172D
  8
SAPA_ISOLATOR
 10
-92.235078054672826
 20
-8.8339473861452582
 30
0.0
 42
0.2133140774071598
  0
VERTEX
  5
172E
  8
SAPA_ISOLATOR
 10
-90.744915522934889
 20
-9.4999999999997051
 30
0.0
  0
VERTEX
  5
172F
  8
SAPA_ISOLATOR
 10
-90.573058614275965
 20
-9.4999999999997051
 30
0.0
 42
-0.9999999999999998
  0
VERTEX
  5
1730
  8
SAPA_ISOLATOR
 10
-90.573058614275965
 20
-9.9999999999997051
 30
0.0
  0
VERTEX
  5
1731
  8
SAPA_ISOLATOR
 10
-91.532183153562528
 20
-9.9999999999997051
 30
0.0
 42
-0.2072397715914422
  0
VERTEX
  5
1732
  8
SAPA_ISOLATOR
 10
-93.355587196482929
 20
-9.2103209337024516
 30
0.0
 42
-0.1421101772925093
  0
VERTEX
  5
1733
  8
SAPA_ISOLATOR
 10
-95.500000000001364
 20
-4.9999999999997007
 30
0.0
  0
VERTEX
  5
1734
  8
SAPA_ISOLATOR
 10
-93.687834755456379
 20
-4.9999999999996998
 30
0.0
 42
0.1860725815673001
  0
SEQEND
  5
1735
  8
SAPA_ISOLATOR
  0
POLYLINE
  5
103D
  8
SAPA_ISOLATOR
 66
     1
 10
0.0
 20
0.0
 30
0.0
 70
     1
  0
VERTEX
  5
1736
  8
SAPA_ISOLATOR
 10
-75.235078054673295
 20
8.8339473861459101
 30
0.0
 42
-0.2133140774071598
  0
VERTEX
  5
1737
  8
SAPA_ISOLATOR
 10
-73.744915522935344
 20
9.5000000000003588
 30
0.0
  0
VERTEX
  5
1738
  8
SAPA_ISOLATOR
 10
-73.57305861427642
 20
9.5000000000003588
 30
0.0
 42
0.9999999999999998
  0
VERTEX
  5
1739
  8
SAPA_ISOLATOR
 10
-73.57305861427642
 20
10.000000000000361
 30
0.0
  0
VERTEX
  5
173A
  8
SAPA_ISOLATOR
 10
-74.532183153562983
 20
10.000000000000361
 30
0.0
 42
0.2072397715914422
  0
VERTEX
  5
173B
  8
SAPA_ISOLATOR
 10
-76.355587196483384
 20
9.2103209337031053
 30
0.0
 42
0.1421101772925093
  0
VERTEX
  5
173C
  8
SAPA_ISOLATOR
 10
-78.500000000001819
 20
5.0000000000003579
 30
0.0
  0
VERTEX
  5
173D
  8
SAPA_ISOLATOR
 10
-76.687834755456834
 20
5.0000000000003579
 30
0.0
 42
-0.1860725815673001
  0
SEQEND
  5
173E
  8
SAPA_ISOLATOR
  0
POLYLINE
  5
103E
  8
SAPA_ISOLATOR
 66
     1
 10
0.0
 20
0.0
 30
0.0
 70
     1
  0
VERTEX
  5
173F
  8
SAPA_ISOLATOR
 10
-92.235078054672826
 20
8.8339473861458515
 30
0.0
 42
-0.2133140774071598
  0
VERTEX
  5
1740
  8
SAPA_ISOLATOR
 10
-90.744915522934889
 20
9.5000000000002984
 30
0.0
  0
VERTEX
  5
1741
  8
SAPA_ISOLATOR
 10
-90.573058614275965
 20
9.5000000000002984
 30
0.0
 42
0.9999999999999998
  0
VERTEX
  5
1742
  8
SAPA_ISOLATOR
 10
-90.573058614275965
 20
10.0000000000003
 30
0.0
  0
VERTEX
  5
1743
  8
SAPA_ISOLATOR
 10
-91.532183153562528
 20
10.0000000000003
 30
0.0
 42
0.2072397715914422
  0
VERTEX
  5
1744
  8
SAPA_ISOLATOR
 10
-93.355587196482929
 20
9.2103209337030432
 30
0.0
 42
0.1421101772925093
  0
VERTEX
  5
1745
  8
SAPA_ISOLATOR
 10
-95.500000000001364
 20
5.0000000000002984
 30
0.0
  0
VERTEX
  5
1746
  8
SAPA_ISOLATOR
 10
-93.687834755456379
 20
5.0000000000002984
 30
0.0
 42
-0.1860725815673001
  0
SEQEND
  5
1747
  8
SAPA_ISOLATOR
  0
POLYLINE
  5
103F
  8
SAPA_ISOLATOR
 66
     1
 10
0.0
 20
0.0
 30
0.0
 70
     1
  0
VERTEX
  5
1748
  8
SAPA_ISOLATOR
 10
-100.41213203458091
 20
-3.4121320343939918
 30
0.0
 42
0.1989123671061558
  0
VERTEX
  5
1749
  8
SAPA_ISOLATOR
 10
-100.50000000000171
 20
-3.6242640685267
 30
0.0
  0
VERTEX
  5
174A
  8
SAPA_ISOLATOR
 10
-100.50000000000161
 20
-4.699999999999787
 30
0.0
 42
0.4142135623730605
  0
VERTEX
  5
174B
  8
SAPA_ISOLATOR
 10
-100.20000000000149
 20
-4.9999999999997593
 30
0.0
  0
VERTEX
  5
174C
  8
SAPA_ISOLATOR
 10
-53.000000000001712
 20
-4.9999999999997478
 30
0.0
 42
0.4142135623730951
  0
VERTEX
  5
174D
  8
SAPA_ISOLATOR
 10
-52.500000000001819
 20
-4.4999999999996341
 30
0.0
  0
VERTEX
  5
174E
  8
SAPA_ISOLATOR
 10
-52.500000000001698
 20
-3.2742640687116351
 30
0.0
 42
-0.1989123673796248
  0
VERTEX
  5
174F
  8
SAPA_ISOLATOR
 10
-52.412132034357683
 20
-3.062132034355646
 30
0.0
  0
VERTEX
  5
1750
  8
SAPA_ISOLATOR
 10
-51.737867965645819
 20
-2.3878679656437818
 30
0.0
 42
-0.1989123673796571
  0
VERTEX
  5
1751
  8
SAPA_ISOLATOR
 10
-51.525735931289773
 20
-2.29999999999976
 30
0.0
  0
VERTEX
  5
1752
  8
SAPA_ISOLATOR
 10
-47.09496704178639
 20
-2.2999999999997578
 30
0.0
 42
0.0912836897734216
  0
VERTEX
  5
1753
  8
SAPA_ISOLATOR
 10
-44.975410008184433
 20
-1.081358332189867
 30
0.0
 42
0.4396415083054796
  0
VERTEX
  5
1754
  8
SAPA_ISOLATOR
 10
-44.975410008184319
 20
1.0813583321903131
 30
0.0
 42
0.0912836897734209
  0
VERTEX
  5
1755
  8
SAPA_ISOLATOR
 10
-47.09496704178639
 20
2.3000000000002632
 30
0.0
  0
VERTEX
  5
1756
  8
SAPA_ISOLATOR
 10
-51.525735931289773
 20
2.3000000000002618
 30
0.0
 42
-0.1989123673796602
  0
VERTEX
  5
1757
  8
SAPA_ISOLATOR
 10
-51.737867965645819
 20
2.3878679656443418
 30
0.0
  0
VERTEX
  5
1758
  8
SAPA_ISOLATOR
 10
-52.412132034357683
 20
3.0621320343562051
 30
0.0
 42
-0.1989123673796276
  0
VERTEX
  5
1759
  8
SAPA_ISOLATOR
 10
-52.500000000001698
 20
3.2742640687121929
 30
0.0
  0
VERTEX
  5
175A
  8
SAPA_ISOLATOR
 10
-52.500000000001698
 20
4.5000000000003073
 30
0.0
 42
0.4142135623730951
  0
VERTEX
  5
175B
  8
SAPA_ISOLATOR
 10
-53.000000000001712
 20
5.0000000000003073
 30
0.0
  0
VERTEX
  5
175C
  8
SAPA_ISOLATOR
 10
-100.20000000000159
 20
5.0000000000003002
 30
0.0
 42
0.4142135623731471
  0
VERTEX
  5
175D
  8
SAPA_ISOLATOR
 10
-100.50000000000161
 20
4.7000000000002986
 30
0.0
  0
VERTEX
  5
175E
  8
SAPA_ISOLATOR
 10
-100.50000000000171
 20
3.6242640688971171
 30
0.0
 42
0.1989123676531289
  0
VERTEX
  5
175F
  8
SAPA_ISOLATOR
 10
-100.4121320341344
 20
3.4121320343179038
 30
0.0
  0
VERTEX
  5
1760
  8
SAPA_ISOLATOR
 10
-97.353553390594925
 20
0.3535533972162881
 30
0.0
 42
-0.4142135623730478
  0
VERTEX
  5
1761
  8
SAPA_ISOLATOR
 10
-97.353553390594925
 20
-0.3535533839702651
 30
0.0
  0
SEQEND
  5
1762
  8
SAPA_ISOLATOR
  0
POLYLINE
  5
1040
  8
SAPA_ISOLATOR
 66
     1
 10
0.0
 20
0.0
 30
0.0
 70
     1
  0
VERTEX
  5
1763
  8
SAPA_ISOLATOR
 10
-52.193502884256191
 20
1.287867965644319
 30
0.0
 42
0.198912367379658
  0
VERTEX
  5
1764
  8
SAPA_ISOLATOR
 10
-51.981370849900259
 20
1.2000000000002959
 30
0.0
  0
VERTEX
  5
1765
  8
SAPA_ISOLATOR
 10
-47.33024511179223
 20
1.2000000000002971
 30
0.0
 42
-0.0949127563617268
  0
VERTEX
  5
1766
  8
SAPA_ISOLATOR
 10
-47.25633651754918
 20
1.1858427283939541
 30
0.0
 42
-0.0825355669758324
  0
VERTEX
  5
1767
  8
SAPA_ISOLATOR
 10
-45.669861748247001
 20
0.2279162213645884
 30
0.0
 42
-0.4603672002713016
  0
VERTEX
  5
1768
  8
SAPA_ISOLATOR
 10
-45.669861748247001
 20
-0.2279162213640431
 30
0.0
 42
-0.08253556697594
  0
VERTEX
  5
1769
  8
SAPA_ISOLATOR
 10
-47.256336517551397
 20
-1.185842728393939
 30
0.0
 42
-0.0949127563615792
  0
VERTEX
  5
176A
  8
SAPA_ISOLATOR
 10
-47.330245111794568
 20
-1.1999999999997351
 30
0.0
  0
VERTEX
  5
176B
  8
SAPA_ISOLATOR
 10
-51.981370849900259
 20
-1.1999999999997371
 30
0.0
 42
0.1989123673796566
  0
VERTEX
  5
176C
  8
SAPA_ISOLATOR
 10
-52.193502884256077
 20
-1.287867965643759
 30
0.0
  0
VERTEX
  5
176D
  8
SAPA_ISOLATOR
 10
-53.512132034357698
 20
-2.6064971157452752
 30
0.0
 42
0.1989123673796571
  0
VERTEX
  5
176E
  8
SAPA_ISOLATOR
 10
-53.600000000001728
 20
-2.8186291501012071
 30
0.0
  0
VERTEX
  5
176F
  8
SAPA_ISOLATOR
 10
-53.600000000001728
 20
-3.5999999999997141
 30
0.0
 42
-0.4142135623730395
  0
VERTEX
  5
1770
  8
SAPA_ISOLATOR
 10
-53.900000000001683
 20
-3.899999999999725
 30
0.0
  0
VERTEX
  5
1771
  8
SAPA_ISOLATOR
 10
-66.100000000001671
 20
-3.8999999999997388
 30
0.0
 42
-0.4142135623730673
  0
VERTEX
  5
1772
  8
SAPA_ISOLATOR
 10
-66.400000000001626
 20
-3.5999999999997279
 30
0.0
  0
VERTEX
  5
1773
  8
SAPA_ISOLATOR
 10
-66.400000000001626
 20
3.6000000000002581
 30
0.0
 42
-0.4142135623731228
  0
VERTEX
  5
1774
  8
SAPA_ISOLATOR
 10
-66.100000000001671
 20
3.9000000000002411
 30
0.0
  0
VERTEX
  5
1775
  8
SAPA_ISOLATOR
 10
-53.900000000001683
 20
3.9000000000002841
 30
0.0
 42
-0.4142135623730743
  0
VERTEX
  5
1776
  8
SAPA_ISOLATOR
 10
-53.600000000001728
 20
3.60000000000033
 30
0.0
  0
VERTEX
  5
1777
  8
SAPA_ISOLATOR
 10
-53.600000000001728
 20
2.8186291501017662
 30
0.0
 42
0.1989123673796576
  0
VERTEX
  5
1778
  8
SAPA_ISOLATOR
 10
-53.512132034357592
 20
2.6064971157458339
 30
0.0
  0
SEQEND
  5
1779
  8
SAPA_ISOLATOR
  0
POLYLINE
  5
1041
  8
SAPA_ISOLATOR
 66
     1
 10
0.0
 20
0.0
 30
0.0
 70
     1
  0
VERTEX
  5
177A
  8
SAPA_ISOLATOR
 10
-67.500000000001648
 20
-3.5999999999997279
 30
0.0
 42
-0.4142135623731076
  0
VERTEX
  5
177B
  8
SAPA_ISOLATOR
 10
-67.800000000001717
 20
-3.8999999999997401
 30
0.0
  0
VERTEX
  5
177C
  8
SAPA_ISOLATOR
 10
-83.100000000001614
 20
-3.8999999999997148
 30
0.0
 42
-0.4142135623730659
  0
VERTEX
  5
177D
  8
SAPA_ISOLATOR
 10
-83.400000000001569
 20
-3.599999999999703
 30
0.0
  0
VERTEX
  5
177E
  8
SAPA_ISOLATOR
 10
-83.400000000001683
 20
3.6000000000003398
 30
0.0
 42
-0.414213562373041
  0
VERTEX
  5
177F
  8
SAPA_ISOLATOR
 10
-83.100000000001614
 20
3.9000000000002948
 30
0.0
  0
VERTEX
  5
1780
  8
SAPA_ISOLATOR
 10
-67.800000000001717
 20
3.9000000000002699
 30
0.0
 42
-0.4142135623730784
  0
VERTEX
  5
1781
  8
SAPA_ISOLATOR
 10
-67.500000000001762
 20
3.6000000000003149
 30
0.0
  0
SEQEND
  5
1782
  8
SAPA_ISOLATOR
  0
POLYLINE
  5
1042
  8
SAPA_ISOLATOR
 66
     1
 10
0.0
 20
0.0
 30
0.0
 70
     1
  0
VERTEX
  5
1783
  8
SAPA_ISOLATOR
 10
-84.500000000001705
 20
-3.599999999999703
 30
0.0
 42
-0.4142135623730659
  0
VERTEX
  5
1784
  8
SAPA_ISOLATOR
 10
-84.800000000001646
 20
-3.8999999999997148
 30
0.0
  0
VERTEX
  5
1785
  8
SAPA_ISOLATOR
 10
-98.861522370430521
 20
-3.8999999999997361
 30
0.0
 42
-0.6681786375387276
  0
VERTEX
  5
1786
  8
SAPA_ISOLATOR
 10
-99.002943726816696
 20
-3.558578643911261
 30
0.0
  0
VERTEX
  5
1787
  8
SAPA_ISOLATOR
 10
-96.575735930471183
 20
-1.13137084245686
 30
0.0
 42
0.4142135623730892
  0
VERTEX
  5
1788
  8
SAPA_ISOLATOR
 10
-96.575735931289714
 20
1.1313708565214851
 30
0.0
  0
VERTEX
  5
1789
  8
SAPA_ISOLATOR
 10
-99.002943723491285
 20
3.558578643614128
 30
0.0
 42
-0.6681786382998753
  0
VERTEX
  5
178A
  8
SAPA_ISOLATOR
 10
-98.861522367402813
 20
3.900000000000273
 30
0.0
  0
VERTEX
  5
178B
  8
SAPA_ISOLATOR
 10
-84.800000000001774
 20
3.9000000000002948
 30
0.0
 42
-0.4142135623730951
  0
VERTEX
  5
178C
  8
SAPA_ISOLATOR
 10
-84.500000000001705
 20
3.600000000000283
 30
0.0
  0
SEQEND
  5
178D
  8
SAPA_ISOLATOR
  0
CIRCLE
  5
1054
  8
SAPA_FOGBAND
 10
-100.6375682207575
 20
18.755377317821971
 30
0.0
 40
0.2549509756796394
  0
INSERT
  5
1055
  8
SAPA_FOGBAND
  6
CONTINUOUS
  2
*U43
 10
0.0
 20
0.0
 30
0.0
1001
ACAD
1002
{
1000
R14_HATCH_DATA
1000
1055
1011
1.0
1021
0.0
1031
0.0
1021
0.0
1031
0.0
1011
0.0
1021
0.0
1031
0.0
1021
1.0
1031
0.0
1011
0.0
1021
0.0
1031
0.0
1021
0.0
1031
1.0
1040
0.0
1010
0.0
1020
0.0
1030
1.0
1000
SOLID
1070
     1
1070
     1
1071
        1
1071
        1
1071
        1
1070
     2
1040
-100.6375682207575
1040
18.755377317821971
1040
0.2549509756796394
1040
-1.5707963267948959
1040
4.7123889803846888
1070
     1
1071
        1
1005
1054
1070
     0
1070
     1
1071
        1
1040
-100.5557167234286
1040
18.99211621939207
1040
0.0
1002
}
  0
POLYLINE
  5
1056
  8
SAPA_FOGBAND
 66
     1
 10
0.0
 20
0.0
 30
0.0
 70
     1
  0
VERTEX
  5
186A
  8
SAPA_FOGBAND
 10
-103.600000000002
 20
17.85537731782199
 30
0.0
 42
0.9999999999999998
  0
VERTEX
  5
186B
  8
SAPA_FOGBAND
 10
-103.600000000002
 20
19.655377317821941
 30
0.0
  0
VERTEX
  5
186C
  8
SAPA_FOGBAND
 10
-104.20000000000211
 20
19.655377317821941
 30
0.0
 42
0.9999999999999998
  0
VERTEX
  5
186D
  8
SAPA_FOGBAND
 10
-104.20000000000211
 20
17.85537731782199
 30
0.0
  0
SEQEND
  5
186E
  8
SAPA_FOGBAND
  0
POLYLINE
  5
1057
  8
SAPA_FOGBAND
 66
     1
 10
0.0
 20
0.0
 30
0.0
 70
     1
  0
VERTEX
  5
186F
  8
SAPA_FOGBAND
 10
-98.500000000002046
 20
27.38325362599517
 30
0.0
 42
0.0775891054856093
  0
VERTEX
  5
1870
  8
SAPA_FOGBAND
 10
-98.81663598406341
 20
23.916471895572609
 30
0.0
  0
VERTEX
  5
1871
  8
SAPA_FOGBAND
 10
-98.600000000002012
 20
23.67858240274381
 30
0.0
 42
-0.5773502691896298
  0
VERTEX
  5
1872
  8
SAPA_FOGBAND
 10
-98.600000000002012
 20
23.332172241229959
 30
0.0
  0
VERTEX
  5
1873
  8
SAPA_FOGBAND
 10
-98.816909854225074
 20
23.094124624499159
 30
0.0
  0
VERTEX
  5
1874
  8
SAPA_FOGBAND
 10
-98.816909854225074
 20
22.316630014582529
 30
0.0
  0
VERTEX
  5
1875
  8
SAPA_FOGBAND
 10
-98.600000000002012
 20
22.078582402743791
 30
0.0
 42
-0.577350269189699
  0
VERTEX
  5
1876
  8
SAPA_FOGBAND
 10
-98.600000000002012
 20
21.73217224123005
 30
0.0
  0
VERTEX
  5
1877
  8
SAPA_FOGBAND
 10
-98.816909854225074
 20
21.49412462449925
 30
0.0
  0
VERTEX
  5
1878
  8
SAPA_FOGBAND
 10
-98.816909854225074
 20
20.71663001458251
 30
0.0
  0
VERTEX
  5
1879
  8
SAPA_FOGBAND
 10
-98.600000000002012
 20
20.478582402743768
 30
0.0
 42
-0.577350269189699
  0
VERTEX
  5
187A
  8
SAPA_FOGBAND
 10
-98.600000000002012
 20
20.13217224123002
 30
0.0
  0
VERTEX
  5
187B
  8
SAPA_FOGBAND
 10
-98.816909854225074
 20
19.894124624499231
 30
0.0
  0
VERTEX
  5
187C
  8
SAPA_FOGBAND
 10
-98.816909854225074
 20
19.11663001458248
 30
0.0
  0
VERTEX
  5
187D
  8
SAPA_FOGBAND
 10
-98.600000000002012
 20
18.878582402743859
 30
0.0
 42
-0.5773502691896298
  0
VERTEX
  5
187E
  8
SAPA_FOGBAND
 10
-98.600000000002012
 20
18.532172241230001
 30
0.0
  0
VERTEX
  5
187F
  8
SAPA_FOGBAND
 10
-98.816909854225074
 20
18.294124624499201
 30
0.0
  0
VERTEX
  5
1880
  8
SAPA_FOGBAND
 10
-98.816909854225074
 20
17.516630014582461
 30
0.0
  0
VERTEX
  5
1881
  8
SAPA_FOGBAND
 10
-98.600000000002012
 20
17.27858240274384
 30
0.0
 42
-0.5773502691896298
  0
VERTEX
  5
1882
  8
SAPA_FOGBAND
 10
-98.600000000002012
 20
16.932172241229981
 30
0.0
  0
VERTEX
  5
1883
  8
SAPA_FOGBAND
 10
-98.816909854225074
 20
16.694124624499182
 30
0.0
  0
VERTEX
  5
1884
  8
SAPA_FOGBAND
 10
-98.816909854225074
 20
15.916630010417521
 30
0.0
  0
VERTEX
  5
1885
  8
SAPA_FOGBAND
 10
-98.600000000002012
 20
15.678582398578779
 30
0.0
 42
-0.577350269189699
  0
VERTEX
  5
1886
  8
SAPA_FOGBAND
 10
-98.600000000002012
 20
15.33217223706504
 30
0.0
  0
VERTEX
  5
1887
  8
SAPA_FOGBAND
 10
-99.673330068486507
 20
14.53217223750994
 30
0.0
 42
-0.1316524987190269
  0
VERTEX
  5
1888
  8
SAPA_FOGBAND
 10
-99.773330069257213
 20
14.505377317821971
 30
0.0
  0
VERTEX
  5
1889
  8
SAPA_FOGBAND
 10
-102.300000000002
 20
14.50537731782185
 30
0.0
 42
-0.4142135623730951
  0
VERTEX
  5
188A
  8
SAPA_FOGBAND
 10
-102.500000000002
 20
14.705377317821901
 30
0.0
  0
VERTEX
  5
188B
  8
SAPA_FOGBAND
 10
-102.500000000002
 20
16.755377317821971
 30
0.0
 42
0.4142135623730951
  0
VERTEX
  5
188C
  8
SAPA_FOGBAND
 10
-103.000000000002
 20
17.25537731782196
 30
0.0
  0
VERTEX
  5
188D
  8
SAPA_FOGBAND
 10
-103.72679491924519
 20
17.25537731782196
 30
0.0
  0
VERTEX
  5
188E
  8
SAPA_FOGBAND
 10
-103.79425482855559
 20
17.003613508801429
 30
0.0
 42
-0.4740571810232869
  0
VERTEX
  5
188F
  8
SAPA_FOGBAND
 10
-104.07653741419421
 20
16.876319646437882
 30
0.0
  0
VERTEX
  5
1890
  8
SAPA_FOGBAND
 10
-105.522743550954
 20
17.49642014919641
 30
0.0
 42
-0.2846003776495916
  0
VERTEX
  5
1891
  8
SAPA_FOGBAND
 10
-105.800000000002
 20
17.94406432765663
 30
0.0
  0
VERTEX
  5
1892
  8
SAPA_FOGBAND
 10
-105.800000000002
 20
19.566690307987191
 30
0.0
 42
-0.2846003776495917
  0
VERTEX
  5
1893
  8
SAPA_FOGBAND
 10
-105.522743550954
 20
20.01433448644741
 30
0.0
  0
VERTEX
  5
1894
  8
SAPA_FOGBAND
 10
-104.07653741419421
 20
20.634434989205939
 30
0.0
 42
-0.4740571810232869
  0
VERTEX
  5
1895
  8
SAPA_FOGBAND
 10
-103.79425482855559
 20
20.507141126842381
 30
0.0
  0
VERTEX
  5
1896
  8
SAPA_FOGBAND
 10
-103.72679491924519
 20
20.255377317821971
 30
0.0
  0
VERTEX
  5
1897
  8
SAPA_FOGBAND
 10
-103.000000000002
 20
20.255377317821971
 30
0.0
 42
0.4142135623730951
  0
VERTEX
  5
1898
  8
SAPA_FOGBAND
 10
-102.500000000002
 20
20.755377317821971
 30
0.0
  0
VERTEX
  5
1899
  8
SAPA_FOGBAND
 10
-102.500000000002
 20
23.805377317821922
 30
0.0
 42
0.4142135623730951
  0
VERTEX
  5
189A
  8
SAPA_FOGBAND
 10
-102.70000000000211
 20
24.005377317821971
 30
0.0
  0
VERTEX
  5
189B
  8
SAPA_FOGBAND
 10
-103.600000000002
 20
24.00537731782185
 30
0.0
 42
-0.4142135623731784
  0
VERTEX
  5
189C
  8
SAPA_FOGBAND
 10
-103.800000000002
 20
24.205377317821899
 30
0.0
  0
VERTEX
  5
189D
  8
SAPA_FOGBAND
 10
-103.8000000000021
 20
24.905377317821952
 30
0.0
 42
-0.4142135623730398
  0
VERTEX
  5
189E
  8
SAPA_FOGBAND
 10
-103.500000000002
 20
25.205377317821899
 30
0.0
  0
VERTEX
  5
189F
  8
SAPA_FOGBAND
 10
-102.68948822335049
 20
25.205377317821899
 30
0.0
 42
0.1316524975873973
  0
VERTEX
  5
18A0
  8
SAPA_FOGBAND
 10
-101.68948822335049
 20
25.473326510253059
 30
0.0
  0
VERTEX
  5
18A1
  8
SAPA_FOGBAND
 10
-99.099920231258594
 20
30.636171660293488
 30
0.0
 42
-0.7057658529986604
  0
VERTEX
  5
18A2
  8
SAPA_FOGBAND
 10
-98.500000000002046
 20
30.368578484935139
 30
0.0
  0
SEQEND
  5
18A3
  8
SAPA_FOGBAND
  0
POLYLINE
  5
1058
  8
SAPA_FOGBAND
 66
     1
 10
0.0
 20
0.0
 30
0.0
 70
     1
  0
VERTEX
  5
18A4
  8
SAPA_FOGBAND
 10
-80.246986787901164
 20
19.097370599561849
 30
0.0
 42
-0.9999999999999998
  0
VERTEX
  5
18A5
  8
SAPA_FOGBAND
 10
-80.246986787901164
 20
20.897370599561871
 30
0.0
  0
VERTEX
  5
18A6
  8
SAPA_FOGBAND
 10
-79.646986787901142
 20
20.897370599561871
 30
0.0
 42
-0.9999999999999998
  0
VERTEX
  5
18A7
  8
SAPA_FOGBAND
 10
-79.646986787901142
 20
19.097370599561849
 30
0.0
  0
SEQEND
  5
18A8
  8
SAPA_FOGBAND
  0
POLYLINE
  5
1059
  8
SAPA_FOGBAND
 66
     1
 10
0.0
 20
0.0
 30
0.0
  0
VERTEX
  5
18A9
  8
SAPA_FOGBAND
 10
-81.861617285539964
 20
23.597370599561849
 30
0.0
  0
VERTEX
  5
18AA
  8
SAPA_FOGBAND
 10
-81.56161728553991
 20
23.597370599561849
 30
0.0
  0
VERTEX
  5
18AB
  8
SAPA_FOGBAND
 10
-81.861617285539964
 20
23.597370599561849
 30
0.0
 42
0.4142135623730951
  0
VERTEX
  5
18AC
  8
SAPA_FOGBAND
 10
-82.361617285539978
 20
23.097370599561849
 30
0.0
  0
VERTEX
  5
18AD
  8
SAPA_FOGBAND
 10
-82.361617285539978
 20
15.7973705995619
 30
0.0
 42
0.4142135623730951
  0
VERTEX
  5
18AE
  8
SAPA_FOGBAND
 10
-81.861617285539964
 20
15.2973705995619
 30
0.0
  0
VERTEX
  5
18AF
  8
SAPA_FOGBAND
 10
-81.56161728553991
 20
15.2973705995619
 30
0.0
  0
SEQEND
  5
18B0
  8
SAPA_FOGBAND
  0
POLYLINE
  5
105A
  8
SAPA_FOGBAND
 66
     1
 10
0.0
 20
0.0
 30
0.0
 70
     1
  0
VERTEX
  5
18B1
  8
SAPA_FOGBAND
 10
-86.061617285539896
 20
16.94830210006657
 30
0.0
  0
VERTEX
  5
18B2
  8
SAPA_FOGBAND
 10
-86.061617285539896
 20
20.03423563684262
 30
0.0
 42
0.9695372397405709
  0
VERTEX
  5
18B3
  8
SAPA_FOGBAND
 10
-89.643149078325408
 20
20.03423563684262
 30
0.0
  0
VERTEX
  5
18B4
  8
SAPA_FOGBAND
 10
-89.643149078325408
 20
16.94830210006657
 30
0.0
 42
0.9063837695480113
  0
SEQEND
  5
18B5
  8
SAPA_FOGBAND
  0
POLYLINE
  5
105B
  8
SAPA_FOGBAND
 66
     1
 10
0.0
 20
0.0
 30
0.0
 70
     1
  0
VERTEX
  5
18B6
  8
SAPA_FOGBAND
 10
-88.573214819424081
 20
7.6662813986302139
 30
0.0
  0
VERTEX
  5
18B7
  8
SAPA_FOGBAND
 10
-88.573214819424081
 20
7.6662813986302139
 30
0.0
 42
-0.611149385816862
  0
VERTEX
  5
18B8
  8
SAPA_FOGBAND
 10
-90.453456948789153
 20
7.6980325656949411
 30
0.0
  0
VERTEX
  5
18B9
  8
SAPA_FOGBAND
 10
-91.019298861043609
 20
11.68869534261111
 30
0.0
 42
-0.4464785874932439
  0
VERTEX
  5
18BA
  8
SAPA_FOGBAND
 10
-90.025221555937691
 20
12.7973705995619
 30
0.0
  0
VERTEX
  5
18BB
  8
SAPA_FOGBAND
 10
-87.001910231072969
 20
12.7973705995619
 30
0.0
 42
-0.622676997742357
  0
VERTEX
  5
18BC
  8
SAPA_FOGBAND
 10
-86.210028502909537
 20
11.18669611294828
 30
0.0
  0
VERTEX
  5
18BD
  8
SAPA_FOGBAND
 10
-88.573214819424081
 20
7.6662813986302121
 30
0.0
 42
-0.232531183213058
  0
SEQEND
  5
18BE
  8
SAPA_FOGBAND
  0
POLYLINE
  5
105C
  8
SAPA_FOGBAND
 66
     1
 10
0.0
 20
0.0
 30
0.0
 70
     1
  0
VERTEX
  5
18BF
  8
SAPA_FOGBAND
 10
-80.120191868658026
 20
18.497370599561879
 30
0.0
  0
VERTEX
  5
18C0
  8
SAPA_FOGBAND
 10
-80.052731959347625
 20
18.245606790541409
 30
0.0
 42
0.4740571810232144
  0
VERTEX
  5
18C1
  8
SAPA_FOGBAND
 10
-79.770449373708971
 20
18.118312928177801
 30
0.0
  0
VERTEX
  5
18C2
  8
SAPA_FOGBAND
 10
-78.324243236949087
 20
18.73841343093639
 30
0.0
 42
0.2846003776496053
  0
VERTEX
  5
18C3
  8
SAPA_FOGBAND
 10
-78.046986787901119
 20
19.186057609396549
 30
0.0
  0
VERTEX
  5
18C4
  8
SAPA_FOGBAND
 10
-78.046986787901119
 20
20.80868358972717
 30
0.0
 42
0.2846003776496027
  0
VERTEX
  5
18C5
  8
SAPA_FOGBAND
 10
-78.324243236949087
 20
21.256327768187329
 30
0.0
  0
VERTEX
  5
18C6
  8
SAPA_FOGBAND
 10
-79.770449373709013
 20
21.876428270945919
 30
0.0
 42
0.4740571810232332
  0
VERTEX
  5
18C7
  8
SAPA_FOGBAND
 10
-80.052731959347625
 20
21.749134408582361
 30
0.0
  0
VERTEX
  5
18C8
  8
SAPA_FOGBAND
 10
-80.120191868658026
 20
21.49737059956189
 30
0.0
  0
VERTEX
  5
18C9
  8
SAPA_FOGBAND
 10
-81.061617285539896
 20
21.49737059956189
 30
0.0
 42
-0.4142135623730951
  0
VERTEX
  5
18CA
  8
SAPA_FOGBAND
 10
-81.56161728553991
 20
21.99737059956189
 30
0.0
  0
VERTEX
  5
18CB
  8
SAPA_FOGBAND
 10
-81.561617285539967
 20
24.509530762943339
 30
0.0
 42
0.4027293761437467
  0
VERTEX
  5
18CC
  8
SAPA_FOGBAND
 10
-81.849809923009275
 20
24.809298316541199
 30
0.0
  0
VERTEX
  5
18CD
  8
SAPA_FOGBAND
 10
-92.249809923009309
 20
25.29713813121063
 30
0.0
 42
0.4257917699693538
  0
VERTEX
  5
18CE
  8
SAPA_FOGBAND
 10
-92.561617285539967
 20
24.99737057761277
 30
0.0
  0
VERTEX
  5
18CF
  8
SAPA_FOGBAND
 10
-92.561617285539967
 20
11.29183691838889
 30
0.0
  0
VERTEX
  5
18D0
  8
SAPA_FOGBAND
 10
-91.785082367857342
 20
5.6886953206620161
 30
0.0
 42
0.322530093016903
  0
VERTEX
  5
18D1
  8
SAPA_FOGBAND
 10
-90.791005062751367
 20
4.9973705776127479
 30
0.0
  0
VERTEX
  5
18D2
  8
SAPA_FOGBAND
 10
-88.560261506313793
 20
4.9973705776127479
 30
0.0
 42
0.2325311832130604
  0
VERTEX
  5
18D3
  8
SAPA_FOGBAND
 10
-88.164320642231985
 20
5.1920333343059681
 30
0.0
  0
VERTEX
  5
18D4
  8
SAPA_FOGBAND
 10
-81.769735557376464
 20
14.358596562213471
 30
0.0
 42
0.1657205760184606
  0
VERTEX
  5
18D5
  8
SAPA_FOGBAND
 10
-81.56161728553991
 20
14.969271048827091
 30
0.0
  0
VERTEX
  5
18D6
  8
SAPA_FOGBAND
 10
-81.56161728553991
 20
17.99737059956189
 30
0.0
 42
-0.4142135623730951
  0
VERTEX
  5
18D7
  8
SAPA_FOGBAND
 10
-81.061617285539896
 20
18.497370599561879
 30
0.0
  0
SEQEND
  5
18D8
  8
SAPA_FOGBAND
  0
CIRCLE
  5
105D
  8
SAPA_FOGBAND
 10
-100.6375682207573
 20
-18.612132034356019
 30
0.0
 40
0.2549509756796394
  0
INSERT
  5
105E
  8
SAPA_FOGBAND
  6
CONTINUOUS
  2
*U44
 10
0.0
 20
0.0
 30
0.0
1001
ACAD
1002
{
1000
R14_HATCH_DATA
1000
105E
1011
1.0
1021
0.0
1031
0.0
1021
0.0
1031
0.0
1011
0.0
1021
0.0
1031
0.0
1021
1.0
1031
0.0
1011
0.0
1021
0.0
1031
0.0
1021
0.0
1031
1.0
1040
0.0
1010
0.0
1020
0.0
1030
1.0
1000
SOLID
1070
     1
1070
     1
1071
        1
1071
        1
1071
        1
1070
     2
1040
-100.6375682207573
1040
-18.612132034356019
1040
0.2549509756796394
1040
-1.5707963267948959
1040
4.7123889803846888
1070
     0
1071
        1
1005
105D
1070
     0
1070
     1
1071
        1
1040
-100.5557167234284
1040
-18.848870935926129
1040
0.0
1002
}
  0
POLYLINE
  5
105F
  8
SAPA_FOGBAND
 66
     1
 10
0.0
 20
0.0
 30
0.0
 70
     1
  0
VERTEX
  5
18EA
  8
SAPA_FOGBAND
 10
-103.6000000000018
 20
-17.712132034356038
 30
0.0
 42
-0.9999999999999998
  0
VERTEX
  5
18EB
  8
SAPA_FOGBAND
 10
-103.6000000000018
 20
-19.512132034356
 30
0.0
  0
VERTEX
  5
18EC
  8
SAPA_FOGBAND
 10
-104.20000000000179
 20
-19.512132034356
 30
0.0
 42
-0.9999999999999998
  0
VERTEX
  5
18ED
  8
SAPA_FOGBAND
 10
-104.20000000000179
 20
-17.712132034356038
 30
0.0
  0
SEQEND
  5
18EE
  8
SAPA_FOGBAND
  0
POLYLINE
  5
1060
  8
SAPA_FOGBAND
 66
     1
 10
0.0
 20
0.0
 30
0.0
 70
     1
  0
VERTEX
  5
18EF
  8
SAPA_FOGBAND
 10
-98.500000000001819
 20
-27.240008342529219
 30
0.0
 42
-0.0775891054856093
  0
VERTEX
  5
18F0
  8
SAPA_FOGBAND
 10
-98.816635984063169
 20
-23.773226612106669
 30
0.0
  0
VERTEX
  5
18F1
  8
SAPA_FOGBAND
 10
-98.600000000001785
 20
-23.53533711927787
 30
0.0
 42
0.5773502691896298
  0
VERTEX
  5
18F2
  8
SAPA_FOGBAND
 10
-98.600000000001785
 20
-23.188926957764011
 30
0.0
  0
VERTEX
  5
18F3
  8
SAPA_FOGBAND
 10
-98.816909854224832
 20
-22.950879341033211
 30
0.0
  0
VERTEX
  5
18F4
  8
SAPA_FOGBAND
 10
-98.816909854224832
 20
-22.173384731116581
 30
0.0
  0
VERTEX
  5
18F5
  8
SAPA_FOGBAND
 10
-98.600000000001785
 20
-21.93533711927785
 30
0.0
 42
0.577350269189699
  0
VERTEX
  5
18F6
  8
SAPA_FOGBAND
 10
-98.600000000001785
 20
-21.588926957764102
 30
0.0
  0
VERTEX
  5
18F7
  8
SAPA_FOGBAND
 10
-98.816909854224832
 20
-21.350879341033309
 30
0.0
  0
VERTEX
  5
18F8
  8
SAPA_FOGBAND
 10
-98.816909854224832
 20
-20.573384731116558
 30
0.0
  0
VERTEX
  5
18F9
  8
SAPA_FOGBAND
 10
-98.600000000001785
 20
-20.335337119277821
 30
0.0
 42
0.577350269189699
  0
VERTEX
  5
18FA
  8
SAPA_FOGBAND
 10
-98.600000000001785
 20
-19.988926957764079
 30
0.0
  0
VERTEX
  5
18FB
  8
SAPA_FOGBAND
 10
-98.816909854224832
 20
-19.750879341033279
 30
0.0
  0
VERTEX
  5
18FC
  8
SAPA_FOGBAND
 10
-98.816909854224832
 20
-18.973384731116539
 30
0.0
  0
VERTEX
  5
18FD
  8
SAPA_FOGBAND
 10
-98.600000000001785
 20
-18.735337119277911
 30
0.0
 42
0.5773502691896298
  0
VERTEX
  5
18FE
  8
SAPA_FOGBAND
 10
-98.600000000001785
 20
-18.388926957764049
 30
0.0
  0
VERTEX
  5
18FF
  8
SAPA_FOGBAND
 10
-98.816909854224832
 20
-18.15087934103326
 30
0.0
  0
VERTEX
  5
1900
  8
SAPA_FOGBAND
 10
-98.816909854224832
 20
-17.373384731116509
 30
0.0
  0
VERTEX
  5
1901
  8
SAPA_FOGBAND
 10
-98.600000000001785
 20
-17.135337119277889
 30
0.0
 42
0.5773502691896298
  0
VERTEX
  5
1902
  8
SAPA_FOGBAND
 10
-98.600000000001785
 20
-16.78892695776403
 30
0.0
  0
VERTEX
  5
1903
  8
SAPA_FOGBAND
 10
-98.816909854224832
 20
-16.55087934103323
 30
0.0
  0
VERTEX
  5
1904
  8
SAPA_FOGBAND
 10
-98.816909854224832
 20
-15.773384726951569
 30
0.0
  0
VERTEX
  5
1905
  8
SAPA_FOGBAND
 10
-98.600000000001785
 20
-15.53533711511284
 30
0.0
 42
0.577350269189699
  0
VERTEX
  5
1906
  8
SAPA_FOGBAND
 10
-98.600000000001785
 20
-15.18892695359909
 30
0.0
  0
VERTEX
  5
1907
  8
SAPA_FOGBAND
 10
-99.67333006848628
 20
-14.38892695404399
 30
0.0
 42
0.1316524987190269
  0
VERTEX
  5
1908
  8
SAPA_FOGBAND
 10
-99.773330069256986
 20
-14.362132034356019
 30
0.0
  0
VERTEX
  5
1909
  8
SAPA_FOGBAND
 10
-102.3000000000017
 20
-14.362132034355909
 30
0.0
 42
0.4142135623730951
  0
VERTEX
  5
190A
  8
SAPA_FOGBAND
 10
-102.5000000000018
 20
-14.562132034355949
 30
0.0
  0
VERTEX
  5
190B
  8
SAPA_FOGBAND
 10
-102.5000000000018
 20
-16.612132034356019
 30
0.0
 42
-0.4142135623730951
  0
VERTEX
  5
190C
  8
SAPA_FOGBAND
 10
-103.0000000000018
 20
-17.112132034356019
 30
0.0
  0
VERTEX
  5
190D
  8
SAPA_FOGBAND
 10
-103.72679491924499
 20
-17.112132034356019
 30
0.0
  0
VERTEX
  5
190E
  8
SAPA_FOGBAND
 10
-103.7942548285553
 20
-16.860368225335488
 30
0.0
 42
0.4740571810232869
  0
VERTEX
  5
190F
  8
SAPA_FOGBAND
 10
-104.07653741419399
 20
-16.73307436297193
 30
0.0
  0
VERTEX
  5
1910
  8
SAPA_FOGBAND
 10
-105.52274355095381
 20
-17.353174865730459
 30
0.0
 42
0.2846003776495916
  0
VERTEX
  5
1911
  8
SAPA_FOGBAND
 10
-105.8000000000018
 20
-17.800819044190689
 30
0.0
  0
VERTEX
  5
1912
  8
SAPA_FOGBAND
 10
-105.8000000000018
 20
-19.423445024521239
 30
0.0
 42
0.2846003776495917
  0
VERTEX
  5
1913
  8
SAPA_FOGBAND
 10
-105.52274355095381
 20
-19.871089202981459
 30
0.0
  0
VERTEX
  5
1914
  8
SAPA_FOGBAND
 10
-104.07653741419399
 20
-20.491189705739998
 30
0.0
 42
0.4740571810232869
  0
VERTEX
  5
1915
  8
SAPA_FOGBAND
 10
-103.7942548285553
 20
-20.36389584337644
 30
0.0
  0
VERTEX
  5
1916
  8
SAPA_FOGBAND
 10
-103.72679491924499
 20
-20.112132034356019
 30
0.0
  0
VERTEX
  5
1917
  8
SAPA_FOGBAND
 10
-103.0000000000018
 20
-20.112132034356019
 30
0.0
 42
-0.4142135623730951
  0
VERTEX
  5
1918
  8
SAPA_FOGBAND
 10
-102.5000000000018
 20
-20.612132034356019
 30
0.0
  0
VERTEX
  5
1919
  8
SAPA_FOGBAND
 10
-102.5000000000018
 20
-23.662132034355981
 30
0.0
 42
-0.4142135623730951
  0
VERTEX
  5
191A
  8
SAPA_FOGBAND
 10
-102.70000000000179
 20
-23.862132034356019
 30
0.0
  0
VERTEX
  5
191B
  8
SAPA_FOGBAND
 10
-103.6000000000018
 20
-23.862132034355909
 30
0.0
 42
0.4142135623731784
  0
VERTEX
  5
191C
  8
SAPA_FOGBAND
 10
-103.8000000000018
 20
-24.062132034355962
 30
0.0
  0
VERTEX
  5
191D
  8
SAPA_FOGBAND
 10
-103.8000000000019
 20
-24.762132034356
 30
0.0
 42
0.4142135623730398
  0
VERTEX
  5
191E
  8
SAPA_FOGBAND
 10
-103.5000000000018
 20
-25.062132034355962
 30
0.0
  0
VERTEX
  5
191F
  8
SAPA_FOGBAND
 10
-102.6894882233503
 20
-25.062132034355962
 30
0.0
 42
-0.1316524975873973
  0
VERTEX
  5
1920
  8
SAPA_FOGBAND
 10
-101.6894882233503
 20
-25.330081226787119
 30
0.0
  0
VERTEX
  5
1921
  8
SAPA_FOGBAND
 10
-99.099920231258366
 20
-30.49292637682754
 30
0.0
 42
0.7057658529986604
  0
VERTEX
  5
1922
  8
SAPA_FOGBAND
 10
-98.500000000001819
 20
-30.225333201469201
 30
0.0
  0
SEQEND
  5
1923
  8
SAPA_FOGBAND
  0
VIEWPORT
  5
C4
 67
     1
  8
0
 10
160.5543545598442
 20
116.00969601843509
 30
0.0
 40
404.96977709277462
 41
256.8421457311839
 68
     1
 69
     1
1001
ACAD
1000
MVIEW
1002
{
1070
    16
1010
0.0
1020
0.0
1030
0.0
1010
0.0
1020
0.0
1030
1.0
1040
-1.5707963267948959
1040
256.8421457311839
1040
102.1562485694885
1040
-121.90624046325679
1040
50.0
1040
0.0
1040
0.0
1070
     0
1070
     0
1070
     1
1070
     1
1070
     0
1070
     0
1070
     0
1070
     0
1040
0.0
1040
0.0
1040
0.0
1040
10.0
1040
10.0
1040
10.0
1040
10.0
1070
     0
1002
{
1002
}
1002
}
  0
ENDSEC
  0
EOF
