  0
SECTION
  2
HEADER
  9
$ACADVER
  1
AC1009
  9
$INSBASE
 10
0.0
 20
0.0
 30
0.0
  9
$EXTMIN
 10
-40.999999999999602
 20
-93.378873564227874
 30
0.0
  9
$EXTMAX
 10
60.9571513696647
 20
52.249034469084663
 30
0.0
  9
$LIMMIN
 10
0.0
 20
0.0
  9
$LIMMAX
 10
790.0
 20
790.0
  9
$ORTHOMODE
 70
     0
  9
$REGENMODE
 70
     1
  9
$FILLMODE
 70
     1
  9
$QTEXTMODE
 70
     0
  9
$MIRRTEXT
 70
     1
  9
$DRAGMODE
 70
     2
  9
$LTSCALE
 40
4.0
  9
$OSMODE
 70
   167
  9
$ATTMODE
 70
     1
  9
$TEXTSIZE
 40
3.5
  9
$TRACEWID
 40
0.05
  9
$TEXTSTYLE
  7
ISO
  9
$CLAYER
  8
0
  9
$CELTYPE
  6
BYLAYER
  9
$CECOLOR
 62
   256
  9
$DIMSCALE
 40
0.0
  9
$DIMASZ
 40
3.0
  9
$DIMEXO
 40
1.5
  9
$DIMDLI
 40
10.0
  9
$DIMRND
 40
0.0
  9
$DIMDLE
 40
0.0
  9
$DIMEXE
 40
1.5
  9
$DIMTP
 40
0.0
  9
$DIMTM
 40
0.0
  9
$DIMTXT
 40
3.0
  9
$DIMCEN
 40
-5.0
  9
$DIMTSZ
 40
0.0
  9
$DIMTOL
 70
     0
  9
$DIMLIM
 70
     0
  9
$DIMTIH
 70
     0
  9
$DIMTOH
 70
     0
  9
$DIMSE1
 70
     0
  9
$DIMSE2
 70
     0
  9
$DIMTAD
 70
     1
  9
$DIMZIN
 70
     8
  9
$DIMBLK
  1

  9
$DIMASO
 70
     1
  9
$DIMSHO
 70
     1
  9
$DIMPOST
  1

  9
$DIMAPOST
  1

  9
$DIMALT
 70
     0
  9
$DIMALTD
 70
     0
  9
$DIMALTF
 40
25.399999999999999
  9
$DIMLFAC
 40
-1.0
  9
$DIMTOFL
 70
     1
  9
$DIMTVP
 40
0.0
  9
$DIMTIX
 70
     0
  9
$DIMSOXD
 70
     0
  9
$DIMSAH
 70
     0
  9
$DIMBLK1
  1

  9
$DIMBLK2
  1

  9
$DIMSTYLE
  2
MASKIN
  9
$DIMCLRD
 70
   256
  9
$DIMCLRE
 70
   256
  9
$DIMCLRT
 70
     2
  9
$DIMTFAC
 40
1.0
  9
$DIMGAP
 40
1.0
  9
$LUNITS
 70
     2
  9
$LUPREC
 70
     8
  9
$SKETCHINC
 40
0.1
  9
$FILLETRAD
 40
0.0
  9
$AUNITS
 70
     0
  9
$AUPREC
 70
     8
  9
$MENU
  1
ACAD
  9
$ELEVATION
 40
0.0
  9
$PELEVATION
 40
0.0
  9
$THICKNESS
 40
0.0
  9
$LIMCHECK
 70
     0
  9
$BLIPMODE
 70
     0
  9
$CHAMFERA
 40
0.0
  9
$CHAMFERB
 40
0.0
  9
$SKPOLY
 70
     0
  9
$TDCREATE
 40
2456297.4478323259
  9
$TDUPDATE
 40
2456688.5366504858
  9
$TDINDWG
 40
0.527211331
  9
$TDUSRTIMER
 40
0.527211331
  9
$USRTIMER
 70
     1
  9
$ANGBASE
 50
0.0
  9
$ANGDIR
 70
     0
  9
$PDMODE
 70
     0
  9
$PDSIZE
 40
0.0
  9
$PLINEWID
 40
0.0
  9
$COORDS
 70
     1
  9
$SPLFRAME
 70
     0
  9
$SPLINETYPE
 70
     6
  9
$SPLINESEGS
 70
     8
  9
$ATTDIA
 70
     0
  9
$ATTREQ
 70
     1
  9
$HANDLING
 70
     1
  9
$HANDSEED
  5
22AB
  9
$SURFTAB1
 70
     6
  9
$SURFTAB2
 70
     6
  9
$SURFTYPE
 70
     6
  9
$SURFU
 70
     6
  9
$SURFV
 70
     6
  9
$UCSNAME
  2

  9
$UCSORG
 10
0.0
 20
0.0
 30
0.0
  9
$UCSXDIR
 10
1.0
 20
0.0
 30
0.0
  9
$UCSYDIR
 10
0.0
 20
1.0
 30
0.0
  9
$PUCSNAME
  2

  9
$PUCSORG
 10
0.0
 20
0.0
 30
0.0
  9
$PUCSXDIR
 10
1.0
 20
0.0
 30
0.0
  9
$PUCSYDIR
 10
0.0
 20
1.0
 30
0.0
  9
$USERI1
 70
     0
  9
$USERI2
 70
     0
  9
$USERI3
 70
     0
  9
$USERI4
 70
     0
  9
$USERI5
 70
     0
  9
$USERR1
 40
0.0
  9
$USERR2
 40
0.0
  9
$USERR3
 40
0.0
  9
$USERR4
 40
0.0
  9
$USERR5
 40
0.0
  9
$WORLDVIEW
 70
     1
  9
$SHADEDGE
 70
     3
  9
$SHADEDIF
 70
    70
  9
$TILEMODE
 70
     1
  9
$MAXACTVP
 70
    16
  9
$PLIMCHECK
 70
     0
  9
$PEXTMIN
 10
1.0000000000000000E+020
 20
1.0000000000000000E+020
 30
1.0000000000000000E+020
  9
$PEXTMAX
 10
-1.0000000000000000E+020
 20
-1.0000000000000000E+020
 30
-1.0000000000000000E+020
  9
$PLIMMIN
 10
-5.069427490234375
 20
-5.8737497329711914
  9
$PLIMMAX
 10
291.89889526367187
 20
204.0995779037475
  9
$UNITMODE
 70
     0
  9
$VISRETAIN
 70
     1
  9
$PLINEGEN
 70
     0
  9
$PSLTSCALE
 70
     1
  0
ENDSEC
  0
SECTION
  2
TABLES
  0
TABLE
  2
VPORT
 70
     1
  0
VPORT
  2
*ACTIVE
 70
     0
 10
0.0
 20
0.0
 11
1.0
 21
1.0
 12
9.9763462537044916
 22
19.861127697795219
 13
0.0
 23
0.0
 14
1.0
 24
1.0
 15
0.0
 25
0.0
 16
0.0
 26
0.0
 36
1.0
 17
0.0
 27
0.0
 37
0.0
 40
164.45452341268859
 41
2.112307692307692
 42
50.0
 43
0.0
 44
0.0
 50
0.0
 51
0.0
 71
     0
 72
   100
 73
     1
 74
     1
 75
     0
 76
     0
 77
     0
 78
     0
  0
ENDTAB
  0
TABLE
  2
LTYPE
 70
    50
  0
LTYPE
  2
CONTINUOUS
 70
     0
  3
Solid line
 72
    65
 73
     0
 40
0.0
  0
LTYPE
  2
DASHDOT
 70
     0
  3
__ . __ . __ . __ . __ . __ . __ . __ . __ . __
 72
    65
 73
     4
 40
1.0
 49
0.5
 49
-0.25
 49
0.0
 49
-0.25
  0
LTYPE
  2
BYGG-018516$0$NEWDOT
 70
     0
  3
____ . ____ . ____ . ____ . ____ . ____ . ____
 72
    65
 73
     4
 40
2.0
 49
1.0
 49
-0.5
 49
0.0
 49
-0.5
  0
LTYPE
  2
BYGG-018516$0$ZIGZAG
 70
     0
  3
Zig zag /\/\/\/\/\/\/\/\/\/\/\/\/\/\/\/\/\/\/\/\/\/\/\/
 72
    65
 73
     4
 40
20.32254
 49
0.00254
 49
-5.0800000000000001
 49
-10.16
 49
-5.0800000000000001
  0
LTYPE
  2
BYGG-014269$0$NEWDOT
 70
     0
  3
____ . ____ . ____ . ____ . ____ . ____ . ____
 72
    65
 73
     4
 40
2.0
 49
1.0
 49
-0.5
 49
0.0
 49
-0.5
  0
LTYPE
  2
BYGG-014269$0$ZIGZAG
 70
     0
  3
Zig zag /\/\/\/\/\/\/\/\/\/\/\/\/\/\/\/\/\/\/\/\/\/\/\/
 72
    65
 73
     4
 40
20.32254
 49
0.00254
 49
-5.0800000000000001
 49
-10.16
 49
-5.0800000000000001
  0
LTYPE
  2
BYGG-018731$0$NEWDOT
 70
     0
  3
____ . ____ . ____ . ____ . ____ . ____ . ____
 72
    65
 73
     4
 40
2.0
 49
1.0
 49
-0.5
 49
0.0
 49
-0.5
  0
LTYPE
  2
BYGG-018731$0$DASHDOT
 70
     0
  3
__ . __ . __ . __ . __ . __ . __ . __ . __ . __
 72
    65
 73
     4
 40
1.0
 49
0.5
 49
-0.25
 49
0.0
 49
-0.25
  0
LTYPE
  2
BYGG-018731$0$DASHED
 70
     0
  3
__ __ __ __ __ __ __ __ __ __ __ __ __ __ __
 72
    65
 73
     2
 40
0.75
 49
0.5
 49
-0.25
  0
LTYPE
  2
BYGG-018731$0$PHANTOM
 70
     0
  3
Phantom ______  __  __  ______  __  __  ______
 72
    65
 73
     6
 40
63.5
 49
31.75
 49
-6.3499999999999988
 49
6.3499999999999988
 49
-6.3499999999999988
 49
6.3499999999999988
 49
-6.3499999999999988
  0
LTYPE
  2
BYGG-029261$0$NEWDOT
 70
     0
  3
____ . ____ . ____ . ____ . ____ . ____ . ____
 72
    65
 73
     4
 40
2.0
 49
1.0
 49
-0.5
 49
0.0
 49
-0.5
  0
LTYPE
  2
BYGG-029261$0$DASHDOT
 70
     0
  3
__ . __ . __ . __ . __ . __ . __ . __ . __ . __
 72
    65
 73
     4
 40
1.0
 49
0.5
 49
-0.25
 49
0.0
 49
-0.25
  0
LTYPE
  2
BYGG-029261$0$DASHED
 70
     0
  3
__ __ __ __ __ __ __ __ __ __ __ __ __ __ __
 72
    65
 73
     2
 40
0.75
 49
0.5
 49
-0.25
  0
LTYPE
  2
BYGG-029261$0$PHANTOM
 70
     0
  3
Phantom ______  __  __  ______  __  __  ______
 72
    65
 73
     6
 40
63.5
 49
31.75
 49
-6.3499999999999988
 49
6.3499999999999988
 49
-6.3499999999999988
 49
6.3499999999999988
 49
-6.3499999999999988
  0
LTYPE
  2
BYGG-019653$0$NEWDOT
 70
     0
  3
____ . ____ . ____ . ____ . ____ . ____ . ____
 72
    65
 73
     4
 40
2.0
 49
1.0
 49
-0.5
 49
0.0
 49
-0.5
  0
LTYPE
  2
BYGG-019653$0$DASHDOT
 70
     0
  3
__ . __ . __ . __ . __ . __ . __ . __ . __ . __
 72
    65
 73
     4
 40
1.0
 49
0.5
 49
-0.25
 49
0.0
 49
-0.25
  0
LTYPE
  2
BYGG-019653$0$DASHED
 70
     0
  3
__ __ __ __ __ __ __ __ __ __ __ __ __ __ __
 72
    65
 73
     2
 40
0.75
 49
0.5
 49
-0.25
  0
LTYPE
  2
BYGG-019653$0$PHANTOM
 70
     0
  3
Phantom ______  __  __  ______  __  __  ______
 72
    65
 73
     6
 40
63.5
 49
31.75
 49
-6.3499999999999988
 49
6.3499999999999988
 49
-6.3499999999999988
 49
6.3499999999999988
 49
-6.3499999999999988
  0
LTYPE
  2
BYGG-019652$0$NEWDOT
 70
     0
  3
____ . ____ . ____ . ____ . ____ . ____ . ____
 72
    65
 73
     4
 40
2.0
 49
1.0
 49
-0.5
 49
0.0
 49
-0.5
  0
LTYPE
  2
BYGG-019652$0$DASHDOT
 70
     0
  3
__ . __ . __ . __ . __ . __ . __ . __ . __ . __
 72
    65
 73
     4
 40
1.0
 49
0.5
 49
-0.25
 49
0.0
 49
-0.25
  0
LTYPE
  2
BYGG-019652$0$DASHED
 70
     0
  3
__ __ __ __ __ __ __ __ __ __ __ __ __ __ __
 72
    65
 73
     2
 40
0.75
 49
0.5
 49
-0.25
  0
LTYPE
  2
BYGG-019652$0$PHANTOM
 70
     0
  3
Phantom ______  __  __  ______  __  __  ______
 72
    65
 73
     6
 40
63.5
 49
31.75
 49
-6.3499999999999988
 49
6.3499999999999988
 49
-6.3499999999999988
 49
6.3499999999999988
 49
-6.3499999999999988
  0
LTYPE
  2
BYGG-020945$0$NEWDOT
 70
     0
  3
____ . ____ . ____ . ____ . ____ . ____ . ____
 72
    65
 73
     4
 40
2.0
 49
1.0
 49
-0.5
 49
0.0
 49
-0.5
  0
LTYPE
  2
BYGG-020945$0$DASHDOT
 70
     0
  3
__ . __ . __ . __ . __ . __ . __ . __ . __ . __
 72
    65
 73
     4
 40
1.0
 49
0.5
 49
-0.25
 49
0.0
 49
-0.25
  0
LTYPE
  2
BYGG-020945$0$DASHED
 70
     0
  3
__ __ __ __ __ __ __ __ __ __ __ __ __ __ __
 72
    65
 73
     2
 40
0.75
 49
0.5
 49
-0.25
  0
LTYPE
  2
BYGG-020945$0$PHANTOM
 70
     0
  3
Phantom ______  __  __  ______  __  __  ______
 72
    65
 73
     6
 40
63.5
 49
31.75
 49
-6.3499999999999988
 49
6.3499999999999988
 49
-6.3499999999999988
 49
6.3499999999999988
 49
-6.3499999999999988
  0
LTYPE
  2
BYGG-014113$0$NEWDOT
 70
     0
  3
____ . ____ . ____ . ____ . ____ . ____ . ____
 72
    65
 73
     4
 40
2.0
 49
1.0
 49
-0.5
 49
0.0
 49
-0.5
  0
LTYPE
  2
BYGG-014113$0$DASHDOT
 70
     0
  3
__ . __ . __ . __ . __ . __ . __ . __ . __ . __
 72
    65
 73
     4
 40
1.0
 49
0.5
 49
-0.25
 49
0.0
 49
-0.25
  0
LTYPE
  2
BYGG-014113$0$DASHED
 70
     0
  3
__ __ __ __ __ __ __ __ __ __ __ __ __ __ __
 72
    65
 73
     2
 40
0.75
 49
0.5
 49
-0.25
  0
LTYPE
  2
BYGG-028959$0$NEWDOT
 70
     0
  3
____ . ____ . ____ . ____ . ____ . ____ . ____
 72
    65
 73
     4
 40
2.0
 49
1.0
 49
-0.5
 49
0.0
 49
-0.5
  0
LTYPE
  2
BYGG-028959$0$DASHDOT
 70
     0
  3
__ . __ . __ . __ . __ . __ . __ . __ . __ . __
 72
    65
 73
     4
 40
1.0
 49
0.5
 49
-0.25
 49
0.0
 49
-0.25
  0
LTYPE
  2
BYGG-028959$0$DASHED
 70
     0
  3
__ __ __ __ __ __ __ __ __ __ __ __ __ __ __
 72
    65
 73
     2
 40
0.75
 49
0.5
 49
-0.25
  0
LTYPE
  2
BYGG-028959$0$PHANTOM
 70
     0
  3
Phantom ______  __  __  ______  __  __  ______
 72
    65
 73
     6
 40
63.5
 49
31.75
 49
-6.3499999999999988
 49
6.3499999999999988
 49
-6.3499999999999988
 49
6.3499999999999988
 49
-6.3499999999999988
  0
LTYPE
  2
BYGG-025538$0$NEWDOT
 70
     0
  3
____ . ____ . ____ . ____ . ____ . ____ . ____
 72
    65
 73
     4
 40
2.0
 49
1.0
 49
-0.5
 49
0.0
 49
-0.5
  0
LTYPE
  2
BYGG-025538$0$DASHDOT
 70
     0
  3
__ . __ . __ . __ . __ . __ . __ . __ . __ . __
 72
    65
 73
     4
 40
1.0
 49
0.5
 49
-0.25
 49
0.0
 49
-0.25
  0
LTYPE
  2
BYGG-025538$0$DASHED
 70
     0
  3
__ __ __ __ __ __ __ __ __ __ __ __ __ __ __
 72
    65
 73
     2
 40
0.75
 49
0.5
 49
-0.25
  0
LTYPE
  2
BYGG-025538$0$PHANTOM
 70
     0
  3
Phantom ______  __  __  ______  __  __  ______
 72
    65
 73
     6
 40
63.5
 49
31.75
 49
-6.3499999999999988
 49
6.3499999999999988
 49
-6.3499999999999988
 49
6.3499999999999988
 49
-6.3499999999999988
  0
LTYPE
  2
BYGG-019716$0$NEWDOT
 70
     0
  3
____ . ____ . ____ . ____ . ____ . ____ . ____
 72
    65
 73
     4
 40
2.0
 49
1.0
 49
-0.5
 49
0.0
 49
-0.5
  0
LTYPE
  2
BYGG-019716$0$DASHDOT
 70
     0
  3
__ . __ . __ . __ . __ . __ . __ . __ . __ . __
 72
    65
 73
     4
 40
1.0
 49
0.5
 49
-0.25
 49
0.0
 49
-0.25
  0
LTYPE
  2
BYGG-019716$0$DASHED
 70
     0
  3
__ __ __ __ __ __ __ __ __ __ __ __ __ __ __
 72
    65
 73
     2
 40
0.75
 49
0.5
 49
-0.25
  0
LTYPE
  2
BYGG-019716$0$PHANTOM
 70
     0
  3
Phantom ______  __  __  ______  __  __  ______
 72
    65
 73
     6
 40
63.5
 49
31.75
 49
-6.3499999999999988
 49
6.3499999999999988
 49
-6.3499999999999988
 49
6.3499999999999988
 49
-6.3499999999999988
  0
LTYPE
  2
BYGG-019705$0$NEWDOT
 70
     0
  3
____ . ____ . ____ . ____ . ____ . ____ . ____
 72
    65
 73
     4
 40
2.0
 49
1.0
 49
-0.5
 49
0.0
 49
-0.5
  0
LTYPE
  2
BYGG-019705$0$DASHDOT
 70
     0
  3
__ . __ . __ . __ . __ . __ . __ . __ . __ . __
 72
    65
 73
     4
 40
1.0
 49
0.5
 49
-0.25
 49
0.0
 49
-0.25
  0
LTYPE
  2
BYGG-019705$0$DASHED
 70
     0
  3
__ __ __ __ __ __ __ __ __ __ __ __ __ __ __
 72
    65
 73
     2
 40
0.75
 49
0.5
 49
-0.25
  0
LTYPE
  2
BYGG-019705$0$PHANTOM
 70
     0
  3
Phantom ______  __  __  ______  __  __  ______
 72
    65
 73
     6
 40
63.5
 49
31.75
 49
-6.3499999999999988
 49
6.3499999999999988
 49
-6.3499999999999988
 49
6.3499999999999988
 49
-6.3499999999999988
  0
LTYPE
  2
BYGG-019653$0$DOT_CENTER
 70
     0
  3
Dot_Center
 72
    65
 73
     4
 40
14.0
 49
12.0
 49
-1.0
 49
0.0
 49
-1.0
  0
LTYPE
  2
BYGG-019653$0$DASH_CENTER
 70
     0
  3
Dash_Center
 72
    65
 73
     4
 40
14.0
 49
11.0
 49
-1.0
 49
1.0
 49
-1.0
  0
LTYPE
  2
BYGG-019716$0$PHANTOM2
 70
     0
  3
Phantom (.5x) ___ _ _ ___ _ _ ___ _ _ ___ _ _
 72
    65
 73
     6
 40
1.25
 49
0.625
 49
-0.125
 49
0.125
 49
-0.125
 49
0.125
 49
-0.125
  0
LTYPE
  2
BYGG-019652$0$DOT_CENTER
 70
     0
  3
Dot_Center
 72
    65
 73
     4
 40
14.0
 49
12.0
 49
-1.0
 49
0.0
 49
-1.0
  0
LTYPE
  2
BYGG-019652$0$DASH_CENTER
 70
     0
  3
Dash_Center
 72
    65
 73
     4
 40
14.0
 49
11.0
 49
-1.0
 49
1.0
 49
-1.0
  0
ENDTAB
  0
TABLE
  2
LAYER
 70
   273
  0
LAYER
  2
0
 70
     0
 62
     7
  6
CONTINUOUS
  0
LAYER
  2
SAPA_GLAS
 70
     0
 62
     4
  6
CONTINUOUS
  0
LAYER
  2
SAPA_ISOLATOR
 70
     0
 62
     4
  6
CONTINUOUS
  0
LAYER
  2
SAPA_FOGBAND
 70
     0
 62
     2
  6
CONTINUOUS
  0
LAYER
  2
SAPA_PROFIL
 70
     0
 62
     7
  6
CONTINUOUS
  0
ENDTAB
  0
TABLE
  2
STYLE
 70
    34
  0
STYLE
  2
STANDARD
 70
     0
 40
0.0
 41
1.0
 50
0.0
 71
     0
 42
0.2
  3
txt
  4

  0
STYLE
  2
ISO
 70
     0
 40
0.0
 41
1.0
 50
0.0
 71
     0
 42
3.5
  3
txt
  4

  0
STYLE
  2

 70
     1
 40
0.0
 41
1.0
 50
0.0
 71
     0
 42
0.2
  3
ltypeshp.shx
  4

  0
STYLE
  2
BYGG-021665$0$STANDARD
 70
     0
 40
0.0
 41
1.0
 50
0.0
 71
     0
 42
0.2
  3
txt
  4

  0
STYLE
  2
BYGG-021665$0$ISO
 70
     0
 40
0.0
 41
1.0
 50
0.0
 71
     0
 42
3.5
  3
isocp3.shx
  4

  0
STYLE
  2
BYGG-018516$0$STANDARD
 70
     0
 40
0.0
 41
1.0
 50
0.0
 71
     0
 42
0.2
  3
txt
  4

  0
STYLE
  2
BYGG-018516$0$ISO
 70
     0
 40
0.0
 41
1.0
 50
0.0
 71
     0
 42
3.5
  3
isocp3.shx
  4

  0
STYLE
  2
BYGG-021581$0$STANDARD
 70
     0
 40
0.0
 41
1.0
 50
0.0
 71
     0
 42
0.2
  3
txt
  4

  0
STYLE
  2
BYGG-014269$0$STANDARD
 70
     0
 40
0.0
 41
1.0
 50
0.0
 71
     0
 42
0.2
  3
txt
  4

  0
STYLE
  2
BYGG-014269$0$ISO
 70
     0
 40
0.0
 41
1.0
 50
0.0
 71
     0
 42
2.5
  3
isocp3.shx
  4

  0
STYLE
  2
BYGG-018731$0$STANDARD
 70
     0
 40
0.0
 41
1.0
 50
0.0
 71
     0
 42
0.2
  3
txt
  4

  0
STYLE
  2
BYGG-018731$0$ISO
 70
     0
 40
0.0
 41
1.0
 50
0.0
 71
     0
 42
3.5
  3
txt
  4

  0
STYLE
  2
BYGG-029261$0$STANDARD
 70
     0
 40
0.0
 41
1.0
 50
0.0
 71
     0
 42
0.2
  3
txt
  4

  0
STYLE
  2
BYGG-029261$0$ISO
 70
     0
 40
0.0
 41
1.0
 50
0.0
 71
     0
 42
3.5
  3
txt
  4

  0
STYLE
  2
BYGG-019653$0$STANDARD
 70
     0
 40
0.0
 41
1.0
 50
0.0
 71
     0
 42
0.2
  3
txt
  4

  0
STYLE
  2
BYGG-019653$0$ISO
 70
     0
 40
0.0
 41
1.0
 50
0.0
 71
     0
 42
3.5
  3
txt
  4

  0
STYLE
  2
BYGG-019653$0$CONVERTER_11
 70
     0
 40
0.0
 41
0.72
 50
0.0
 71
     0
 42
0.2
  3
txt.shx
  4

  0
STYLE
  2
BYGG-020945$0$STANDARD
 70
     0
 40
0.0
 41
1.0
 50
0.0
 71
     0
 42
0.2
  3
txt
  4

  0
STYLE
  2
BYGG-020945$0$ISO
 70
     0
 40
0.0
 41
1.0
 50
0.0
 71
     0
 42
3.5
  3
txt
  4

  0
STYLE
  2
BYGG-014113$0$STANDARD
 70
     0
 40
0.0
 41
1.0
 50
0.0
 71
     0
 42
0.2
  3
txt
  4

  0
STYLE
  2
BYGG-014113$0$ISO
 70
     0
 40
0.0
 41
1.0
 50
0.0
 71
     0
 42
3.5
  3
isocp3.shx
  4

  0
STYLE
  2
BYGG-014113$0$SIMPLEX
 70
     0
 40
0.0
 41
1.0
 50
0.0
 71
     0
 42
0.4
  3
simplex
  4

  0
STYLE
  2
BYGG-028959$0$STANDARD
 70
     0
 40
0.0
 41
1.0
 50
0.0
 71
     0
 42
0.2
  3
txt
  4

  0
STYLE
  2
BYGG-028959$0$ISO
 70
     0
 40
0.0
 41
1.0
 50
0.0
 71
     0
 42
3.5
  3
txt
  4

  0
STYLE
  2
BYGG-025538$0$STANDARD
 70
     0
 40
0.0
 41
1.0
 50
0.0
 71
     0
 42
0.2
  3
txt
  4

  0
STYLE
  2
BYGG-025538$0$ISO
 70
     0
 40
0.0
 41
1.0
 50
0.0
 71
     0
 42
3.5
  3
txt
  4

  0
STYLE
  2
BYGG-019716$0$STANDARD
 70
     0
 40
0.0
 41
1.0
 50
0.0
 71
     0
 42
0.2
  3
txt
  4

  0
STYLE
  2
BYGG-019716$0$ISO
 70
     0
 40
0.0
 41
1.0
 50
0.0
 71
     0
 42
3.5
  3
txt
  4

  0
STYLE
  2
BYGG-019716$0$ANNOTATIVE
 70
     0
 40
0.0
 41
1.0
 50
0.0
 71
     0
 42
0.2
  3
txt
  4

  0
STYLE
  2
BYGG-019652$0$STANDARD
 70
     0
 40
0.0
 41
1.0
 50
0.0
 71
     0
 42
0.2
  3
txt
  4

  0
STYLE
  2
BYGG-019652$0$ISO
 70
     0
 40
0.0
 41
1.0
 50
0.0
 71
     0
 42
3.5
  3
txt
  4

  0
STYLE
  2
BYGG-019652$0$CONVERTER_11
 70
     0
 40
0.0
 41
0.72
 50
0.0
 71
     0
 42
0.2
  3
txt.shx
  4

  0
STYLE
  2
BYGG-019705$0$STANDARD
 70
     0
 40
0.0
 41
1.0
 50
0.0
 71
     0
 42
0.2
  3
txt
  4

  0
STYLE
  2
BYGG-019705$0$ISO
 70
     0
 40
0.0
 41
1.0
 50
0.0
 71
     0
 42
3.5
  3
txt
  4

  0
ENDTAB
  0
TABLE
  2
VIEW
 70
     0
  0
ENDTAB
  0
TABLE
  2
UCS
 70
     0
  0
ENDTAB
  0
TABLE
  2
APPID
 70
    23
  0
APPID
  2
ACAD
 70
     0
  0
APPID
  2
ACAD_DSTYLE_DIMTEXT_FILL
 70
     0
  0
APPID
  2
ACAD_DSTYLE_DIMEXT_LENGTH
 70
     0
  0
APPID
  2
ACAD_DSTYLE_DIMEXT_ENABLED
 70
     0
  0
APPID
  2
ACAD_DSTYLE_DIM_LINETYPE
 70
     0
  0
APPID
  2
ACAD_DSTYLE_DIM_EXT1_LINETYPE
 70
     0
  0
APPID
  2
ACAD_DSTYLE_DIM_EXT2_LINETYPE
 70
     0
  0
APPID
  2
ACAD_DSTYLE_DIMJOGGED_JOGA
 70
     0
  0
APPID
  2
ACAD_DSTYLE_DIMARC_LENGTH_
 70
     0
  0
APPID
  2
ACAD_PSEXT
 70
     0
  0
APPID
  2
ACAD_MLEADERVER
 70
     0
  0
APPID
  2
ACAD_NAV_VCDISPLAY
 70
     0
  0
APPID
  2
ACAD_EXEMPT_FROM_CAD_STANDARDS
 70
     0
  0
APPID
  2
ACAECLAYERSTANDARD
 70
     0
  0
APPID
  2
ACADANNOTATIVE
 70
     0
  0
APPID
  2
AMG_ARCHIVE11
 70
     0
  0
APPID
  2
GRADIENTCOLOR1ACI
 70
     0
  0
APPID
  2
GRADIENTCOLOR2ACI
 70
     0
  0
APPID
  2
AME_SOL
 70
     0
  0
APPID
  2
ACDBDYNAMICBLOCKGUID
 70
     0
  0
APPID
  2
ACDBBLOCKREPETAG
 70
     0
  0
APPID
  2
AEC_XDATA_BOUND_SPACE
 70
     0
  0
APPID
  2
ACCMTRANSPARENCY
 70
     0
  0
ENDTAB
  0
TABLE
  2
DIMSTYLE
 70
    67
  0
DIMSTYLE
  2
STANDARD
 70
     0
  3

  4

  5

  6

  7

 40
1.0
 41
0.18
 42
0.0625
 43
0.38
 44
0.18
 45
0.0
 46
0.0
 47
0.0
 48
0.0
140
0.18
141
0.09
142
0.0
143
25.399999999999999
144
1.0
145
0.0
146
1.0
147
0.09
 71
     0
 72
     0
 73
     1
 74
     1
 75
     0
 76
     0
 77
     0
 78
     0
170
     0
171
     2
172
     0
173
     0
174
     0
175
     0
176
     0
177
     0
178
     0
  0
DIMSTYLE
  2
MASKIN
 70
     0
  3

  4

  5

  6

  7

 40
0.0
 41
3.0
 42
1.5
 43
10.0
 44
1.5
 45
0.0
 46
0.0
 47
0.0
 48
0.0
140
3.0
141
-5.0
142
0.0
143
25.399999999999999
144
-1.0
145
0.0
146
1.0
147
1.0
 71
     0
 72
     0
 73
     0
 74
     0
 75
     0
 76
     0
 77
     1
 78
     8
170
     0
171
     0
172
     1
173
     0
174
     0
175
     0
176
   256
177
   256
178
     2
  0
DIMSTYLE
  2
BYGG-021665$0$MASKIN
 70
     0
  3

  4

  5

  6

  7

 40
0.0
 41
3.0
 42
1.5
 43
10.0
 44
1.5
 45
0.0
 46
0.0
 47
0.0
 48
0.0
140
3.0
141
-5.0
142
0.0
143
25.399999999999999
144
-1.0
145
0.0
146
1.0
147
1.0
 71
     0
 72
     0
 73
     0
 74
     0
 75
     0
 76
     0
 77
     1
 78
     8
170
     0
171
     0
172
     1
173
     0
174
     0
175
     0
176
   256
177
   256
178
   256
  0
DIMSTYLE
  2
BYGG-018516$0$STANDARD
 70
     0
  3

  4

  5

  6

  7

 40
1.0
 41
0.18
 42
0.0625
 43
0.38
 44
0.18
 45
0.0
 46
0.0
 47
0.0
 48
0.0
140
0.18
141
0.09
142
0.0
143
25.399999999999999
144
1.0
145
0.0
146
1.0
147
0.09
 71
     0
 72
     0
 73
     1
 74
     1
 75
     0
 76
     0
 77
     0
 78
     0
170
     0
171
     2
172
     0
173
     0
174
     0
175
     0
176
     0
177
     0
178
     0
  0
DIMSTYLE
  2
BYGG-018516$0$MASKIN
 70
     0
  3

  4

  5

  6

  7

 40
0.0
 41
3.0
 42
1.5
 43
10.0
 44
1.5
 45
0.0
 46
0.0
 47
0.0
 48
0.0
140
3.0
141
-5.0
142
0.0
143
25.399999999999999
144
-1.0
145
0.0
146
1.0
147
1.0
 71
     0
 72
     0
 73
     0
 74
     0
 75
     0
 76
     0
 77
     1
 78
     8
170
     0
171
     0
172
     1
173
     0
174
     0
175
     0
176
   256
177
   256
178
     2
  0
DIMSTYLE
  2
BYGG-021581$0$STANDARD
 70
     0
  3

  4

  5

  6

  7

 40
1.0
 41
0.18
 42
0.0625
 43
0.38
 44
0.18
 45
0.0
 46
0.0
 47
0.0
 48
0.0
140
0.18
141
0.09
142
0.0
143
25.399999999999999
144
1.0
145
0.0
146
1.0
147
0.09
 71
     0
 72
     0
 73
     1
 74
     1
 75
     0
 76
     0
 77
     0
 78
     0
170
     0
171
     2
172
     0
173
     0
174
     0
175
     0
176
     0
177
     0
178
     0
  0
DIMSTYLE
  2
BYGG-014269$0$STANDARD
 70
     0
  3

  4

  5

  6

  7

 40
1.0
 41
0.18
 42
0.0625
 43
0.38
 44
0.18
 45
0.0
 46
0.0
 47
0.0
 48
0.0
140
0.18
141
0.09
142
0.0
143
25.399999999999999
144
1.0
145
0.0
146
1.0
147
0.09
 71
     0
 72
     0
 73
     1
 74
     1
 75
     0
 76
     0
 77
     0
 78
     0
170
     0
171
     2
172
     0
173
     0
174
     0
175
     0
176
     0
177
     0
178
     0
  0
DIMSTYLE
  2
BYGG-014269$0$MASKIN
 70
     0
  3

  4

  5

  6

  7

 40
0.0
 41
3.0
 42
1.5
 43
10.0
 44
1.5
 45
0.0
 46
0.0
 47
0.0
 48
0.0
140
3.0
141
-5.0
142
0.0
143
25.399999999999999
144
-1.0
145
0.0
146
1.0
147
1.0
 71
     0
 72
     0
 73
     0
 74
     1
 75
     0
 76
     0
 77
     1
 78
     8
170
     0
171
     0
172
     1
173
     0
174
     0
175
     0
176
   256
177
   256
178
     2
  0
DIMSTYLE
  2
BYGG-018731$0$STANDARD
 70
     0
  3

  4

  5

  6

  7

 40
1.0
 41
0.18
 42
0.0625
 43
0.38
 44
0.18
 45
0.0
 46
0.0
 47
0.0
 48
0.0
140
0.18
141
0.09
142
0.0
143
25.399999999999999
144
1.0
145
0.0
146
1.0
147
0.09
 71
     0
 72
     0
 73
     1
 74
     1
 75
     0
 76
     0
 77
     0
 78
     0
170
     0
171
     2
172
     0
173
     0
174
     0
175
     0
176
     0
177
     0
178
     0
  0
DIMSTYLE
  2
BYGG-018731$0$MASKIN
 70
     0
  3

  4

  5

  6

  7

 40
0.0
 41
3.0
 42
1.5
 43
10.0
 44
1.5
 45
0.0
 46
0.0
 47
0.0
 48
0.0
140
3.0
141
-5.0
142
0.0
143
25.399999999999999
144
-1.0
145
0.0
146
1.0
147
1.0
 71
     0
 72
     0
 73
     0
 74
     0
 75
     0
 76
     0
 77
     1
 78
     8
170
     0
171
     0
172
     1
173
     0
174
     0
175
     0
176
   256
177
   256
178
     2
  0
DIMSTYLE
  2
BYGG-029261$0$STANDARD
 70
     0
  3

  4

  5

  6

  7

 40
1.0
 41
0.18
 42
0.0625
 43
0.38
 44
0.18
 45
0.0
 46
0.0
 47
0.0
 48
0.0
140
0.18
141
0.09
142
0.0
143
25.399999999999999
144
1.0
145
0.0
146
1.0
147
0.09
 71
     0
 72
     0
 73
     1
 74
     1
 75
     0
 76
     0
 77
     0
 78
     0
170
     0
171
     2
172
     0
173
     0
174
     0
175
     0
176
     0
177
     0
178
     0
  0
DIMSTYLE
  2
BYGG-029261$0$MASKIN
 70
     0
  3

  4

  5

  6

  7

 40
0.0
 41
3.0
 42
1.5
 43
10.0
 44
1.5
 45
0.0
 46
0.0
 47
0.0
 48
0.0
140
3.0
141
-5.0
142
0.0
143
25.399999999999999
144
-1.0
145
0.0
146
1.0
147
1.0
 71
     0
 72
     0
 73
     0
 74
     0
 75
     0
 76
     0
 77
     1
 78
     8
170
     0
171
     0
172
     1
173
     0
174
     0
175
     0
176
   256
177
   256
178
     2
  0
DIMSTYLE
  2
BYGG-029261$0$ISO-25
 70
     0
  3

  4

  5

  6

  7

 40
1.0
 41
2.5
 42
0.625
 43
3.75
 44
1.25
 45
0.0
 46
0.0
 47
0.0
 48
0.0
140
2.5
141
2.5
142
0.0
143
0.03937007874016
144
1.0
145
0.0
146
1.0
147
0.625
 71
     0
 72
     0
 73
     0
 74
     0
 75
     0
 76
     0
 77
     1
 78
     8
170
     0
171
     3
172
     1
173
     0
174
     0
175
     0
176
     0
177
     0
178
     0
  0
DIMSTYLE
  2
BYGG-019653$0$STANDARD
 70
     0
  3

  4

  5

  6

  7

 40
1.0
 41
0.18
 42
0.0625
 43
0.38
 44
0.18
 45
0.0
 46
0.0
 47
0.0
 48
0.0
140
0.18
141
0.09
142
0.0
143
25.399999999999999
144
1.0
145
0.0
146
1.0
147
0.09
 71
     0
 72
     0
 73
     1
 74
     1
 75
     0
 76
     0
 77
     0
 78
     0
170
     0
171
     2
172
     0
173
     0
174
     0
175
     0
176
     0
177
     0
178
     0
  0
DIMSTYLE
  2
BYGG-019653$0$MASKIN
 70
     0
  3

  4

  5

  6

  7

 40
0.0
 41
3.0
 42
1.5
 43
10.0
 44
1.5
 45
0.0
 46
0.0
 47
0.0
 48
0.0
140
3.0
141
-5.0
142
0.0
143
25.399999999999999
144
-1.0
145
0.0
146
1.0
147
1.0
 71
     0
 72
     0
 73
     0
 74
     0
 75
     0
 76
     0
 77
     1
 78
     8
170
     0
171
     0
172
     1
173
     0
174
     0
175
     0
176
   256
177
   256
178
     2
  0
DIMSTYLE
  2
BYGG-019653$0$ME10_DIM_10
 70
     0
  3

  4

  5

  6

  7

 40
1.0
 41
0.7
 42
0.0
 43
0.38
 44
0.4
 45
0.0
 46
0.0
 47
0.0
 48
0.0
140
0.7
141
0.09
142
0.0
143
25.399999999999999
144
1.0
145
0.0
146
1.0
147
0.4
 71
     0
 72
     0
 73
     0
 74
     0
 75
     0
 76
     0
 77
     1
 78
     8
170
     0
171
     2
172
     1
173
     1
174
     0
175
     0
176
     1
177
     1
178
     2
  0
DIMSTYLE
  2
BYGG-019653$0$ME10_DIM_11
 70
     0
  3

  4

  5

  6

  7

 40
1.0
 41
0.7
 42
0.0
 43
0.38
 44
0.4
 45
0.0
 46
0.0
 47
0.0
 48
0.0
140
0.7
141
0.09
142
0.0
143
25.399999999999999
144
1.0
145
0.0
146
1.0
147
0.4
 71
     0
 72
     0
 73
     0
 74
     0
 75
     0
 76
     0
 77
     1
 78
     8
170
     0
171
     2
172
     1
173
     1
174
     0
175
     0
176
     1
177
     1
178
     2
  0
DIMSTYLE
  2
BYGG-019653$0$ME10_DIM_12
 70
     0
  3
(<>)
  4

  5

  6

  7

 40
1.0
 41
0.7
 42
0.0
 43
0.38
 44
0.4
 45
0.0
 46
0.0
 47
0.0
 48
0.0
140
0.7
141
0.09
142
0.0
143
25.399999999999999
144
1.0
145
0.0
146
1.0
147
0.4
 71
     0
 72
     0
 73
     0
 74
     0
 75
     0
 76
     0
 77
     1
 78
     8
170
     0
171
     2
172
     1
173
     1
174
     0
175
     0
176
     1
177
     1
178
     2
  0
DIMSTYLE
  2
BYGG-019653$0$ME10_DIM_13
 70
     0
  3

  4

  5

  6

  7

 40
1.0
 41
0.7
 42
0.0
 43
0.38
 44
0.4
 45
0.0
 46
0.0
 47
0.0
 48
0.0
140
0.7
141
0.09
142
0.0
143
25.399999999999999
144
1.0
145
0.0
146
1.0
147
0.4
 71
     0
 72
     0
 73
     0
 74
     0
 75
     0
 76
     0
 77
     1
 78
     8
170
     0
171
     2
172
     1
173
     1
174
     0
175
     0
176
     1
177
     1
178
     2
  0
DIMSTYLE
  2
BYGG-019653$0$ME10_DIM_14
 70
     0
  3

  4

  5

  6

  7

 40
1.0
 41
0.7
 42
0.0
 43
0.38
 44
0.4
 45
0.0
 46
0.0
 47
0.0
 48
0.0
140
0.7
141
0.09
142
0.0
143
25.399999999999999
144
1.0
145
0.0
146
1.0
147
0.4
 71
     0
 72
     0
 73
     0
 74
     0
 75
     0
 76
     0
 77
     1
 78
     8
170
     0
171
     2
172
     1
173
     1
174
     0
175
     0
176
     1
177
     1
178
     2
  0
DIMSTYLE
  2
BYGG-019653$0$ME10_DIM_15
 70
     0
  3

  4

  5

  6

  7

 40
1.0
 41
0.7
 42
0.0
 43
0.38
 44
0.4
 45
0.0
 46
0.0
 47
0.0
 48
0.0
140
0.7
141
0.09
142
0.0
143
25.399999999999999
144
1.0
145
0.0
146
1.0
147
0.4
 71
     0
 72
     0
 73
     0
 74
     0
 75
     0
 76
     0
 77
     1
 78
     8
170
     0
171
     2
172
     1
173
     1
174
     0
175
     0
176
     1
177
     1
178
     2
  0
DIMSTYLE
  2
BYGG-019653$0$ME10_DIM_16
 70
     0
  3

  4

  5

  6

  7

 40
1.0
 41
0.7
 42
0.0
 43
0.38
 44
0.4
 45
0.0
 46
0.0
 47
0.3
 48
0.3
140
0.7
141
0.09
142
0.0
143
25.399999999999999
144
1.0
145
0.0
146
0.6
147
0.4
 71
     1
 72
     0
 73
     0
 74
     0
 75
     0
 76
     0
 77
     1
 78
     8
170
     0
171
     2
172
     1
173
     1
174
     0
175
     0
176
     1
177
     1
178
     2
  0
DIMSTYLE
  2
BYGG-019653$0$ME10_DIM_17
 70
     0
  3

  4

  5

  6

  7

 40
1.0
 41
0.7
 42
0.0
 43
0.38
 44
0.4
 45
0.0
 46
0.0
 47
0.0
 48
0.0
140
0.7
141
0.09
142
0.0
143
25.399999999999999
144
1.0
145
0.0
146
1.0
147
0.4
 71
     0
 72
     0
 73
     0
 74
     0
 75
     0
 76
     0
 77
     1
 78
     8
170
     0
171
     2
172
     1
173
     1
174
     0
175
     0
176
     1
177
     1
178
     2
  0
DIMSTYLE
  2
BYGG-019653$0$ME10_DIM_18
 70
     0
  3

  4

  5

  6

  7

 40
1.0
 41
0.7
 42
0.0
 43
0.38
 44
0.4
 45
0.0
 46
0.0
 47
0.3
 48
0.3
140
0.7
141
0.09
142
0.0
143
25.399999999999999
144
1.0
145
0.0
146
0.6
147
0.4
 71
     1
 72
     0
 73
     0
 74
     0
 75
     0
 76
     0
 77
     1
 78
     8
170
     0
171
     2
172
     1
173
     1
174
     0
175
     0
176
     1
177
     1
178
     2
  0
DIMSTYLE
  2
BYGG-019653$0$ME10_DIM_19
 70
     0
  3

  4

  5

  6

  7

 40
1.0
 41
0.7
 42
0.0
 43
0.38
 44
0.4
 45
0.0
 46
0.0
 47
0.0
 48
0.0
140
0.7
141
0.09
142
0.0
143
25.399999999999999
144
1.0
145
0.0
146
1.0
147
0.4
 71
     0
 72
     0
 73
     0
 74
     0
 75
     0
 76
     0
 77
     1
 78
     8
170
     0
171
     2
172
     1
173
     1
174
     0
175
     0
176
     1
177
     1
178
     2
  0
DIMSTYLE
  2
BYGG-019653$0$ME10_DIM_20
 70
     0
  3

  4

  5

  6

  7

 40
1.0
 41
0.7
 42
0.0
 43
0.38
 44
0.4
 45
0.0
 46
0.0
 47
0.0
 48
0.0
140
0.7
141
0.09
142
0.0
143
25.399999999999999
144
1.0
145
0.0
146
1.0
147
0.4
 71
     0
 72
     0
 73
     0
 74
     0
 75
     0
 76
     0
 77
     1
 78
     8
170
     0
171
     2
172
     1
173
     1
174
     0
175
     0
176
     1
177
     1
178
     2
  0
DIMSTYLE
  2
BYGG-019653$0$ME10_DIM_21
 70
     0
  3
(<>)
  4

  5

  6

  7

 40
1.0
 41
0.7
 42
0.0
 43
0.38
 44
0.4
 45
0.0
 46
0.0
 47
0.0
 48
0.0
140
0.7
141
0.09
142
0.0
143
25.399999999999999
144
1.0
145
0.0
146
1.0
147
0.4
 71
     0
 72
     0
 73
     0
 74
     0
 75
     0
 76
     0
 77
     1
 78
     8
170
     0
171
     2
172
     1
173
     1
174
     0
175
     0
176
     1
177
     1
178
     2
  0
DIMSTYLE
  2
BYGG-019653$0$ME10_DIM_22
 70
     0
  3

  4

  5

  6

  7

 40
1.0
 41
0.7
 42
0.0
 43
0.38
 44
0.4
 45
0.0
 46
0.0
 47
0.0
 48
0.0
140
0.7
141
0.09
142
0.0
143
25.399999999999999
144
1.0
145
0.0
146
1.0
147
0.4
 71
     0
 72
     0
 73
     0
 74
     0
 75
     0
 76
     0
 77
     1
 78
     8
170
     0
171
     2
172
     1
173
     1
174
     0
175
     0
176
     1
177
     1
178
     2
  0
DIMSTYLE
  2
BYGG-019653$0$ME10_DIM_23
 70
     0
  3

  4

  5

  6

  7

 40
1.0
 41
0.7
 42
0.0
 43
0.38
 44
0.4
 45
0.0
 46
0.0
 47
0.0
 48
0.0
140
0.7
141
0.09
142
0.0
143
25.399999999999999
144
1.0
145
0.0
146
1.0
147
0.4
 71
     0
 72
     0
 73
     0
 74
     0
 75
     0
 76
     0
 77
     1
 78
     8
170
     0
171
     2
172
     1
173
     1
174
     0
175
     0
176
     1
177
     1
178
     2
  0
DIMSTYLE
  2
BYGG-020945$0$STANDARD
 70
     0
  3

  4

  5

  6

  7

 40
1.0
 41
0.18
 42
0.0625
 43
0.38
 44
0.18
 45
0.0
 46
0.0
 47
0.0
 48
0.0
140
0.18
141
0.09
142
0.0
143
25.399999999999999
144
1.0
145
0.0
146
1.0
147
0.09
 71
     0
 72
     0
 73
     1
 74
     1
 75
     0
 76
     0
 77
     0
 78
     0
170
     0
171
     2
172
     0
173
     0
174
     0
175
     0
176
     0
177
     0
178
     0
  0
DIMSTYLE
  2
BYGG-020945$0$MASKIN
 70
     0
  3

  4

  5

  6

  7

 40
0.0
 41
3.0
 42
1.5
 43
10.0
 44
1.5
 45
0.0
 46
0.0
 47
0.0
 48
0.0
140
3.0
141
-5.0
142
0.0
143
25.399999999999999
144
-1.0
145
0.0
146
1.0
147
1.0
 71
     0
 72
     0
 73
     0
 74
     0
 75
     0
 76
     0
 77
     1
 78
     8
170
     0
171
     0
172
     1
173
     0
174
     0
175
     0
176
   256
177
   256
178
     2
  0
DIMSTYLE
  2
BYGG-014113$0$MASKIN
 70
     0
  3

  4

  5

  6

  7

 40
0.0
 41
3.0
 42
1.5
 43
10.0
 44
1.5
 45
0.0
 46
0.0
 47
0.0
 48
0.0
140
3.0
141
-5.0
142
0.0
143
25.399999999999999
144
-1.0
145
0.0
146
1.0
147
1.0
 71
     0
 72
     0
 73
     0
 74
     0
 75
     0
 76
     0
 77
     1
 78
     8
170
     0
171
     0
172
     1
173
     0
174
     0
175
     0
176
   256
177
   256
178
   256
  0
DIMSTYLE
  2
BYGG-014113$0$MASKIN1
 70
     0
  3

  4

  5

  6

  7

 40
1.0
 41
3.0
 42
1.5
 43
10.0
 44
1.5
 45
0.0
 46
0.0
 47
0.0
 48
0.0
140
3.0
141
-5.0
142
0.0
143
25.399999999999999
144
1.0
145
0.0
146
1.0
147
0.9
 71
     0
 72
     0
 73
     0
 74
     0
 75
     0
 76
     0
 77
     1
 78
     8
170
     0
171
     0
172
     1
173
     0
174
     0
175
     0
176
   256
177
   256
178
   256
  0
DIMSTYLE
  2
BYGG-014113$0$MASKIN2
 70
     0
  3

  4

  5

  6

  7

 40
1.0
 41
3.0
 42
1.5
 43
10.0
 44
1.5
 45
0.0
 46
0.0
 47
0.0
 48
0.0
140
3.0
141
-5.0
142
0.0
143
25.399999999999999
144
1.0
145
0.0
146
1.0
147
0.9
 71
     0
 72
     0
 73
     0
 74
     0
 75
     0
 76
     0
 77
     1
 78
     8
170
     0
171
     0
172
     1
173
     0
174
     0
175
     0
176
   256
177
   256
178
   256
  0
DIMSTYLE
  2
BYGG-014113$0$MASKIN3
 70
     0
  3

  4

  5

  6

  7

 40
1.0
 41
3.0
 42
1.5
 43
10.0
 44
1.5
 45
0.0
 46
0.0
 47
0.0
 48
0.0
140
3.0
141
-5.0
142
0.0
143
25.399999999999999
144
1.0
145
0.0
146
1.0
147
0.9
 71
     0
 72
     0
 73
     0
 74
     0
 75
     0
 76
     0
 77
     1
 78
     8
170
     0
171
     0
172
     1
173
     0
174
     0
175
     0
176
   256
177
   256
178
   256
  0
DIMSTYLE
  2
BYGG-014113$0$STANDARD
 70
     0
  3

  4

  5

  6

  7

 40
1.0
 41
0.18
 42
0.0625
 43
0.38
 44
0.18
 45
0.0
 46
0.0
 47
0.0
 48
0.0
140
0.18
141
0.09
142
0.0
143
25.399999999999999
144
1.0
145
0.0
146
1.0
147
0.09
 71
     0
 72
     0
 73
     1
 74
     1
 75
     0
 76
     0
 77
     0
 78
     0
170
     0
171
     2
172
     0
173
     0
174
     0
175
     0
176
     0
177
     0
178
     0
  0
DIMSTYLE
  2
BYGG-028959$0$STANDARD
 70
     0
  3

  4

  5

  6

  7

 40
1.0
 41
0.18
 42
0.0625
 43
0.38
 44
0.18
 45
0.0
 46
0.0
 47
0.0
 48
0.0
140
0.18
141
0.09
142
0.0
143
25.399999999999999
144
1.0
145
0.0
146
1.0
147
0.09
 71
     0
 72
     0
 73
     1
 74
     1
 75
     0
 76
     0
 77
     0
 78
     0
170
     0
171
     2
172
     0
173
     0
174
     0
175
     0
176
     0
177
     0
178
     0
  0
DIMSTYLE
  2
BYGG-028959$0$MASKIN
 70
     0
  3

  4

  5

  6

  7

 40
0.0
 41
3.0
 42
1.5
 43
10.0
 44
1.5
 45
0.0
 46
0.0
 47
0.0
 48
0.0
140
3.0
141
-5.0
142
0.0
143
25.399999999999999
144
-1.0
145
0.0
146
1.0
147
1.0
 71
     0
 72
     0
 73
     0
 74
     0
 75
     0
 76
     0
 77
     1
 78
     8
170
     0
171
     0
172
     1
173
     0
174
     0
175
     0
176
   256
177
   256
178
     2
  0
DIMSTYLE
  2
BYGG-025538$0$STANDARD
 70
     0
  3

  4

  5

  6

  7

 40
1.0
 41
0.18
 42
0.0625
 43
0.38
 44
0.18
 45
0.0
 46
0.0
 47
0.0
 48
0.0
140
0.18
141
0.09
142
0.0
143
25.399999999999999
144
1.0
145
0.0
146
1.0
147
0.09
 71
     0
 72
     0
 73
     1
 74
     1
 75
     0
 76
     0
 77
     0
 78
     0
170
     0
171
     2
172
     0
173
     0
174
     0
175
     0
176
     0
177
     0
178
     0
  0
DIMSTYLE
  2
BYGG-025538$0$MASKIN
 70
     0
  3

  4

  5

  6

  7

 40
0.0
 41
3.0
 42
1.5
 43
10.0
 44
1.5
 45
0.0
 46
0.0
 47
0.0
 48
0.0
140
3.0
141
-5.0
142
0.0
143
25.399999999999999
144
-1.0
145
0.0
146
1.0
147
1.0
 71
     0
 72
     0
 73
     0
 74
     0
 75
     0
 76
     0
 77
     1
 78
     8
170
     0
171
     0
172
     1
173
     0
174
     0
175
     0
176
   256
177
   256
178
     2
  0
DIMSTYLE
  2
BYGG-019716$0$STANDARD
 70
     0
  3

  4

  5

  6

  7

 40
1.0
 41
0.18
 42
0.0625
 43
0.38
 44
0.18
 45
0.0
 46
0.0
 47
0.0
 48
0.0
140
0.18
141
0.09
142
0.0
143
25.399999999999999
144
1.0
145
0.0
146
1.0
147
0.09
 71
     0
 72
     0
 73
     1
 74
     1
 75
     0
 76
     0
 77
     0
 78
     0
170
     0
171
     2
172
     0
173
     0
174
     0
175
     0
176
     0
177
     0
178
     0
  0
DIMSTYLE
  2
BYGG-019716$0$MASKIN
 70
     0
  3

  4

  5

  6

  7

 40
0.0
 41
3.0
 42
1.5
 43
10.0
 44
1.5
 45
0.0
 46
0.0
 47
0.0
 48
0.0
140
3.0
141
-5.0
142
0.0
143
25.399999999999999
144
-1.0
145
0.0
146
1.0
147
1.0
 71
     0
 72
     0
 73
     0
 74
     0
 75
     0
 76
     0
 77
     1
 78
     8
170
     0
171
     0
172
     1
173
     0
174
     0
175
     0
176
   256
177
   256
178
     2
  0
DIMSTYLE
  2
BYGG-019716$0$ANNOTATIVE
 70
     0
  3

  4

  5

  6

  7

 40
1.0
 41
0.18
 42
0.0625
 43
0.38
 44
0.18
 45
0.0
 46
0.0
 47
0.0
 48
0.0
140
0.18
141
0.09
142
0.0
143
25.399999999999999
144
1.0
145
0.0
146
1.0
147
0.09
 71
     0
 72
     0
 73
     1
 74
     1
 75
     0
 76
     0
 77
     0
 78
     0
170
     0
171
     2
172
     0
173
     0
174
     0
175
     0
176
     0
177
     0
178
     0
  0
DIMSTYLE
  2
BYGG-019652$0$STANDARD
 70
     0
  3

  4

  5

  6

  7

 40
1.0
 41
0.18
 42
0.0625
 43
0.38
 44
0.18
 45
0.0
 46
0.0
 47
0.0
 48
0.0
140
0.18
141
0.09
142
0.0
143
25.399999999999999
144
1.0
145
0.0
146
1.0
147
0.09
 71
     0
 72
     0
 73
     1
 74
     1
 75
     0
 76
     0
 77
     0
 78
     0
170
     0
171
     2
172
     0
173
     0
174
     0
175
     0
176
     0
177
     0
178
     0
  0
DIMSTYLE
  2
BYGG-019652$0$MASKIN
 70
     0
  3

  4

  5

  6

  7

 40
0.0
 41
3.0
 42
1.5
 43
10.0
 44
1.5
 45
0.0
 46
0.0
 47
0.0
 48
0.0
140
3.0
141
-5.0
142
0.0
143
25.399999999999999
144
-1.0
145
0.0
146
1.0
147
1.0
 71
     0
 72
     0
 73
     0
 74
     0
 75
     0
 76
     0
 77
     1
 78
     8
170
     0
171
     0
172
     1
173
     0
174
     0
175
     0
176
   256
177
   256
178
     2
  0
DIMSTYLE
  2
BYGG-019652$0$ME10_DIM_10
 70
     0
  3

  4

  5

  6

  7

 40
1.0
 41
0.35
 42
0.0
 43
0.38
 44
0.2
 45
0.0
 46
0.0
 47
0.0
 48
0.0
140
0.35
141
0.09
142
0.0
143
25.399999999999999
144
1.0
145
0.0
146
1.0
147
0.2
 71
     0
 72
     0
 73
     0
 74
     0
 75
     0
 76
     0
 77
     1
 78
     8
170
     0
171
     2
172
     1
173
     1
174
     0
175
     0
176
     1
177
     1
178
     2
  0
DIMSTYLE
  2
BYGG-019652$0$ME10_DIM_11
 70
     0
  3

  4

  5

  6

  7

 40
1.0
 41
0.35
 42
0.0
 43
0.38
 44
0.2
 45
0.0
 46
0.0
 47
0.0
 48
0.0
140
0.35
141
0.09
142
0.0
143
25.399999999999999
144
1.0
145
0.0
146
1.0
147
0.2
 71
     0
 72
     0
 73
     0
 74
     0
 75
     0
 76
     0
 77
     1
 78
     8
170
     0
171
     2
172
     1
173
     1
174
     0
175
     0
176
     1
177
     1
178
     2
  0
DIMSTYLE
  2
BYGG-019652$0$ME10_DIM_12
 70
     0
  3

  4

  5

  6

  7

 40
1.0
 41
0.35
 42
0.0
 43
0.38
 44
0.2
 45
0.0
 46
0.0
 47
0.0
 48
0.0
140
0.35
141
0.09
142
0.0
143
25.399999999999999
144
1.0
145
0.0
146
1.0
147
0.2
 71
     0
 72
     0
 73
     0
 74
     0
 75
     0
 76
     0
 77
     1
 78
     8
170
     0
171
     2
172
     1
173
     1
174
     0
175
     0
176
     1
177
     1
178
     2
  0
DIMSTYLE
  2
BYGG-019652$0$ME10_DIM_13
 70
     0
  3

  4

  5

  6

  7

 40
1.0
 41
0.35
 42
0.0
 43
0.38
 44
0.2
 45
0.0
 46
0.0
 47
0.0
 48
0.0
140
0.35
141
0.09
142
0.0
143
25.399999999999999
144
1.0
145
0.0
146
1.0
147
0.2
 71
     0
 72
     0
 73
     0
 74
     0
 75
     0
 76
     0
 77
     1
 78
     8
170
     0
171
     2
172
     1
173
     1
174
     0
175
     0
176
     1
177
     1
178
     2
  0
DIMSTYLE
  2
BYGG-019652$0$ME10_DIM_14
 70
     0
  3

  4

  5

  6

  7

 40
1.0
 41
0.35
 42
0.0
 43
0.38
 44
0.2
 45
0.0
 46
0.0
 47
0.0
 48
0.0
140
0.35
141
0.09
142
0.0
143
25.399999999999999
144
1.0
145
0.0
146
1.0
147
0.2
 71
     0
 72
     0
 73
     0
 74
     0
 75
     0
 76
     0
 77
     1
 78
     8
170
     0
171
     2
172
     1
173
     1
174
     0
175
     0
176
     1
177
     1
178
     2
  0
DIMSTYLE
  2
BYGG-019652$0$ME10_DIM_15
 70
     0
  3

  4

  5

  6

  7

 40
1.0
 41
0.35
 42
0.0
 43
0.38
 44
0.2
 45
0.0
 46
0.0
 47
0.0
 48
0.0
140
0.35
141
0.09
142
0.0
143
25.399999999999999
144
1.0
145
0.0
146
1.0
147
0.2
 71
     0
 72
     0
 73
     0
 74
     0
 75
     0
 76
     0
 77
     1
 78
     8
170
     0
171
     2
172
     1
173
     1
174
     0
175
     0
176
     1
177
     1
178
     2
  0
DIMSTYLE
  2
BYGG-019652$0$ME10_DIM_16
 70
     0
  3

  4

  5

  6

  7

 40
1.0
 41
0.35
 42
0.0
 43
0.38
 44
0.2
 45
0.0
 46
0.0
 47
0.0
 48
0.0
140
0.35
141
0.09
142
0.0
143
25.399999999999999
144
1.0
145
0.0
146
1.0
147
0.2
 71
     0
 72
     0
 73
     0
 74
     0
 75
     0
 76
     0
 77
     1
 78
     8
170
     0
171
     2
172
     1
173
     1
174
     0
175
     0
176
     1
177
     1
178
     2
  0
DIMSTYLE
  2
BYGG-019652$0$ME10_DIM_17
 70
     0
  3

  4

  5

  6

  7

 40
1.0
 41
0.7
 42
0.0
 43
0.38
 44
0.4
 45
0.0
 46
0.0
 47
0.0
 48
0.0
140
0.7
141
0.09
142
0.0
143
25.399999999999999
144
1.0
145
0.0
146
1.0
147
0.4
 71
     0
 72
     0
 73
     0
 74
     0
 75
     0
 76
     0
 77
     1
 78
     8
170
     0
171
     2
172
     1
173
     1
174
     0
175
     0
176
     1
177
     1
178
     2
  0
DIMSTYLE
  2
BYGG-019652$0$ME10_DIM_18
 70
     0
  3

  4

  5

  6

  7

 40
1.0
 41
0.7
 42
0.0
 43
0.38
 44
0.4
 45
0.0
 46
0.0
 47
0.0
 48
0.0
140
0.7
141
0.09
142
0.0
143
25.399999999999999
144
1.0
145
0.0
146
1.0
147
0.4
 71
     0
 72
     0
 73
     0
 74
     0
 75
     0
 76
     0
 77
     1
 78
     8
170
     0
171
     2
172
     1
173
     1
174
     0
175
     0
176
     1
177
     1
178
     2
  0
DIMSTYLE
  2
BYGG-019652$0$ME10_DIM_19
 70
     0
  3

  4

  5

  6

  7

 40
1.0
 41
0.7
 42
0.0
 43
0.38
 44
0.4
 45
0.0
 46
0.0
 47
0.0
 48
0.0
140
0.7
141
0.09
142
0.0
143
25.399999999999999
144
1.0
145
0.0
146
1.0
147
0.4
 71
     0
 72
     0
 73
     0
 74
     0
 75
     0
 76
     0
 77
     1
 78
     8
170
     0
171
     2
172
     1
173
     1
174
     0
175
     0
176
     1
177
     1
178
     2
  0
DIMSTYLE
  2
BYGG-019652$0$ME10_DIM_20
 70
     0
  3

  4

  5

  6

  7

 40
1.0
 41
0.7
 42
0.0
 43
0.38
 44
0.4
 45
0.0
 46
0.0
 47
0.0
 48
0.0
140
0.7
141
0.09
142
0.0
143
25.399999999999999
144
1.0
145
0.0
146
1.0
147
0.4
 71
     0
 72
     0
 73
     0
 74
     0
 75
     0
 76
     0
 77
     1
 78
     8
170
     0
171
     2
172
     1
173
     1
174
     0
175
     0
176
     1
177
     1
178
     2
  0
DIMSTYLE
  2
BYGG-019652$0$ME10_DIM_21
 70
     0
  3

  4

  5

  6

  7

 40
1.0
 41
0.7
 42
0.0
 43
0.38
 44
0.4
 45
0.0
 46
0.0
 47
0.0
 48
0.0
140
0.7
141
0.09
142
0.0
143
25.399999999999999
144
1.0
145
0.0
146
1.0
147
0.4
 71
     0
 72
     0
 73
     0
 74
     0
 75
     0
 76
     0
 77
     1
 78
     8
170
     0
171
     2
172
     1
173
     1
174
     0
175
     0
176
     1
177
     1
178
     2
  0
DIMSTYLE
  2
BYGG-019652$0$ME10_DIM_22
 70
     0
  3

  4

  5

  6

  7

 40
1.0
 41
0.7
 42
0.0
 43
0.38
 44
0.4
 45
0.0
 46
0.0
 47
0.0
 48
0.0
140
0.7
141
0.09
142
0.0
143
25.399999999999999
144
1.0
145
0.0
146
1.0
147
0.4
 71
     0
 72
     0
 73
     0
 74
     0
 75
     0
 76
     0
 77
     1
 78
     8
170
     0
171
     2
172
     1
173
     1
174
     0
175
     0
176
     1
177
     1
178
     2
  0
DIMSTYLE
  2
BYGG-019652$0$ME10_DIM_23
 70
     0
  3

  4

  5

  6

  7

 40
1.0
 41
0.7
 42
0.0
 43
0.38
 44
0.4
 45
0.0
 46
0.0
 47
0.0
 48
0.0
140
0.7
141
0.09
142
0.0
143
25.399999999999999
144
1.0
145
0.0
146
1.0
147
0.4
 71
     0
 72
     0
 73
     0
 74
     0
 75
     0
 76
     0
 77
     1
 78
     8
170
     0
171
     2
172
     1
173
     1
174
     0
175
     0
176
     1
177
     1
178
     2
  0
DIMSTYLE
  2
BYGG-019652$0$ME10_DIM_24
 70
     0
  3

  4

  5

  6

  7

 40
1.0
 41
0.7
 42
0.0
 43
0.38
 44
0.4
 45
0.0
 46
0.0
 47
0.0
 48
0.0
140
0.7
141
0.09
142
0.0
143
25.399999999999999
144
1.0
145
0.0
146
1.0
147
0.4
 71
     0
 72
     0
 73
     0
 74
     0
 75
     0
 76
     0
 77
     1
 78
     8
170
     0
171
     2
172
     1
173
     1
174
     0
175
     0
176
     1
177
     1
178
     2
  0
DIMSTYLE
  2
BYGG-019652$0$ME10_DIM_25
 70
     0
  3

  4

  5

  6

  7

 40
1.0
 41
0.7
 42
0.0
 43
0.38
 44
0.4
 45
0.0
 46
0.0
 47
0.0
 48
0.0
140
0.7
141
0.09
142
0.0
143
25.399999999999999
144
1.0
145
0.0
146
1.0
147
0.4
 71
     0
 72
     0
 73
     0
 74
     0
 75
     0
 76
     0
 77
     1
 78
     8
170
     0
171
     2
172
     1
173
     1
174
     0
175
     0
176
     1
177
     1
178
     2
  0
DIMSTYLE
  2
BYGG-019652$0$ME10_DIM_26
 70
     0
  3

  4

  5

  6

  7

 40
1.0
 41
0.7
 42
0.0
 43
0.38
 44
0.4
 45
0.0
 46
0.0
 47
0.0
 48
0.0
140
0.7
141
0.09
142
0.0
143
25.399999999999999
144
1.0
145
0.0
146
1.0
147
0.4
 71
     0
 72
     0
 73
     0
 74
     0
 75
     0
 76
     0
 77
     1
 78
     8
170
     0
171
     2
172
     1
173
     1
174
     0
175
     0
176
     1
177
     1
178
     2
  0
DIMSTYLE
  2
BYGG-019652$0$ME10_DIM_27
 70
     0
  3

  4

  5

  6

  7

 40
1.0
 41
0.7
 42
0.0
 43
0.38
 44
0.4
 45
0.0
 46
0.0
 47
0.0
 48
0.0
140
0.7
141
0.09
142
0.0
143
25.399999999999999
144
1.0
145
0.0
146
1.0
147
0.4
 71
     0
 72
     0
 73
     0
 74
     0
 75
     0
 76
     0
 77
     1
 78
     8
170
     0
171
     2
172
     1
173
     1
174
     0
175
     0
176
     1
177
     1
178
     2
  0
DIMSTYLE
  2
BYGG-019652$0$ME10_DIM_28
 70
     0
  3

  4

  5

  6

  7

 40
1.0
 41
0.7
 42
0.0
 43
0.38
 44
0.4
 45
0.0
 46
0.0
 47
0.0
 48
0.0
140
0.7
141
0.09
142
0.0
143
25.399999999999999
144
1.0
145
0.0
146
1.0
147
0.4
 71
     0
 72
     0
 73
     0
 74
     0
 75
     0
 76
     0
 77
     1
 78
     8
170
     0
171
     2
172
     1
173
     1
174
     0
175
     0
176
     1
177
     1
178
     2
  0
DIMSTYLE
  2
BYGG-019652$0$ME10_DIM_29
 70
     0
  3

  4

  5

  6

  7

 40
1.0
 41
0.7
 42
0.0
 43
0.38
 44
0.4
 45
0.0
 46
0.0
 47
0.0
 48
0.0
140
0.7
141
0.09
142
0.0
143
25.399999999999999
144
1.0
145
0.0
146
1.0
147
0.4
 71
     0
 72
     0
 73
     0
 74
     0
 75
     0
 76
     0
 77
     1
 78
     8
170
     0
171
     2
172
     1
173
     1
174
     0
175
     0
176
     1
177
     1
178
     2
  0
DIMSTYLE
  2
BYGG-019705$0$STANDARD
 70
     0
  3

  4

  5

  6

  7

 40
1.0
 41
0.18
 42
0.0625
 43
0.38
 44
0.18
 45
0.0
 46
0.0
 47
0.0
 48
0.0
140
0.18
141
0.09
142
0.0
143
25.399999999999999
144
1.0
145
0.0
146
1.0
147
0.09
 71
     0
 72
     0
 73
     1
 74
     1
 75
     0
 76
     0
 77
     0
 78
     0
170
     0
171
     2
172
     0
173
     0
174
     0
175
     0
176
     0
177
     0
178
     0
  0
DIMSTYLE
  2
BYGG-019705$0$MASKIN
 70
     0
  3

  4

  5

  6

  7

 40
0.0
 41
3.0
 42
1.5
 43
10.0
 44
1.5
 45
0.0
 46
0.0
 47
0.0
 48
0.0
140
3.0
141
-5.0
142
0.0
143
25.399999999999999
144
-1.0
145
0.0
146
1.0
147
1.0
 71
     0
 72
     0
 73
     0
 74
     0
 75
     0
 76
     0
 77
     1
 78
     8
170
     0
171
     0
172
     1
173
     0
174
     0
175
     0
176
   256
177
   256
178
     2
  0
ENDTAB
  0
ENDSEC
  0
SECTION
  2
BLOCKS
  0
BLOCK
  8
0
  2
$MODEL_SPACE
 70
     0
 10
0.0
 20
0.0
 30
0.0
  3
$MODEL_SPACE
  1

  0
ENDBLK
  5
37
  8
0
  0
BLOCK
 67
     1
  8
0
  2
$PAPER_SPACE
 70
     0
 10
0.0
 20
0.0
 30
0.0
  3
$PAPER_SPACE
  1

  0
ENDBLK
  5
35
 67
     1
  8
0
  0
BLOCK
  8
0
  2
*X70
 70
     1
 10
0.0
 20
0.0
 30
0.0
  3
*X70
  1

  0
LINE
  5
1F03
  8
0
 62
     0
 10
-10.99999999999959
 20
-69.822305089622773
 30
0.0
 11
-11.822305089622891
 21
-68.999999999999474
 31
0.0
  0
LINE
  5
1F04
  8
0
 62
     0
 10
-10.9999999999996
 20
-70.944837104756417
 30
0.0
 11
-12.944837104756539
 21
-68.999999999999474
 31
0.0
  0
LINE
  5
1F05
  8
0
 62
     0
 10
-11.06736911989019
 20
-71.999999999999474
 30
0.0
 11
-14.06736911989019
 21
-68.999999999999474
 31
0.0
  0
LINE
  5
1F06
  8
0
 62
     0
 10
-12.189901135023829
 20
-71.999999999999488
 30
0.0
 11
-15.189901135023829
 21
-68.999999999999474
 31
0.0
  0
LINE
  5
1F07
  8
0
 62
     0
 10
-13.312433150157471
 20
-71.999999999999488
 30
0.0
 11
-16.312433150157471
 21
-68.999999999999474
 31
0.0
  0
LINE
  5
1F08
  8
0
 62
     0
 10
-14.434965165291111
 20
-71.999999999999488
 30
0.0
 11
-17.434965165291111
 21
-68.999999999999474
 31
0.0
  0
LINE
  5
1F09
  8
0
 62
     0
 10
-15.557497180424759
 20
-71.999999999999488
 30
0.0
 11
-18.557497180424761
 21
-68.999999999999474
 31
0.0
  0
LINE
  5
1F0A
  8
0
 62
     0
 10
-16.680029195558401
 20
-71.999999999999488
 30
0.0
 11
-19.680029195558401
 21
-68.999999999999474
 31
0.0
  0
LINE
  5
1F0B
  8
0
 62
     0
 10
-17.802561210692051
 20
-71.999999999999488
 30
0.0
 11
-20.802561210692051
 21
-68.999999999999474
 31
0.0
  0
LINE
  5
1F0C
  8
0
 62
     0
 10
-18.925093225825691
 20
-71.999999999999488
 30
0.0
 11
-21.925093225825691
 21
-68.999999999999474
 31
0.0
  0
LINE
  5
1F0D
  8
0
 62
     0
 10
-20.047625240959341
 20
-71.999999999999488
 30
0.0
 11
-23.047625240959331
 21
-68.999999999999474
 31
0.0
  0
LINE
  5
1F0E
  8
0
 62
     0
 10
-20.979402139361039
 20
-72.190755116731424
 30
0.0
 11
-24.170157256092981
 21
-68.999999999999474
 31
0.0
  0
LINE
  5
1F0F
  8
0
 62
     0
 10
-10.99999999999959
 20
-82.170157256092864
 30
0.0
 11
-11.170157256092979
 21
-81.999999999999488
 31
0.0
  0
LINE
  5
1F10
  8
0
 62
     0
 10
-20.999999999999599
 20
-73.292689271226507
 30
0.0
 11
-25.292689271226621
 21
-68.999999999999474
 31
0.0
  0
LINE
  5
1F11
  8
0
 62
     0
 10
-10.99999999999959
 20
-83.292689271226536
 30
0.0
 11
-12.29268927122663
 21
-81.999999999999474
 31
0.0
  0
LINE
  5
1F12
  8
0
 62
     0
 10
-20.999999999999591
 20
-74.415221286360151
 30
0.0
 11
-25.999999999999599
 21
-69.415221286360151
 31
0.0
  0
LINE
  5
1F13
  8
0
 62
     0
 10
-10.99999999999959
 20
-84.415221286360136
 30
0.0
 11
-13.41522128636027
 21
-81.999999999999488
 31
0.0
  0
LINE
  5
1F14
  8
0
 62
     0
 10
-20.999999999999591
 20
-75.537753301493808
 30
0.0
 11
-25.999999999999609
 21
-70.537753301493794
 31
0.0
  0
LINE
  5
1F15
  8
0
 62
     0
 10
-11.537753301493909
 20
-84.999999999999474
 30
0.0
 11
-14.537753301493909
 21
-81.999999999999474
 31
0.0
  0
LINE
  5
1F16
  8
0
 62
     0
 10
-20.999999999999591
 20
-76.660285316627423
 30
0.0
 11
-25.999999999999609
 21
-71.660285316627423
 31
0.0
  0
LINE
  5
1F17
  8
0
 62
     0
 10
-12.66028531662756
 20
-84.999999999999474
 30
0.0
 11
-15.660285316627551
 21
-81.999999999999488
 31
0.0
  0
LINE
  5
1F18
  8
0
 62
     0
 10
-20.999999999999599
 20
-77.782817331761095
 30
0.0
 11
-25.999999999999609
 21
-72.78281733176108
 31
0.0
  0
LINE
  5
1F19
  8
0
 62
     0
 10
-13.78281733176121
 20
-84.999999999999474
 30
0.0
 11
-16.782817331761208
 21
-81.999999999999488
 31
0.0
  0
LINE
  5
1F1A
  8
0
 62
     0
 10
-20.999999999999599
 20
-78.905349346894724
 30
0.0
 11
-25.999999999999609
 21
-73.905349346894724
 31
0.0
  0
LINE
  5
1F1B
  8
0
 62
     0
 10
-14.90534934689485
 20
-84.999999999999474
 30
0.0
 11
-17.905349346894852
 21
-81.999999999999488
 31
0.0
  0
LINE
  5
1F1C
  8
0
 62
     0
 10
-20.999999999999599
 20
-80.027881362028381
 30
0.0
 11
-25.999999999999609
 21
-75.027881362028367
 31
0.0
  0
LINE
  5
1F1D
  8
0
 62
     0
 10
-16.027881362028491
 20
-84.999999999999474
 30
0.0
 11
-19.027881362028491
 21
-81.999999999999474
 31
0.0
  0
LINE
  5
1F1E
  8
0
 62
     0
 10
-20.999999999999599
 20
-81.15041337716201
 30
0.0
 11
-25.999999999999599
 21
-76.15041337716201
 31
0.0
  0
LINE
  5
1F1F
  8
0
 62
     0
 10
-17.150413377162138
 20
-84.999999999999474
 30
0.0
 11
-20.150413377162138
 21
-81.999999999999474
 31
0.0
  0
LINE
  5
1F20
  8
0
 62
     0
 10
-18.272945392295782
 20
-84.999999999999474
 30
0.0
 11
-25.999999999999599
 21
-77.272945392295668
 31
0.0
  0
LINE
  5
1F21
  8
0
 62
     0
 10
-19.395477407429428
 20
-84.999999999999474
 30
0.0
 11
-25.999999999999609
 21
-78.395477407429297
 31
0.0
  0
LINE
  5
1F22
  8
0
 62
     0
 10
-20.518009422563068
 20
-84.999999999999474
 30
0.0
 11
-25.999999999999609
 21
-79.51800942256294
 31
0.0
  0
LINE
  5
1F23
  8
0
 62
     0
 10
-21.640541437696712
 20
-84.999999999999474
 30
0.0
 11
-25.999999999999599
 21
-80.640541437696584
 31
0.0
  0
LINE
  5
1F24
  8
0
 62
     0
 10
-22.763073452830358
 20
-84.999999999999474
 30
0.0
 11
-25.999999999999599
 21
-81.763073452830241
 31
0.0
  0
LINE
  5
1F25
  8
0
 62
     0
 10
-23.885605467964002
 20
-84.999999999999474
 30
0.0
 11
-25.999999999999609
 21
-82.885605467963885
 31
0.0
  0
LINE
  5
1F26
  8
0
 62
     0
 10
-25.008137483097649
 20
-84.999999999999474
 30
0.0
 11
-25.999999999999609
 21
-84.008137483097528
 31
0.0
  0
LINE
  5
1F27
  8
0
 62
     0
 10
-12.03541901631263
 20
-84.999999999999474
 30
0.0
 11
-10.99999999999959
 21
-83.964580983686446
 31
0.0
  0
LINE
  5
1F28
  8
0
 62
     0
 10
-13.15795103144627
 20
-84.999999999999474
 30
0.0
 11
-10.99999999999959
 21
-82.842048968552803
 31
0.0
  0
LINE
  5
1F29
  8
0
 62
     0
 10
-14.28048304657991
 20
-84.999999999999474
 30
0.0
 11
-11.28048304657991
 21
-81.999999999999488
 31
0.0
  0
LINE
  5
1F2A
  8
0
 62
     0
 10
-15.40301506171356
 20
-84.999999999999474
 30
0.0
 11
-12.40301506171356
 21
-81.999999999999488
 31
0.0
  0
LINE
  5
1F2B
  8
0
 62
     0
 10
-16.5255470768472
 20
-84.999999999999474
 30
0.0
 11
-13.525547076847211
 21
-81.999999999999488
 31
0.0
  0
LINE
  5
1F2C
  8
0
 62
     0
 10
-17.648079091980851
 20
-84.999999999999474
 30
0.0
 11
-14.648079091980851
 21
-81.999999999999488
 31
0.0
  0
LINE
  5
1F2D
  8
0
 62
     0
 10
-18.77061110711449
 20
-84.999999999999474
 30
0.0
 11
-15.770611107114499
 21
-81.999999999999488
 31
0.0
  0
LINE
  5
1F2E
  8
0
 62
     0
 10
-19.893143122248141
 20
-84.999999999999474
 30
0.0
 11
-16.89314312224813
 21
-81.999999999999488
 31
0.0
  0
LINE
  5
1F2F
  8
0
 62
     0
 10
-21.015675137381781
 20
-84.999999999999474
 30
0.0
 11
-18.015675137381791
 21
-81.999999999999488
 31
0.0
  0
LINE
  5
1F30
  8
0
 62
     0
 10
-22.138207152515431
 20
-84.999999999999474
 30
0.0
 11
-19.138207152515431
 21
-81.999999999999488
 31
0.0
  0
LINE
  5
1F31
  8
0
 62
     0
 10
-23.260739167649071
 20
-84.999999999999474
 30
0.0
 11
-20.260739167649071
 21
-81.999999999999488
 31
0.0
  0
LINE
  5
1F32
  8
0
 62
     0
 10
-11.38327118278271
 20
-71.999999999999503
 30
0.0
 11
-10.9999999999996
 21
-71.616728817216369
 31
0.0
  0
LINE
  5
1F33
  8
0
 62
     0
 10
-24.383271182782721
 20
-84.999999999999474
 30
0.0
 11
-20.999999999999591
 21
-81.616728817216369
 31
0.0
  0
LINE
  5
1F34
  8
0
 62
     0
 10
-12.505803197916361
 20
-71.999999999999488
 30
0.0
 11
-10.9999999999996
 21
-70.49419680208274
 31
0.0
  0
LINE
  5
1F35
  8
0
 62
     0
 10
-25.50580319791635
 20
-84.999999999999474
 30
0.0
 11
-20.999999999999599
 21
-80.494196802082726
 31
0.0
  0
LINE
  5
1F36
  8
0
 62
     0
 10
-13.628335213050001
 20
-71.999999999999488
 30
0.0
 11
-10.9999999999996
 21
-69.371664786949083
 31
0.0
  0
LINE
  5
1F37
  8
0
 62
     0
 10
-25.999999999999609
 20
-84.371664786949083
 30
0.0
 11
-20.999999999999599
 21
-79.371664786949083
 31
0.0
  0
LINE
  5
1F38
  8
0
 62
     0
 10
-14.750867228183649
 20
-71.999999999999488
 30
0.0
 11
-11.75086722818364
 21
-68.999999999999474
 31
0.0
  0
LINE
  5
1F39
  8
0
 62
     0
 10
-25.999999999999609
 20
-83.249132771815454
 30
0.0
 11
-20.999999999999599
 21
-78.249132771815425
 31
0.0
  0
LINE
  5
1F3A
  8
0
 62
     0
 10
-15.873399243317291
 20
-71.999999999999488
 30
0.0
 11
-12.873399243317291
 21
-68.999999999999474
 31
0.0
  0
LINE
  5
1F3B
  8
0
 62
     0
 10
-25.999999999999609
 20
-82.126600756681796
 30
0.0
 11
-20.999999999999591
 21
-77.126600756681796
 31
0.0
  0
LINE
  5
1F3C
  8
0
 62
     0
 10
-16.995931258450931
 20
-71.999999999999488
 30
0.0
 11
-13.995931258450931
 21
-68.999999999999474
 31
0.0
  0
LINE
  5
1F3D
  8
0
 62
     0
 10
-25.999999999999609
 20
-81.004068741548153
 30
0.0
 11
-20.999999999999599
 21
-76.004068741548153
 31
0.0
  0
LINE
  5
1F3E
  8
0
 62
     0
 10
-18.118463273584581
 20
-71.999999999999488
 30
0.0
 11
-15.118463273584579
 21
-68.999999999999474
 31
0.0
  0
LINE
  5
1F3F
  8
0
 62
     0
 10
-25.999999999999609
 20
-79.88153672641451
 30
0.0
 11
-20.999999999999599
 21
-74.88153672641451
 31
0.0
  0
LINE
  5
1F40
  8
0
 62
     0
 10
-19.240995288718221
 20
-71.999999999999488
 30
0.0
 11
-16.240995288718221
 21
-68.999999999999474
 31
0.0
  0
LINE
  5
1F41
  8
0
 62
     0
 10
-25.999999999999609
 20
-78.759004711280866
 30
0.0
 11
-20.999999999999599
 21
-73.759004711280866
 31
0.0
  0
LINE
  5
1F42
  8
0
 62
     0
 10
-20.363527303851871
 20
-71.999999999999488
 30
0.0
 11
-17.363527303851871
 21
-68.999999999999474
 31
0.0
  0
LINE
  5
1F43
  8
0
 62
     0
 10
-25.999999999999609
 20
-77.636472696147223
 30
0.0
 11
-20.999999999999599
 21
-72.636472696147223
 31
0.0
  0
LINE
  5
1F44
  8
0
 62
     0
 10
-25.999999999999609
 20
-76.51394068101358
 30
0.0
 11
-18.486059318985511
 21
-68.999999999999474
 31
0.0
  0
LINE
  5
1F45
  8
0
 62
     0
 10
-25.999999999999609
 20
-75.391408665879936
 30
0.0
 11
-19.608591334119151
 21
-68.999999999999474
 31
0.0
  0
LINE
  5
1F46
  8
0
 62
     0
 10
-25.999999999999609
 20
-74.268876650746293
 30
0.0
 11
-20.731123349252801
 21
-68.999999999999474
 31
0.0
  0
LINE
  5
1F47
  8
0
 62
     0
 10
-25.999999999999609
 20
-73.146344635612635
 30
0.0
 11
-21.853655364386452
 21
-68.999999999999474
 31
0.0
  0
LINE
  5
1F48
  8
0
 62
     0
 10
-25.999999999999599
 20
-72.023812620478992
 30
0.0
 11
-22.976187379520081
 21
-68.999999999999474
 31
0.0
  0
LINE
  5
1F49
  8
0
 62
     0
 10
-25.999999999999599
 20
-70.901280605345349
 30
0.0
 11
-24.098719394653731
 21
-68.999999999999474
 31
0.0
  0
LINE
  5
1F4A
  8
0
 62
     0
 10
-25.999999999999591
 20
-69.778748590211706
 30
0.0
 11
-25.221251409787381
 21
-68.999999999999474
 31
0.0
  0
ENDBLK
  5
1F4C
  8
0
  0
BLOCK
  8
0
  2
*X71
 70
     1
 10
0.0
 20
0.0
 30
0.0
  3
*X71
  1

  0
LINE
  5
1F65
  8
0
 62
     0
 10
-10.99999999999959
 20
-69.822305089622773
 30
0.0
 11
-11.822305089622891
 21
-68.999999999999474
 31
0.0
  0
LINE
  5
1F66
  8
0
 62
     0
 10
-10.9999999999996
 20
-70.944837104756417
 30
0.0
 11
-12.944837104756539
 21
-68.999999999999474
 31
0.0
  0
LINE
  5
1F67
  8
0
 62
     0
 10
-11.06736911989019
 20
-71.999999999999474
 30
0.0
 11
-14.06736911989019
 21
-68.999999999999474
 31
0.0
  0
LINE
  5
1F68
  8
0
 62
     0
 10
-12.189901135023829
 20
-71.999999999999488
 30
0.0
 11
-15.189901135023829
 21
-68.999999999999474
 31
0.0
  0
LINE
  5
1F69
  8
0
 62
     0
 10
-13.312433150157471
 20
-71.999999999999488
 30
0.0
 11
-16.312433150157471
 21
-68.999999999999474
 31
0.0
  0
LINE
  5
1F6A
  8
0
 62
     0
 10
-14.434965165291111
 20
-71.999999999999488
 30
0.0
 11
-17.434965165291111
 21
-68.999999999999474
 31
0.0
  0
LINE
  5
1F6B
  8
0
 62
     0
 10
-15.557497180424759
 20
-71.999999999999488
 30
0.0
 11
-18.557497180424761
 21
-68.999999999999474
 31
0.0
  0
LINE
  5
1F6C
  8
0
 62
     0
 10
-16.680029195558401
 20
-71.999999999999488
 30
0.0
 11
-19.680029195558401
 21
-68.999999999999474
 31
0.0
  0
LINE
  5
1F6D
  8
0
 62
     0
 10
-17.802561210692051
 20
-71.999999999999488
 30
0.0
 11
-20.802561210692051
 21
-68.999999999999474
 31
0.0
  0
LINE
  5
1F6E
  8
0
 62
     0
 10
-18.925093225825691
 20
-71.999999999999488
 30
0.0
 11
-21.925093225825691
 21
-68.999999999999474
 31
0.0
  0
LINE
  5
1F6F
  8
0
 62
     0
 10
-20.047625240959341
 20
-71.999999999999488
 30
0.0
 11
-23.047625240959331
 21
-68.999999999999474
 31
0.0
  0
LINE
  5
1F70
  8
0
 62
     0
 10
-20.979402139361039
 20
-72.190755116731424
 30
0.0
 11
-24.170157256092981
 21
-68.999999999999474
 31
0.0
  0
LINE
  5
1F71
  8
0
 62
     0
 10
-10.99999999999959
 20
-82.170157256092864
 30
0.0
 11
-11.170157256092979
 21
-81.999999999999488
 31
0.0
  0
LINE
  5
1F72
  8
0
 62
     0
 10
-20.999999999999599
 20
-73.292689271226507
 30
0.0
 11
-25.292689271226621
 21
-68.999999999999474
 31
0.0
  0
LINE
  5
1F73
  8
0
 62
     0
 10
-10.99999999999959
 20
-83.292689271226536
 30
0.0
 11
-12.29268927122663
 21
-81.999999999999474
 31
0.0
  0
LINE
  5
1F74
  8
0
 62
     0
 10
-20.999999999999591
 20
-74.415221286360151
 30
0.0
 11
-25.999999999999599
 21
-69.415221286360151
 31
0.0
  0
LINE
  5
1F75
  8
0
 62
     0
 10
-10.99999999999959
 20
-84.415221286360136
 30
0.0
 11
-13.41522128636027
 21
-81.999999999999488
 31
0.0
  0
LINE
  5
1F76
  8
0
 62
     0
 10
-20.999999999999591
 20
-75.537753301493808
 30
0.0
 11
-25.999999999999609
 21
-70.537753301493794
 31
0.0
  0
LINE
  5
1F77
  8
0
 62
     0
 10
-11.537753301493909
 20
-84.999999999999474
 30
0.0
 11
-14.537753301493909
 21
-81.999999999999474
 31
0.0
  0
LINE
  5
1F78
  8
0
 62
     0
 10
-20.999999999999591
 20
-76.660285316627423
 30
0.0
 11
-25.999999999999609
 21
-71.660285316627423
 31
0.0
  0
LINE
  5
1F79
  8
0
 62
     0
 10
-12.66028531662756
 20
-84.999999999999474
 30
0.0
 11
-15.660285316627551
 21
-81.999999999999488
 31
0.0
  0
LINE
  5
1F7A
  8
0
 62
     0
 10
-20.999999999999599
 20
-77.782817331761095
 30
0.0
 11
-25.999999999999609
 21
-72.78281733176108
 31
0.0
  0
LINE
  5
1F7B
  8
0
 62
     0
 10
-13.78281733176121
 20
-84.999999999999474
 30
0.0
 11
-16.782817331761208
 21
-81.999999999999488
 31
0.0
  0
LINE
  5
1F7C
  8
0
 62
     0
 10
-20.999999999999599
 20
-78.905349346894724
 30
0.0
 11
-25.999999999999609
 21
-73.905349346894724
 31
0.0
  0
LINE
  5
1F7D
  8
0
 62
     0
 10
-14.90534934689485
 20
-84.999999999999474
 30
0.0
 11
-17.905349346894852
 21
-81.999999999999488
 31
0.0
  0
LINE
  5
1F7E
  8
0
 62
     0
 10
-20.999999999999599
 20
-80.027881362028381
 30
0.0
 11
-25.999999999999609
 21
-75.027881362028367
 31
0.0
  0
LINE
  5
1F7F
  8
0
 62
     0
 10
-16.027881362028491
 20
-84.999999999999474
 30
0.0
 11
-19.027881362028491
 21
-81.999999999999474
 31
0.0
  0
LINE
  5
1F80
  8
0
 62
     0
 10
-20.999999999999599
 20
-81.15041337716201
 30
0.0
 11
-25.999999999999599
 21
-76.15041337716201
 31
0.0
  0
LINE
  5
1F81
  8
0
 62
     0
 10
-17.150413377162138
 20
-84.999999999999474
 30
0.0
 11
-20.150413377162138
 21
-81.999999999999474
 31
0.0
  0
LINE
  5
1F82
  8
0
 62
     0
 10
-18.272945392295782
 20
-84.999999999999474
 30
0.0
 11
-25.999999999999599
 21
-77.272945392295668
 31
0.0
  0
LINE
  5
1F83
  8
0
 62
     0
 10
-19.395477407429428
 20
-84.999999999999474
 30
0.0
 11
-25.999999999999609
 21
-78.395477407429297
 31
0.0
  0
LINE
  5
1F84
  8
0
 62
     0
 10
-20.518009422563068
 20
-84.999999999999474
 30
0.0
 11
-25.999999999999609
 21
-79.51800942256294
 31
0.0
  0
LINE
  5
1F85
  8
0
 62
     0
 10
-21.640541437696712
 20
-84.999999999999474
 30
0.0
 11
-25.999999999999599
 21
-80.640541437696584
 31
0.0
  0
LINE
  5
1F86
  8
0
 62
     0
 10
-22.763073452830358
 20
-84.999999999999474
 30
0.0
 11
-25.999999999999599
 21
-81.763073452830241
 31
0.0
  0
LINE
  5
1F87
  8
0
 62
     0
 10
-23.885605467964002
 20
-84.999999999999474
 30
0.0
 11
-25.999999999999609
 21
-82.885605467963885
 31
0.0
  0
LINE
  5
1F88
  8
0
 62
     0
 10
-25.008137483097649
 20
-84.999999999999474
 30
0.0
 11
-25.999999999999609
 21
-84.008137483097528
 31
0.0
  0
LINE
  5
1F89
  8
0
 62
     0
 10
-12.03541901631263
 20
-84.999999999999474
 30
0.0
 11
-10.99999999999959
 21
-83.964580983686446
 31
0.0
  0
LINE
  5
1F8A
  8
0
 62
     0
 10
-13.15795103144627
 20
-84.999999999999474
 30
0.0
 11
-10.99999999999959
 21
-82.842048968552803
 31
0.0
  0
LINE
  5
1F8B
  8
0
 62
     0
 10
-14.28048304657991
 20
-84.999999999999474
 30
0.0
 11
-11.28048304657991
 21
-81.999999999999488
 31
0.0
  0
LINE
  5
1F8C
  8
0
 62
     0
 10
-15.40301506171356
 20
-84.999999999999474
 30
0.0
 11
-12.40301506171356
 21
-81.999999999999488
 31
0.0
  0
LINE
  5
1F8D
  8
0
 62
     0
 10
-16.5255470768472
 20
-84.999999999999474
 30
0.0
 11
-13.525547076847211
 21
-81.999999999999488
 31
0.0
  0
LINE
  5
1F8E
  8
0
 62
     0
 10
-17.648079091980851
 20
-84.999999999999474
 30
0.0
 11
-14.648079091980851
 21
-81.999999999999488
 31
0.0
  0
LINE
  5
1F8F
  8
0
 62
     0
 10
-18.77061110711449
 20
-84.999999999999474
 30
0.0
 11
-15.770611107114499
 21
-81.999999999999488
 31
0.0
  0
LINE
  5
1F90
  8
0
 62
     0
 10
-19.893143122248141
 20
-84.999999999999474
 30
0.0
 11
-16.89314312224813
 21
-81.999999999999488
 31
0.0
  0
LINE
  5
1F91
  8
0
 62
     0
 10
-21.015675137381781
 20
-84.999999999999474
 30
0.0
 11
-18.015675137381791
 21
-81.999999999999488
 31
0.0
  0
LINE
  5
1F92
  8
0
 62
     0
 10
-22.138207152515431
 20
-84.999999999999474
 30
0.0
 11
-19.138207152515431
 21
-81.999999999999488
 31
0.0
  0
LINE
  5
1F93
  8
0
 62
     0
 10
-23.260739167649071
 20
-84.999999999999474
 30
0.0
 11
-20.260739167649071
 21
-81.999999999999488
 31
0.0
  0
LINE
  5
1F94
  8
0
 62
     0
 10
-11.38327118278271
 20
-71.999999999999503
 30
0.0
 11
-10.9999999999996
 21
-71.616728817216369
 31
0.0
  0
LINE
  5
1F95
  8
0
 62
     0
 10
-24.383271182782721
 20
-84.999999999999474
 30
0.0
 11
-20.999999999999591
 21
-81.616728817216369
 31
0.0
  0
LINE
  5
1F96
  8
0
 62
     0
 10
-12.505803197916361
 20
-71.999999999999488
 30
0.0
 11
-10.9999999999996
 21
-70.49419680208274
 31
0.0
  0
LINE
  5
1F97
  8
0
 62
     0
 10
-25.50580319791635
 20
-84.999999999999474
 30
0.0
 11
-20.999999999999599
 21
-80.494196802082726
 31
0.0
  0
LINE
  5
1F98
  8
0
 62
     0
 10
-13.628335213050001
 20
-71.999999999999488
 30
0.0
 11
-10.9999999999996
 21
-69.371664786949083
 31
0.0
  0
LINE
  5
1F99
  8
0
 62
     0
 10
-25.999999999999609
 20
-84.371664786949083
 30
0.0
 11
-20.999999999999599
 21
-79.371664786949083
 31
0.0
  0
LINE
  5
1F9A
  8
0
 62
     0
 10
-14.750867228183649
 20
-71.999999999999488
 30
0.0
 11
-11.75086722818364
 21
-68.999999999999474
 31
0.0
  0
LINE
  5
1F9B
  8
0
 62
     0
 10
-25.999999999999609
 20
-83.249132771815454
 30
0.0
 11
-20.999999999999599
 21
-78.249132771815425
 31
0.0
  0
LINE
  5
1F9C
  8
0
 62
     0
 10
-15.873399243317291
 20
-71.999999999999488
 30
0.0
 11
-12.873399243317291
 21
-68.999999999999474
 31
0.0
  0
LINE
  5
1F9D
  8
0
 62
     0
 10
-25.999999999999609
 20
-82.126600756681796
 30
0.0
 11
-20.999999999999591
 21
-77.126600756681796
 31
0.0
  0
LINE
  5
1F9E
  8
0
 62
     0
 10
-16.995931258450931
 20
-71.999999999999488
 30
0.0
 11
-13.995931258450931
 21
-68.999999999999474
 31
0.0
  0
LINE
  5
1F9F
  8
0
 62
     0
 10
-25.999999999999609
 20
-81.004068741548153
 30
0.0
 11
-20.999999999999599
 21
-76.004068741548153
 31
0.0
  0
LINE
  5
1FA0
  8
0
 62
     0
 10
-18.118463273584581
 20
-71.999999999999488
 30
0.0
 11
-15.118463273584579
 21
-68.999999999999474
 31
0.0
  0
LINE
  5
1FA1
  8
0
 62
     0
 10
-25.999999999999609
 20
-79.88153672641451
 30
0.0
 11
-20.999999999999599
 21
-74.88153672641451
 31
0.0
  0
LINE
  5
1FA2
  8
0
 62
     0
 10
-19.240995288718221
 20
-71.999999999999488
 30
0.0
 11
-16.240995288718221
 21
-68.999999999999474
 31
0.0
  0
LINE
  5
1FA3
  8
0
 62
     0
 10
-25.999999999999609
 20
-78.759004711280866
 30
0.0
 11
-20.999999999999599
 21
-73.759004711280866
 31
0.0
  0
LINE
  5
1FA4
  8
0
 62
     0
 10
-20.363527303851871
 20
-71.999999999999488
 30
0.0
 11
-17.363527303851871
 21
-68.999999999999474
 31
0.0
  0
LINE
  5
1FA5
  8
0
 62
     0
 10
-25.999999999999609
 20
-77.636472696147223
 30
0.0
 11
-20.999999999999599
 21
-72.636472696147223
 31
0.0
  0
LINE
  5
1FA6
  8
0
 62
     0
 10
-25.999999999999609
 20
-76.51394068101358
 30
0.0
 11
-18.486059318985511
 21
-68.999999999999474
 31
0.0
  0
LINE
  5
1FA7
  8
0
 62
     0
 10
-25.999999999999609
 20
-75.391408665879936
 30
0.0
 11
-19.608591334119151
 21
-68.999999999999474
 31
0.0
  0
LINE
  5
1FA8
  8
0
 62
     0
 10
-25.999999999999609
 20
-74.268876650746293
 30
0.0
 11
-20.731123349252801
 21
-68.999999999999474
 31
0.0
  0
LINE
  5
1FA9
  8
0
 62
     0
 10
-25.999999999999609
 20
-73.146344635612635
 30
0.0
 11
-21.853655364386452
 21
-68.999999999999474
 31
0.0
  0
LINE
  5
1FAA
  8
0
 62
     0
 10
-25.999999999999599
 20
-72.023812620478992
 30
0.0
 11
-22.976187379520081
 21
-68.999999999999474
 31
0.0
  0
LINE
  5
1FAB
  8
0
 62
     0
 10
-25.999999999999599
 20
-70.901280605345349
 30
0.0
 11
-24.098719394653731
 21
-68.999999999999474
 31
0.0
  0
LINE
  5
1FAC
  8
0
 62
     0
 10
-25.999999999999591
 20
-69.778748590211706
 30
0.0
 11
-25.221251409787381
 21
-68.999999999999474
 31
0.0
  0
ENDBLK
  5
1FAE
  8
0
  0
BLOCK
  8
0
  2
*X72
 70
     1
 10
0.0
 20
0.0
 30
0.0
  3
*X72
  1

  0
LINE
  5
1FB0
  8
0
 62
     0
 10
-22.109570128551638
 20
-40.422504033822342
 30
0.0
 11
-19.954556089638189
 21
-38.267489994908892
 31
0.0
  0
LINE
  5
1FB1
  8
0
 62
     0
 10
-22.752231428458138
 20
-39.942633318595213
 30
0.0
 11
-19.919669938485409
 21
-37.11007182862248
 31
0.0
  0
LINE
  5
1FB2
  8
0
 62
     0
 10
-23.173829513854351
 20
-39.241699388857789
 30
0.0
 11
-20.105847001842911
 21
-36.173716876846349
 31
0.0
  0
LINE
  5
1FB3
  8
0
 62
     0
 10
-23.42792779005579
 20
-38.373265649925493
 30
0.0
 11
-20.459523874395298
 21
-35.404861734264991
 31
0.0
  0
LINE
  5
1FB4
  8
0
 62
     0
 10
-23.494621819963982
 20
-37.317427664700048
 30
0.0
 11
-21.00060499324081
 21
-34.82341083797688
 31
0.0
  0
LINE
  5
1FB5
  8
0
 62
     0
 10
-23.191542204342461
 20
-35.891816033944892
 30
0.0
 11
-21.913057178780271
 21
-34.613331008382701
 31
0.0
  0
LINE
  5
1FB6
  8
0
 62
     0
 10
-19.989658054542641
 20
-36.624848162348137
 30
0.0
 11
-21.980192234694702
 21
-34.63431398219609
 31
0.0
  0
LINE
  5
1FB7
  8
0
 62
     0
 10
-19.908284087493989
 20
-37.828754144530421
 30
0.0
 11
-22.674911150020929
 21
-35.062127082003492
 31
0.0
  0
LINE
  5
1FB8
  8
0
 62
     0
 10
-20.06792074919872
 20
-38.791649497959327
 30
0.0
 11
-23.12304963707021
 21
-35.736520610087837
 31
0.0
  0
LINE
  5
1FB9
  8
0
 62
     0
 10
-20.39744128165086
 20
-39.58466098064082
 30
0.0
 11
-23.401304253372128
 21
-36.580798008919537
 31
0.0
  0
LINE
  5
1FBA
  8
0
 62
     0
 10
-20.906884046476758
 20
-40.197750230948543
 30
0.0
 11
-23.499636637300231
 21
-37.604997640125077
 31
0.0
  0
LINE
  5
1FBB
  8
0
 62
     0
 10
-21.727511421715569
 20
-40.499654870843351
 30
0.0
 11
-23.286784410815361
 21
-38.940381881743583
 31
0.0
  0
ENDBLK
  5
1FBD
  8
0
  0
BLOCK
  8
0
  2
*X73
 70
     1
 10
0.0
 20
0.0
 30
0.0
  3
*X73
  1

  0
LINE
  5
206B
  8
0
 62
     0
 10
-22.109570128551638
 20
-40.422504033822342
 30
0.0
 11
-19.954556089638189
 21
-38.267489994908892
 31
0.0
  0
LINE
  5
206C
  8
0
 62
     0
 10
-22.752231428458138
 20
-39.942633318595213
 30
0.0
 11
-19.919669938485409
 21
-37.11007182862248
 31
0.0
  0
LINE
  5
206D
  8
0
 62
     0
 10
-23.173829513854351
 20
-39.241699388857789
 30
0.0
 11
-20.105847001842911
 21
-36.173716876846349
 31
0.0
  0
LINE
  5
206E
  8
0
 62
     0
 10
-23.42792779005579
 20
-38.373265649925493
 30
0.0
 11
-20.459523874395298
 21
-35.404861734264991
 31
0.0
  0
LINE
  5
206F
  8
0
 62
     0
 10
-23.494621819963982
 20
-37.317427664700048
 30
0.0
 11
-21.00060499324081
 21
-34.82341083797688
 31
0.0
  0
LINE
  5
2070
  8
0
 62
     0
 10
-23.191542204342461
 20
-35.891816033944892
 30
0.0
 11
-21.913057178780271
 21
-34.613331008382701
 31
0.0
  0
LINE
  5
2071
  8
0
 62
     0
 10
-19.989658054542641
 20
-36.624848162348137
 30
0.0
 11
-21.980192234694702
 21
-34.63431398219609
 31
0.0
  0
LINE
  5
2072
  8
0
 62
     0
 10
-19.908284087493989
 20
-37.828754144530421
 30
0.0
 11
-22.674911150020929
 21
-35.062127082003492
 31
0.0
  0
LINE
  5
2073
  8
0
 62
     0
 10
-20.06792074919872
 20
-38.791649497959327
 30
0.0
 11
-23.12304963707021
 21
-35.736520610087837
 31
0.0
  0
LINE
  5
2074
  8
0
 62
     0
 10
-20.39744128165086
 20
-39.58466098064082
 30
0.0
 11
-23.401304253372128
 21
-36.580798008919537
 31
0.0
  0
LINE
  5
2075
  8
0
 62
     0
 10
-20.906884046476758
 20
-40.197750230948543
 30
0.0
 11
-23.499636637300231
 21
-37.604997640125077
 31
0.0
  0
LINE
  5
2076
  8
0
 62
     0
 10
-21.727511421715569
 20
-40.499654870843351
 30
0.0
 11
-23.286784410815361
 21
-38.940381881743583
 31
0.0
  0
ENDBLK
  5
2078
  8
0
  0
ENDSEC
  0
SECTION
  2
ENTITIES
  0
ARC
  5
A6C
  8
SAPA_GLAS
 10
0.2932440349701623
 20
-155.46368897671971
 30
0.0
 40
65.445431905677779
 50
80.584188282515271
 51
99.936678842758127
  0
LINE
  5
A6D
  8
SAPA_GLAS
 10
-8.1554691837842341
 20
-83.332392354088142
 30
0.0
 11
-10.99999999999962
 21
-81.999999999999488
 31
0.0
  0
LINE
  5
A6E
  8
SAPA_GLAS
 10
8.1554691837893145
 20
-83.332392354088157
 30
0.0
 11
11.00000000000033
 21
-82.70000000201145
 31
0.0
  0
LINE
  5
F4A
  8
SAPA_GLAS
 10
-11.000000747073051
 20
-81.500000000480611
 30
0.0
 11
-11.000000747073051
 21
-85.000000000480611
 31
0.0
  0
LINE
  5
1042
  8
SAPA_GLAS
 10
10.99999999999657
 20
-85.000000000480611
 30
0.0
 11
10.99999999999657
 21
-81.900000000983027
 31
0.0
  0
LINE
  5
1043
  8
SAPA_GLAS
 10
10.99999999999657
 20
-81.900000000983027
 30
0.0
 11
20.000000000000341
 21
-81.900000000983013
 31
0.0
  0
LINE
  5
1044
  8
SAPA_GLAS
 10
20.000000000000341
 20
-81.900000000983013
 30
0.0
 11
20.000000000000341
 21
-85.000000000480611
 31
0.0
  0
ARC
  5
1045
  8
SAPA_GLAS
 10
44.38436132460064
 20
-81.927472822962287
 30
0.0
 40
8.2592372925440731
 50
158.49662819893359
 51
201.83969482901941
  0
LINE
  5
16B7
  8
SAPA_GLAS
 10
12.373337959649991
 20
-85.000000000480611
 30
0.0
 11
12.373337959649991
 21
-84.931249999999991
 31
0.0
1001
GRADIENTCOLOR1ACI
1070
     5
1001
GRADIENTCOLOR2ACI
1070
     2
1001
ACAD
1010
0.0
1020
0.0
1030
0.0
  0
LINE
  5
16B8
  8
SAPA_GLAS
 10
12.373337959649991
 20
-83.343749999999986
 30
0.0
 11
12.373337959649991
 21
-82.549999999999983
 31
0.0
1001
GRADIENTCOLOR1ACI
1070
     5
1001
GRADIENTCOLOR2ACI
1070
     2
1001
ACAD
1010
0.0
1020
0.0
1030
0.0
  0
LINE
  5
16B9
  8
SAPA_GLAS
 10
13.74815328849999
 20
-85.000000000480611
 30
0.0
 11
13.74815328849999
 21
-84.931249999999991
 31
0.0
1001
GRADIENTCOLOR1ACI
1070
     5
1001
GRADIENTCOLOR2ACI
1070
     2
1001
ACAD
1010
0.0
1020
0.0
1030
0.0
  0
LINE
  5
16BA
  8
SAPA_GLAS
 10
13.74815328849999
 20
-83.343749999999986
 30
0.0
 11
13.74815328849999
 21
-82.549999999999983
 31
0.0
1001
GRADIENTCOLOR1ACI
1070
     5
1001
GRADIENTCOLOR2ACI
1070
     2
1001
ACAD
1010
0.0
1020
0.0
1030
0.0
  0
LINE
  5
16BB
  8
SAPA_GLAS
 10
15.12296861734999
 20
-85.000000000480611
 30
0.0
 11
15.12296861734999
 21
-84.931249999999991
 31
0.0
1001
GRADIENTCOLOR1ACI
1070
     5
1001
GRADIENTCOLOR2ACI
1070
     2
1001
ACAD
1010
0.0
1020
0.0
1030
0.0
  0
LINE
  5
16BC
  8
SAPA_GLAS
 10
15.12296861734999
 20
-83.343749999999986
 30
0.0
 11
15.12296861734999
 21
-82.549999999999983
 31
0.0
1001
GRADIENTCOLOR1ACI
1070
     5
1001
GRADIENTCOLOR2ACI
1070
     2
1001
ACAD
1010
0.0
1020
0.0
1030
0.0
  0
LINE
  5
16BD
  8
SAPA_GLAS
 10
16.497783946199991
 20
-85.000000000480611
 30
0.0
 11
16.497783946199991
 21
-84.931249999999991
 31
0.0
1001
GRADIENTCOLOR1ACI
1070
     5
1001
GRADIENTCOLOR2ACI
1070
     2
1001
ACAD
1010
0.0
1020
0.0
1030
0.0
  0
LINE
  5
16BE
  8
SAPA_GLAS
 10
16.497783946199991
 20
-83.343749999999986
 30
0.0
 11
16.497783946199991
 21
-82.549999999999983
 31
0.0
1001
GRADIENTCOLOR1ACI
1070
     5
1001
GRADIENTCOLOR2ACI
1070
     2
1001
ACAD
1010
0.0
1020
0.0
1030
0.0
  0
LINE
  5
16BF
  8
SAPA_GLAS
 10
17.872599275049989
 20
-85.000000000480611
 30
0.0
 11
17.872599275049989
 21
-84.931249999999991
 31
0.0
1001
GRADIENTCOLOR1ACI
1070
     5
1001
GRADIENTCOLOR2ACI
1070
     2
1001
ACAD
1010
0.0
1020
0.0
1030
0.0
  0
LINE
  5
16C0
  8
SAPA_GLAS
 10
17.872599275049989
 20
-83.343749999999986
 30
0.0
 11
17.872599275049989
 21
-82.549999999999983
 31
0.0
1001
GRADIENTCOLOR1ACI
1070
     5
1001
GRADIENTCOLOR2ACI
1070
     2
1001
ACAD
1010
0.0
1020
0.0
1030
0.0
  0
LINE
  5
16C1
  8
SAPA_GLAS
 10
19.24741460389999
 20
-85.000000000480611
 30
0.0
 11
19.24741460389999
 21
-84.931249999999991
 31
0.0
1001
GRADIENTCOLOR1ACI
1070
     5
1001
GRADIENTCOLOR2ACI
1070
     2
1001
ACAD
1010
0.0
1020
0.0
1030
0.0
  0
LINE
  5
16C2
  8
SAPA_GLAS
 10
19.24741460389999
 20
-83.343749999999986
 30
0.0
 11
19.24741460389999
 21
-82.549999999999983
 31
0.0
1001
GRADIENTCOLOR1ACI
1070
     5
1001
GRADIENTCOLOR2ACI
1070
     2
1001
ACAD
1010
0.0
1020
0.0
1030
0.0
  0
LINE
  5
16C3
  8
SAPA_GLAS
 10
20.000000000000341
 20
-83.702994639915815
 30
0.0
 11
19.934822273629131
 21
-83.740625017781383
 31
0.0
1001
GRADIENTCOLOR1ACI
1070
     5
1001
GRADIENTCOLOR2ACI
1070
     2
1001
ACAD
1010
0.0
1020
0.0
1030
0.0
  0
LINE
  5
16C4
  8
SAPA_GLAS
 10
18.56000694512133
 20
-84.5343750177814
 30
0.0
 11
17.872599280867441
 21
-84.931250017781394
 31
0.0
1001
GRADIENTCOLOR1ACI
1070
     5
1001
GRADIENTCOLOR2ACI
1070
     2
1001
ACAD
1010
0.0
1020
0.0
1030
0.0
  0
LINE
  5
16C5
  8
SAPA_GLAS
 10
19.934822273458021
 20
-82.153125017485038
 30
0.0
 11
19.247414609204132
 21
-82.550000017485047
 31
0.0
1001
GRADIENTCOLOR1ACI
1070
     5
1001
GRADIENTCOLOR2ACI
1070
     2
1001
ACAD
1010
0.0
1020
0.0
1030
0.0
  0
LINE
  5
16C6
  8
SAPA_GLAS
 10
17.872599280696331
 20
-83.343750017485036
 30
0.0
 11
17.185191616442431
 21
-83.740625017485044
 31
0.0
1001
GRADIENTCOLOR1ACI
1070
     5
1001
GRADIENTCOLOR2ACI
1070
     2
1001
ACAD
1010
0.0
1020
0.0
1030
0.0
  0
LINE
  5
16C7
  8
SAPA_GLAS
 10
15.810376287934631
 20
-84.534375017485047
 30
0.0
 11
15.122968623680739
 21
-84.931250017485041
 31
0.0
1001
GRADIENTCOLOR1ACI
1070
     5
1001
GRADIENTCOLOR2ACI
1070
     2
1001
ACAD
1010
0.0
1020
0.0
1030
0.0
  0
LINE
  5
16C8
  8
SAPA_GLAS
 10
17.185191616271339
 20
-82.153125017188685
 30
0.0
 11
16.497783952017439
 21
-82.550000017188694
 31
0.0
1001
GRADIENTCOLOR1ACI
1070
     5
1001
GRADIENTCOLOR2ACI
1070
     2
1001
ACAD
1010
0.0
1020
0.0
1030
0.0
  0
LINE
  5
16C9
  8
SAPA_GLAS
 10
15.122968623509641
 20
-83.343750017188697
 30
0.0
 11
14.435560959255749
 21
-83.740625017188691
 31
0.0
1001
GRADIENTCOLOR1ACI
1070
     5
1001
GRADIENTCOLOR2ACI
1070
     2
1001
ACAD
1010
0.0
1020
0.0
1030
0.0
  0
LINE
  5
16CA
  8
SAPA_GLAS
 10
13.060745630747951
 20
-84.534375017188694
 30
0.0
 11
12.37333796649405
 21
-84.931250017188688
 31
0.0
1001
GRADIENTCOLOR1ACI
1070
     5
1001
GRADIENTCOLOR2ACI
1070
     2
1001
ACAD
1010
0.0
1020
0.0
1030
0.0
  0
LINE
  5
16CB
  8
SAPA_GLAS
 10
14.43556095908464
 20
-82.153125016892346
 30
0.0
 11
13.74815329483074
 21
-82.550000016892341
 31
0.0
1001
GRADIENTCOLOR1ACI
1070
     5
1001
GRADIENTCOLOR2ACI
1070
     2
1001
ACAD
1010
0.0
1020
0.0
1030
0.0
  0
LINE
  5
16CC
  8
SAPA_GLAS
 10
12.37333796632295
 20
-83.343750016892344
 30
0.0
 11
11.68593030206905
 21
-83.740625016892338
 31
0.0
1001
GRADIENTCOLOR1ACI
1070
     5
1001
GRADIENTCOLOR2ACI
1070
     2
1001
ACAD
1010
0.0
1020
0.0
1030
0.0
  0
LINE
  5
16CD
  8
SAPA_GLAS
 10
11.68593030189794
 20
-82.153125016595965
 30
0.0
 11
10.99999999999657
 21
-82.549147061044039
 31
0.0
1001
GRADIENTCOLOR1ACI
1070
     5
1001
GRADIENTCOLOR2ACI
1070
     2
1001
ACAD
1010
0.0
1020
0.0
1030
0.0
  0
LINE
  5
16CE
  8
SAPA_GLAS
 10
13.74815327669395
 20
-84.931250014521495
 30
0.0
 11
13.06074561244005
 21
-84.534375014521501
 31
0.0
1001
GRADIENTCOLOR1ACI
1070
     5
1001
GRADIENTCOLOR2ACI
1070
     2
1001
ACAD
1010
0.0
1020
0.0
1030
0.0
  0
LINE
  5
16CF
  8
SAPA_GLAS
 10
11.685930283932249
 20
-83.740625014521484
 30
0.0
 11
10.999999999996581
 21
-83.344602980445913
 31
0.0
1001
GRADIENTCOLOR1ACI
1070
     5
1001
GRADIENTCOLOR2ACI
1070
     2
1001
ACAD
1010
0.0
1020
0.0
1030
0.0
  0
LINE
  5
16D0
  8
SAPA_GLAS
 10
16.49778393388064
 20
-84.931250014225142
 30
0.0
 11
15.81037626962674
 21
-84.534375014225148
 31
0.0
1001
GRADIENTCOLOR1ACI
1070
     5
1001
GRADIENTCOLOR2ACI
1070
     2
1001
ACAD
1010
0.0
1020
0.0
1030
0.0
  0
LINE
  5
16D1
  8
SAPA_GLAS
 10
14.43556094111894
 20
-83.740625014225145
 30
0.0
 11
13.74815327686504
 21
-83.343750014225151
 31
0.0
1001
GRADIENTCOLOR1ACI
1070
     5
1001
GRADIENTCOLOR2ACI
1070
     2
1001
ACAD
1010
0.0
1020
0.0
1030
0.0
  0
LINE
  5
16D2
  8
SAPA_GLAS
 10
12.37333794835725
 20
-82.550000014225134
 30
0.0
 11
11.68593028410335
 21
-82.153125014225154
 31
0.0
1001
GRADIENTCOLOR1ACI
1070
     5
1001
GRADIENTCOLOR2ACI
1070
     2
1001
ACAD
1010
0.0
1020
0.0
1030
0.0
  0
LINE
  5
16D3
  8
SAPA_GLAS
 10
19.247414591067329
 20
-84.931250013928789
 30
0.0
 11
18.560006926813429
 21
-84.534375013928795
 31
0.0
1001
GRADIENTCOLOR1ACI
1070
     5
1001
GRADIENTCOLOR2ACI
1070
     2
1001
ACAD
1010
0.0
1020
0.0
1030
0.0
  0
LINE
  5
16D4
  8
SAPA_GLAS
 10
17.185191598305629
 20
-83.740625013928792
 30
0.0
 11
16.497783934051739
 21
-83.343750013928798
 31
0.0
1001
GRADIENTCOLOR1ACI
1070
     5
1001
GRADIENTCOLOR2ACI
1070
     2
1001
ACAD
1010
0.0
1020
0.0
1030
0.0
  0
LINE
  5
16D5
  8
SAPA_GLAS
 10
15.122968605543941
 20
-82.550000013928795
 30
0.0
 11
14.43556094129004
 21
-82.153125013928801
 31
0.0
1001
GRADIENTCOLOR1ACI
1070
     5
1001
GRADIENTCOLOR2ACI
1070
     2
1001
ACAD
1010
0.0
1020
0.0
1030
0.0
  0
LINE
  5
16D6
  8
SAPA_GLAS
 10
19.934822255492328
 20
-83.740625013632425
 30
0.0
 11
19.247414591238439
 21
-83.34375001363243
 31
0.0
1001
GRADIENTCOLOR1ACI
1070
     5
1001
GRADIENTCOLOR2ACI
1070
     2
1001
ACAD
1010
0.0
1020
0.0
1030
0.0
  0
LINE
  5
16D7
  8
SAPA_GLAS
 10
17.872599262730638
 20
-82.550000013632413
 30
0.0
 11
17.185191598476742
 21
-82.153125013632433
 31
0.0
1001
GRADIENTCOLOR1ACI
1070
     5
1001
GRADIENTCOLOR2ACI
1070
     2
1001
ACAD
1010
0.0
1020
0.0
1030
0.0
  0
LINE
  5
16D8
  8
SAPA_GLAS
 10
20.00000000000033
 20
-82.190755401574151
 30
0.0
 11
19.934822255663441
 21
-82.15312501333608
 31
0.0
1001
GRADIENTCOLOR1ACI
1070
     5
1001
GRADIENTCOLOR2ACI
1070
     2
1001
ACAD
1010
0.0
1020
0.0
1030
0.0
  0
LINE
  5
16D9
  8
SAPA_GLAS
 10
21.015675137862878
 20
-85.000000000480597
 30
0.0
 11
20.000000000000352
 21
-83.984324862618067
 31
0.0
1001
GRADIENTCOLOR1ACI
1070
     5
1001
GRADIENTCOLOR2ACI
1070
     2
1001
ACAD
1010
0.0
1020
0.0
1030
0.0
  0
LINE
  5
16DA
  8
SAPA_GLAS
 10
22.138207152996522
 20
-85.000000000480597
 30
0.0
 11
20.000000000000341
 21
-82.861792847484395
 31
0.0
1001
GRADIENTCOLOR1ACI
1070
     5
1001
GRADIENTCOLOR2ACI
1070
     2
1001
ACAD
1010
0.0
1020
0.0
1030
0.0
  0
LINE
  5
16DB
  8
SAPA_GLAS
 10
23.260739168130169
 20
-85.000000000480611
 30
0.0
 11
19.976687515022899
 21
-81.715948347373313
 31
0.0
1001
GRADIENTCOLOR1ACI
1070
     5
1001
GRADIENTCOLOR2ACI
1070
     2
1001
ACAD
1010
0.0
1020
0.0
1030
0.0
  0
LINE
  5
16DC
  8
SAPA_GLAS
 10
24.383271183263819
 20
-85.000000000480611
 30
0.0
 11
20.000000000000352
 21
-80.616728817217137
 31
0.0
1001
GRADIENTCOLOR1ACI
1070
     5
1001
GRADIENTCOLOR2ACI
1070
     2
1001
ACAD
1010
0.0
1020
0.0
1030
0.0
  0
LINE
  5
16DD
  8
SAPA_GLAS
 10
25.505803198397459
 20
-85.000000000480611
 30
0.0
 11
20.18470096120825
 21
-79.678897763291388
 31
0.0
1001
GRADIENTCOLOR1ACI
1070
     5
1001
GRADIENTCOLOR2ACI
1070
     2
1001
ACAD
1010
0.0
1020
0.0
1030
0.0
  0
LINE
  5
16DE
  8
SAPA_GLAS
 10
26.628335213531098
 20
-85.000000000480597
 30
0.0
 11
20.736930791966259
 21
-79.108595578915754
 31
0.0
1001
GRADIENTCOLOR1ACI
1070
     5
1001
GRADIENTCOLOR2ACI
1070
     2
1001
ACAD
1010
0.0
1020
0.0
1030
0.0
  0
LINE
  5
16DF
  8
SAPA_GLAS
 10
27.750867228664749
 20
-85.000000000480611
 30
0.0
 11
21.650867230093009
 21
-78.900000001908865
 31
0.0
1001
GRADIENTCOLOR1ACI
1070
     5
1001
GRADIENTCOLOR2ACI
1070
     2
1001
ACAD
1010
0.0
1020
0.0
1030
0.0
  0
LINE
  5
16E0
  8
SAPA_GLAS
 10
28.873399243798399
 20
-85.000000000480611
 30
0.0
 11
22.773399245157592
 21
-78.9000000018398
 31
0.0
1001
GRADIENTCOLOR1ACI
1070
     5
1001
GRADIENTCOLOR2ACI
1070
     2
1001
ACAD
1010
0.0
1020
0.0
1030
0.0
  0
LINE
  5
16E1
  8
SAPA_GLAS
 10
29.995931258932039
 20
-85.000000000480611
 30
0.0
 11
23.895931260222198
 21
-78.900000001770763
 31
0.0
1001
GRADIENTCOLOR1ACI
1070
     5
1001
GRADIENTCOLOR2ACI
1070
     2
1001
ACAD
1010
0.0
1020
0.0
1030
0.0
  0
LINE
  5
16E2
  8
SAPA_GLAS
 10
31.118463274065679
 20
-85.000000000480611
 30
0.0
 11
25.018463275286781
 21
-78.900000001701699
 31
0.0
1001
GRADIENTCOLOR1ACI
1070
     5
1001
GRADIENTCOLOR2ACI
1070
     2
1001
ACAD
1010
0.0
1020
0.0
1030
0.0
  0
LINE
  5
16E3
  8
SAPA_GLAS
 10
32.240995289199319
 20
-85.000000000480611
 30
0.0
 11
26.140995290351349
 21
-78.900000001632634
 31
0.0
1001
GRADIENTCOLOR1ACI
1070
     5
1001
GRADIENTCOLOR2ACI
1070
     2
1001
ACAD
1010
0.0
1020
0.0
1030
0.0
  0
LINE
  5
16E4
  8
SAPA_GLAS
 10
33.363527304332969
 20
-85.000000000480611
 30
0.0
 11
27.263527305415931
 21
-78.900000001563569
 31
0.0
1001
GRADIENTCOLOR1ACI
1070
     5
1001
GRADIENTCOLOR2ACI
1070
     2
1001
ACAD
1010
0.0
1020
0.0
1030
0.0
  0
LINE
  5
16E5
  8
SAPA_GLAS
 10
34.486059319466612
 20
-85.000000000480611
 30
0.0
 11
28.38605932048052
 21
-78.900000001494519
 31
0.0
1001
GRADIENTCOLOR1ACI
1070
     5
1001
GRADIENTCOLOR2ACI
1070
     2
1001
ACAD
1010
0.0
1020
0.0
1030
0.0
  0
LINE
  5
16E6
  8
SAPA_GLAS
 10
35.608591334600249
 20
-85.000000000480597
 30
0.0
 11
29.508591335545109
 21
-78.900000001425454
 31
0.0
1001
GRADIENTCOLOR1ACI
1070
     5
1001
GRADIENTCOLOR2ACI
1070
     2
1001
ACAD
1010
0.0
1020
0.0
1030
0.0
  0
LINE
  5
16E7
  8
SAPA_GLAS
 10
36.70912263369614
 20
-84.977999284442831
 30
0.0
 11
30.631123350609691
 21
-78.900000001356389
 31
0.0
1001
GRADIENTCOLOR1ACI
1070
     5
1001
GRADIENTCOLOR2ACI
1070
     2
1001
ACAD
1010
0.0
1020
0.0
1030
0.0
  0
LINE
  5
16E8
  8
SAPA_GLAS
 10
36.258293123724229
 20
-83.404637759337291
 30
0.0
 11
31.75365536567428
 21
-78.900000001287339
 31
0.0
1001
GRADIENTCOLOR1ACI
1070
     5
1001
GRADIENTCOLOR2ACI
1070
     2
1001
ACAD
1010
0.0
1020
0.0
1030
0.0
  0
LINE
  5
16E9
  8
SAPA_GLAS
 10
36.12817617449268
 20
-82.151988794972112
 30
0.0
 11
32.876187380738862
 21
-78.900000001218274
 31
0.0
1001
GRADIENTCOLOR1ACI
1070
     5
1001
GRADIENTCOLOR2ACI
1070
     2
1001
ACAD
1010
0.0
1020
0.0
1030
0.0
  0
LINE
  5
16EA
  8
SAPA_GLAS
 10
36.169658050853158
 20
-81.070938656198919
 30
0.0
 11
33.998719395803427
 21
-78.900000001149209
 31
0.0
1001
GRADIENTCOLOR1ACI
1070
     5
1001
GRADIENTCOLOR2ACI
1070
     2
1001
ACAD
1010
0.0
1020
0.0
1030
0.0
  0
LINE
  5
16EB
  8
SAPA_GLAS
 10
36.328252807241981
 20
-80.107001397454113
 30
0.0
 11
35.121251410868027
 21
-78.900000001080159
 31
0.0
1001
GRADIENTCOLOR1ACI
1070
     5
1001
GRADIENTCOLOR2ACI
1070
     2
1001
ACAD
1010
0.0
1020
0.0
1030
0.0
  0
LINE
  5
16EC
  8
SAPA_GLAS
 10
36.576947957207771
 20
-79.233164532286253
 30
0.0
 11
36.243783425932598
 21
-78.900000001011094
 31
0.0
1001
GRADIENTCOLOR1ACI
1070
     5
1001
GRADIENTCOLOR2ACI
1070
     2
1001
ACAD
1010
0.0
1020
0.0
1030
0.0
  0
LINE
  5
16ED
  8
SAPA_GLAS
 10
36.585893333604702
 20
-84.647564300828861
 30
0.0
 11
36.233457633952938
 21
-85.000000000480625
 31
0.0
1001
GRADIENTCOLOR1ACI
1070
     5
1001
GRADIENTCOLOR2ACI
1070
     2
1001
ACAD
1010
0.0
1020
0.0
1030
0.0
  0
LINE
  5
16EE
  8
SAPA_GLAS
 10
36.334696650383101
 20
-83.776228968916826
 30
0.0
 11
35.110925618819287
 21
-85.000000000480625
 31
0.0
1001
GRADIENTCOLOR1ACI
1070
     5
1001
GRADIENTCOLOR2ACI
1070
     2
1001
ACAD
1010
0.0
1020
0.0
1030
0.0
  0
LINE
  5
16EF
  8
SAPA_GLAS
 10
36.172992167646569
 20
-82.815401436519707
 30
0.0
 11
33.988393603685651
 21
-85.000000000480625
 31
0.0
1001
GRADIENTCOLOR1ACI
1070
     5
1001
GRADIENTCOLOR2ACI
1070
     2
1001
ACAD
1010
0.0
1020
0.0
1030
0.0
  0
LINE
  5
16F0
  8
SAPA_GLAS
 10
36.127284415166962
 20
-81.738577173865664
 30
0.0
 11
32.865861588552008
 21
-85.000000000480625
 31
0.0
1001
GRADIENTCOLOR1ACI
1070
     5
1001
GRADIENTCOLOR2ACI
1070
     2
1001
ACAD
1010
0.0
1020
0.0
1030
0.0
  0
LINE
  5
16F1
  8
SAPA_GLAS
 10
36.250716498334342
 20
-80.492613075564648
 30
0.0
 11
31.743329573418361
 21
-85.000000000480625
 31
0.0
1001
GRADIENTCOLOR1ACI
1070
     5
1001
GRADIENTCOLOR2ACI
1070
     2
1001
ACAD
1010
0.0
1020
0.0
1030
0.0
  0
LINE
  5
16F2
  8
SAPA_GLAS
 10
36.686623973327443
 20
-78.934173585437904
 30
0.0
 11
30.620797558284721
 21
-85.000000000480625
 31
0.0
1001
GRADIENTCOLOR1ACI
1070
     5
1001
GRADIENTCOLOR2ACI
1070
     2
1001
ACAD
1010
0.0
1020
0.0
1030
0.0
  0
LINE
  5
16F3
  8
SAPA_GLAS
 10
35.598265542580883
 20
-78.900000001050813
 30
0.0
 11
29.498265543151071
 21
-85.000000000480625
 31
0.0
1001
GRADIENTCOLOR1ACI
1070
     5
1001
GRADIENTCOLOR2ACI
1070
     2
1001
ACAD
1010
0.0
1020
0.0
1030
0.0
  0
LINE
  5
16F4
  8
SAPA_GLAS
 10
34.475733527378182
 20
-78.900000001119878
 30
0.0
 11
28.375733528017442
 21
-85.000000000480625
 31
0.0
1001
GRADIENTCOLOR1ACI
1070
     5
1001
GRADIENTCOLOR2ACI
1070
     2
1001
ACAD
1010
0.0
1020
0.0
1030
0.0
  0
LINE
  5
16F5
  8
SAPA_GLAS
 10
33.353201512175481
 20
-78.900000001188943
 30
0.0
 11
27.253201512883791
 21
-85.000000000480625
 31
0.0
1001
GRADIENTCOLOR1ACI
1070
     5
1001
GRADIENTCOLOR2ACI
1070
     2
1001
ACAD
1010
0.0
1020
0.0
1030
0.0
  0
LINE
  5
16F6
  8
SAPA_GLAS
 10
32.230669496972773
 20
-78.900000001258007
 30
0.0
 11
26.130669497750141
 21
-85.000000000480625
 31
0.0
1001
GRADIENTCOLOR1ACI
1070
     5
1001
GRADIENTCOLOR2ACI
1070
     2
1001
ACAD
1010
0.0
1020
0.0
1030
0.0
  0
LINE
  5
16F7
  8
SAPA_GLAS
 10
31.108137481770068
 20
-78.900000001327044
 30
0.0
 11
25.00813748261649
 21
-85.00000000048064
 31
0.0
1001
GRADIENTCOLOR1ACI
1070
     5
1001
GRADIENTCOLOR2ACI
1070
     2
1001
ACAD
1010
0.0
1020
0.0
1030
0.0
  0
LINE
  5
16F8
  8
SAPA_GLAS
 10
29.98560546656736
 20
-78.900000001396137
 30
0.0
 11
23.885605467482851
 21
-85.000000000480625
 31
0.0
1001
GRADIENTCOLOR1ACI
1070
     5
1001
GRADIENTCOLOR2ACI
1070
     2
1001
ACAD
1010
0.0
1020
0.0
1030
0.0
  0
LINE
  5
16F9
  8
SAPA_GLAS
 10
28.863073451364649
 20
-78.900000001465173
 30
0.0
 11
22.763073452349211
 21
-85.000000000480625
 31
0.0
1001
GRADIENTCOLOR1ACI
1070
     5
1001
GRADIENTCOLOR2ACI
1070
     2
1001
ACAD
1010
0.0
1020
0.0
1030
0.0
  0
LINE
  5
16FA
  8
SAPA_GLAS
 10
27.740541436161941
 20
-78.900000001534238
 30
0.0
 11
21.64054143721556
 21
-85.000000000480625
 31
0.0
1001
GRADIENTCOLOR1ACI
1070
     5
1001
GRADIENTCOLOR2ACI
1070
     2
1001
ACAD
1010
0.0
1020
0.0
1030
0.0
  0
LINE
  5
16FB
  8
SAPA_GLAS
 10
26.61800942095924
 20
-78.900000001603303
 30
0.0
 11
20.518009422081921
 21
-85.000000000480625
 31
0.0
1001
GRADIENTCOLOR1ACI
1070
     5
1001
GRADIENTCOLOR2ACI
1070
     2
1001
ACAD
1010
0.0
1020
0.0
1030
0.0
  0
LINE
  5
16FC
  8
SAPA_GLAS
 10
25.495477405756532
 20
-78.900000001672367
 30
0.0
 11
20.00000000000033
 21
-84.395477407428558
 31
0.0
1001
GRADIENTCOLOR1ACI
1070
     5
1001
GRADIENTCOLOR2ACI
1070
     2
1001
ACAD
1010
0.0
1020
0.0
1030
0.0
  0
LINE
  5
16FD
  8
SAPA_GLAS
 10
24.372945390553831
 20
-78.900000001741432
 30
0.0
 11
20.00000000000033
 21
-83.272945392294929
 31
0.0
1001
GRADIENTCOLOR1ACI
1070
     5
1001
GRADIENTCOLOR2ACI
1070
     2
1001
ACAD
1010
0.0
1020
0.0
1030
0.0
  0
LINE
  5
16FE
  8
SAPA_GLAS
 10
23.25041337535113
 20
-78.900000001810483
 30
0.0
 11
20.000000000000341
 21
-82.150413377161286
 31
0.0
1001
GRADIENTCOLOR1ACI
1070
     5
1001
GRADIENTCOLOR2ACI
1070
     2
1001
ACAD
1010
0.0
1020
0.0
1030
0.0
  0
LINE
  5
16FF
  8
SAPA_GLAS
 10
22.127881360148422
 20
-78.900000001879548
 30
0.0
 11
20.000000000000341
 21
-81.027881362027628
 31
0.0
1001
GRADIENTCOLOR1ACI
1070
     5
1001
GRADIENTCOLOR2ACI
1070
     2
1001
ACAD
1010
0.0
1020
0.0
1030
0.0
  0
LINE
  5
1700
  8
SAPA_GLAS
 10
20.86370402185317
 20
-79.041645325041159
 30
0.0
 11
20.141645323123331
 21
-79.763704023770984
 31
0.0
1001
GRADIENTCOLOR1ACI
1070
     5
1001
GRADIENTCOLOR2ACI
1070
     2
1001
ACAD
1010
0.0
1020
0.0
1030
0.0
  0
LINE
  5
1701
  8
SAPA_GLAS
 10
54.271210382382719
 20
-50.910857607580233
 30
0.0
 11
12.99999999999657
 21
-50.910857607580233
 31
0.0
  0
LINE
  5
1702
  8
SAPA_GLAS
 10
12.99999999999657
 20
-50.910857607580233
 30
0.0
 11
12.99999999999657
 21
-42.910857607580219
 31
0.0
  0
LINE
  5
1703
  8
SAPA_GLAS
 10
12.99999999999657
 20
-42.910857607580219
 30
0.0
 11
54.271210382382719
 21
-42.910857607580219
 31
0.0
  0
LINE
  5
172F
  8
SAPA_GLAS
 10
52.271210382382712
 20
-91.000000000480597
 30
0.0
 11
10.99999999999657
 21
-91.000000000480597
 31
0.0
  0
LINE
  5
1730
  8
SAPA_GLAS
 10
10.99999999999657
 20
-91.000000000480597
 30
0.0
 11
10.99999999999657
 21
-85.000000000480611
 31
0.0
  0
LINE
  5
1731
  8
SAPA_GLAS
 10
10.99999999999657
 20
-85.000000000480611
 30
0.0
 11
52.271210382382712
 21
-85.000000000480611
 31
0.0
  0
LINE
  5
176C
  8
SAPA_GLAS
 10
-10.16809972833682
 20
-90.859781633691156
 30
0.0
 11
-10.999999999999631
 21
-90.027881362028353
 31
0.0
1001
GRADIENTCOLOR1ACI
1070
     5
1001
GRADIENTCOLOR2ACI
1070
     2
1001
ACAD
1010
0.0
1020
0.0
1030
0.0
  0
LINE
  5
176D
  8
SAPA_GLAS
 10
-9.1955575623000012
 20
-90.70979178459433
 30
0.0
 11
-10.999999999999631
 21
-88.905349346894695
 31
0.0
1001
GRADIENTCOLOR1ACI
1070
     5
1001
GRADIENTCOLOR2ACI
1070
     2
1001
ACAD
1010
0.0
1020
0.0
1030
0.0
  0
LINE
  5
176E
  8
SAPA_GLAS
 10
-8.2098240683073342
 20
-90.572993263453355
 30
0.0
 11
-10.999999999999631
 21
-87.782817331761066
 31
0.0
1001
GRADIENTCOLOR1ACI
1070
     5
1001
GRADIENTCOLOR2ACI
1070
     2
1001
ACAD
1010
0.0
1020
0.0
1030
0.0
  0
LINE
  5
176F
  8
SAPA_GLAS
 10
-7.2104359717671747
 20
-90.449849344859857
 30
0.0
 11
-10.99999999999962
 21
-86.660285316627409
 31
0.0
1001
GRADIENTCOLOR1ACI
1070
     5
1001
GRADIENTCOLOR2ACI
1070
     2
1001
ACAD
1010
0.0
1020
0.0
1030
0.0
  0
LINE
  5
1770
  8
SAPA_GLAS
 10
-6.196892049928528
 20
-90.34086125156486
 30
0.0
 11
-10.99999999999962
 21
-85.537753301493765
 31
0.0
1001
GRADIENTCOLOR1ACI
1070
     5
1001
GRADIENTCOLOR2ACI
1070
     2
1001
ACAD
1010
0.0
1020
0.0
1030
0.0
  0
LINE
  5
1771
  8
SAPA_GLAS
 10
-5.1686488046889494
 20
-90.246572481670796
 30
0.0
 11
-10.99999999999962
 21
-84.415221286360122
 31
0.0
1001
GRADIENTCOLOR1ACI
1070
     5
1001
GRADIENTCOLOR2ACI
1070
     2
1001
ACAD
1010
0.0
1020
0.0
1030
0.0
  0
LINE
  5
1772
  8
SAPA_GLAS
 10
-4.1251154670896488
 20
-90.167573804136453
 30
0.0
 11
-10.99999999999962
 21
-83.292689271226493
 31
0.0
1001
GRADIENTCOLOR1ACI
1070
     5
1001
GRADIENTCOLOR2ACI
1070
     2
1001
ACAD
1010
0.0
1020
0.0
1030
0.0
  0
LINE
  5
1773
  8
SAPA_GLAS
 10
-3.0656482027477021
 20
-90.104509053344785
 30
0.0
 11
-10.99999999999962
 21
-82.170157256092835
 31
0.0
1001
GRADIENTCOLOR1ACI
1070
     5
1001
GRADIENTCOLOR2ACI
1070
     2
1001
ACAD
1010
0.0
1020
0.0
1030
0.0
  0
LINE
  5
1774
  8
SAPA_GLAS
 10
-1.9895433560481941
 20
-90.058081884910621
 30
0.0
 11
-9.2084581415472897
 21
-82.839167099411526
 31
0.0
1001
GRADIENTCOLOR1ACI
1070
     5
1001
GRADIENTCOLOR2ACI
1070
     2
1001
ACAD
1010
0.0
1020
0.0
1030
0.0
  0
LINE
  5
1775
  8
SAPA_GLAS
 10
-0.8960295304298853
 20
-90.029063695395294
 30
0.0
 11
-7.4927318142264587
 21
-83.43236141159872
 31
0.0
1001
GRADIENTCOLOR1ACI
1070
     5
1001
GRADIENTCOLOR2ACI
1070
     2
1001
ACAD
1010
0.0
1020
0.0
1030
0.0
  0
LINE
  5
1776
  8
SAPA_GLAS
 10
0.2157417505373118
 20
-90.018302961228841
 30
0.0
 11
-6.200013480918507
 21
-83.602547729773022
 31
0.0
1001
GRADIENTCOLOR1ACI
1070
     5
1001
GRADIENTCOLOR2ACI
1070
     2
1001
ACAD
1010
0.0
1020
0.0
1030
0.0
  0
LINE
  5
1777
  8
SAPA_GLAS
 10
1.346707125668793
 20
-90.026736321226679
 30
0.0
 11
-4.9432252558867367
 21
-83.736803939671148
 31
0.0
1001
GRADIENTCOLOR1ACI
1070
     5
1001
GRADIENTCOLOR2ACI
1070
     2
1001
ACAD
1010
0.0
1020
0.0
1030
0.0
  0
LINE
  5
1778
  8
SAPA_GLAS
 10
2.4979046382839338
 20
-90.055401818708177
 30
0.0
 11
-3.7192821057709931
 21
-83.838215074653249
 31
0.0
1001
GRADIENTCOLOR1ACI
1070
     5
1001
GRADIENTCOLOR2ACI
1070
     2
1001
ACAD
1010
0.0
1020
0.0
1030
0.0
  0
LINE
  5
1779
  8
SAPA_GLAS
 10
3.6704896768125499
 20
-90.105454842103157
 30
0.0
 11
-2.52556524194766
 21
-83.909399923342946
 31
0.0
1001
GRADIENTCOLOR1ACI
1070
     5
1001
GRADIENTCOLOR2ACI
1070
     2
1001
ACAD
1010
0.0
1020
0.0
1030
0.0
  0
LINE
  5
177A
  8
SAPA_GLAS
 10
4.865754319583381
 20
-90.178187469740337
 30
0.0
 11
-1.35982905767117
 21
-83.952604092485785
 31
0.0
1001
GRADIENTCOLOR1ACI
1070
     5
1001
GRADIENTCOLOR2ACI
1070
     2
1001
ACAD
1010
0.0
1020
0.0
1030
0.0
  0
LINE
  5
177B
  8
SAPA_GLAS
 10
6.0851510189356972
 20
-90.275052153959024
 30
0.0
 11
-0.2201307620819222
 21
-83.969770372941397
 31
0.0
1001
GRADIENTCOLOR1ACI
1070
     5
1001
GRADIENTCOLOR2ACI
1070
     2
1001
ACAD
1010
0.0
1020
0.0
1030
0.0
  0
LINE
  5
177C
  8
SAPA_GLAS
 10
7.3303218799755347
 20
-90.397690999865205
 30
0.0
 11
0.8952237167156056
 21
-83.962592836605253
 31
0.0
1001
GRADIENTCOLOR1ACI
1070
     5
1001
GRADIENTCOLOR2ACI
1070
     2
1001
ACAD
1010
0.0
1020
0.0
1030
0.0
  0
LINE
  5
177D
  8
SAPA_GLAS
 10
8.6031352431811001
 20
-90.547972347937133
 30
0.0
 11
1.987721939094484
 21
-83.932559043850517
 31
0.0
1001
GRADIENTCOLOR1ACI
1070
     5
1001
GRADIENTCOLOR2ACI
1070
     2
1001
ACAD
1010
0.0
1020
0.0
1030
0.0
  0
LINE
  5
177E
  8
SAPA_GLAS
 10
9.9057319347333461
 20
-90.728037024355729
 30
0.0
 11
3.0586783216411311
 21
-83.880983411263514
 31
0.0
1001
GRADIENTCOLOR1ACI
1070
     5
1001
GRADIENTCOLOR2ACI
1070
     2
1001
ACAD
1010
0.0
1020
0.0
1030
0.0
  0
LINE
  5
177F
  8
SAPA_GLAS
 10
11.000000000000281
 20
-90.699773074489016
 30
0.0
 11
4.1092608305791947
 21
-83.809033905067935
 31
0.0
1001
GRADIENTCOLOR1ACI
1070
     5
1001
GRADIENTCOLOR2ACI
1070
     2
1001
ACAD
1010
0.0
1020
0.0
1030
0.0
  0
LINE
  5
1780
  8
SAPA_GLAS
 10
11.0000000000003
 20
-89.577241059355373
 30
0.0
 11
5.1405125653761772
 21
-83.717753624731273
 31
0.0
1001
GRADIENTCOLOR1ACI
1070
     5
1001
GRADIENTCOLOR2ACI
1070
     2
1001
ACAD
1010
0.0
1020
0.0
1030
0.0
  0
LINE
  5
1781
  8
SAPA_GLAS
 10
11.000000000000311
 20
-88.454709044221758
 30
0.0
 11
6.1533693807920642
 21
-83.608078425013488
 31
0.0
1001
GRADIENTCOLOR1ACI
1070
     5
1001
GRADIENTCOLOR2ACI
1070
     2
1001
ACAD
1010
0.0
1020
0.0
1030
0.0
  0
LINE
  5
1782
  8
SAPA_GLAS
 10
11.00000000000033
 20
-87.332177029088143
 30
0.0
 11
7.1486744022397701
 21
-83.480851431327579
 31
0.0
1001
GRADIENTCOLOR1ACI
1070
     5
1001
GRADIENTCOLOR2ACI
1070
     2
1001
ACAD
1010
0.0
1020
0.0
1030
0.0
  0
LINE
  5
1783
  8
SAPA_GLAS
 10
11.00000000000035
 20
-86.209645013954514
 30
0.0
 11
8.1271900792259046
 21
-83.336835093180071
 31
0.0
1001
GRADIENTCOLOR1ACI
1070
     5
1001
GRADIENTCOLOR2ACI
1070
     2
1001
ACAD
1010
0.0
1020
0.0
1030
0.0
  0
LINE
  5
1784
  8
SAPA_GLAS
 10
11.000000000000369
 20
-85.087112998820885
 30
0.0
 11
9.047061682831206
 21
-83.134174681651729
 31
0.0
1001
GRADIENTCOLOR1ACI
1070
     5
1001
GRADIENTCOLOR2ACI
1070
     2
1001
ACAD
1010
0.0
1020
0.0
1030
0.0
  0
LINE
  5
1785
  8
SAPA_GLAS
 10
11.000000000000369
 20
-83.964580983687256
 30
0.0
 11
9.9654244865751735
 21
-82.930005470262046
 31
0.0
1001
GRADIENTCOLOR1ACI
1070
     5
1001
GRADIENTCOLOR2ACI
1070
     2
1001
ACAD
1010
0.0
1020
0.0
1030
0.0
  0
LINE
  5
1786
  8
SAPA_GLAS
 10
11.15795103345825
 20
-83.000000002011504
 30
0.0
 11
10.88378729031915
 21
-82.725836258872391
 31
0.0
1001
GRADIENTCOLOR1ACI
1070
     5
1001
GRADIENTCOLOR2ACI
1070
     2
1001
ACAD
1010
0.0
1020
0.0
1030
0.0
  0
LINE
  5
1787
  8
SAPA_GLAS
 10
11.000000000000281
 20
-90.027881362027699
 30
0.0
 11
10.248083224063381
 21
-90.779798137964576
 31
0.0
1001
GRADIENTCOLOR1ACI
1070
     5
1001
GRADIENTCOLOR2ACI
1070
     2
1001
ACAD
1010
0.0
1020
0.0
1030
0.0
  0
LINE
  5
1788
  8
SAPA_GLAS
 10
11.00000000000029
 20
-88.905349346894027
 30
0.0
 11
9.268704609420773
 21
-90.636644737473546
 31
0.0
1001
GRADIENTCOLOR1ACI
1070
     5
1001
GRADIENTCOLOR2ACI
1070
     2
1001
ACAD
1010
0.0
1020
0.0
1030
0.0
  0
LINE
  5
1789
  8
SAPA_GLAS
 10
11.00000000000032
 20
-87.782817331760356
 30
0.0
 11
8.2758971108170485
 21
-90.506920220943627
 31
0.0
1001
GRADIENTCOLOR1ACI
1070
     5
1001
GRADIENTCOLOR2ACI
1070
     2
1001
ACAD
1010
0.0
1020
0.0
1030
0.0
  0
LINE
  5
178A
  8
SAPA_GLAS
 10
11.000000000000339
 20
-86.660285316626698
 30
0.0
 11
7.2691781299597116
 21
-90.391107186667327
 31
0.0
1001
GRADIENTCOLOR1ACI
1070
     5
1001
GRADIENTCOLOR2ACI
1070
     2
1001
ACAD
1010
0.0
1020
0.0
1030
0.0
  0
LINE
  5
178B
  8
SAPA_GLAS
 10
11.000000000000361
 20
-85.537753301493055
 30
0.0
 11
6.2480249359138611
 21
-90.289728365579535
 31
0.0
1001
GRADIENTCOLOR1ACI
1070
     5
1001
GRADIENTCOLOR2ACI
1070
     2
1001
ACAD
1010
0.0
1020
0.0
1030
0.0
  0
LINE
  5
178C
  8
SAPA_GLAS
 10
11.000000000000369
 20
-84.415221286359355
 30
0.0
 11
5.2118700033985439
 21
-90.203351282961194
 31
0.0
1001
GRADIENTCOLOR1ACI
1070
     5
1001
GRADIENTCOLOR2ACI
1070
     2
1001
ACAD
1010
0.0
1020
0.0
1030
0.0
  0
LINE
  5
178D
  8
SAPA_GLAS
 10
11.29277625270004
 20
-82.999913018526044
 30
0.0
 11
11.29268926921473
 21
-83.000000002011376
 31
0.0
1001
GRADIENTCOLOR1ACI
1070
     5
1001
GRADIENTCOLOR2ACI
1070
     2
1001
ACAD
1010
0.0
1020
0.0
1030
0.0
  0
LINE
  5
178E
  8
SAPA_GLAS
 10
11.00000000000038
 20
-83.292689271225726
 30
0.0
 11
4.1600956179140658
 21
-90.132593653312028
 31
0.0
1001
GRADIENTCOLOR1ACI
1070
     5
1001
GRADIENTCOLOR2ACI
1070
     2
1001
ACAD
1010
0.0
1020
0.0
1030
0.0
  0
LINE
  5
178F
  8
SAPA_GLAS
 10
10.318689113295401
 20
-82.851468142797046
 30
0.0
 11
3.0920276015073038
 21
-90.078129654585155
 31
0.0
1001
GRADIENTCOLOR1ACI
1070
     5
1001
GRADIENTCOLOR2ACI
1070
     2
1001
ACAD
1010
0.0
1020
0.0
1030
0.0
  0
LINE
  5
1790
  8
SAPA_GLAS
 10
8.8752546443410978
 20
-83.172370596617711
 30
0.0
 11
2.0069279771455579
 21
-90.040697263813257
 31
0.0
1001
GRADIENTCOLOR1ACI
1070
     5
1001
GRADIENTCOLOR2ACI
1070
     2
1001
ACAD
1010
0.0
1020
0.0
1030
0.0
  0
LINE
  5
1791
  8
SAPA_GLAS
 10
7.4927318142255208
 20
-83.432361411599658
 30
0.0
 11
0.9039863432857657
 21
-90.021106882539414
 31
0.0
1001
GRADIENTCOLOR1ACI
1070
     5
1001
GRADIENTCOLOR2ACI
1070
     2
1001
ACAD
1010
0.0
1020
0.0
1030
0.0
  0
LINE
  5
1792
  8
SAPA_GLAS
 10
6.2000134809177458
 20
-83.602547729773789
 30
0.0
 11
-0.2176903303692015
 21
-90.02025154106073
 31
0.0
1001
GRADIENTCOLOR1ACI
1070
     5
1001
GRADIENTCOLOR2ACI
1070
     2
1001
ACAD
1010
0.0
1020
0.0
1030
0.0
  0
LINE
  5
1793
  8
SAPA_GLAS
 10
4.9432252558861469
 20
-83.736803939671745
 30
0.0
 11
-1.3590898548940511
 21
-90.03911905045193
 31
0.0
1001
GRADIENTCOLOR1ACI
1070
     5
1001
GRADIENTCOLOR2ACI
1070
     2
1001
ACAD
1010
0.0
1020
0.0
1030
0.0
  0
LINE
  5
1794
  8
SAPA_GLAS
 10
3.7192821057705521
 20
-83.838215074653675
 30
0.0
 11
-2.5213093975627099
 21
-90.078806577986924
 31
0.0
1001
GRADIENTCOLOR1ACI
1070
     5
1001
GRADIENTCOLOR2ACI
1070
     2
1001
ACAD
1010
0.0
1020
0.0
1030
0.0
  0
LINE
  5
1795
  8
SAPA_GLAS
 10
2.525565241947354
 20
-83.909399923343244
 30
0.0
 11
-3.7055731002145791
 21
-90.140538265505171
 31
0.0
1001
GRADIENTCOLOR1ACI
1070
     5
1001
GRADIENTCOLOR2ACI
1070
     2
1001
ACAD
1010
0.0
1020
0.0
1030
0.0
  0
LINE
  5
1796
  8
SAPA_GLAS
 10
1.3598290576709919
 20
-83.952604092485956
 30
0.0
 11
-4.9132535568165201
 21
-90.225686706973477
 31
0.0
1001
GRADIENTCOLOR1ACI
1070
     5
1001
GRADIENTCOLOR2ACI
1070
     2
1001
ACAD
1010
0.0
1020
0.0
1030
0.0
  0
LINE
  5
1797
  8
SAPA_GLAS
 10
0.2201307620818653
 20
-83.96977037294144
 30
0.0
 11
-6.1458982390404202
 21
-90.335799374063726
 31
0.0
1001
GRADIENTCOLOR1ACI
1070
     5
1001
GRADIENTCOLOR2ACI
1070
     2
1001
ACAD
1010
0.0
1020
0.0
1030
0.0
  0
LINE
  5
1798
  8
SAPA_GLAS
 10
-0.8952237167155558
 20
-83.962592836605211
 30
0.0
 11
-7.4052623421003849
 21
-90.472631461990034
 31
0.0
1001
GRADIENTCOLOR1ACI
1070
     5
1001
GRADIENTCOLOR2ACI
1070
     2
1001
ACAD
1010
0.0
1020
0.0
1030
0.0
  0
LINE
  5
1799
  8
SAPA_GLAS
 10
-1.9877219390943279
 20
-83.932559043850347
 30
0.0
 11
-8.6933500714612322
 21
-90.638187176217244
 31
0.0
1001
GRADIENTCOLOR1ACI
1070
     5
1001
GRADIENTCOLOR2ACI
1070
     2
1001
ACAD
1010
0.0
1020
0.0
1030
0.0
  0
LINE
  5
179A
  8
SAPA_GLAS
 10
-3.0586783216408691
 20
-83.88098341126323
 30
0.0
 11
-10.01246718974345
 21
-90.834772279365808
 31
0.0
1001
GRADIENTCOLOR1ACI
1070
     5
1001
GRADIENTCOLOR2ACI
1070
     2
1001
ACAD
1010
0.0
1020
0.0
1030
0.0
  0
LINE
  5
179B
  8
SAPA_GLAS
 10
-4.1092608305788403
 20
-83.809033905067565
 30
0.0
 11
-10.999999999999631
 21
-90.699773074488348
 31
0.0
1001
GRADIENTCOLOR1ACI
1070
     5
1001
GRADIENTCOLOR2ACI
1070
     2
1001
ACAD
1010
0.0
1020
0.0
1030
0.0
  0
LINE
  5
179C
  8
SAPA_GLAS
 10
-5.1405125653757224
 20
-83.717753624730776
 30
0.0
 11
-10.999999999999631
 21
-89.577241059354691
 31
0.0
1001
GRADIENTCOLOR1ACI
1070
     5
1001
GRADIENTCOLOR2ACI
1070
     2
1001
ACAD
1010
0.0
1020
0.0
1030
0.0
  0
LINE
  5
179D
  8
SAPA_GLAS
 10
-6.1533693807915242
 20
-83.608078425012962
 30
0.0
 11
-10.999999999999639
 21
-88.454709044221048
 31
0.0
1001
GRADIENTCOLOR1ACI
1070
     5
1001
GRADIENTCOLOR2ACI
1070
     2
1001
ACAD
1010
0.0
1020
0.0
1030
0.0
  0
LINE
  5
179E
  8
SAPA_GLAS
 10
-7.148674402239144
 20
-83.480851431326926
 30
0.0
 11
-10.999999999999631
 21
-87.332177029087418
 31
0.0
1001
GRADIENTCOLOR1ACI
1070
     5
1001
GRADIENTCOLOR2ACI
1070
     2
1001
ACAD
1010
0.0
1020
0.0
1030
0.0
  0
LINE
  5
179F
  8
SAPA_GLAS
 10
-8.1271900792252012
 20
-83.336835093179346
 30
0.0
 11
-10.999999999999631
 21
-86.209645013953775
 31
0.0
1001
GRADIENTCOLOR1ACI
1070
     5
1001
GRADIENTCOLOR2ACI
1070
     2
1001
ACAD
1010
0.0
1020
0.0
1030
0.0
  0
LINE
  5
17A0
  8
SAPA_GLAS
 10
-8.8976419483323355
 20
-82.984754947152837
 30
0.0
 11
-10.999999999999631
 21
-85.087112998820118
 31
0.0
1001
GRADIENTCOLOR1ACI
1070
     5
1001
GRADIENTCOLOR2ACI
1070
     2
1001
ACAD
1010
0.0
1020
0.0
1030
0.0
  0
LINE
  5
17A1
  8
SAPA_GLAS
 10
-9.6620986498434647
 20
-82.62667963353033
 30
0.0
 11
-10.999999999999639
 21
-83.964580983686488
 31
0.0
1001
GRADIENTCOLOR1ACI
1070
     5
1001
GRADIENTCOLOR2ACI
1070
     2
1001
ACAD
1010
0.0
1020
0.0
1030
0.0
  0
LINE
  5
17A2
  8
SAPA_GLAS
 10
-10.42655535135458
 20
-82.268604319907794
 30
0.0
 11
-10.999999999999631
 21
-82.842048968552845
 31
0.0
1001
GRADIENTCOLOR1ACI
1070
     5
1001
GRADIENTCOLOR2ACI
1070
     2
1001
ACAD
1010
0.0
1020
0.0
1030
0.0
  0
POLYLINE
  5
19F2
  8
SAPA_PROFIL
  6
CONTINUOUS
 62
     7
 66
     1
 10
0.0
 20
0.0
 30
0.0
 70
     1
  0
VERTEX
  5
1D59
  8
SAPA_PROFIL
  6
CONTINUOUS
 62
     7
 10
-16.499999999997009
 20
-74.000000000956746
 30
0.0
  0
VERTEX
  5
1D5A
  8
SAPA_PROFIL
  6
CONTINUOUS
 62
     7
 10
-16.499999999997009
 20
-77.00000000000297
 30
0.0
 42
0.4142135623732074
  0
VERTEX
  5
1D5B
  8
SAPA_PROFIL
  6
CONTINUOUS
 62
     7
 10
-15.99999999999681
 20
-77.50000000000297
 30
0.0
  0
VERTEX
  5
1D5C
  8
SAPA_PROFIL
  6
CONTINUOUS
 62
     7
 10
-7.3999999999967194
 20
-77.499999999999133
 30
0.0
 42
-0.4142135623730951
  0
VERTEX
  5
1D5D
  8
SAPA_PROFIL
  6
CONTINUOUS
 62
     7
 10
-6.8999999999967194
 20
-77.999999999999147
 30
0.0
  0
VERTEX
  5
1D5E
  8
SAPA_PROFIL
  6
CONTINUOUS
 62
     7
 10
-6.8999999999967194
 20
-80.299999999999812
 30
0.0
 42
0.4142135623730951
  0
VERTEX
  5
1D5F
  8
SAPA_PROFIL
  6
CONTINUOUS
 62
     7
 10
-5.8999999999967194
 20
-81.299999999999812
 30
0.0
  0
VERTEX
  5
1D60
  8
SAPA_PROFIL
  6
CONTINUOUS
 62
     7
 10
-5.0873697418213162
 20
-81.299999999999812
 30
0.0
 42
0.2216946626429368
  0
VERTEX
  5
1D61
  8
SAPA_PROFIL
  6
CONTINUOUS
 62
     7
 10
-4.8575564088856238
 20
-81.192836282905773
 30
0.0
  0
VERTEX
  5
1D62
  8
SAPA_PROFIL
  6
CONTINUOUS
 62
     7
 10
-4.2701866670610711
 20
-80.492836282905216
 30
0.0
 42
0.6370702608061857
  0
VERTEX
  5
1D63
  8
SAPA_PROFIL
  6
CONTINUOUS
 62
     7
 10
-4.4999999999970122
 20
-79.999999999999602
 30
0.0
  0
VERTEX
  5
1D64
  8
SAPA_PROFIL
  6
CONTINUOUS
 62
     7
 10
-5.2999999999972083
 20
-79.999999999999602
 30
0.0
 42
-0.4142135623730951
  0
VERTEX
  5
1D65
  8
SAPA_PROFIL
  6
CONTINUOUS
 62
     7
 10
-5.5999999999974044
 20
-79.699999999999406
 30
0.0
  0
VERTEX
  5
1D66
  8
SAPA_PROFIL
  6
CONTINUOUS
 62
     7
 10
-5.5999999999964656
 20
-75.29999999999886
 30
0.0
 42
-0.4142135623730504
  0
VERTEX
  5
1D67
  8
SAPA_PROFIL
  6
CONTINUOUS
 62
     7
 10
-5.2999999999963121
 20
-74.999999999999133
 30
0.0
  0
VERTEX
  5
1D68
  8
SAPA_PROFIL
  6
CONTINUOUS
 62
     7
 10
5.3000000000031342
 20
-74.999999999999133
 30
0.0
 42
-0.4142135623730878
  0
VERTEX
  5
1D69
  8
SAPA_PROFIL
  6
CONTINUOUS
 62
     7
 10
5.6000000000033081
 20
-75.29999999999886
 30
0.0
  0
VERTEX
  5
1D6A
  8
SAPA_PROFIL
  6
CONTINUOUS
 62
     7
 10
5.6000000000032371
 20
-79.699999999999406
 30
0.0
 42
-0.4142135623735842
  0
VERTEX
  5
1D6B
  8
SAPA_PROFIL
  6
CONTINUOUS
 62
     7
 10
5.3000000000040357
 20
-79.999999999999105
 30
0.0
  0
VERTEX
  5
1D6C
  8
SAPA_PROFIL
  6
CONTINUOUS
 62
     7
 10
4.500000000002049
 20
-79.999999999999616
 30
0.0
 42
0.6370702608069853
  0
VERTEX
  5
1D6D
  8
SAPA_PROFIL
  6
CONTINUOUS
 62
     7
 10
4.2701866670669624
 20
-80.492836282905216
 30
0.0
  0
VERTEX
  5
1D6E
  8
SAPA_PROFIL
  6
CONTINUOUS
 62
     7
 10
4.8575564088915222
 20
-81.192836282905773
 30
0.0
 42
0.2216946626431
  0
VERTEX
  5
1D6F
  8
SAPA_PROFIL
  6
CONTINUOUS
 62
     7
 10
5.0873697418274046
 20
-81.299999999999812
 30
0.0
  0
VERTEX
  5
1D70
  8
SAPA_PROFIL
  6
CONTINUOUS
 62
     7
 10
5.9000000000044004
 20
-81.299999999999329
 30
0.0
 42
0.4142135623730951
  0
VERTEX
  5
1D71
  8
SAPA_PROFIL
  6
CONTINUOUS
 62
     7
 10
6.9000000000044004
 20
-80.299999999999329
 30
0.0
  0
VERTEX
  5
1D72
  8
SAPA_PROFIL
  6
CONTINUOUS
 62
     7
 10
6.9000000000035051
 20
-72.799999999999571
 30
0.0
 42
0.3178372451964626
  0
VERTEX
  5
1D73
  8
SAPA_PROFIL
  6
CONTINUOUS
 62
     7
 10
6.7000000000027766
 20
-72.517157287524725
 30
0.0
 42
-0.3178372451966722
  0
VERTEX
  5
1D74
  8
SAPA_PROFIL
  6
CONTINUOUS
 62
     7
 10
6.500000000002049
 20
-72.234314575049652
 30
0.0
  0
VERTEX
  5
1D75
  8
SAPA_PROFIL
  6
CONTINUOUS
 62
     7
 10
6.5000000000029523
 20
-70.799999999999329
 30
0.0
 42
0.4142135623726539
  0
VERTEX
  5
1D76
  8
SAPA_PROFIL
  6
CONTINUOUS
 62
     7
 10
6.2000000000027704
 20
-70.499999999999602
 30
0.0
  0
VERTEX
  5
1D77
  8
SAPA_PROFIL
  6
CONTINUOUS
 62
     7
 10
5.600000000002221
 20
-70.499999999999602
 30
0.0
 42
0.4142135623730836
  0
VERTEX
  5
1D78
  8
SAPA_PROFIL
  6
CONTINUOUS
 62
     7
 10
5.3000000000029557
 20
-70.799999999999329
 30
0.0
  0
VERTEX
  5
1D79
  8
SAPA_PROFIL
  6
CONTINUOUS
 62
     7
 10
5.3000000000029486
 20
-72.199999999999406
 30
0.0
 42
-0.4142135623730951
  0
VERTEX
  5
1D7A
  8
SAPA_PROFIL
  6
CONTINUOUS
 62
     7
 10
5.0000000000027738
 20
-72.499999999999588
 30
0.0
  0
VERTEX
  5
1D7B
  8
SAPA_PROFIL
  6
CONTINUOUS
 62
     7
 10
-4.9999999999978071
 20
-72.499999999999588
 30
0.0
 42
-0.4142135623730743
  0
VERTEX
  5
1D7C
  8
SAPA_PROFIL
  6
CONTINUOUS
 62
     7
 10
-5.2999999999970164
 20
-72.19999999999942
 30
0.0
  0
VERTEX
  5
1D7D
  8
SAPA_PROFIL
  6
CONTINUOUS
 62
     7
 10
-5.2999999999979037
 20
-70.799999999999329
 30
0.0
 42
0.4142135623721762
  0
VERTEX
  5
1D7E
  8
SAPA_PROFIL
  6
CONTINUOUS
 62
     7
 10
-5.5999999999972117
 20
-70.499999999999559
 30
0.0
  0
VERTEX
  5
1D7F
  8
SAPA_PROFIL
  6
CONTINUOUS
 62
     7
 10
-6.199999999997825
 20
-70.499999999999147
 30
0.0
 42
0.4142135623730534
  0
VERTEX
  5
1D80
  8
SAPA_PROFIL
  6
CONTINUOUS
 62
     7
 10
-6.4999999999970397
 20
-70.799999999999315
 30
0.0
  0
VERTEX
  5
1D81
  8
SAPA_PROFIL
  6
CONTINUOUS
 62
     7
 10
-6.4999999999979279
 20
-72.234314575050036
 30
0.0
 42
-0.3178372451963242
  0
VERTEX
  5
1D82
  8
SAPA_PROFIL
  6
CONTINUOUS
 62
     7
 10
-6.699999999996872
 20
-72.517157287524725
 30
0.0
 42
0.3178372451964607
  0
VERTEX
  5
1D83
  8
SAPA_PROFIL
  6
CONTINUOUS
 62
     7
 10
-6.8999999999975863
 20
-72.799999999999557
 30
0.0
  0
VERTEX
  5
1D84
  8
SAPA_PROFIL
  6
CONTINUOUS
 62
     7
 10
-6.8999999999978057
 20
-74.499999999999645
 30
0.0
 42
-0.4142135623730597
  0
VERTEX
  5
1D85
  8
SAPA_PROFIL
  6
CONTINUOUS
 62
     7
 10
-7.3999999999978057
 20
-74.999999999999588
 30
0.0
  0
VERTEX
  5
1D86
  8
SAPA_PROFIL
  6
CONTINUOUS
 62
     7
 10
-12.40192378920502
 20
-74.999999999999588
 30
0.0
 42
-0.2679491923306345
  0
VERTEX
  5
1D87
  8
SAPA_PROFIL
  6
CONTINUOUS
 62
     7
 10
-12.834936490994311
 20
-74.750000000156476
 30
0.0
 42
0.2679491923317589
  0
VERTEX
  5
1D88
  8
SAPA_PROFIL
  6
CONTINUOUS
 62
     7
 10
-14.999999999997
 20
-73.500000000956732
 30
0.0
  0
VERTEX
  5
1D89
  8
SAPA_PROFIL
  6
CONTINUOUS
 62
     7
 10
-15.99999999999701
 20
-73.500000000957527
 30
0.0
 42
0.4142135623730951
  0
SEQEND
  5
1D8A
  8
SAPA_PROFIL
  6
CONTINUOUS
 62
     7
  0
POLYLINE
  5
19F3
  8
SAPA_PROFIL
  6
CONTINUOUS
 62
     7
 66
     1
 10
0.0
 20
0.0
 30
0.0
 70
     1
  0
VERTEX
  5
1D8B
  8
SAPA_PROFIL
  6
CONTINUOUS
 62
     7
 10
-23.200000000001729
 20
-43.000000000000441
 30
0.0
  0
VERTEX
  5
1D8C
  8
SAPA_PROFIL
  6
CONTINUOUS
 62
     7
 10
-20.499999999991321
 20
-43.000000000000441
 30
0.0
 42
-0.4142135623730951
  0
VERTEX
  5
1D8D
  8
SAPA_PROFIL
  6
CONTINUOUS
 62
     7
 10
-20.199999999991341
 20
-43.300000000000431
 30
0.0
  0
VERTEX
  5
1D8E
  8
SAPA_PROFIL
  6
CONTINUOUS
 62
     7
 10
-20.199999999991341
 20
-44.500000000000853
 30
0.0
 42
0.4142135623730931
  0
VERTEX
  5
1D8F
  8
SAPA_PROFIL
  6
CONTINUOUS
 62
     7
 10
-19.199999999991348
 20
-45.500000000000853
 30
0.0
  0
VERTEX
  5
1D90
  8
SAPA_PROFIL
  6
CONTINUOUS
 62
     7
 10
-16.70000000000158
 20
-45.500000000000881
 30
0.0
 42
-0.4142135623739343
  0
VERTEX
  5
1D91
  8
SAPA_PROFIL
  6
CONTINUOUS
 62
     7
 10
-16.400000000000709
 20
-45.80000000000085
 30
0.0
  0
VERTEX
  5
1D92
  8
SAPA_PROFIL
  6
CONTINUOUS
 62
     7
 10
-16.400000000000709
 20
-50.20000000000087
 30
0.0
 42
-0.4142135623730951
  0
VERTEX
  5
1D93
  8
SAPA_PROFIL
  6
CONTINUOUS
 62
     7
 10
-16.700000000001729
 20
-50.500000000000881
 30
0.0
  0
VERTEX
  5
1D94
  8
SAPA_PROFIL
  6
CONTINUOUS
 62
     7
 10
-18.400000000000709
 20
-50.500000000000469
 30
0.0
 42
0.7105995015650853
  0
VERTEX
  5
1D95
  8
SAPA_PROFIL
  6
CONTINUOUS
 62
     7
 10
-18.586384015761698
 20
-51.035076580435863
 30
0.0
  0
VERTEX
  5
1D96
  8
SAPA_PROFIL
  6
CONTINUOUS
 62
     7
 10
-18.068237143795979
 20
-51.44589715036318
 30
0.0
 42
0.1691807452123823
  0
VERTEX
  5
1D97
  8
SAPA_PROFIL
  6
CONTINUOUS
 62
     7
 10
-17.912917130662098
 20
-51.500000000000831
 30
0.0
  0
VERTEX
  5
1D98
  8
SAPA_PROFIL
  6
CONTINUOUS
 62
     7
 10
-10.09999999999272
 20
-51.500000000000881
 30
0.0
 42
0.4142135623760433
  0
VERTEX
  5
1D99
  8
SAPA_PROFIL
  6
CONTINUOUS
 62
     7
 10
-9.7999999999927088
 20
-51.199999999997857
 30
0.0
  0
VERTEX
  5
1D9A
  8
SAPA_PROFIL
  6
CONTINUOUS
 62
     7
 10
-9.7999999999911225
 20
-33.000000000004242
 30
0.0
 42
0.5773502691893336
  0
VERTEX
  5
1D9B
  8
SAPA_PROFIL
  6
CONTINUOUS
 62
     7
 10
-10.24999999999174
 20
-32.740192378868279
 30
0.0
  0
VERTEX
  5
1D9C
  8
SAPA_PROFIL
  6
CONTINUOUS
 62
     7
 10
-11.24999999999465
 20
-33.317542648061419
 30
0.0
 42
0.6629740412223103
  0
VERTEX
  5
1D9D
  8
SAPA_PROFIL
  6
CONTINUOUS
 62
     7
 10
-11.18181818181217
 20
-33.865977684948867
 30
0.0
 42
-0.3354367396460152
  0
VERTEX
  5
1D9E
  8
SAPA_PROFIL
  6
CONTINUOUS
 62
     7
 10
-10.999999999991781
 20
-34.106500531409431
 30
0.0
  0
VERTEX
  5
1D9F
  8
SAPA_PROFIL
  6
CONTINUOUS
 62
     7
 10
-10.999999999991671
 20
-35.199999999994951
 30
0.0
 42
-0.4142135623741014
  0
VERTEX
  5
1DA0
  8
SAPA_PROFIL
  6
CONTINUOUS
 62
     7
 10
-11.2999999999917
 20
-35.499999999995993
 30
0.0
  0
VERTEX
  5
1DA1
  8
SAPA_PROFIL
  6
CONTINUOUS
 62
     7
 10
-11.7999999999927
 20
-35.499999999996007
 30
0.0
 42
0.4142135623730466
  0
VERTEX
  5
1DA2
  8
SAPA_PROFIL
  6
CONTINUOUS
 62
     7
 10
-12.09999999999272
 20
-35.799999999995961
 30
0.0
  0
VERTEX
  5
1DA3
  8
SAPA_PROFIL
  6
CONTINUOUS
 62
     7
 10
-12.09999999999167
 20
-36.399999999997007
 30
0.0
 42
0.4142135623730951
  0
VERTEX
  5
1DA4
  8
SAPA_PROFIL
  6
CONTINUOUS
 62
     7
 10
-11.799999999992711
 20
-36.699999999995967
 30
0.0
  0
VERTEX
  5
1DA5
  8
SAPA_PROFIL
  6
CONTINUOUS
 62
     7
 10
-11.399999999991479
 20
-36.699999999994972
 30
0.0
 42
-0.4142135623731088
  0
VERTEX
  5
1DA6
  8
SAPA_PROFIL
  6
CONTINUOUS
 62
     7
 10
-11.099999999991489
 20
-36.999999999994969
 30
0.0
  0
VERTEX
  5
1DA7
  8
SAPA_PROFIL
  6
CONTINUOUS
 62
     7
 10
-11.0999999999915
 20
-49.699999999995342
 30
0.0
 42
-0.4142135623730847
  0
VERTEX
  5
1DA8
  8
SAPA_PROFIL
  6
CONTINUOUS
 62
     7
 10
-11.399999999991479
 20
-49.999999999996028
 30
0.0
  0
VERTEX
  5
1DA9
  8
SAPA_PROFIL
  6
CONTINUOUS
 62
     7
 10
-14.600000000000721
 20
-49.999999999996028
 30
0.0
 42
-0.4142135623730951
  0
VERTEX
  5
1DAA
  8
SAPA_PROFIL
  6
CONTINUOUS
 62
     7
 10
-14.90000000000096
 20
-49.699999999995327
 30
0.0
  0
VERTEX
  5
1DAB
  8
SAPA_PROFIL
  6
CONTINUOUS
 62
     7
 10
-14.900000000000791
 20
-45.500000000000938
 30
0.0
 42
0.4142135623731122
  0
VERTEX
  5
1DAC
  8
SAPA_PROFIL
  6
CONTINUOUS
 62
     7
 10
-16.400000000000809
 20
-44.000000000000888
 30
0.0
  0
VERTEX
  5
1DAD
  8
SAPA_PROFIL
  6
CONTINUOUS
 62
     7
 10
-18.39999999999171
 20
-44.000000000000917
 30
0.0
 42
-0.4142135623730951
  0
VERTEX
  5
1DAE
  8
SAPA_PROFIL
  6
CONTINUOUS
 62
     7
 10
-18.699999999991721
 20
-43.700000000000919
 30
0.0
  0
VERTEX
  5
1DAF
  8
SAPA_PROFIL
  6
CONTINUOUS
 62
     7
 10
-18.699999999991729
 20
-36.999999999998842
 30
0.0
 42
-0.4142135623731017
  0
VERTEX
  5
1DB0
  8
SAPA_PROFIL
  6
CONTINUOUS
 62
     7
 10
-18.399999999992669
 20
-36.699999999999783
 30
0.0
  0
VERTEX
  5
1DB1
  8
SAPA_PROFIL
  6
CONTINUOUS
 62
     7
 10
-17.79999999999572
 20
-36.699999999997871
 30
0.0
 42
0.4142135623730951
  0
VERTEX
  5
1DB2
  8
SAPA_PROFIL
  6
CONTINUOUS
 62
     7
 10
-17.499999999995719
 20
-36.399999999997888
 30
0.0
  0
VERTEX
  5
1DB3
  8
SAPA_PROFIL
  6
CONTINUOUS
 62
     7
 10
-17.499999999994682
 20
-35.79999999999886
 30
0.0
 42
0.4142135623740693
  0
VERTEX
  5
1DB4
  8
SAPA_PROFIL
  6
CONTINUOUS
 62
     7
 10
-17.79999999999368
 20
-35.499999999998828
 30
0.0
  0
VERTEX
  5
1DB5
  8
SAPA_PROFIL
  6
CONTINUOUS
 62
     7
 10
-18.399999999994691
 20
-35.499999999998828
 30
0.0
 42
-0.4142135623730951
  0
VERTEX
  5
1DB6
  8
SAPA_PROFIL
  6
CONTINUOUS
 62
     7
 10
-18.699999999994692
 20
-35.199999999998838
 30
0.0
  0
VERTEX
  5
1DB7
  8
SAPA_PROFIL
  6
CONTINUOUS
 62
     7
 10
-18.699999999993612
 20
-34.239949493650208
 30
0.0
 42
-0.2360679774982354
  0
VERTEX
  5
1DB8
  8
SAPA_PROFIL
  6
CONTINUOUS
 62
     7
 10
-18.599999999994559
 20
-34.039949493651193
 30
0.0
 42
0.4564120107634379
  0
VERTEX
  5
1DB9
  8
SAPA_PROFIL
  6
CONTINUOUS
 62
     7
 10
-18.492893218808089
 20
-32.532842712472487
 30
0.0
  0
VERTEX
  5
1DBA
  8
SAPA_PROFIL
  6
CONTINUOUS
 62
     7
 10
-19.38786796563571
 20
-31.637867965644858
 30
0.0
 42
0.6681786379193021
  0
VERTEX
  5
1DBB
  8
SAPA_PROFIL
  6
CONTINUOUS
 62
     7
 10
-19.899999999991699
 20
-31.85000000000084
 30
0.0
  0
VERTEX
  5
1DBC
  8
SAPA_PROFIL
  6
CONTINUOUS
 62
     7
 10
-19.899999999994691
 20
-40.199999999999953
 30
0.0
 42
-0.4142135623730951
  0
VERTEX
  5
1DBD
  8
SAPA_PROFIL
  6
CONTINUOUS
 62
     7
 10
-20.199999999994692
 20
-40.499999999999943
 30
0.0
  0
VERTEX
  5
1DBE
  8
SAPA_PROFIL
  6
CONTINUOUS
 62
     7
 10
-23.199999999994699
 20
-40.500000000000981
 30
0.0
 42
-0.4142135623730951
  0
VERTEX
  5
1DBF
  8
SAPA_PROFIL
  6
CONTINUOUS
 62
     7
 10
-23.499999999994699
 20
-40.200000000000983
 30
0.0
  0
VERTEX
  5
1DC0
  8
SAPA_PROFIL
  6
CONTINUOUS
 62
     7
 10
-23.49999999999471
 20
-35.80000000000166
 30
0.0
 42
0.4142135623730951
  0
VERTEX
  5
1DC1
  8
SAPA_PROFIL
  6
CONTINUOUS
 62
     7
 10
-23.7999999999947
 20
-35.50000000000167
 30
0.0
  0
VERTEX
  5
1DC2
  8
SAPA_PROFIL
  6
CONTINUOUS
 62
     7
 10
-24.750000000000711
 20
-35.50000000000167
 30
0.0
 42
0.4142135623730951
  0
VERTEX
  5
1DC3
  8
SAPA_PROFIL
  6
CONTINUOUS
 62
     7
 10
-25.000000000000711
 20
-35.75000000000167
 30
0.0
  0
VERTEX
  5
1DC4
  8
SAPA_PROFIL
  6
CONTINUOUS
 62
     7
 10
-25.000000000000711
 20
-51.199999999997857
 30
0.0
 42
0.4142135623750965
  0
VERTEX
  5
1DC5
  8
SAPA_PROFIL
  6
CONTINUOUS
 62
     7
 10
-24.699999999994681
 20
-51.500000000001847
 30
0.0
  0
VERTEX
  5
1DC6
  8
SAPA_PROFIL
  6
CONTINUOUS
 62
     7
 10
-22.487082869339378
 20
-51.500000000000867
 30
0.0
 42
0.1691807452124803
  0
VERTEX
  5
1DC7
  8
SAPA_PROFIL
  6
CONTINUOUS
 62
     7
 10
-22.331762856205451
 20
-51.445897150363102
 30
0.0
  0
VERTEX
  5
1DC8
  8
SAPA_PROFIL
  6
CONTINUOUS
 62
     7
 10
-21.81361598424073
 20
-51.035076580435863
 30
0.0
 42
0.7105995015660667
  0
VERTEX
  5
1DC9
  8
SAPA_PROFIL
  6
CONTINUOUS
 62
     7
 10
-22.000000000000721
 20
-50.500000000000831
 30
0.0
  0
VERTEX
  5
1DCA
  8
SAPA_PROFIL
  6
CONTINUOUS
 62
     7
 10
-23.200000000000731
 20
-50.500000000000881
 30
0.0
 42
-0.4142135623730951
  0
VERTEX
  5
1DCB
  8
SAPA_PROFIL
  6
CONTINUOUS
 62
     7
 10
-23.500000000000739
 20
-50.20000000000087
 30
0.0
  0
VERTEX
  5
1DCC
  8
SAPA_PROFIL
  6
CONTINUOUS
 62
     7
 10
-23.500000000000711
 20
-43.300000000000452
 30
0.0
 42
-0.4142135623731053
  0
SEQEND
  5
1DCD
  8
SAPA_PROFIL
  6
CONTINUOUS
 62
     7
  0
ARC
  5
19F4
  8
SAPA_PROFIL
 10
12.288210506169831
 20
-33.900000000001597
 30
0.0
 40
0.2999999999998626
 50
268.44557377481141
 51
44.215333579229352
  0
LINE
  5
19F5
  8
SAPA_PROFIL
 10
10.30355480481904
 20
-31.430030478057802
 30
0.0
 11
12.50322770786425
 21
-33.690792918440252
 31
0.0
  0
ARC
  5
19F6
  8
SAPA_PROFIL
 10
10.05095874389815
 20
-31.59187988339264
 30
0.0
 40
0.2999999999999829
 50
32.64947327816337
 51
90.000000000011198
  0
LINE
  5
19F7
  8
SAPA_PROFIL
 10
9.4999996264617153
 20
-31.291879883392649
 30
0.0
 11
10.050958743898089
 21
-31.291879883392649
 31
0.0
  0
ARC
  5
19F8
  8
SAPA_PROFIL
 10
9.4999996264618272
 20
-31.591879883392501
 30
0.0
 40
0.2999999999998408
 50
90.000000000021672
 51
180.00000000002171
  0
LINE
  5
19F9
  8
SAPA_PROFIL
 10
9.1999996264619881
 20
-56.693485944234737
 30
0.0
 11
9.1999996264619881
 21
-31.591879883392611
 31
0.0
  0
ARC
  5
19FA
  8
SAPA_PROFIL
 10
8.6999996264619757
 20
-56.693485944234723
 30
0.0
 40
0.5000000000000142
 50
270.00000000000142
 51
359.99999999999841
  0
LINE
  5
19FB
  8
SAPA_PROFIL
 10
6.9999996264619417
 20
-57.193485944234737
 30
0.0
 11
8.6999996264619881
 21
-57.193485944234737
 31
0.0
  0
ARC
  5
19FC
  8
SAPA_PROFIL
 10
6.9999996264619186
 20
-56.693485944234759
 30
0.0
 40
0.4999999999999769
 50
179.9999999999975
 51
270.00000000000267
  0
LINE
  5
19FD
  8
SAPA_PROFIL
 10
6.4999996264623974
 20
-43.99187988339218
 30
0.0
 11
6.4999996264619417
 21
-56.693485944234737
 31
0.0
  0
ARC
  5
19FE
  8
SAPA_PROFIL
 10
6.199999626462442
 20
-43.99187988339218
 30
0.0
 40
0.2999999999999545
 50
0.0
 51
90.000000000043414
  0
LINE
  5
19FF
  8
SAPA_PROFIL
 10
5.2999996264621236
 20
-43.691879883392232
 30
0.0
 11
6.1999996264622146
 21
-43.691879883392232
 31
0.0
  0
ARC
  5
1A00
  8
SAPA_PROFIL
 10
5.2999996264621236
 20
-43.991879883392407
 30
0.0
 40
0.3000000000001819
 50
90.0
 51
180.0
  0
LINE
  5
1A01
  8
SAPA_PROFIL
 10
4.9999996264628521
 20
-58.39348594423501
 30
0.0
 11
4.9999996264619417
 21
-43.991879883392407
 31
0.0
  0
ARC
  5
1A02
  8
SAPA_PROFIL
 10
5.2999996264625722
 20
-58.39348594423501
 30
0.0
 40
0.29999999999972
 50
179.99999999999861
 51
270.00000000000131
  0
LINE
  5
1A03
  8
SAPA_PROFIL
 10
14.39999962646135
 20
-58.693485944234283
 30
0.0
 11
5.2999996264625793
 21
-58.693485944234737
 31
0.0
  0
ARC
  5
1A04
  8
SAPA_PROFIL
 10
14.549999626470891
 20
-71.454205507059214
 30
0.0
 40
12.76160114409887
 50
89.326529270374465
 51
90.673470729712392
  0
ARC
  5
1A05
  8
SAPA_PROFIL
 10
14.8499996264533
 20
-48.309870737645682
 30
0.0
 40
10.38469858775357
 50
269.17237214592433
 51
270.82762785416247
  0
LINE
  5
1A06
  8
SAPA_PROFIL
 10
17.799999626460991
 20
-58.693485944233821
 30
0.0
 11
14.999999626461261
 21
-58.693485944233821
 31
0.0
  0
LINE
  5
1A07
  8
SAPA_PROFIL
 10
18.386383642221801
 20
-58.228562524668462
 30
0.0
 11
17.799999626460991
 21
-58.693485944233821
 31
0.0
  0
ARC
  5
1A08
  8
SAPA_PROFIL
 10
18.199999626461072
 20
-57.99348594423364
 30
0.0
 40
0.3000000000000398
 50
308.4096710633973
 51
89.999999999998636
  0
LINE
  5
1A09
  8
SAPA_PROFIL
 10
16.499999626461261
 20
-57.693485944233828
 30
0.0
 11
18.199999626461079
 21
-57.693485944233601
 31
0.0
  0
ARC
  5
1A0A
  8
SAPA_PROFIL
 10
16.499999626461261
 20
-57.393485944233653
 30
0.0
 40
0.3000000000001819
 50
180.0
 51
270.0
  0
LINE
  5
1A0B
  8
SAPA_PROFIL
 10
16.199999626461079
 20
-53.193485944233828
 30
0.0
 11
16.199999626461079
 21
-57.393485944233653
 31
0.0
  0
ARC
  5
1A0C
  8
SAPA_PROFIL
 10
16.49999962646103
 20
-53.193485944234062
 30
0.0
 40
0.2999999999999545
 50
89.999999999956557
 51
179.99999999995649
  0
LINE
  5
1A0D
  8
SAPA_PROFIL
 10
22.999999626461261
 20
-52.893485944233873
 30
0.0
 11
16.499999626461261
 21
-52.893485944234101
 31
0.0
  0
ARC
  5
1A0E
  8
SAPA_PROFIL
 10
22.999999626461261
 20
-53.193485944233601
 30
0.0
 40
0.2999999999997271
 50
359.99999999995657
 51
90.0
  0
LINE
  5
1A0F
  8
SAPA_PROFIL
 10
23.299999626460991
 20
-57.393485944233873
 30
0.0
 11
23.299999626460991
 21
-53.193485944233828
 31
0.0
  0
ARC
  5
1A10
  8
SAPA_PROFIL
 10
22.999999626461321
 20
-57.39348594423393
 30
0.0
 40
0.2999999999996703
 50
269.99999999998909
 51
0.0000000000108563
  0
LINE
  5
1A11
  8
SAPA_PROFIL
 10
21.799999626460991
 20
-57.693485944233828
 30
0.0
 11
22.999999626461261
 21
-57.693485944233601
 31
0.0
  0
ARC
  5
1A12
  8
SAPA_PROFIL
 10
21.799999626460998
 20
-57.993485944233768
 30
0.0
 40
0.2999999999999416
 50
90.000000000001336
 51
231.5903289365875
  0
LINE
  5
1A13
  8
SAPA_PROFIL
 10
22.199999626461079
 20
-58.693485944233821
 30
0.0
 11
21.613615610700268
 21
-58.228562524668462
 31
0.0
  0
LINE
  5
1A14
  8
SAPA_PROFIL
 10
24.499999626461261
 20
-58.693485944233821
 30
0.0
 11
22.199999626461079
 21
-58.693485944233821
 31
0.0
  0
ARC
  5
1A15
  8
SAPA_PROFIL
 10
24.49999962646103
 20
-58.393485944233881
 30
0.0
 40
0.2999999999999545
 50
270.00000000004343
 51
0.0000000000434252
  0
LINE
  5
1A16
  8
SAPA_PROFIL
 10
24.799999626460991
 20
-51.193485944233821
 30
0.0
 11
24.799999626460991
 21
-58.393485944233639
 31
0.0
  0
ARC
  5
1A17
  8
SAPA_PROFIL
 10
24.49999962646103
 20
-51.193485944233821
 30
0.0
 40
0.2999999999999545
 50
0.0
 51
90.000000000043414
  0
LINE
  5
1A18
  8
SAPA_PROFIL
 10
22.699999626461079
 20
-50.893485944233881
 30
0.0
 11
24.499999626460809
 21
-50.893485944233881
 31
0.0
  0
LINE
  5
1A19
  8
SAPA_PROFIL
 10
22.699999626461079
 20
-51.093485944233691
 30
0.0
 11
22.699999626461079
 21
-50.893485944233881
 31
0.0
  0
ARC
  5
1A1A
  8
SAPA_PROFIL
 10
22.399999626461351
 20
-51.093485944233919
 30
0.0
 40
0.2999999999997271
 50
270.0
 51
0.0000000000434252
  0
LINE
  5
1A1B
  8
SAPA_PROFIL
 10
14.999999626461261
 20
-51.393485944233639
 30
0.0
 11
22.399999626461351
 21
-51.393485944233639
 31
0.0
  0
ARC
  5
1A1C
  8
SAPA_PROFIL
 10
14.999999626461261
 20
-51.693485944233821
 30
0.0
 40
0.3000000000001819
 50
90.0
 51
180.0
  0
LINE
  5
1A1D
  8
SAPA_PROFIL
 10
14.69999962646108
 20
-56.693485944234283
 30
0.0
 11
14.69999962646108
 21
-51.693485944233821
 31
0.0
  0
ARC
  5
1A1E
  8
SAPA_PROFIL
 10
14.199999626461061
 20
-56.693485944234268
 30
0.0
 40
0.5000000000000142
 50
270.00000000000142
 51
359.99999999999841
  0
LINE
  5
1A1F
  8
SAPA_PROFIL
 10
11.19999962646108
 20
-57.19348594423451
 30
0.0
 11
14.19999962646108
 21
-57.193485944234283
 31
0.0
  0
ARC
  5
1A20
  8
SAPA_PROFIL
 10
11.199999626460929
 20
-56.693485944234432
 30
0.0
 40
0.5000000000000853
 50
180.00000000000969
 51
270.00000000001631
  0
LINE
  5
1A21
  8
SAPA_PROFIL
 10
10.69999962646199
 20
-34.500000000001478
 30
0.0
 11
10.699999626460849
 21
-56.69348594423451
 31
0.0
  0
ARC
  5
1A22
  8
SAPA_PROFIL
 10
10.99999962646195
 20
-34.500000000001492
 30
0.0
 40
0.2999999999999687
 50
90.000000000002018
 51
179.99999999999719
  0
LINE
  5
1A23
  8
SAPA_PROFIL
 10
12.288210506169939
 20
-34.200000000001531
 30
0.0
 11
10.999999626461941
 21
-34.200000000001531
 31
0.0
  0
ARC
  5
1A24
  8
SAPA_PROFIL
  6
CONTINUOUS
 62
     7
 10
15.99999999999716
 20
-74.000000000957129
 30
0.0
 40
0.4999999999996021
 50
0.000000000043968
 51
90.000000000044764
  0
LINE
  5
1A25
  8
SAPA_PROFIL
  6
CONTINUOUS
 62
     7
 10
14.99999999999676
 20
-73.500000000956732
 30
0.0
 11
15.999999999996771
 21
-73.500000000957527
 31
0.0
  0
ARC
  5
1A26
  8
SAPA_PROFIL
  6
CONTINUOUS
 62
     7
 10
14.99999999999646
 20
-76.000000000962487
 30
0.0
 40
2.5000000000057541
 50
89.999999999993079
 51
149.99999997874599
  0
ARC
  5
1A27
  8
SAPA_PROFIL
  6
CONTINUOUS
 62
     7
 10
12.40192378919542
 20
-74.500000000004775
 30
0.0
 40
0.4999999999948131
 50
270.0000000010715
 51
329.999999979584
  0
LINE
  5
1A28
  8
SAPA_PROFIL
  6
CONTINUOUS
 62
     7
 10
7.3999999999975614
 20
-74.999999999999588
 30
0.0
 11
12.401923789204769
 21
-74.999999999999588
 31
0.0
  0
ARC
  5
1A29
  8
SAPA_PROFIL
  6
CONTINUOUS
 62
     7
 10
7.3999999999975632
 20
-74.499999999999588
 30
0.0
 40
0.5000000000000018
 50
180.00000000000651
 51
269.99999999999977
  0
LINE
  5
1A2A
  8
SAPA_PROFIL
  6
CONTINUOUS
 62
     7
 10
6.8999999999973411
 20
-72.799999999999557
 30
0.0
 11
6.8999999999975614
 21
-74.499999999999645
 31
0.0
  0
ARC
  5
1A2B
  8
SAPA_PROFIL
  6
CONTINUOUS
 62
     7
 10
6.5999999999973573
 20
-72.799999999999585
 30
0.0
 40
0.2999999999999841
 50
0.0000000000054281
 51
70.528779365656021
  0
ARC
  5
1A2C
  8
SAPA_PROFIL
  6
CONTINUOUS
 62
     7
 10
6.7999999999967882
 20
-72.234314575051116
 30
0.0
 40
0.2999999999991045
 50
179.99999999979369
 51
250.52877936541611
  0
LINE
  5
1A2D
  8
SAPA_PROFIL
  6
CONTINUOUS
 62
     7
 10
6.4999999999967946
 20
-70.799999999999315
 30
0.0
 11
6.4999999999976827
 21
-72.234314575050036
 31
0.0
  0
ARC
  5
1A2E
  8
SAPA_PROFIL
  6
CONTINUOUS
 62
     7
 10
6.1999999999970816
 20
-70.799999999998875
 30
0.0
 40
0.2999999999997271
 50
359.99999999991587
 51
89.999999999905015
  0
LINE
  5
1A2F
  8
SAPA_PROFIL
  6
CONTINUOUS
 62
     7
 10
5.5999999999969674
 20
-70.499999999999559
 30
0.0
 11
6.199999999997579
 21
-70.499999999999147
 31
0.0
  0
ARC
  5
1A30
  8
SAPA_PROFIL
  6
CONTINUOUS
 62
     7
 10
5.5999999999976691
 20
-70.799999999999557
 30
0.0
 40
0.3000000000000096
 50
90.000000000134023
 51
179.99999999995649
  0
LINE
  5
1A31
  8
SAPA_PROFIL
  6
CONTINUOUS
 62
     7
 10
5.2999999999967713
 20
-72.19999999999942
 30
0.0
 11
5.2999999999976586
 21
-70.799999999999329
 31
0.0
  0
ARC
  5
1A32
  8
SAPA_PROFIL
  6
CONTINUOUS
 62
     7
 10
4.9999999999970717
 20
-72.199999999999889
 30
0.0
 40
0.2999999999996987
 50
270.00000000009362
 51
0.0000000000895644
  0
LINE
  5
1A33
  8
SAPA_PROFIL
  6
CONTINUOUS
 62
     7
 10
-5.0000000000030189
 20
-72.499999999999588
 30
0.0
 11
4.999999999997562
 21
-72.499999999999588
 31
0.0
  0
ARC
  5
1A34
  8
SAPA_PROFIL
  6
CONTINUOUS
 62
     7
 10
-5.0000000000030163
 20
-72.199999999999406
 30
0.0
 40
0.3000000000001783
 50
180.0
 51
269.99999999999932
  0
LINE
  5
1A35
  8
SAPA_PROFIL
  6
CONTINUOUS
 62
     7
 10
-5.3000000000032008
 20
-70.799999999999329
 30
0.0
 11
-5.3000000000031937
 21
-72.199999999999406
 31
0.0
  0
ARC
  5
1A36
  8
SAPA_PROFIL
  6
CONTINUOUS
 62
     7
 10
-5.6000000000027041
 20
-70.799999999999102
 30
0.0
 40
0.2999999999994998
 50
359.99999999995657
 51
89.999999999954724
  0
LINE
  5
1A37
  8
SAPA_PROFIL
  6
CONTINUOUS
 62
     7
 10
-6.2000000000030147
 20
-70.499999999999602
 30
0.0
 11
-5.600000000002467
 21
-70.499999999999602
 31
0.0
  0
ARC
  5
1A38
  8
SAPA_PROFIL
  6
CONTINUOUS
 62
     7
 10
-6.2000000000030173
 20
-70.799999999999784
 30
0.0
 40
0.3000000000001801
 50
89.999999999999673
 51
179.99999999991309
  0
LINE
  5
1A39
  8
SAPA_PROFIL
  6
CONTINUOUS
 62
     7
 10
-6.5000000000022951
 20
-72.234314575049652
 30
0.0
 11
-6.5000000000031974
 21
-70.799999999999329
 31
0.0
  0
ARC
  5
1A3A
  8
SAPA_PROFIL
  6
CONTINUOUS
 62
     7
 10
-6.8000000000022931
 20
-72.234314575049837
 30
0.0
 40
0.3000000000000111
 50
289.47122063434227
 51
0.000000000035283
  0
ARC
  5
1A3B
  8
SAPA_PROFIL
  6
CONTINUOUS
 62
     7
 10
-6.6000000000037504
 20
-72.799999999999613
 30
0.0
 40
0.2999999999999998
 50
109.4712206343425
 51
179.99999999999179
  0
LINE
  5
1A3C
  8
SAPA_PROFIL
  6
CONTINUOUS
 62
     7
 10
-6.9000000000046446
 20
-80.299999999999329
 30
0.0
 11
-6.9000000000037502
 21
-72.799999999999571
 31
0.0
  0
ARC
  5
1A3D
  8
SAPA_PROFIL
  6
CONTINUOUS
 62
     7
 10
-5.9000000000046446
 20
-80.299999999999329
 30
0.0
 40
1.0
 50
180.0
 51
270.0
  0
LINE
  5
1A3E
  8
SAPA_PROFIL
  6
CONTINUOUS
 62
     7
 10
-5.0873697418276498
 20
-81.299999999999812
 30
0.0
 11
-5.9000000000046446
 21
-81.299999999999329
 31
0.0
  0
ARC
  5
1A3F
  8
SAPA_PROFIL
  6
CONTINUOUS
 62
     7
 10
-5.087369741827465
 20
-80.999999999999801
 30
0.0
 40
0.30000000000001
 50
269.99999999996447
 51
319.99999999999898
  0
LINE
  5
1A40
  8
SAPA_PROFIL
  6
CONTINUOUS
 62
     7
 10
-4.2701866670672066
 20
-80.492836282905216
 30
0.0
 11
-4.8575564088917673
 21
-81.192836282905773
 31
0.0
  0
ARC
  5
1A41
  8
SAPA_PROFIL
  6
CONTINUOUS
 62
     7
 10
-4.5000000000027329
 20
-80.2999999999994
 30
0.0
 40
0.299999999999784
 50
319.99999999999881
 51
89.999999999916199
  0
LINE
  5
1A42
  8
SAPA_PROFIL
  6
CONTINUOUS
 62
     7
 10
-5.3000000000042808
 20
-79.999999999999105
 30
0.0
 11
-4.5000000000022951
 21
-79.999999999999616
 31
0.0
  0
ARC
  5
1A43
  8
SAPA_PROFIL
  6
CONTINUOUS
 62
     7
 10
-5.3000000000042826
 20
-79.699999999999903
 30
0.0
 40
0.2999999999991996
 50
179.99999999990499
 51
270.00000000000028
  0
LINE
  5
1A44
  8
SAPA_PROFIL
  6
CONTINUOUS
 62
     7
 10
-5.6000000000035541
 20
-75.29999999999886
 30
0.0
 11
-5.6000000000034831
 21
-79.699999999999406
 31
0.0
  0
ARC
  5
1A45
  8
SAPA_PROFIL
  6
CONTINUOUS
 62
     7
 10
-5.3000000000036058
 20
-75.299999999999102
 30
0.0
 40
0.2999999999999545
 50
89.999999999956557
 51
179.9999999999539
  0
LINE
  5
1A46
  8
SAPA_PROFIL
  6
CONTINUOUS
 62
     7
 10
5.299999999996067
 20
-74.999999999999133
 30
0.0
 11
-5.3000000000033793
 21
-74.999999999999133
 31
0.0
  0
ARC
  5
1A47
  8
SAPA_PROFIL
  6
CONTINUOUS
 62
     7
 10
5.299999999996265
 20
-75.299999999999116
 30
0.0
 40
0.2999999999999563
 50
0.0000000000488533
 51
90.000000000037645
  0
LINE
  5
1A48
  8
SAPA_PROFIL
  6
CONTINUOUS
 62
     7
 10
5.5999999999971593
 20
-79.699999999999406
 30
0.0
 11
5.5999999999962213
 21
-75.29999999999886
 31
0.0
  0
ARC
  5
1A49
  8
SAPA_PROFIL
  6
CONTINUOUS
 62
     7
 10
5.2999999999969631
 20
-79.69999999999942
 30
0.0
 40
0.3000000000001819
 50
270.0
 51
0.0000000000027141
  0
LINE
  5
1A4A
  8
SAPA_PROFIL
  6
CONTINUOUS
 62
     7
 10
4.499999999996767
 20
-79.999999999999602
 30
0.0
 11
5.2999999999969631
 21
-79.999999999999602
 31
0.0
  0
ARC
  5
1A4B
  8
SAPA_PROFIL
  6
CONTINUOUS
 62
     7
 10
4.4999999999971241
 20
-80.299999999999741
 30
0.0
 40
0.3000000000001586
 50
90.000000000068184
 51
219.9999999998567
  0
LINE
  5
1A4C
  8
SAPA_PROFIL
  6
CONTINUOUS
 62
     7
 10
4.8575564088853787
 20
-81.192836282905773
 30
0.0
 11
4.2701866670608259
 21
-80.492836282905216
 31
0.0
  0
ARC
  5
1A4D
  8
SAPA_PROFIL
  6
CONTINUOUS
 62
     7
 10
5.0873697418210737
 20
-80.999999999999815
 30
0.0
 40
0.2999999999999971
 50
219.99999999999929
 51
269.99999999999932
  0
LINE
  5
1A4E
  8
SAPA_PROFIL
  6
CONTINUOUS
 62
     7
 10
5.8999999999964743
 20
-81.299999999999812
 30
0.0
 11
5.087369741821071
 21
-81.299999999999812
 31
0.0
  0
ARC
  5
1A4F
  8
SAPA_PROFIL
  6
CONTINUOUS
 62
     7
 10
5.8999999999964743
 20
-80.299999999999812
 30
0.0
 40
1.0
 50
270.0
 51
0.0
  0
LINE
  5
1A50
  8
SAPA_PROFIL
  6
CONTINUOUS
 62
     7
 10
6.8999999999964743
 20
-77.999999999999147
 30
0.0
 11
6.8999999999964743
 21
-80.299999999999812
 31
0.0
  0
ARC
  5
1A51
  8
SAPA_PROFIL
  6
CONTINUOUS
 62
     7
 10
7.3999999999964743
 20
-77.999999999999147
 30
0.0
 40
0.5
 50
90.0
 51
180.0
  0
LINE
  5
1A52
  8
SAPA_PROFIL
  6
CONTINUOUS
 62
     7
 10
15.999999999996559
 20
-77.50000000000297
 30
0.0
 11
7.3999999999964743
 21
-77.499999999999133
 31
0.0
  0
ARC
  5
1A53
  8
SAPA_PROFIL
  6
CONTINUOUS
 62
     7
 10
15.99999999999676
 20
-77.00000000000297
 30
0.0
 40
0.5000000000000036
 50
269.9999999999776
 51
0.0
  0
LINE
  5
1A54
  8
SAPA_PROFIL
  6
CONTINUOUS
 62
     7
 10
16.499999999996771
 20
-74.000000000956746
 30
0.0
 11
16.499999999996771
 21
-77.00000000000297
 31
0.0
  0
LINE
  5
1A55
  8
SAPA_PROFIL
 10
24.100000000000069
 20
-70.999999999999886
 30
0.0
 11
24.100000000000069
 21
-70.20000000095672
 31
0.0
  0
ARC
  5
1A56
  8
SAPA_PROFIL
 10
23.80000000000009
 20
-70.999999999999915
 30
0.0
 40
0.2999999999999829
 50
270.00000000000472
 51
0.0000000000054281
  0
LINE
  5
1A57
  8
SAPA_PROFIL
 10
22.400000000000031
 20
-71.299999999999898
 30
0.0
 11
23.800000000000122
 21
-71.299999999999898
 31
0.0
  0
ARC
  5
1A58
  8
SAPA_PROFIL
 10
22.400000000000091
 20
-71.600000000000023
 30
0.0
 40
0.300000000000125
 50
90.000000000010829
 51
179.99999999998909
  0
LINE
  5
1A59
  8
SAPA_PROFIL
 10
22.100000000000069
 20
-76.89999999999992
 30
0.0
 11
22.099999999999959
 21
-71.599999999999966
 31
0.0
  0
ARC
  5
1A5A
  8
SAPA_PROFIL
 10
22.400000000000031
 20
-76.89999999999992
 30
0.0
 40
0.2999999999999545
 50
180.0
 51
270.0
  0
LINE
  5
1A5B
  8
SAPA_PROFIL
 10
33.199999999999982
 20
-77.199999999999875
 30
0.0
 11
22.400000000000031
 21
-77.199999999999875
 31
0.0
  0
ARC
  5
1A5C
  8
SAPA_PROFIL
 10
33.20000000000001
 20
-76.899999999999835
 30
0.0
 40
0.3000000000000398
 50
269.9999999999946
 51
359.99999999998369
  0
LINE
  5
1A5D
  8
SAPA_PROFIL
 10
33.50000000000005
 20
-71.599999999999966
 30
0.0
 11
33.50000000000005
 21
-76.89999999999992
 31
0.0
  0
ARC
  5
1A5E
  8
SAPA_PROFIL
 10
33.199999999999932
 20
-71.600000000000023
 30
0.0
 40
0.300000000000125
 50
0.0000000000108563
 51
89.999999999989143
  0
LINE
  5
1A5F
  8
SAPA_PROFIL
 10
31.800000000000011
 20
-71.299999999999898
 30
0.0
 11
33.199999999999982
 21
-71.299999999999898
 31
0.0
  0
ARC
  5
1A60
  8
SAPA_PROFIL
 10
31.800000000000029
 20
-70.999999999999915
 30
0.0
 40
0.2999999999999829
 50
179.99999999999449
 51
269.9999999999946
  0
LINE
  5
1A61
  8
SAPA_PROFIL
 10
31.50000000000005
 20
-70.20000000095672
 30
0.0
 11
31.50000000000005
 21
-70.999999999999886
 31
0.0
  0
ARC
  5
1A62
  8
SAPA_PROFIL
 10
31.800000000000029
 20
-70.200000000956692
 30
0.0
 40
0.2999999999999829
 50
90.000000000005414
 51
180.0000000000054
  0
LINE
  5
1A63
  8
SAPA_PROFIL
 10
33.200000000000102
 20
-69.900000000956709
 30
0.0
 11
31.800000000000011
 21
-69.900000000956709
 31
0.0
  0
ARC
  5
1A64
  8
SAPA_PROFIL
 10
33.200000000000067
 20
-69.600000000956726
 30
0.0
 40
0.2999999999999829
 50
270.0000000000054
 51
0.0000000000054281
  0
LINE
  5
1A65
  8
SAPA_PROFIL
 10
33.50000000000005
 20
-67.600000000956683
 30
0.0
 11
33.50000000000005
 21
-69.600000000956697
 31
0.0
  0
ARC
  5
1A66
  8
SAPA_PROFIL
 10
33.200000000000067
 20
-67.600000000956669
 30
0.0
 40
0.2999999999999829
 50
359.99999999999449
 51
89.999999999994586
  0
LINE
  5
1A67
  8
SAPA_PROFIL
 10
22.39999999999991
 20
-67.300000000956686
 30
0.0
 11
33.200000000000102
 21
-67.300000000956686
 31
0.0
  0
ARC
  5
1A68
  8
SAPA_PROFIL
 10
22.399999999999942
 20
-67.600000000956669
 30
0.0
 40
0.2999999999999829
 50
90.000000000005414
 51
180.0000000000054
  0
LINE
  5
1A69
  8
SAPA_PROFIL
 10
22.099999999999959
 20
-69.600000000956697
 30
0.0
 11
22.099999999999959
 21
-67.600000000956683
 31
0.0
  0
ARC
  5
1A6A
  8
SAPA_PROFIL
 10
22.399999999999942
 20
-69.600000000956726
 30
0.0
 40
0.2999999999999829
 50
179.99999999999449
 51
269.99999999999392
  0
LINE
  5
1A6B
  8
SAPA_PROFIL
 10
23.800000000000122
 20
-69.900000000956709
 30
0.0
 11
22.39999999999991
 21
-69.900000000956709
 31
0.0
  0
ARC
  5
1A6C
  8
SAPA_PROFIL
 10
23.80000000000009
 20
-70.200000000956692
 30
0.0
 40
0.2999999999999865
 50
359.99999999999449
 51
89.999999999993875
  0
ARC
  5
1A6D
  8
SAPA_PROFIL
  6
CONTINUOUS
 62
     7
 10
18.306256115586539
 20
-80.199999999999136
 30
0.0
 40
0.2999999999995566
 50
270.00000000009021
 51
356.41667826716917
  0
LINE
  5
1A6E
  8
SAPA_PROFIL
  6
CONTINUOUS
 62
     7
 10
11.300000000000001
 20
-80.499999999998579
 30
0.0
 11
18.306256115587011
 21
-80.499999999998693
 31
0.0
  0
ARC
  5
1A6F
  8
SAPA_PROFIL
  6
CONTINUOUS
 62
     7
 10
11.300000000000001
 20
-80.799999999998647
 30
0.0
 40
0.3000000000000682
 50
90.0
 51
180.0
  0
LINE
  5
1A70
  8
SAPA_PROFIL
  6
CONTINUOUS
 62
     7
 10
10.999999999999931
 20
-81.600000000982675
 30
0.0
 11
10.999999999999931
 21
-80.799999999998647
 31
0.0
  0
ARC
  5
1A71
  8
SAPA_PROFIL
  6
CONTINUOUS
 62
     7
 10
11.299999999999971
 20
-81.600000000982646
 30
0.0
 40
0.3000000000000398
 50
180.0000000000054
 51
270.0000000000054
  0
LINE
  5
1A72
  8
SAPA_PROFIL
  6
CONTINUOUS
 62
     7
 10
19.699999999999982
 20
-81.900000000982644
 30
0.0
 11
11.300000000000001
 21
-81.900000000982686
 31
0.0
  0
ARC
  5
1A73
  8
SAPA_PROFIL
  6
CONTINUOUS
 62
     7
 10
19.699999999999982
 20
-81.600000000982675
 30
0.0
 40
0.2999999999999545
 50
270.0
 51
0.0
  0
LINE
  5
1A74
  8
SAPA_PROFIL
  6
CONTINUOUS
 62
     7
 10
19.999999999999929
 20
-80.400000001917647
 30
0.0
 11
19.999999999999929
 21
-81.600000000982675
 31
0.0
  0
ARC
  5
1A75
  8
SAPA_PROFIL
  6
CONTINUOUS
 62
     7
 10
21.49999999999994
 20
-80.400000001917647
 30
0.0
 40
1.5
 50
90.000000003282921
 51
180.0
  0
LINE
  5
1A76
  8
SAPA_PROFIL
  6
CONTINUOUS
 62
     7
 10
36.700000000026023
 20
-78.900000000982629
 30
0.0
 11
21.499999999913989
 21
-78.900000001917647
 31
0.0
  0
ARC
  5
1A77
  8
SAPA_PROFIL
  6
CONTINUOUS
 62
     7
 10
36.699999999999982
 20
-78.600000000982675
 30
0.0
 40
0.2999999999999545
 50
270.00000000497221
 51
0.0
  0
LINE
  5
1A78
  8
SAPA_PROFIL
  6
CONTINUOUS
 62
     7
 10
36.999999999999943
 20
-77.499999999999659
 30
0.0
 11
36.999999999999943
 21
-78.600000000982675
 31
0.0
  0
ARC
  5
1A79
  8
SAPA_PROFIL
  6
CONTINUOUS
 62
     7
 10
36.699999999999953
 20
-77.499999999999631
 30
0.0
 40
0.2999999999999829
 50
359.99999999999449
 51
89.999999999994586
  0
LINE
  5
1A7A
  8
SAPA_PROFIL
  6
CONTINUOUS
 62
     7
 10
35.199999999999982
 20
-77.199999999999648
 30
0.0
 11
36.699999999999982
 21
-77.199999999999648
 31
0.0
  0
ARC
  5
1A7B
  8
SAPA_PROFIL
  6
CONTINUOUS
 62
     7
 10
35.199999999999918
 20
-76.899999999999636
 30
0.0
 40
0.3000000000000114
 50
180.0000000000108
 51
270.0000000000108
  0
LINE
  5
1A7C
  8
SAPA_PROFIL
  6
CONTINUOUS
 62
     7
 10
34.899999999999913
 20
-66.200000000956663
 30
0.0
 11
34.899999999999913
 21
-76.899999999999693
 31
0.0
  0
ARC
  5
1A7D
  8
SAPA_PROFIL
  6
CONTINUOUS
 62
     7
 10
34.59999999999993
 20
-66.200000000956635
 30
0.0
 40
0.2999999999999829
 50
359.99999999999449
 51
89.999999999994586
  0
LINE
  5
1A7E
  8
SAPA_PROFIL
  6
CONTINUOUS
 62
     7
 10
11.300000000000001
 20
-65.900000000956652
 30
0.0
 11
34.599999999999959
 21
-65.900000000956652
 31
0.0
  0
ARC
  5
1A7F
  8
SAPA_PROFIL
  6
CONTINUOUS
 62
     7
 10
11.299999999999461
 20
-66.20000000095618
 30
0.0
 40
0.29999999999953
 50
89.999999999897199
 51
180.0000000000922
  0
LINE
  5
1A80
  8
SAPA_PROFIL
  6
CONTINUOUS
 62
     7
 10
10.999999999999931
 20
-73.199999999998681
 30
0.0
 11
10.999999999999931
 21
-66.200000000956663
 31
0.0
  0
ARC
  5
1A81
  8
SAPA_PROFIL
  6
CONTINUOUS
 62
     7
 10
11.299999999999971
 20
-73.199999999998653
 30
0.0
 40
0.3000000000000398
 50
180.0000000000054
 51
270.0000000000054
  0
LINE
  5
1A82
  8
SAPA_PROFIL
  6
CONTINUOUS
 62
     7
 10
20.300000000000011
 20
-73.499999999998693
 30
0.0
 11
11.300000000000001
 21
-73.499999999998693
 31
0.0
  0
ARC
  5
1A83
  8
SAPA_PROFIL
  6
CONTINUOUS
 62
     7
 10
20.300000000000011
 20
-73.79999999999967
 30
0.0
 40
0.3000000000009741
 50
0.0000000001954133
 51
90.000000000000668
  0
LINE
  5
1A84
  8
SAPA_PROFIL
  6
CONTINUOUS
 62
     7
 10
20.599999999999959
 20
-74.919615242269344
 30
0.0
 11
20.600000000000978
 21
-73.799999999998633
 31
0.0
  0
ARC
  5
1A85
  8
SAPA_PROFIL
  6
CONTINUOUS
 62
     7
 10
20.899999999999888
 20
-74.91961524226943
 30
0.0
 40
0.2999999999999325
 50
179.99999999998369
 51
209.9999999999836
  0
LINE
  5
1A86
  8
SAPA_PROFIL
  6
CONTINUOUS
 62
     7
 10
20.8598076211353
 20
-75.449999999998681
 30
0.0
 11
20.64019237886458
 21
-75.069615242269322
 31
0.0
  0
ARC
  5
1A87
  8
SAPA_PROFIL
  6
CONTINUOUS
 62
     7
 10
20.600000000000001
 20
-75.599999999998658
 30
0.0
 40
0.2999999999999598
 50
330.00000000000063
 51
29.999999999999432
  0
LINE
  5
1A88
  8
SAPA_PROFIL
  6
CONTINUOUS
 62
     7
 10
20.64019237886458
 20
-76.130384757727995
 30
0.0
 11
20.8598076211353
 21
-75.749999999998636
 31
0.0
  0
ARC
  5
1A89
  8
SAPA_PROFIL
  6
CONTINUOUS
 62
     7
 10
20.899999999999888
 20
-76.280384757727887
 30
0.0
 40
0.2999999999999261
 50
150.00000000001569
 51
180.0000000000162
  0
LINE
  5
1A8A
  8
SAPA_PROFIL
  6
CONTINUOUS
 62
     7
 10
20.599999999999959
 20
-77.433520607080652
 30
0.0
 11
20.599999999999959
 21
-76.280384757727973
 31
0.0
  0
ARC
  5
1A8B
  8
SAPA_PROFIL
  6
CONTINUOUS
 62
     7
 10
20.300000000000011
 20
-77.433520607080638
 30
0.0
 40
0.2999999999999472
 50
292.02431283703538
 51
359.99999999999733
  0
ARC
  5
1A8C
  8
SAPA_PROFIL
  6
CONTINUOUS
 62
     7
 10
21.499999999999471
 20
-80.400000001918286
 30
0.0
 40
2.899999999999296
 50
112.0243128370374
 51
176.4166782670894
  0
POLYLINE
  5
1A8D
  8
SAPA_PROFIL
 66
     1
 10
0.0
 20
0.0
 30
0.0
 70
     1
  0
VERTEX
  5
1DCE
  8
SAPA_PROFIL
 10
28.699999626462041
 20
24.299999999996661
 30
0.0
  0
VERTEX
  5
1DCF
  8
SAPA_PROFIL
 10
28.699999626462041
 20
31.199999999996521
 30
0.0
  0
VERTEX
  5
1DD0
  8
SAPA_PROFIL
 10
28.39999962646209
 20
31.499999999996589
 30
0.0
  0
VERTEX
  5
1DD1
  8
SAPA_PROFIL
 10
28.699999626462041
 20
31.799999999996661
 30
0.0
  0
VERTEX
  5
1DD2
  8
SAPA_PROFIL
 10
28.699999626462041
 20
41.499999999996589
 30
0.0
 42
-0.4142135623730951
  0
VERTEX
  5
1DD3
  8
SAPA_PROFIL
 10
29.699999626462041
 20
42.499999999996582
 30
0.0
  0
VERTEX
  5
1DD4
  8
SAPA_PROFIL
 10
42.499999626461992
 20
42.499999999996589
 30
0.0
  0
VERTEX
  5
1DD5
  8
SAPA_PROFIL
 10
42.499999626461992
 20
41.599999999996612
 30
0.0
 42
0.4142135623730951
  0
VERTEX
  5
1DD6
  8
SAPA_PROFIL
 10
43.099999626461901
 20
40.999999999996589
 30
0.0
  0
VERTEX
  5
1DD7
  8
SAPA_PROFIL
 10
44.699999626462052
 20
40.999999999996589
 30
0.0
 42
0.4142135623730951
  0
VERTEX
  5
1DD8
  8
SAPA_PROFIL
 10
44.999999626461992
 20
41.299999999996658
 30
0.0
  0
VERTEX
  5
1DD9
  8
SAPA_PROFIL
 10
44.999999626461992
 20
43.699999999996521
 30
0.0
 42
0.4142135623730951
  0
VERTEX
  5
1DDA
  8
SAPA_PROFIL
 10
44.699999626462038
 20
43.999999999996597
 30
0.0
  0
VERTEX
  5
1DDB
  8
SAPA_PROFIL
 10
24.999999626461989
 20
43.999999999996589
 30
0.0
  0
VERTEX
  5
1DDC
  8
SAPA_PROFIL
 10
24.999999626461989
 20
41.499999999996589
 30
0.0
  0
VERTEX
  5
1DDD
  8
SAPA_PROFIL
 10
26.699999626462041
 20
41.499999999996589
 30
0.0
 42
-0.4142135623730951
  0
VERTEX
  5
1DDE
  8
SAPA_PROFIL
 10
27.199999626462041
 20
40.999999999996589
 30
0.0
  0
VERTEX
  5
1DDF
  8
SAPA_PROFIL
 10
27.199999626462048
 20
20.999999999996589
 30
0.0
 42
-0.4142135623730951
  0
VERTEX
  5
1DE0
  8
SAPA_PROFIL
 10
26.699999626462048
 20
20.499999999996589
 30
0.0
  0
VERTEX
  5
1DE1
  8
SAPA_PROFIL
 10
24.999999626461999
 20
20.499999999996589
 30
0.0
  0
VERTEX
  5
1DE2
  8
SAPA_PROFIL
 10
24.999999626461999
 20
18.999999999996589
 30
0.0
  0
VERTEX
  5
1DE3
  8
SAPA_PROFIL
 10
28.199999626462048
 20
18.999999999996589
 30
0.0
 42
0.4142135623730951
  0
VERTEX
  5
1DE4
  8
SAPA_PROFIL
 10
28.699999626462041
 20
19.499999999996589
 30
0.0
  0
VERTEX
  5
1DE5
  8
SAPA_PROFIL
 10
28.699999626462041
 20
23.699999999996638
 30
0.0
  0
VERTEX
  5
1DE6
  8
SAPA_PROFIL
 10
28.39999962646209
 20
23.999999999996589
 30
0.0
  0
SEQEND
  5
1DE7
  8
SAPA_PROFIL
  0
POLYLINE
  5
1A8E
  8
SAPA_PROFIL
 66
     1
 10
0.0
 20
0.0
 30
0.0
 70
     1
  0
VERTEX
  5
1DE8
  8
SAPA_PROFIL
 10
-22.600000373537799
 20
-25.000000000002899
 30
0.0
 42
-0.767326987974136
  0
VERTEX
  5
1DE9
  8
SAPA_PROFIL
 10
-22.04019275240432
 20
-24.849999999999739
 30
0.0
 42
0.2679491924279902
  0
VERTEX
  5
1DEA
  8
SAPA_PROFIL
 10
-21.780385131280809
 20
-25.000000000002451
 30
0.0
  0
VERTEX
  5
1DEB
  8
SAPA_PROFIL
 10
-18.800000373537561
 20
-25.000000000001819
 30
0.0
 42
0.4142135623730395
  0
VERTEX
  5
1DEC
  8
SAPA_PROFIL
 10
-17.300000373537841
 20
-23.500000000001759
 30
0.0
  0
VERTEX
  5
1DED
  8
SAPA_PROFIL
 10
-17.300000373537841
 20
-22.400000000002361
 30
0.0
 42
0.4142135623730951
  0
VERTEX
  5
1DEE
  8
SAPA_PROFIL
 10
-17.600000373537569
 20
-22.10000000000241
 30
0.0
  0
VERTEX
  5
1DEF
  8
SAPA_PROFIL
 10
-18.100000373537569
 20
-22.10000000000241
 30
0.0
 42
0.4142135623730948
  0
VERTEX
  5
1DF0
  8
SAPA_PROFIL
 10
-18.40000037353775
 20
-22.400000000002361
 30
0.0
  0
VERTEX
  5
1DF1
  8
SAPA_PROFIL
 10
-18.40000037353775
 20
-22.736626924636539
 30
0.0
 42
-0.5643553431119927
  0
VERTEX
  5
1DF2
  8
SAPA_PROFIL
 10
-22.72439541677204
 20
-20.87439504323947
 30
0.0
  0
VERTEX
  5
1DF3
  8
SAPA_PROFIL
 10
-22.350000373539839
 20
-20.500000000002501
 30
0.0
  0
VERTEX
  5
1DF4
  8
SAPA_PROFIL
 10
-22.72439541677295
 20
-20.125604956769621
 30
0.0
 42
-0.564355343112654
  0
VERTEX
  5
1DF5
  8
SAPA_PROFIL
 10
-18.40000037353775
 20
-18.263373075367099
 30
0.0
  0
VERTEX
  5
1DF6
  8
SAPA_PROFIL
 10
-18.40000037353775
 20
-18.600000000002641
 30
0.0
 42
0.4142135623729843
  0
VERTEX
  5
1DF7
  8
SAPA_PROFIL
 10
-18.10000037353802
 20
-18.900000000002699
 30
0.0
  0
VERTEX
  5
1DF8
  8
SAPA_PROFIL
 10
-17.600000373537569
 20
-18.900000000002589
 30
0.0
 42
0.4142135623730951
  0
VERTEX
  5
1DF9
  8
SAPA_PROFIL
 10
-17.300000373537841
 20
-18.600000000002641
 30
0.0
  0
VERTEX
  5
1DFA
  8
SAPA_PROFIL
 10
-17.300000373537841
 20
-16.300000000002679
 30
0.0
 42
0.4142135623732062
  0
VERTEX
  5
1DFB
  8
SAPA_PROFIL
 10
-17.600000373537569
 20
-16.000000000002391
 30
0.0
  0
VERTEX
  5
1DFC
  8
SAPA_PROFIL
 10
-22.00000037353772
 20
-16.000000000002501
 30
0.0
 42
-0.4142135623731117
  0
VERTEX
  5
1DFD
  8
SAPA_PROFIL
 10
-23.00000037353783
 20
-15.000000000002499
 30
0.0
  0
VERTEX
  5
1DFE
  8
SAPA_PROFIL
 10
-23.000000373538061
 20
19.999999999995559
 30
0.0
 42
-0.7673269879789009
  0
VERTEX
  5
1DFF
  8
SAPA_PROFIL
 10
-22.066987671645901
 20
20.24999999999574
 30
0.0
 42
0.2679491924311131
  0
VERTEX
  5
1E00
  8
SAPA_PROFIL
 10
-21.633974969753641
 20
19.99999999999585
 30
0.0
  0
VERTEX
  5
1E01
  8
SAPA_PROFIL
 10
-18.800000373537781
 20
19.999999999996639
 30
0.0
 42
0.4142135623730395
  0
VERTEX
  5
1E02
  8
SAPA_PROFIL
 10
-17.300000373538069
 20
21.4999999999967
 30
0.0
  0
VERTEX
  5
1E03
  8
SAPA_PROFIL
 10
-17.300000373538069
 20
22.599999999996101
 30
0.0
 42
0.4142135623730951
  0
VERTEX
  5
1E04
  8
SAPA_PROFIL
 10
-17.600000373537789
 20
22.899999999996059
 30
0.0
  0
VERTEX
  5
1E05
  8
SAPA_PROFIL
 10
-18.100000373537789
 20
22.899999999996059
 30
0.0
 42
0.4142135623730948
  0
VERTEX
  5
1E06
  8
SAPA_PROFIL
 10
-18.400000373537981
 20
22.599999999996101
 30
0.0
  0
VERTEX
  5
1E07
  8
SAPA_PROFIL
 10
-18.400000373537981
 20
22.263373075361919
 30
0.0
 42
-0.5643553431119927
  0
VERTEX
  5
1E08
  8
SAPA_PROFIL
 10
-22.724395416772271
 20
24.125604956758991
 30
0.0
  0
VERTEX
  5
1E09
  8
SAPA_PROFIL
 10
-22.35000037354007
 20
24.499999999995961
 30
0.0
  0
VERTEX
  5
1E0A
  8
SAPA_PROFIL
 10
-22.724395416773181
 20
24.874395043228841
 30
0.0
 42
-0.564355343112654
  0
VERTEX
  5
1E0B
  8
SAPA_PROFIL
 10
-18.400000373537981
 20
26.73662692463137
 30
0.0
  0
VERTEX
  5
1E0C
  8
SAPA_PROFIL
 10
-18.400000373537981
 20
26.399999999995831
 30
0.0
 42
0.4142135623729843
  0
VERTEX
  5
1E0D
  8
SAPA_PROFIL
 10
-18.100000373538251
 20
26.099999999995759
 30
0.0
  0
VERTEX
  5
1E0E
  8
SAPA_PROFIL
 10
-17.600000373537789
 20
26.09999999999587
 30
0.0
 42
0.4142135623730951
  0
VERTEX
  5
1E0F
  8
SAPA_PROFIL
 10
-17.300000373538069
 20
26.399999999995831
 30
0.0
  0
VERTEX
  5
1E10
  8
SAPA_PROFIL
 10
-17.300000373538069
 20
28.699999999995779
 30
0.0
 42
0.4142135623732062
  0
VERTEX
  5
1E11
  8
SAPA_PROFIL
 10
-17.600000373537789
 20
28.999999999996081
 30
0.0
  0
VERTEX
  5
1E12
  8
SAPA_PROFIL
 10
-22.00000037353794
 20
28.999999999995971
 30
0.0
 42
-0.4142135623730951
  0
VERTEX
  5
1E13
  8
SAPA_PROFIL
 10
-23.00000037353794
 20
29.999999999995971
 30
0.0
  0
VERTEX
  5
1E14
  8
SAPA_PROFIL
 10
-23.000000373538111
 20
34.699999999996351
 30
0.0
 42
-0.4142135623730984
  0
VERTEX
  5
1E15
  8
SAPA_PROFIL
 10
-22.700000373538099
 20
34.999999999996362
 30
0.0
  0
VERTEX
  5
1E16
  8
SAPA_PROFIL
 10
-21.400000373538091
 20
34.999999999996362
 30
0.0
 42
0.4142135623730951
  0
VERTEX
  5
1E17
  8
SAPA_PROFIL
 10
-21.10000037353808
 20
35.299999999996373
 30
0.0
  0
VERTEX
  5
1E18
  8
SAPA_PROFIL
 10
-21.10000037353808
 20
35.875735931284403
 30
0.0
 42
0.198912367379637
  0
VERTEX
  5
1E19
  8
SAPA_PROFIL
 10
-21.187868339182099
 20
36.087867965640392
 30
0.0
  0
VERTEX
  5
1E1A
  8
SAPA_PROFIL
 10
-22.912132407893981
 20
37.812132034352153
 30
0.0
 42
-0.1989123673796579
  0
VERTEX
  5
1E1B
  8
SAPA_PROFIL
 10
-23.000000373538001
 20
38.024264068708142
 30
0.0
  0
VERTEX
  5
1E1C
  8
SAPA_PROFIL
 10
-23.000000373538061
 20
41.499999999996469
 30
0.0
 42
-0.4142135623730951
  0
VERTEX
  5
1E1D
  8
SAPA_PROFIL
 10
-22.000000373538061
 20
42.499999999996469
 30
0.0
  0
VERTEX
  5
1E1E
  8
SAPA_PROFIL
 10
21.999999626461829
 20
42.499999999996469
 30
0.0
 42
-0.4142135623730951
  0
VERTEX
  5
1E1F
  8
SAPA_PROFIL
 10
22.999999626461829
 20
41.499999999996469
 30
0.0
  0
VERTEX
  5
1E20
  8
SAPA_PROFIL
 10
22.999999626461769
 20
38.024264068708078
 30
0.0
 42
-0.1989123673796579
  0
VERTEX
  5
1E21
  8
SAPA_PROFIL
 10
22.912131660817749
 20
37.812132034352089
 30
0.0
  0
VERTEX
  5
1E22
  8
SAPA_PROFIL
 10
21.187867592105931
 20
36.087867965640442
 30
0.0
 42
0.198912367379658
  0
VERTEX
  5
1E23
  8
SAPA_PROFIL
 10
21.099999626461909
 20
35.875735931284453
 30
0.0
  0
VERTEX
  5
1E24
  8
SAPA_PROFIL
 10
21.099999626461909
 20
35.299999999996373
 30
0.0
 42
0.4142135623730951
  0
VERTEX
  5
1E25
  8
SAPA_PROFIL
 10
21.39999962646192
 20
34.999999999996362
 30
0.0
  0
VERTEX
  5
1E26
  8
SAPA_PROFIL
 10
22.699999626461821
 20
34.999999999996362
 30
0.0
 42
-0.4142135623730984
  0
VERTEX
  5
1E27
  8
SAPA_PROFIL
 10
22.999999626461829
 20
34.699999999996351
 30
0.0
  0
VERTEX
  5
1E28
  8
SAPA_PROFIL
 10
22.999999626461719
 20
29.999999999995971
 30
0.0
 42
-0.4142135623730951
  0
VERTEX
  5
1E29
  8
SAPA_PROFIL
 10
21.999999626461719
 20
28.999999999995971
 30
0.0
  0
VERTEX
  5
1E2A
  8
SAPA_PROFIL
 10
17.599999626461571
 20
28.999999999996081
 30
0.0
 42
0.4142135623732062
  0
VERTEX
  5
1E2B
  8
SAPA_PROFIL
 10
17.29999962646184
 20
28.699999999995779
 30
0.0
  0
VERTEX
  5
1E2C
  8
SAPA_PROFIL
 10
17.29999962646184
 20
26.399999999995831
 30
0.0
 42
0.4142135623730951
  0
VERTEX
  5
1E2D
  8
SAPA_PROFIL
 10
17.599999626461571
 20
26.09999999999587
 30
0.0
  0
VERTEX
  5
1E2E
  8
SAPA_PROFIL
 10
18.099999626462019
 20
26.099999999995759
 30
0.0
 42
0.414213562372984
  0
VERTEX
  5
1E2F
  8
SAPA_PROFIL
 10
18.399999626461749
 20
26.399999999995831
 30
0.0
  0
VERTEX
  5
1E30
  8
SAPA_PROFIL
 10
18.399999626461749
 20
26.73662692463137
 30
0.0
 42
-0.5643553431126542
  0
VERTEX
  5
1E31
  8
SAPA_PROFIL
 10
22.724394669696949
 20
24.874395043228841
 30
0.0
  0
VERTEX
  5
1E32
  8
SAPA_PROFIL
 10
22.349999626463841
 20
24.499999999995961
 30
0.0
  0
VERTEX
  5
1E33
  8
SAPA_PROFIL
 10
22.724394669696039
 20
24.125604956758991
 30
0.0
 42
-0.5643553431119927
  0
VERTEX
  5
1E34
  8
SAPA_PROFIL
 10
18.399999626461749
 20
22.263373075361919
 30
0.0
  0
VERTEX
  5
1E35
  8
SAPA_PROFIL
 10
18.399999626461749
 20
22.599999999996101
 30
0.0
 42
0.414213562373095
  0
VERTEX
  5
1E36
  8
SAPA_PROFIL
 10
18.099999626461571
 20
22.899999999996059
 30
0.0
  0
VERTEX
  5
1E37
  8
SAPA_PROFIL
 10
17.599999626461571
 20
22.899999999996059
 30
0.0
 42
0.4142135623730953
  0
VERTEX
  5
1E38
  8
SAPA_PROFIL
 10
17.29999962646184
 20
22.599999999996101
 30
0.0
  0
VERTEX
  5
1E39
  8
SAPA_PROFIL
 10
17.299999626461609
 20
21.4999999999967
 30
0.0
 42
0.4142135623730508
  0
VERTEX
  5
1E3A
  8
SAPA_PROFIL
 10
18.799999626461329
 20
19.999999999996639
 30
0.0
  0
VERTEX
  5
1E3B
  8
SAPA_PROFIL
 10
21.633974222677178
 20
19.999999999995911
 30
0.0
 42
0.2679491924311283
  0
VERTEX
  5
1E3C
  8
SAPA_PROFIL
 10
22.066986924569449
 20
20.24999999999574
 30
0.0
 42
-0.7673269879788167
  0
VERTEX
  5
1E3D
  8
SAPA_PROFIL
 10
22.999999626461602
 20
19.999999999995559
 30
0.0
  0
VERTEX
  5
1E3E
  8
SAPA_PROFIL
 10
22.999999626461381
 20
-15.000000000002499
 30
0.0
 42
-0.4142135623730951
  0
VERTEX
  5
1E3F
  8
SAPA_PROFIL
 10
21.999999626461371
 20
-16.000000000002501
 30
0.0
  0
VERTEX
  5
1E40
  8
SAPA_PROFIL
 10
17.599999626461219
 20
-16.000000000002391
 30
0.0
 42
0.4142135623732062
  0
VERTEX
  5
1E41
  8
SAPA_PROFIL
 10
17.299999626461499
 20
-16.300000000002679
 30
0.0
  0
VERTEX
  5
1E42
  8
SAPA_PROFIL
 10
17.299999626461499
 20
-18.600000000002641
 30
0.0
 42
0.4142135623730951
  0
VERTEX
  5
1E43
  8
SAPA_PROFIL
 10
17.599999626461219
 20
-18.900000000002589
 30
0.0
  0
VERTEX
  5
1E44
  8
SAPA_PROFIL
 10
18.099999626461681
 20
-18.900000000002699
 30
0.0
 42
0.414213562372984
  0
VERTEX
  5
1E45
  8
SAPA_PROFIL
 10
18.399999626461408
 20
-18.600000000002641
 30
0.0
  0
VERTEX
  5
1E46
  8
SAPA_PROFIL
 10
18.399999626461408
 20
-18.263373075367099
 30
0.0
 42
-0.5643553431126542
  0
VERTEX
  5
1E47
  8
SAPA_PROFIL
 10
22.724394669696611
 20
-20.125604956769621
 30
0.0
  0
VERTEX
  5
1E48
  8
SAPA_PROFIL
 10
22.3499996264635
 20
-20.500000000002501
 30
0.0
  0
VERTEX
  5
1E49
  8
SAPA_PROFIL
 10
22.724394669695702
 20
-20.87439504323947
 30
0.0
 42
-0.5643553431119927
  0
VERTEX
  5
1E4A
  8
SAPA_PROFIL
 10
18.399999626461408
 20
-22.736626924636539
 30
0.0
  0
VERTEX
  5
1E4B
  8
SAPA_PROFIL
 10
18.399999626461408
 20
-22.400000000002361
 30
0.0
 42
0.414213562373095
  0
VERTEX
  5
1E4C
  8
SAPA_PROFIL
 10
18.099999626461219
 20
-22.10000000000241
 30
0.0
  0
VERTEX
  5
1E4D
  8
SAPA_PROFIL
 10
17.599999626461219
 20
-22.10000000000241
 30
0.0
 42
0.4142135623730951
  0
VERTEX
  5
1E4E
  8
SAPA_PROFIL
 10
17.299999626461378
 20
-22.400000000002361
 30
0.0
  0
VERTEX
  5
1E4F
  8
SAPA_PROFIL
 10
17.299999626461378
 20
-23.500000000001759
 30
0.0
 42
0.4142135623730508
  0
VERTEX
  5
1E50
  8
SAPA_PROFIL
 10
18.799999626461101
 20
-25.000000000001819
 30
0.0
  0
VERTEX
  5
1E51
  8
SAPA_PROFIL
 10
21.78038438420435
 20
-25.000000000002451
 30
0.0
 42
0.2679491924279903
  0
VERTEX
  5
1E52
  8
SAPA_PROFIL
 10
22.040192005327871
 20
-24.849999999999739
 30
0.0
 42
-0.767326987974136
  0
VERTEX
  5
1E53
  8
SAPA_PROFIL
 10
22.5999996264614
 20
-25.000000000002899
 30
0.0
  0
VERTEX
  5
1E54
  8
SAPA_PROFIL
 10
22.59999962646134
 20
-27.000000000001819
 30
0.0
 42
-0.4142135623730951
  0
VERTEX
  5
1E55
  8
SAPA_PROFIL
 10
21.59999962646134
 20
-28.000000000001819
 30
0.0
  0
VERTEX
  5
1E56
  8
SAPA_PROFIL
 10
-21.600000373537799
 20
-28.000000000001819
 30
0.0
 42
-0.4142135623731284
  0
VERTEX
  5
1E57
  8
SAPA_PROFIL
 10
-22.60000037353791
 20
-27.000000000001819
 30
0.0
  0
SEQEND
  5
1E58
  8
SAPA_PROFIL
  0
POLYLINE
  5
1A8F
  8
SAPA_PROFIL
 66
     1
 10
0.0
 20
0.0
 30
0.0
 70
     1
  0
VERTEX
  5
1E59
  8
SAPA_PROFIL
 10
2.6999996264622719
 20
-30.999999999011781
 30
0.0
  0
VERTEX
  5
1E5A
  8
SAPA_PROFIL
 10
2.6999996264622719
 20
-31.249999999011781
 30
0.0
  0
VERTEX
  5
1E5B
  8
SAPA_PROFIL
 10
2.3499996264623628
 20
-31.24999999901183
 30
0.0
 42
0.5450207774094042
  0
VERTEX
  5
1E5C
  8
SAPA_PROFIL
 10
2.076719322210351
 20
-31.67376540333731
 30
0.0
  0
VERTEX
  5
1E5D
  8
SAPA_PROFIL
 10
2.6999996264622719
 20
-33.049999999011959
 30
0.0
  0
VERTEX
  5
1E5E
  8
SAPA_PROFIL
 10
2.3499996264623628
 20
-33.04999999901208
 30
0.0
 42
0.5450207774090177
  0
VERTEX
  5
1E5F
  8
SAPA_PROFIL
 10
2.0767193222102369
 20
-33.473765403337161
 30
0.0
  0
VERTEX
  5
1E60
  8
SAPA_PROFIL
 10
2.6999996264622719
 20
-34.849999999011906
 30
0.0
  0
VERTEX
  5
1E61
  8
SAPA_PROFIL
 10
2.3499996264623628
 20
-34.84999999901197
 30
0.0
 42
0.5450207774094042
  0
VERTEX
  5
1E62
  8
SAPA_PROFIL
 10
2.076719322210351
 20
-35.27376540333745
 30
0.0
  0
VERTEX
  5
1E63
  8
SAPA_PROFIL
 10
2.6999996264622719
 20
-36.649999999011868
 30
0.0
  0
VERTEX
  5
1E64
  8
SAPA_PROFIL
 10
2.3499996264623628
 20
-36.649999999011868
 30
0.0
 42
0.545020777409516
  0
VERTEX
  5
1E65
  8
SAPA_PROFIL
 10
2.076719322210351
 20
-37.073765403337518
 30
0.0
  0
VERTEX
  5
1E66
  8
SAPA_PROFIL
 10
2.6999996264622719
 20
-38.44999999901205
 30
0.0
  0
VERTEX
  5
1E67
  8
SAPA_PROFIL
 10
2.3499996264623628
 20
-38.44999999901205
 30
0.0
 42
0.545020777409516
  0
VERTEX
  5
1E68
  8
SAPA_PROFIL
 10
2.076719322210351
 20
-38.8737654033377
 30
0.0
  0
VERTEX
  5
1E69
  8
SAPA_PROFIL
 10
2.6999996264622719
 20
-40.249999999012232
 30
0.0
  0
VERTEX
  5
1E6A
  8
SAPA_PROFIL
 10
2.3499996264623628
 20
-40.249999999012232
 30
0.0
 42
0.5450207774090177
  0
VERTEX
  5
1E6B
  8
SAPA_PROFIL
 10
2.0767193222102369
 20
-40.67376540333742
 30
0.0
  0
VERTEX
  5
1E6C
  8
SAPA_PROFIL
 10
2.4282667520477039
 20
-41.449999999012043
 30
0.0
  0
VERTEX
  5
1E6D
  8
SAPA_PROFIL
 10
-1.0006707898188549
 20
-41.449999999012107
 30
0.0
  0
VERTEX
  5
1E6E
  8
SAPA_PROFIL
 10
-2.7000003735378182
 20
-41.449999999012107
 30
0.0
  0
VERTEX
  5
1E6F
  8
SAPA_PROFIL
 10
-2.7000003735378182
 20
-41.149999999012088
 30
0.0
  0
VERTEX
  5
1E70
  8
SAPA_PROFIL
 10
-2.0767200692854431
 20
-39.773765403337791
 30
0.0
 42
0.5450207774093642
  0
VERTEX
  5
1E71
  8
SAPA_PROFIL
 10
-2.3500003735376822
 20
-39.349999999012368
 30
0.0
  0
VERTEX
  5
1E72
  8
SAPA_PROFIL
 10
-2.7000003735378182
 20
-39.349999999012141
 30
0.0
  0
VERTEX
  5
1E73
  8
SAPA_PROFIL
 10
-2.0767200692856131
 20
-37.973765403337609
 30
0.0
 42
0.5450207774088696
  0
VERTEX
  5
1E74
  8
SAPA_PROFIL
 10
-2.3500003735376822
 20
-37.549999999012421
 30
0.0
  0
VERTEX
  5
1E75
  8
SAPA_PROFIL
 10
-2.7000003735378182
 20
-37.549999999012194
 30
0.0
  0
VERTEX
  5
1E76
  8
SAPA_PROFIL
 10
-2.0767200692856131
 20
-36.173765403337647
 30
0.0
 42
0.5450207774094402
  0
VERTEX
  5
1E77
  8
SAPA_PROFIL
 10
-2.3500003735376822
 20
-35.749999999012353
 30
0.0
  0
VERTEX
  5
1E78
  8
SAPA_PROFIL
 10
-2.7000003735378182
 20
-35.749999999012232
 30
0.0
  0
VERTEX
  5
1E79
  8
SAPA_PROFIL
 10
-2.0767200692854431
 20
-34.373765403337927
 30
0.0
 42
0.5450207774093642
  0
VERTEX
  5
1E7A
  8
SAPA_PROFIL
 10
-2.3500003735376822
 20
-33.949999999012512
 30
0.0
  0
VERTEX
  5
1E7B
  8
SAPA_PROFIL
 10
-2.7000003735378182
 20
-33.949999999012277
 30
0.0
  0
VERTEX
  5
1E7C
  8
SAPA_PROFIL
 10
-2.0767200692856131
 20
-32.573765403337752
 30
0.0
 42
0.5450207774088696
  0
VERTEX
  5
1E7D
  8
SAPA_PROFIL
 10
-2.3500003735376822
 20
-32.149999999012607
 30
0.0
  0
VERTEX
  5
1E7E
  8
SAPA_PROFIL
 10
-2.7000003735378182
 20
-32.149999999011868
 30
0.0
  0
VERTEX
  5
1E7F
  8
SAPA_PROFIL
 10
-2.7000003735378182
 20
-30.999999999011781
 30
0.0
 42
-0.4142135623730951
  0
VERTEX
  5
1E80
  8
SAPA_PROFIL
 10
-1.700000373537818
 20
-29.999999999011781
 30
0.0
  0
VERTEX
  5
1E81
  8
SAPA_PROFIL
 10
1.6999996264622721
 20
-29.999999999011781
 30
0.0
 42
-0.4142135623730951
  0
SEQEND
  5
1E82
  8
SAPA_PROFIL
  0
POLYLINE
  5
1A90
  8
SAPA_PROFIL
 66
     1
 10
0.0
 20
0.0
 30
0.0
 70
     1
  0
VERTEX
  5
1E83
  8
SAPA_PROFIL
 10
-16.700000373538671
 20
-30.000000000001759
 30
0.0
  0
VERTEX
  5
1E84
  8
SAPA_PROFIL
 10
-23.20000037353833
 20
-30.000000000001759
 30
0.0
 42
0.4142135623732062
  0
VERTEX
  5
1E85
  8
SAPA_PROFIL
 10
-23.500000373538288
 20
-30.30000000000183
 30
0.0
  0
VERTEX
  5
1E86
  8
SAPA_PROFIL
 10
-23.500000373538288
 20
-34.20000000000158
 30
0.0
 42
0.4142135623730951
  0
VERTEX
  5
1E87
  8
SAPA_PROFIL
 10
-23.20000037353833
 20
-34.500000000001542
 30
0.0
  0
VERTEX
  5
1E88
  8
SAPA_PROFIL
 10
-22.000000373538452
 20
-34.500000000001648
 30
0.0
 42
-0.7105995015650612
  0
VERTEX
  5
1E89
  8
SAPA_PROFIL
 10
-21.813616357777619
 20
-35.03507658043651
 30
0.0
  0
VERTEX
  5
1E8A
  8
SAPA_PROFIL
 10
-22.127051798357339
 20
-35.283588601450958
 30
0.0
 42
-0.169180745212488
  0
VERTEX
  5
1E8B
  8
SAPA_PROFIL
 10
-22.748331850893241
 20
-35.500000000001769
 30
0.0
  0
VERTEX
  5
1E8C
  8
SAPA_PROFIL
 10
-24.700000373538501
 20
-35.500000000001648
 30
0.0
 42
-0.4142135623730951
  0
VERTEX
  5
1E8D
  8
SAPA_PROFIL
 10
-25.000000373538459
 20
-35.200000000001701
 30
0.0
  0
VERTEX
  5
1E8E
  8
SAPA_PROFIL
 10
-25.000000373538121
 20
43.999999999996419
 30
0.0
 42
-0.4142135623730951
  0
VERTEX
  5
1E8F
  8
SAPA_PROFIL
 10
-24.500000373538121
 20
44.499999999996419
 30
0.0
  0
VERTEX
  5
1E90
  8
SAPA_PROFIL
 10
24.499999626461889
 20
44.499999999996419
 30
0.0
 42
-0.4142135623730951
  0
VERTEX
  5
1E91
  8
SAPA_PROFIL
 10
24.999999626461889
 20
43.999999999996419
 30
0.0
  0
VERTEX
  5
1E92
  8
SAPA_PROFIL
 10
24.999999626461999
 20
-35.200000000001808
 30
0.0
 42
-0.4142135623730951
  0
VERTEX
  5
1E93
  8
SAPA_PROFIL
 10
24.699999626462048
 20
-35.500000000001769
 30
0.0
  0
VERTEX
  5
1E94
  8
SAPA_PROFIL
 10
22.748331103816948
 20
-35.500000000001769
 30
0.0
 42
-0.1691807452125303
  0
VERTEX
  5
1E95
  8
SAPA_PROFIL
 10
22.12705105128094
 20
-35.283588601450852
 30
0.0
  0
VERTEX
  5
1E96
  8
SAPA_PROFIL
 10
21.81361561070128
 20
-35.035076580436403
 30
0.0
 42
-0.7105995015650845
  0
VERTEX
  5
1E97
  8
SAPA_PROFIL
 10
21.999999626461999
 20
-34.500000000001762
 30
0.0
  0
VERTEX
  5
1E98
  8
SAPA_PROFIL
 10
23.199999626461931
 20
-34.500000000001762
 30
0.0
 42
0.4142135623732061
  0
VERTEX
  5
1E99
  8
SAPA_PROFIL
 10
23.499999626461879
 20
-34.200000000001701
 30
0.0
  0
VERTEX
  5
1E9A
  8
SAPA_PROFIL
 10
23.499999626461879
 20
-30.300000000001951
 30
0.0
 42
0.4142135623732061
  0
VERTEX
  5
1E9B
  8
SAPA_PROFIL
 10
23.199999626461931
 20
-30.000000000001879
 30
0.0
  0
VERTEX
  5
1E9C
  8
SAPA_PROFIL
 10
16.699999626461992
 20
-30.000000000001759
 30
0.0
 42
0.4142135623730951
  0
VERTEX
  5
1E9D
  8
SAPA_PROFIL
 10
16.199999626461992
 20
-30.500000000001769
 30
0.0
  0
VERTEX
  5
1E9E
  8
SAPA_PROFIL
 10
16.199999626461871
 20
-34.20000000000158
 30
0.0
 42
0.4142135623733172
  0
VERTEX
  5
1E9F
  8
SAPA_PROFIL
 10
16.499999626462049
 20
-34.500000000001762
 30
0.0
  0
VERTEX
  5
1EA0
  8
SAPA_PROFIL
 10
18.39999962646198
 20
-34.500000000001542
 30
0.0
 42
-0.7105995015650612
  0
VERTEX
  5
1EA1
  8
SAPA_PROFIL
 10
18.58638364222281
 20
-35.035076580436403
 30
0.0
  0
VERTEX
  5
1EA2
  8
SAPA_PROFIL
 10
18.27294820164326
 20
-35.283588601450852
 30
0.0
 42
-0.1691807452125303
  0
VERTEX
  5
1EA3
  8
SAPA_PROFIL
 10
17.651668149107248
 20
-35.500000000001769
 30
0.0
  0
VERTEX
  5
1EA4
  8
SAPA_PROFIL
 10
11.29999962646195
 20
-35.500000000001769
 30
0.0
 42
-0.4142135623728731
  0
VERTEX
  5
1EA5
  8
SAPA_PROFIL
 10
10.999999626461999
 20
-35.200000000001808
 30
0.0
  0
VERTEX
  5
1EA6
  8
SAPA_PROFIL
 10
10.99999962646222
 20
-34.500000000001542
 30
0.0
 42
-0.4142135623730951
  0
VERTEX
  5
1EA7
  8
SAPA_PROFIL
 10
11.29999962646218
 20
-34.20000000000158
 30
0.0
  0
VERTEX
  5
1EA8
  8
SAPA_PROFIL
 10
14.199999626461761
 20
-34.20000000000158
 30
0.0
 42
0.4142135623730951
  0
VERTEX
  5
1EA9
  8
SAPA_PROFIL
 10
14.699999626461761
 20
-33.70000000000158
 30
0.0
  0
VERTEX
  5
1EAA
  8
SAPA_PROFIL
 10
14.699999626461979
 20
-30.500000000001769
 30
0.0
 42
0.4142135623731617
  0
VERTEX
  5
1EAB
  8
SAPA_PROFIL
 10
14.19999962646199
 20
-30.000000000001759
 30
0.0
  0
VERTEX
  5
1EAC
  8
SAPA_PROFIL
 10
5.999999626462567
 20
-30.00000000000199
 30
0.0
 42
0.4142135623730951
  0
VERTEX
  5
1EAD
  8
SAPA_PROFIL
 10
4.999999626462567
 20
-31.00000000000199
 30
0.0
  0
VERTEX
  5
1EAE
  8
SAPA_PROFIL
 10
4.9999996264623396
 20
-52.199999999011879
 30
0.0
 42
-0.4142135623730951
  0
VERTEX
  5
1EAF
  8
SAPA_PROFIL
 10
4.6999996264623292
 20
-52.499999999011891
 30
0.0
  0
VERTEX
  5
1EB0
  8
SAPA_PROFIL
 10
3.0750101561756078
 20
-52.499999999011827
 30
0.0
  0
VERTEX
  5
1EB1
  8
SAPA_PROFIL
 10
2.21447477739133
 20
-51.535790539647849
 30
0.0
 42
-0.6264792893017398
  0
VERTEX
  5
1EB2
  8
SAPA_PROFIL
 10
2.450020685889398
 20
-51.049999999012421
 30
0.0
  0
VERTEX
  5
1EB3
  8
SAPA_PROFIL
 10
2.6999996264623292
 20
-51.049999999012179
 30
0.0
  0
VERTEX
  5
1EB4
  8
SAPA_PROFIL
 10
2.1767193222102028
 20
-49.673765403337882
 30
0.0
 42
-0.5450207774090681
  0
VERTEX
  5
1EB5
  8
SAPA_PROFIL
 10
2.4499996264623292
 20
-49.249999999012353
 30
0.0
  0
VERTEX
  5
1EB6
  8
SAPA_PROFIL
 10
2.6999996264622719
 20
-49.249999999012232
 30
0.0
  0
VERTEX
  5
1EB7
  8
SAPA_PROFIL
 10
2.1767193222103169
 20
-47.87376540333792
 30
0.0
 42
-0.545020777409516
  0
VERTEX
  5
1EB8
  8
SAPA_PROFIL
 10
2.4499996264623292
 20
-47.44999999901227
 30
0.0
  0
VERTEX
  5
1EB9
  8
SAPA_PROFIL
 10
2.6999996264622719
 20
-47.44999999901227
 30
0.0
  0
VERTEX
  5
1EBA
  8
SAPA_PROFIL
 10
2.1767193222102028
 20
-46.073765403337617
 30
0.0
 42
-0.5450207774091295
  0
VERTEX
  5
1EBB
  8
SAPA_PROFIL
 10
2.4499996264623292
 20
-45.64999999901238
 30
0.0
  0
VERTEX
  5
1EBC
  8
SAPA_PROFIL
 10
2.6999996264622719
 20
-45.649999999012323
 30
0.0
  0
VERTEX
  5
1EBD
  8
SAPA_PROFIL
 10
2.1767193222103169
 20
-44.273765403337791
 30
0.0
 42
-0.545020777409516
  0
VERTEX
  5
1EBE
  8
SAPA_PROFIL
 10
2.4499996264623292
 20
-43.849999999012127
 30
0.0
  0
VERTEX
  5
1EBF
  8
SAPA_PROFIL
 10
2.6999996264622719
 20
-43.849999999012127
 30
0.0
  0
VERTEX
  5
1EC0
  8
SAPA_PROFIL
 10
2.446046474292018
 20
-43.182570825615642
 30
0.0
 42
0.3492695052203141
  0
VERTEX
  5
1EC1
  8
SAPA_PROFIL
 10
2.1537224989238548
 20
-42.949999999012221
 30
0.0
  0
VERTEX
  5
1EC2
  8
SAPA_PROFIL
 10
1.2649106905294041
 20
-42.949999999012221
 30
0.0
 42
-0.3475404855924057
  0
VERTEX
  5
1EC3
  8
SAPA_PROFIL
 10
0.9730081372830454
 20
-42.71923076824293
 30
0.0
 42
0.7905694150422074
  0
VERTEX
  5
1EC4
  8
SAPA_PROFIL
 10
-0.973008884359956
 20
-42.719230768243101
 30
0.0
 42
-0.3475404855923888
  0
VERTEX
  5
1EC5
  8
SAPA_PROFIL
 10
-1.2649114376071671
 20
-42.949999999012221
 30
0.0
  0
VERTEX
  5
1EC6
  8
SAPA_PROFIL
 10
-1.8767200692856809
 20
-42.9499999990121
 30
0.0
 42
0.4142135623730951
  0
VERTEX
  5
1EC7
  8
SAPA_PROFIL
 10
-2.1767200692856932
 20
-43.249999999012111
 30
0.0
  0
VERTEX
  5
1EC8
  8
SAPA_PROFIL
 10
-2.1767200692856359
 20
-43.3737654033377
 30
0.0
  0
VERTEX
  5
1EC9
  8
SAPA_PROFIL
 10
-2.7000003735378182
 20
-44.749999999012232
 30
0.0
  0
VERTEX
  5
1ECA
  8
SAPA_PROFIL
 10
-2.4500003735376481
 20
-44.749999999012452
 30
0.0
 42
-0.5450207774088696
  0
VERTEX
  5
1ECB
  8
SAPA_PROFIL
 10
-2.176720069285579
 20
-45.173765403337647
 30
0.0
  0
VERTEX
  5
1ECC
  8
SAPA_PROFIL
 10
-2.7000003735378182
 20
-46.549999999012179
 30
0.0
  0
VERTEX
  5
1ECD
  8
SAPA_PROFIL
 10
-2.4500003735376481
 20
-46.549999999012407
 30
0.0
 42
-0.5450207774091855
  0
VERTEX
  5
1ECE
  8
SAPA_PROFIL
 10
-2.1767200692855222
 20
-46.973765403337772
 30
0.0
  0
VERTEX
  5
1ECF
  8
SAPA_PROFIL
 10
-2.7000003735378182
 20
-48.349999999012141
 30
0.0
  0
VERTEX
  5
1ED0
  8
SAPA_PROFIL
 10
-2.4500003735376481
 20
-48.349999999012141
 30
0.0
 42
-0.5450207774093374
  0
VERTEX
  5
1ED1
  8
SAPA_PROFIL
 10
-2.17672006928575
 20
-48.773765403337741
 30
0.0
  0
VERTEX
  5
1ED2
  8
SAPA_PROFIL
 10
-2.7000003735378182
 20
-50.149999999012323
 30
0.0
  0
VERTEX
  5
1ED3
  8
SAPA_PROFIL
 10
-2.1499793141106229
 20
-50.149999999011918
 30
0.0
  0
VERTEX
  5
1ED4
  8
SAPA_PROFIL
 10
-2.1499793141105661
 20
-51.347075010161461
 30
0.0
 42
-0.1681572645226206
  0
VERTEX
  5
1ED5
  8
SAPA_PROFIL
 10
-2.2141626638721159
 20
-51.532521788160693
 30
0.0
  0
VERTEX
  5
1ED6
  8
SAPA_PROFIL
 10
-3.074989843824369
 20
-52.49999999901177
 30
0.0
  0
VERTEX
  5
1ED7
  8
SAPA_PROFIL
 10
-4.7000003735403189
 20
-52.499999999011827
 30
0.0
 42
-0.4142135623730951
  0
VERTEX
  5
1ED8
  8
SAPA_PROFIL
 10
-5.0000003735403311
 20
-52.199999999011823
 30
0.0
  0
VERTEX
  5
1ED9
  8
SAPA_PROFIL
 10
-5.0000003735401597
 20
-31.000000000001879
 30
0.0
 42
0.4142135623730951
  0
VERTEX
  5
1EDA
  8
SAPA_PROFIL
 10
-6.0000003735401597
 20
-30.000000000001879
 30
0.0
  0
VERTEX
  5
1EDB
  8
SAPA_PROFIL
 10
-14.200000373538559
 20
-30.000000000001759
 30
0.0
 42
0.4142135623730951
  0
VERTEX
  5
1EDC
  8
SAPA_PROFIL
 10
-14.70000037353855
 20
-30.500000000001769
 30
0.0
  0
VERTEX
  5
1EDD
  8
SAPA_PROFIL
 10
-14.70000037353855
 20
-33.700000000001808
 30
0.0
 42
0.4142135623730951
  0
VERTEX
  5
1EDE
  8
SAPA_PROFIL
 10
-14.200000373538559
 20
-34.200000000001808
 30
0.0
  0
VERTEX
  5
1EDF
  8
SAPA_PROFIL
 10
-11.30000037353863
 20
-34.20000000000158
 30
0.0
 42
-0.4142135623730951
  0
VERTEX
  5
1EE0
  8
SAPA_PROFIL
 10
-11.000000373538681
 20
-34.500000000001542
 30
0.0
  0
VERTEX
  5
1EE1
  8
SAPA_PROFIL
 10
-11.000000373538571
 20
-35.200000000001701
 30
0.0
 42
-0.4142135623730951
  0
VERTEX
  5
1EE2
  8
SAPA_PROFIL
 10
-11.30000037353841
 20
-35.500000000001769
 30
0.0
  0
VERTEX
  5
1EE3
  8
SAPA_PROFIL
 10
-17.6516688961837
 20
-35.500000000001648
 30
0.0
 42
-0.1691807452124953
  0
VERTEX
  5
1EE4
  8
SAPA_PROFIL
 10
-18.272948948719598
 20
-35.283588601450788
 30
0.0
  0
VERTEX
  5
1EE5
  8
SAPA_PROFIL
 10
-18.586384389299269
 20
-35.035076580436403
 30
0.0
 42
-0.7105995015650612
  0
VERTEX
  5
1EE6
  8
SAPA_PROFIL
 10
-18.400000373538429
 20
-34.500000000001542
 30
0.0
  0
VERTEX
  5
1EE7
  8
SAPA_PROFIL
 10
-16.500000373538619
 20
-34.500000000001762
 30
0.0
 42
0.4142135623732061
  0
VERTEX
  5
1EE8
  8
SAPA_PROFIL
 10
-16.200000373538561
 20
-34.20000000000158
 30
0.0
  0
VERTEX
  5
1EE9
  8
SAPA_PROFIL
 10
-16.200000373538671
 20
-30.500000000001769
 30
0.0
 42
0.4142135623730951
  0
SEQEND
  5
1EEA
  8
SAPA_PROFIL
  0
LINE
  5
1A91
  8
SAPA_PROFIL
 62
     0
 10
26.696373426103289
 20
41.387268607697308
 30
0.0
 11
27.18052057715806
 21
40.903121456642559
 31
0.0
  0
LINE
  5
1A92
  8
SAPA_PROFIL
 62
     0
 10
25.00938381825765
 20
41.306491262576628
 30
0.0
 11
27.18052057715806
 21
39.135354503676183
 31
0.0
  0
LINE
  5
1A93
  8
SAPA_PROFIL
 62
     0
 10
25.00938381825765
 20
39.538724309610252
 30
0.0
 11
27.18052057715806
 21
37.3675875507098
 31
0.0
  0
LINE
  5
1A94
  8
SAPA_PROFIL
 62
     0
 10
25.00938381825765
 20
37.770957356643862
 30
0.0
 11
27.18052057715806
 21
35.599820597743467
 31
0.0
  0
LINE
  5
1A95
  8
SAPA_PROFIL
 62
     0
 10
25.00938381825765
 20
36.003190403677479
 30
0.0
 11
27.18052057715806
 21
33.832053644777091
 31
0.0
  0
LINE
  5
1A96
  8
SAPA_PROFIL
 62
     0
 10
25.00938381825765
 20
27.164355638845681
 30
0.0
 11
25.74319074405329
 21
26.43054871305003
 31
0.0
  0
LINE
  5
1A97
  8
SAPA_PROFIL
 62
     0
 10
25.00938381825765
 20
28.932122591812011
 30
0.0
 11
27.18052057715806
 21
26.760985832911619
 31
0.0
  0
LINE
  5
1A98
  8
SAPA_PROFIL
 62
     0
 10
25.00938381825765
 20
30.69988954477839
 30
0.0
 11
27.18052057715806
 21
28.528752785878002
 31
0.0
  0
LINE
  5
1A99
  8
SAPA_PROFIL
 62
     0
 10
25.00938381825765
 20
32.46765649774477
 30
0.0
 11
27.18052057715806
 21
30.296519738844321
 31
0.0
  0
LINE
  5
1A9A
  8
SAPA_PROFIL
 62
     0
 10
25.00938381825765
 20
34.235423450711153
 30
0.0
 11
27.18052057715806
 21
32.064286691810707
 31
0.0
  0
LINE
  5
1A9B
  8
SAPA_PROFIL
 62
     0
 10
25.00938381825765
 20
40.158205981169537
 30
0.0
 11
26.23844644478547
 21
41.387268607697308
 31
0.0
  0
LINE
  5
1A9C
  8
SAPA_PROFIL
 62
     0
 10
25.00938381825765
 20
38.390439028203161
 30
0.0
 11
27.18052057715806
 21
40.561575787103607
 31
0.0
  0
LINE
  5
1A9D
  8
SAPA_PROFIL
 62
     0
 10
25.00938381825765
 20
36.622672075236778
 30
0.0
 11
27.18052057715806
 21
38.793808834137216
 31
0.0
  0
LINE
  5
1A9E
  8
SAPA_PROFIL
 62
     0
 10
25.00938381825765
 20
34.854905122270452
 30
0.0
 11
27.18052057715806
 21
37.02604188117084
 31
0.0
  0
LINE
  5
1A9F
  8
SAPA_PROFIL
 62
     0
 10
25.00938381825765
 20
33.087138169304069
 30
0.0
 11
27.18052057715806
 21
35.258274928204457
 31
0.0
  0
LINE
  5
1AA0
  8
SAPA_PROFIL
 62
     0
 10
25.423862173869111
 20
26.43054871305003
 30
0.0
 11
27.18052057715806
 21
28.187207116338978
 31
0.0
  0
LINE
  5
1AA1
  8
SAPA_PROFIL
 62
     0
 10
25.00938381825765
 20
27.78383731040498
 30
0.0
 11
27.18052057715806
 21
29.954974069305369
 31
0.0
  0
LINE
  5
1AA2
  8
SAPA_PROFIL
 62
     0
 10
25.00938381825765
 20
29.551604263371299
 30
0.0
 11
27.18052057715806
 21
31.722741022271752
 31
0.0
  0
LINE
  5
1AA3
  8
SAPA_PROFIL
 62
     0
 10
25.00938381825765
 20
31.319371216337689
 30
0.0
 11
27.18052057715806
 21
33.490507975238131
 31
0.0
  0
LINE
  5
1AA4
  8
SAPA_PROFIL
 62
     0
 10
41.101219821540468
 20
42.368339987301852
 30
0.0
 11
42.36909369766542
 21
41.100466111176949
 31
0.0
  0
LINE
  5
1AA5
  8
SAPA_PROFIL
 62
     0
 10
39.333452868574092
 20
42.368339987301852
 30
0.0
 11
40.684382407445433
 21
41.017410448430489
 31
0.0
  0
LINE
  5
1AA6
  8
SAPA_PROFIL
 62
     0
 10
37.565685915607759
 20
42.368339987301852
 30
0.0
 11
38.916615454479121
 21
41.017410448430489
 31
0.0
  0
LINE
  5
1AA7
  8
SAPA_PROFIL
 62
     0
 10
35.797918962641347
 20
42.368339987301852
 30
0.0
 11
37.148848501512731
 21
41.017410448430489
 31
0.0
  0
LINE
  5
1AA8
  8
SAPA_PROFIL
 62
     0
 10
29.280888981004161
 20
41.814302157073598
 30
0.0
 11
30.077780689647231
 21
41.017410448430489
 31
0.0
  0
LINE
  5
1AA9
  8
SAPA_PROFIL
 62
     0
 10
30.49461810374223
 20
42.368339987301852
 30
0.0
 11
31.845547642613582
 21
41.017410448430489
 31
0.0
  0
LINE
  5
1AAA
  8
SAPA_PROFIL
 62
     0
 10
32.262385056708609
 20
42.368339987301852
 30
0.0
 11
33.613314595579972
 21
41.017410448430489
 31
0.0
  0
LINE
  5
1AAB
  8
SAPA_PROFIL
 62
     0
 10
34.030152009674971
 20
42.368339987301852
 30
0.0
 11
35.381081548546319
 21
41.017410448430489
 31
0.0
  0
LINE
  5
1AAC
  8
SAPA_PROFIL
 62
     0
 10
29.812843642453679
 20
41.017410448430489
 30
0.0
 11
31.16377318132502
 21
42.368339987301852
 31
0.0
  0
LINE
  5
1AAD
  8
SAPA_PROFIL
 62
     0
 10
31.58061059542004
 20
41.017410448430489
 30
0.0
 11
32.931540134291403
 21
42.368339987301852
 31
0.0
  0
LINE
  5
1AAE
  8
SAPA_PROFIL
 62
     0
 10
33.348377548386424
 20
41.017410448430489
 30
0.0
 11
34.69930708725775
 21
42.368339987301852
 31
0.0
  0
LINE
  5
1AAF
  8
SAPA_PROFIL
 62
     0
 10
42.187212313218282
 20
41.017410448430489
 30
0.0
 11
42.36909369766542
 21
41.199291832877627
 31
0.0
  0
LINE
  5
1AB0
  8
SAPA_PROFIL
 62
     0
 10
40.419445360251899
 20
41.017410448430489
 30
0.0
 11
41.770374899123247
 21
42.368339987301852
 31
0.0
  0
LINE
  5
1AB1
  8
SAPA_PROFIL
 62
     0
 10
38.651678407285573
 20
41.017410448430489
 30
0.0
 11
40.002607946156857
 21
42.368339987301852
 31
0.0
  0
LINE
  5
1AB2
  8
SAPA_PROFIL
 62
     0
 10
36.88391145431919
 20
41.017410448430489
 30
0.0
 11
38.234840993190552
 21
42.368339987301852
 31
0.0
  0
LINE
  5
1AB3
  8
SAPA_PROFIL
 62
     0
 10
35.116144501352778
 20
41.017410448430489
 30
0.0
 11
36.467074040224162
 21
42.368339987301852
 31
0.0
  0
LINE
  5
1AB4
  8
SAPA_PROFIL
 10
-8.1554699308604537
 20
-83.396440251906995
 30
0.0
 11
-11.000000747075831
 21
-82.653051271135723
 31
0.0
  0
LINE
  5
1AB5
  8
SAPA_PROFIL
 10
28.699999626462048
 20
31.199999999996411
 30
0.0
 11
60.957151369664672
 21
31.1999999999964
 31
0.0
  0
LINE
  5
1AB6
  8
SAPA_PROFIL
 10
28.75763130178871
 20
30.441791374795908
 30
0.0
 11
60.957151369664672
 21
30.441791374795852
 31
0.0
  0
LINE
  5
1AB7
  8
SAPA_PROFIL
 10
28.75763130178871
 20
29.74179137479587
 30
0.0
 11
60.957151369664672
 21
29.74179137479581
 31
0.0
  0
LINE
  5
1AB8
  8
SAPA_PROFIL
 10
28.822692250845769
 20
40.97543824846673
 30
0.0
 11
60.9571513696647
 21
40.97543824846678
 31
0.0
  0
LINE
  5
1AD7
  8
SAPA_GLAS
 10
-37.999999999999602
 20
-84.999999999999474
 30
0.0
 11
-37.999999999999602
 21
-68.999999999999474
 31
0.0
  0
LINE
  5
1AD8
  8
SAPA_GLAS
 10
-25.999999999999609
 20
-84.999999999999474
 30
0.0
 11
-25.999999999999609
 21
-68.999999999999474
 31
0.0
1001
ACAD
1000
ASC_BOUNDS
1002
{
1070
    19
1005
1ADE
1002
}
  0
LINE
  5
1AD9
  8
SAPA_GLAS
 10
-10.9999999999996
 20
-81.999999999999488
 30
0.0
 11
-10.9999999999996
 21
-84.999999999999474
 31
0.0
1001
ACAD
1000
ASC_BOUNDS
1002
{
1070
    19
1005
1ADE
1002
}
  0
LINE
  5
1ADA
  8
SAPA_GLAS
 10
-10.9999999999996
 20
-68.999999999999474
 30
0.0
 11
-10.9999999999996
 21
-71.999999999999488
 31
0.0
1001
ACAD
1000
ASC_BOUNDS
1002
{
1070
    19
1005
1ADE
1002
}
  0
POLYLINE
  5
1ADB
  8
SAPA_GLAS
 66
     1
 10
0.0
 20
0.0
 30
0.0
1001
ACAD
1000
ASC_BOUNDS
1002
{
1070
    19
1005
1ADE
1002
}
  0
VERTEX
  5
1F4D
  8
SAPA_GLAS
 10
-40.999999999999602
 20
-90.999999999999488
 30
0.0
  0
VERTEX
  5
1F4E
  8
SAPA_GLAS
 10
-10.9999999999996
 20
-90.999999999999488
 30
0.0
  0
VERTEX
  5
1F4F
  8
SAPA_GLAS
 10
-10.9999999999996
 20
-84.999999999999474
 30
0.0
  0
VERTEX
  5
1F50
  8
SAPA_GLAS
 10
-40.999999999999602
 20
-84.999999999999474
 30
0.0
  0
SEQEND
  5
1F51
  8
SAPA_GLAS
  0
POLYLINE
  5
1ADC
  8
SAPA_GLAS
 66
     1
 10
0.0
 20
0.0
 30
0.0
1001
ACAD
1000
ASC_BOUNDS
1002
{
1070
    19
1005
1ADE
1002
}
  0
VERTEX
  5
1F52
  8
SAPA_GLAS
 10
-40.999999999999602
 20
-68.999999999999474
 30
0.0
  0
VERTEX
  5
1F53
  8
SAPA_GLAS
 10
-10.9999999999996
 20
-68.999999999999474
 30
0.0
  0
VERTEX
  5
1F54
  8
SAPA_GLAS
 10
-10.9999999999996
 20
-62.999999999999488
 30
0.0
  0
VERTEX
  5
1F55
  8
SAPA_GLAS
 10
-40.999999999999602
 20
-62.999999999999488
 30
0.0
  0
SEQEND
  5
1F56
  8
SAPA_GLAS
  0
POLYLINE
  5
1ADD
  8
SAPA_GLAS
 66
     1
 10
0.0
 20
0.0
 30
0.0
 70
     1
1001
ACAD
1000
ASC_BOUNDS
1002
{
1070
    19
1005
1ADE
1002
}
  0
VERTEX
  5
1F57
  8
SAPA_GLAS
 10
-18.999999999999599
 20
-80.199999999999477
 30
0.0
  0
VERTEX
  5
1F58
  8
SAPA_GLAS
 10
-18.999999999999599
 20
-73.7999999999995
 30
0.0
 42
-0.4142135623730951
  0
VERTEX
  5
1F59
  8
SAPA_GLAS
 10
-18.699999999999591
 20
-73.499999999999488
 30
0.0
  0
VERTEX
  5
1F5A
  8
SAPA_GLAS
 10
-10.9999999999996
 20
-73.499999999999488
 30
0.0
  0
VERTEX
  5
1F5B
  8
SAPA_GLAS
 10
-10.9999999999996
 20
-71.999999999999488
 30
0.0
  0
VERTEX
  5
1F5C
  8
SAPA_GLAS
 10
-20.699999999999591
 20
-71.999999999999488
 30
0.0
 42
0.4142135623730951
  0
VERTEX
  5
1F5D
  8
SAPA_GLAS
 10
-20.999999999999599
 20
-72.2999999999995
 30
0.0
  0
VERTEX
  5
1F5E
  8
SAPA_GLAS
 10
-20.999999999999599
 20
-81.699999999999477
 30
0.0
 42
0.4142135623730951
  0
VERTEX
  5
1F5F
  8
SAPA_GLAS
 10
-20.699999999999591
 20
-81.999999999999488
 30
0.0
  0
VERTEX
  5
1F60
  8
SAPA_GLAS
 10
-10.9999999999996
 20
-81.999999999999488
 30
0.0
  0
VERTEX
  5
1F61
  8
SAPA_GLAS
 10
-10.9999999999996
 20
-80.499999999999488
 30
0.0
  0
VERTEX
  5
1F62
  8
SAPA_GLAS
 10
-18.699999999999591
 20
-80.499999999999488
 30
0.0
 42
-0.4142135623730951
  0
SEQEND
  5
1F63
  8
SAPA_GLAS
  0
INSERT
  5
1ADE
  8
SAPA_GLAS
  6
CONTINUOUS
  2
*X71
 10
0.0
 20
0.0
 30
0.0
1001
GRADIENTCOLOR1ACI
1070
     5
1001
GRADIENTCOLOR2ACI
1070
     2
1001
ACAD
1000
HATCH
1002
{
1070
    19
1000
ANSI37
1040
0.25
1040
0.0
1000
ASC_BOUNDS
1070
     1
1070
     1
1070
     6
1005
1AD9
1005
1ADB
1005
1AD8
1005
1ADC
1005
1ADA
1005
1ADD
1000
ASC_SEEDPOINT
1011
-21.804617272266121
1021
0.0
1031
0.0
1021
-79.450586921254398
1031
0.0
1000
R14_HATCH_DATA
1000
1ADE
1011
1.0
1021
0.0
1031
0.0
1021
0.0
1031
0.0
1011
0.0
1021
0.0
1031
0.0
1021
1.0
1031
0.0
1011
0.0
1021
0.0
1031
0.0
1021
0.0
1031
1.0
1040
0.0
1010
0.0
1020
0.0
1030
1.0
1000
ANSI37
1070
     0
1070
     1
1071
        1
1071
        7
1070
     1
1070
     1
1071
       10
1040
-20.999999999999599
1040
-72.2999999999995
1040
-0.4142135623730951
1040
-20.699999999999591
1040
-71.999999999999488
1040
0.0
1040
-10.9999999999996
1040
-71.999999999999488
1040
0.0
1040
-10.9999999999996
1040
-68.999999999999474
1040
0.0
1040
-25.999999999999609
1040
-68.999999999999474
1040
0.0
1040
-25.999999999999609
1040
-84.999999999999474
1040
0.0
1040
-10.9999999999996
1040
-84.999999999999474
1040
0.0
1040
-10.9999999999996
1040
-81.999999999999488
1040
0.0
1040
-20.699999999999591
1040
-81.999999999999488
1040
-0.4142135623730951
1040
-20.999999999999599
1040
-81.699999999999477
1040
0.0
1071
        6
1005
1ADD
1005
1ADA
1005
1ADC
1005
1AD8
1005
1ADB
1005
1AD9
1070
     1
1070
     1
1040
0.0
1040
0.25
1070
     0
1070
     2
1040
0.7853981633974483
1040
0.0
1040
0.0
1040
-0.5612660075668221
1040
0.5612660075668221
1070
     0
1040
2.3561944901923439
1040
0.0
1040
0.0
1040
-0.5612660075668221
1040
-0.5612660075668221
1070
     0
1040
0.1332406017304326
1071
        1
1040
-21.804617272266121
1040
-79.450586921254398
1040
0.0
1002
}
  0
LINE
  5
1B26
  8
SAPA_ISOLATOR
 10
3.7999996264584861
 20
-70.199999999012221
 30
0.0
 11
3.7999996264595088
 21
-63.099999999012262
 31
0.0
  0
ARC
  5
1B27
  8
SAPA_ISOLATOR
 10
3.2999996264584861
 20
-70.199999999012221
 30
0.0
 40
0.5
 50
270.0
 51
0.0
  0
LINE
  5
1B28
  8
SAPA_ISOLATOR
 10
-3.3000003735414221
 20
-70.699999999012221
 30
0.0
 11
3.2999996264584861
 21
-70.699999999012221
 31
0.0
  0
ARC
  5
1B29
  8
SAPA_ISOLATOR
 10
-3.3000003735414221
 20
-70.199999999012221
 30
0.0
 40
0.5
 50
180.0
 51
270.0
  0
LINE
  5
1B2A
  8
SAPA_ISOLATOR
 10
-3.8000003735403989
 20
-63.099999999012077
 30
0.0
 11
-3.8000003735414221
 21
-70.199999999012221
 31
0.0
  0
ARC
  5
1B2B
  8
SAPA_ISOLATOR
 10
-3.30000037354039
 20
-63.099999999012148
 30
0.0
 40
0.5000000000000071
 50
90.000000000001009
 51
179.99999999999261
  0
LINE
  5
1B2C
  8
SAPA_ISOLATOR
 10
3.2999996264595088
 20
-62.599999999012198
 30
0.0
 11
-3.3000003735403989
 21
-62.599999999012141
 31
0.0
  0
ARC
  5
1B2D
  8
SAPA_ISOLATOR
 10
3.2999996264595182
 20
-63.099999999012191
 30
0.0
 40
0.4999999999999912
 50
359.99999999999272
 51
90.000000000001009
  0
LINE
  5
1B2E
  8
SAPA_ISOLATOR
 10
6.7999996264591678
 20
-80.299999999010311
 30
0.0
 11
6.7999996264584857
 21
-71.499999999010114
 31
0.0
  0
ARC
  5
1B2F
  8
SAPA_ISOLATOR
 10
5.7999996264591678
 20
-80.299999999010538
 30
0.0
 40
1.0
 50
270.0
 51
0.0000000000130276
  0
LINE
  5
1B30
  8
SAPA_ISOLATOR
 10
5.0873716231108679
 20
-81.299999999010538
 30
0.0
 11
5.7999996264591678
 21
-81.299999999010538
 31
0.0
  0
ARC
  5
1B31
  8
SAPA_ISOLATOR
 10
5.0873716231110899
 20
-80.999999999010811
 30
0.0
 40
0.2999999999997271
 50
219.99999999994
 51
269.99999999995759
  0
LINE
  5
1B32
  8
SAPA_ISOLATOR
 10
4.269533242579711
 20
-80.492055318909138
 30
0.0
 11
4.8575582901754037
 21
-81.192836281916357
 31
0.0
  0
ARC
  5
1B33
  8
SAPA_ISOLATOR
 10
4.4999996264585267
 20
-80.299999999010083
 30
0.0
 40
0.2999999999994998
 50
89.999999999955733
 51
219.80557109227129
  0
LINE
  5
1B34
  8
SAPA_ISOLATOR
 10
5.299999626458713
 20
-79.999999999010129
 30
0.0
 11
4.4999996264587594
 21
-79.999999999010583
 31
0.0
  0
ARC
  5
1B35
  8
SAPA_ISOLATOR
 10
5.2999996264588303
 20
-79.699999999010515
 30
0.0
 40
0.2999999999996108
 50
269.99999999997777
 51
0.0000000000651378
  0
LINE
  5
1B36
  8
SAPA_ISOLATOR
 10
5.5999996264582128
 20
-72.499999999010583
 30
0.0
 11
5.5999996264584411
 21
-79.699999999010174
 31
0.0
  0
ARC
  5
1B37
  8
SAPA_ISOLATOR
 10
5.2996707736174917
 20
-72.500136214316967
 30
0.0
 40
0.3003288837312077
 50
0.0259867193973789
 51
179.97401328055921
  0
LINE
  5
1B38
  8
SAPA_ISOLATOR
 10
0.8660250302434064
 20
-72.499999999010299
 30
0.0
 11
4.9993419207767706
 21
-72.499999999010356
 31
0.0
  0
LINE
  5
1B39
  8
SAPA_ISOLATOR
 10
-0.0000003735412406
 20
-71.999999999010186
 30
0.0
 11
0.8660250302434064
 21
-72.499999999010299
 31
0.0
  0
LINE
  5
1B3A
  8
SAPA_ISOLATOR
 10
-0.8660257773255466
 20
-72.499999999010072
 30
0.0
 11
-0.0000003735412406
 21
-71.999999999010186
 31
0.0
  0
LINE
  5
1B3B
  8
SAPA_ISOLATOR
 10
-4.9993426678597066
 20
-72.499999999010356
 30
0.0
 11
-0.8660257773255466
 21
-72.499999999010072
 31
0.0
  0
ARC
  5
1B3C
  8
SAPA_ISOLATOR
 10
-5.2996715207006551
 20
-72.500136214317195
 30
0.0
 40
0.3003288837314351
 50
0.0259867194841144
 51
179.97401328055921
  0
LINE
  5
1B3D
  8
SAPA_ISOLATOR
 10
-5.600000373541377
 20
-79.699999999010174
 30
0.0
 11
-5.6000003735416044
 21
-72.499999999010583
 31
0.0
  0
ARC
  5
1B3E
  8
SAPA_ISOLATOR
 10
-5.3000003735414216
 20
-79.699999999010402
 30
0.0
 40
0.2999999999999545
 50
179.99999999995649
 51
269.99999999995657
  0
LINE
  5
1B3F
  8
SAPA_ISOLATOR
 10
-4.500000373540785
 20
-79.999999999010583
 30
0.0
 11
-5.300000373541649
 21
-79.999999999010356
 31
0.0
  0
ARC
  5
1B40
  8
SAPA_ISOLATOR
 10
-4.5000003735398826
 20
-80.299999999010524
 30
0.0
 40
0.2999999999999353
 50
320.19442890790589
 51
90.000000000172349
  0
LINE
  5
1B41
  8
SAPA_ISOLATOR
 10
-4.8575590372556121
 20
-81.192836281916357
 30
0.0
 11
-4.2695339896601459
 21
-80.492055318909138
 31
0.0
  0
ARC
  5
1B42
  8
SAPA_ISOLATOR
 10
-5.0873723701913844
 20
-80.999999999010626
 30
0.0
 40
0.2999999999999119
 50
270.0000000000154
 51
320.00000000004349
  0
LINE
  5
1B43
  8
SAPA_ISOLATOR
 10
-5.800000373541649
 20
-81.299999999010538
 30
0.0
 11
-5.0873723701913027
 21
-81.299999999010538
 31
0.0
  0
ARC
  5
1B44
  8
SAPA_ISOLATOR
 10
-5.8000003735416206
 20
-80.299999999010566
 30
0.0
 40
0.9999999999999715
 50
179.99999999999841
 51
269.99999999999841
  0
LINE
  5
1B45
  8
SAPA_ISOLATOR
 10
-6.8000003735413648
 20
-71.499999999010583
 30
0.0
 11
-6.800000373541593
 21
-80.299999999010538
 31
0.0
  0
ARC
  5
1B46
  8
SAPA_ISOLATOR
 10
-6.3000003735411658
 20
-71.499999999010214
 30
0.0
 40
0.500000000000199
 50
90.000000000029303
 51
180.00000000004229
  0
LINE
  5
1B47
  8
SAPA_ISOLATOR
 10
-5.5000003735439691
 20
-70.999999999010015
 30
0.0
 11
-6.3000003735414216
 21
-70.999999999010015
 31
0.0
  0
ARC
  5
1B48
  8
SAPA_ISOLATOR
 10
-5.5000003735439691
 20
-70.499999999010015
 30
0.0
 40
0.5
 50
270.0
 51
0.0
  0
LINE
  5
1B49
  8
SAPA_ISOLATOR
 10
-5.0000003735387386
 20
-52.999999999012061
 30
0.0
 11
-5.0000003735439691
 21
-70.499999999010015
 31
0.0
  0
ARC
  5
1B4A
  8
SAPA_ISOLATOR
 10
-4.5000003735387386
 20
-52.999999999012061
 30
0.0
 40
0.5
 50
90.0
 51
180.0
  0
LINE
  5
1B4B
  8
SAPA_ISOLATOR
 10
-3.1000000000005339
 20
-52.499999999012061
 30
0.0
 11
-4.5000003735387386
 21
-52.499999999012061
 31
0.0
  0
LINE
  5
1B4C
  8
SAPA_ISOLATOR
 10
-2.3000003735402852
 20
-51.700000372551578
 30
0.0
 11
-3.1000000000005339
 21
-52.499999999012061
 31
0.0
  0
LINE
  5
1B4D
  8
SAPA_ISOLATOR
 10
-2.3000003735402852
 20
-47.241781050847969
 30
0.0
 11
-2.3000003735402852
 21
-51.700000372551578
 31
0.0
  0
ARC
  5
1B4E
  8
SAPA_ISOLATOR
 10
4.1158129861526049
 20
-49.344890072917323
 30
0.0
 40
6.751720419650332
 50
139.67177301070501
 51
161.85081266145741
  0
ARC
  5
1B4F
  8
SAPA_ISOLATOR
 10
-0.0000000000008444
 20
-45.856423573463097
 30
0.0
 40
1.356423574450988
 50
40.504828728478387
 51
139.49517127151529
  0
ARC
  5
1B50
  8
SAPA_ISOLATOR
 10
-4.115812986148554
 20
-49.344890072919611
 30
0.0
 40
6.7517204196474427
 50
18.14920769151329
 51
40.328226989340081
  0
LINE
  5
1B51
  8
SAPA_ISOLATOR
 10
2.299999626459623
 20
-51.699999625472628
 30
0.0
 11
2.299999626461442
 21
-47.241778771785327
 31
0.0
  0
LINE
  5
1B52
  8
SAPA_ISOLATOR
 10
3.099999999999056
 20
-52.499999999012061
 30
0.0
 11
2.299999626459623
 21
-51.699999625472628
 31
0.0
  0
LINE
  5
1B53
  8
SAPA_ISOLATOR
 10
4.4999996264608049
 20
-52.499999999012061
 30
0.0
 11
3.099999999999056
 21
-52.499999999012061
 31
0.0
  0
ARC
  5
1B54
  8
SAPA_ISOLATOR
 10
4.4999996264608049
 20
-52.999999999012061
 30
0.0
 40
0.5
 50
0.0
 51
90.0
  0
LINE
  5
1B55
  8
SAPA_ISOLATOR
 10
4.9999996264610331
 20
-70.499999999010015
 30
0.0
 11
4.9999996264608049
 21
-52.999999999012061
 31
0.0
  0
ARC
  5
1B56
  8
SAPA_ISOLATOR
 10
5.4999996264610331
 20
-70.499999999010015
 30
0.0
 40
0.5
 50
180.0
 51
270.0
  0
LINE
  5
1B57
  8
SAPA_ISOLATOR
 10
6.2999996264584857
 20
-70.999999999010015
 30
0.0
 11
5.4999996264610331
 21
-70.999999999010015
 31
0.0
  0
ARC
  5
1B58
  8
SAPA_ISOLATOR
 10
6.2999996264584581
 20
-71.499999999010043
 30
0.0
 40
0.5000000000000285
 50
359.99999999999022
 51
89.999999999996746
  0
ARC
  5
1B59
  8
SAPA_ISOLATOR
 10
3.4999996264610331
 20
-53.999999999011827
 30
0.0
 40
0.2999999999999545
 50
359.99999999995657
 51
90.0
  0
LINE
  5
1B5A
  8
SAPA_ISOLATOR
 10
3.7999996264598499
 20
-61.099999999012191
 30
0.0
 11
3.7999996264609872
 21
-53.999999999012061
 31
0.0
  0
ARC
  5
1B5B
  8
SAPA_ISOLATOR
 10
3.2999996264598379
 20
-61.09999999901212
 30
0.0
 40
0.5000000000000142
 50
270.00000000000142
 51
359.99999999999193
  0
LINE
  5
1B5C
  8
SAPA_ISOLATOR
 10
-3.3000003735399441
 20
-61.599999999012077
 30
0.0
 11
3.2999996264598499
 21
-61.599999999012141
 31
0.0
  0
ARC
  5
1B5D
  8
SAPA_ISOLATOR
 10
-3.300000373539953
 20
-61.099999999012091
 30
0.0
 40
0.4999999999999912
 50
179.99999999999261
 51
270.00000000000102
  0
LINE
  5
1B5E
  8
SAPA_ISOLATOR
 10
-3.800000373538921
 20
-53.999999999012061
 30
0.0
 11
-3.8000003735399441
 21
-61.09999999901202
 31
0.0
  0
ARC
  5
1B5F
  8
SAPA_ISOLATOR
 10
-3.5000003735388532
 20
-53.999999999012182
 30
0.0
 40
0.3000000000000682
 50
90.000000000021672
 51
179.99999999997829
  0
LINE
  5
1B60
  8
SAPA_ISOLATOR
 10
-2.6029437251528971
 20
-53.6999999990121
 30
0.0
 11
-3.500000373538966
 21
-53.6999999990121
 31
0.0
  0
LINE
  5
1B61
  8
SAPA_ISOLATOR
 10
-1.1000003735402399
 20
-52.197056647398988
 30
0.0
 11
-2.6029437251528971
 21
-53.6999999990121
 31
0.0
  0
LINE
  5
1B62
  8
SAPA_ISOLATOR
 10
-1.1000003735402399
 20
-46.47813808668684
 30
0.0
 11
-1.1000003735402399
 21
-52.197056647398988
 31
0.0
  0
ARC
  5
1B63
  8
SAPA_ISOLATOR
 10
4.1161781600116241
 20
-49.345115413884351
 30
0.0
 40
5.9521489807087189
 50
139.6961304322403
 51
151.20540782721551
  0
ARC
  5
1B64
  8
SAPA_ISOLATOR
 10
-0.0000000000005613
 20
-45.85642357346341
 30
0.0
 40
0.5564235744509308
 50
40.504828728523563
 51
139.49517127156881
  0
ARC
  5
1B65
  8
SAPA_ISOLATOR
 10
-4.1161781609200601
 20
-49.345115414542313
 30
0.0
 40
5.9521489818262543
 50
28.794607104397429
 51
40.303869566948997
  0
LINE
  5
1B66
  8
SAPA_ISOLATOR
 10
1.0999996264598051
 20
-52.197055900320493
 30
0.0
 11
1.099999626460032
 21
-46.47813672744018
 31
0.0
  0
LINE
  5
1B67
  8
SAPA_ISOLATOR
 10
2.6029437251511922
 20
-53.699999999011879
 30
0.0
 11
1.0999996264598051
 21
-52.197055900320493
 31
0.0
  0
LINE
  5
1B68
  8
SAPA_ISOLATOR
 10
3.4999996264610331
 20
-53.699999999011879
 30
0.0
 11
2.6029437251511922
 21
-53.699999999011879
 31
0.0
  0
POLYLINE
  5
1B7E
  8
SAPA_FOGBAND
 10
-21.699999999993111
 20
-40.499999966998288
 30
0.0
 66
     1
 70
     8
  0
VERTEX
  8
SAPA_FOGBAND
  5
2125
 10
-21.7000
 20
-40.5000
 30
0.000000
  70
    32
  0
VERTEX
  8
SAPA_FOGBAND
  5
2126
 10
-21.6117
 20
-40.4964
 30
0.000000
  70
    32
  0
VERTEX
  8
SAPA_FOGBAND
  5
2127
 10
-21.5236
 20
-40.4858
 30
0.000000
  70
    32
  0
VERTEX
  8
SAPA_FOGBAND
  5
2128
 10
-21.4359
 20
-40.4680
 30
0.000000
  70
    32
  0
VERTEX
  8
SAPA_FOGBAND
  5
2129
 10
-21.3488
 20
-40.4432
 30
0.000000
  70
    32
  0
VERTEX
  8
SAPA_FOGBAND
  5
212A
 10
-21.2626
 20
-40.4115
 30
0.000000
  70
    32
  0
VERTEX
  8
SAPA_FOGBAND
  5
212B
 10
-21.1775
 20
-40.3728
 30
0.000000
  70
    32
  0
VERTEX
  8
SAPA_FOGBAND
  5
212C
 10
-21.0936
 20
-40.3273
 30
0.000000
  70
    32
  0
VERTEX
  8
SAPA_FOGBAND
  5
212D
 10
-21.0112
 20
-40.2751
 30
0.000000
  70
    32
  0
VERTEX
  8
SAPA_FOGBAND
  5
212E
 10
-20.9304
 20
-40.2163
 30
0.000000
  70
    32
  0
VERTEX
  8
SAPA_FOGBAND
  5
212F
 10
-20.8515
 20
-40.1512
 30
0.000000
  70
    32
  0
VERTEX
  8
SAPA_FOGBAND
  5
2130
 10
-20.7746
 20
-40.0797
 30
0.000000
  70
    32
  0
VERTEX
  8
SAPA_FOGBAND
  5
2131
 10
-20.7000
 20
-40.0021
 30
0.000000
  70
    32
  0
VERTEX
  8
SAPA_FOGBAND
  5
2132
 10
-20.6277
 20
-39.9186
 30
0.000000
  70
    32
  0
VERTEX
  8
SAPA_FOGBAND
  5
2133
 10
-20.5581
 20
-39.8294
 30
0.000000
  70
    32
  0
VERTEX
  8
SAPA_FOGBAND
  5
2134
 10
-20.4912
 20
-39.7347
 30
0.000000
  70
    32
  0
VERTEX
  8
SAPA_FOGBAND
  5
2135
 10
-20.4272
 20
-39.6347
 30
0.000000
  70
    32
  0
VERTEX
  8
SAPA_FOGBAND
  5
2136
 10
-20.3663
 20
-39.5297
 30
0.000000
  70
    32
  0
VERTEX
  8
SAPA_FOGBAND
  5
2137
 10
-20.3086
 20
-39.4199
 30
0.000000
  70
    32
  0
VERTEX
  8
SAPA_FOGBAND
  5
2138
 10
-20.2542
 20
-39.3055
 30
0.000000
  70
    32
  0
VERTEX
  8
SAPA_FOGBAND
  5
2139
 10
-20.2034
 20
-39.1870
 30
0.000000
  70
    32
  0
VERTEX
  8
SAPA_FOGBAND
  5
213A
 10
-20.1561
 20
-39.0645
 30
0.000000
  70
    32
  0
VERTEX
  8
SAPA_FOGBAND
  5
213B
 10
-20.1125
 20
-38.9383
 30
0.000000
  70
    32
  0
VERTEX
  8
SAPA_FOGBAND
  5
213C
 10
-20.0728
 20
-38.8088
 30
0.000000
  70
    32
  0
VERTEX
  8
SAPA_FOGBAND
  5
213D
 10
-20.0370
 20
-38.6762
 30
0.000000
  70
    32
  0
VERTEX
  8
SAPA_FOGBAND
  5
213E
 10
-20.0052
 20
-38.5409
 30
0.000000
  70
    32
  0
VERTEX
  8
SAPA_FOGBAND
  5
213F
 10
-19.9775
 20
-38.4032
 30
0.000000
  70
    32
  0
VERTEX
  8
SAPA_FOGBAND
  5
2140
 10
-19.9539
 20
-38.2635
 30
0.000000
  70
    32
  0
VERTEX
  8
SAPA_FOGBAND
  5
2141
 10
-19.9346
 20
-38.1220
 30
0.000000
  70
    32
  0
VERTEX
  8
SAPA_FOGBAND
  5
2142
 10
-19.9195
 20
-37.9791
 30
0.000000
  70
    32
  0
VERTEX
  8
SAPA_FOGBAND
  5
2143
 10
-19.9087
 20
-37.8352
 30
0.000000
  70
    32
  0
VERTEX
  8
SAPA_FOGBAND
  5
2144
 10
-19.9022
 20
-37.6906
 30
0.000000
  70
    32
  0
VERTEX
  8
SAPA_FOGBAND
  5
2145
 10
-19.9000
 20
-37.5456
 30
0.000000
  70
    32
  0
VERTEX
  8
SAPA_FOGBAND
  5
2146
 10
-19.9022
 20
-37.4007
 30
0.000000
  70
    32
  0
VERTEX
  8
SAPA_FOGBAND
  5
2147
 10
-19.9087
 20
-37.2561
 30
0.000000
  70
    32
  0
VERTEX
  8
SAPA_FOGBAND
  5
2148
 10
-19.9195
 20
-37.1121
 30
0.000000
  70
    32
  0
VERTEX
  8
SAPA_FOGBAND
  5
2149
 10
-19.9346
 20
-36.9693
 30
0.000000
  70
    32
  0
VERTEX
  8
SAPA_FOGBAND
  5
214A
 10
-19.9539
 20
-36.8278
 30
0.000000
  70
    32
  0
VERTEX
  8
SAPA_FOGBAND
  5
214B
 10
-19.9775
 20
-36.6880
 30
0.000000
  70
    32
  0
VERTEX
  8
SAPA_FOGBAND
  5
214C
 10
-20.0052
 20
-36.5503
 30
0.000000
  70
    32
  0
VERTEX
  8
SAPA_FOGBAND
  5
214D
 10
-20.0370
 20
-36.4151
 30
0.000000
  70
    32
  0
VERTEX
  8
SAPA_FOGBAND
  5
214E
 10
-20.0728
 20
-36.2825
 30
0.000000
  70
    32
  0
VERTEX
  8
SAPA_FOGBAND
  5
214F
 10
-20.1125
 20
-36.1530
 30
0.000000
  70
    32
  0
VERTEX
  8
SAPA_FOGBAND
  5
2150
 10
-20.1561
 20
-36.0268
 30
0.000000
  70
    32
  0
VERTEX
  8
SAPA_FOGBAND
  5
2151
 10
-20.2034
 20
-35.9043
 30
0.000000
  70
    32
  0
VERTEX
  8
SAPA_FOGBAND
  5
2152
 10
-20.2542
 20
-35.7857
 30
0.000000
  70
    32
  0
VERTEX
  8
SAPA_FOGBAND
  5
2153
 10
-20.3086
 20
-35.6714
 30
0.000000
  70
    32
  0
VERTEX
  8
SAPA_FOGBAND
  5
2154
 10
-20.3663
 20
-35.5616
 30
0.000000
  70
    32
  0
VERTEX
  8
SAPA_FOGBAND
  5
2155
 10
-20.4272
 20
-35.4566
 30
0.000000
  70
    32
  0
VERTEX
  8
SAPA_FOGBAND
  5
2156
 10
-20.4912
 20
-35.3566
 30
0.000000
  70
    32
  0
VERTEX
  8
SAPA_FOGBAND
  5
2157
 10
-20.5581
 20
-35.2619
 30
0.000000
  70
    32
  0
VERTEX
  8
SAPA_FOGBAND
  5
2158
 10
-20.6277
 20
-35.1727
 30
0.000000
  70
    32
  0
VERTEX
  8
SAPA_FOGBAND
  5
2159
 10
-20.7000
 20
-35.0892
 30
0.000000
  70
    32
  0
VERTEX
  8
SAPA_FOGBAND
  5
215A
 10
-20.7746
 20
-35.0116
 30
0.000000
  70
    32
  0
VERTEX
  8
SAPA_FOGBAND
  5
215B
 10
-20.8515
 20
-34.9401
 30
0.000000
  70
    32
  0
VERTEX
  8
SAPA_FOGBAND
  5
215C
 10
-20.9304
 20
-34.8749
 30
0.000000
  70
    32
  0
VERTEX
  8
SAPA_FOGBAND
  5
215D
 10
-21.0112
 20
-34.8162
 30
0.000000
  70
    32
  0
VERTEX
  8
SAPA_FOGBAND
  5
215E
 10
-21.0936
 20
-34.7640
 30
0.000000
  70
    32
  0
VERTEX
  8
SAPA_FOGBAND
  5
215F
 10
-21.1775
 20
-34.7185
 30
0.000000
  70
    32
  0
VERTEX
  8
SAPA_FOGBAND
  5
2160
 10
-21.2626
 20
-34.6798
 30
0.000000
  70
    32
  0
VERTEX
  8
SAPA_FOGBAND
  5
2161
 10
-21.3488
 20
-34.6480
 30
0.000000
  70
    32
  0
VERTEX
  8
SAPA_FOGBAND
  5
2162
 10
-21.4359
 20
-34.6233
 30
0.000000
  70
    32
  0
VERTEX
  8
SAPA_FOGBAND
  5
2163
 10
-21.5236
 20
-34.6055
 30
0.000000
  70
    32
  0
VERTEX
  8
SAPA_FOGBAND
  5
2164
 10
-21.6117
 20
-34.5948
 30
0.000000
  70
    32
  0
VERTEX
  8
SAPA_FOGBAND
  5
2165
 10
-21.7000
 20
-34.5913
 30
0.000000
  70
    32
  0
VERTEX
  8
SAPA_FOGBAND
  5
2166
 10
-21.7883
 20
-34.5948
 30
0.000000
  70
    32
  0
VERTEX
  8
SAPA_FOGBAND
  5
2167
 10
-21.8764
 20
-34.6055
 30
0.000000
  70
    32
  0
VERTEX
  8
SAPA_FOGBAND
  5
2168
 10
-21.9641
 20
-34.6233
 30
0.000000
  70
    32
  0
VERTEX
  8
SAPA_FOGBAND
  5
2169
 10
-22.0512
 20
-34.6480
 30
0.000000
  70
    32
  0
VERTEX
  8
SAPA_FOGBAND
  5
216A
 10
-22.1374
 20
-34.6798
 30
0.000000
  70
    32
  0
VERTEX
  8
SAPA_FOGBAND
  5
216B
 10
-22.2225
 20
-34.7185
 30
0.000000
  70
    32
  0
VERTEX
  8
SAPA_FOGBAND
  5
216C
 10
-22.3064
 20
-34.7640
 30
0.000000
  70
    32
  0
VERTEX
  8
SAPA_FOGBAND
  5
216D
 10
-22.3888
 20
-34.8162
 30
0.000000
  70
    32
  0
VERTEX
  8
SAPA_FOGBAND
  5
216E
 10
-22.4696
 20
-34.8749
 30
0.000000
  70
    32
  0
VERTEX
  8
SAPA_FOGBAND
  5
216F
 10
-22.5485
 20
-34.9401
 30
0.000000
  70
    32
  0
VERTEX
  8
SAPA_FOGBAND
  5
2170
 10
-22.6254
 20
-35.0116
 30
0.000000
  70
    32
  0
VERTEX
  8
SAPA_FOGBAND
  5
2171
 10
-22.7000
 20
-35.0892
 30
0.000000
  70
    32
  0
VERTEX
  8
SAPA_FOGBAND
  5
2172
 10
-22.7723
 20
-35.1727
 30
0.000000
  70
    32
  0
VERTEX
  8
SAPA_FOGBAND
  5
2173
 10
-22.8419
 20
-35.2619
 30
0.000000
  70
    32
  0
VERTEX
  8
SAPA_FOGBAND
  5
2174
 10
-22.9088
 20
-35.3566
 30
0.000000
  70
    32
  0
VERTEX
  8
SAPA_FOGBAND
  5
2175
 10
-22.9728
 20
-35.4566
 30
0.000000
  70
    32
  0
VERTEX
  8
SAPA_FOGBAND
  5
2176
 10
-23.0337
 20
-35.5616
 30
0.000000
  70
    32
  0
VERTEX
  8
SAPA_FOGBAND
  5
2177
 10
-23.0914
 20
-35.6714
 30
0.000000
  70
    32
  0
VERTEX
  8
SAPA_FOGBAND
  5
2178
 10
-23.1458
 20
-35.7857
 30
0.000000
  70
    32
  0
VERTEX
  8
SAPA_FOGBAND
  5
2179
 10
-23.1966
 20
-35.9043
 30
0.000000
  70
    32
  0
VERTEX
  8
SAPA_FOGBAND
  5
217A
 10
-23.2439
 20
-36.0268
 30
0.000000
  70
    32
  0
VERTEX
  8
SAPA_FOGBAND
  5
217B
 10
-23.2875
 20
-36.1530
 30
0.000000
  70
    32
  0
VERTEX
  8
SAPA_FOGBAND
  5
217C
 10
-23.3272
 20
-36.2825
 30
0.000000
  70
    32
  0
VERTEX
  8
SAPA_FOGBAND
  5
217D
 10
-23.3630
 20
-36.4151
 30
0.000000
  70
    32
  0
VERTEX
  8
SAPA_FOGBAND
  5
217E
 10
-23.3948
 20
-36.5503
 30
0.000000
  70
    32
  0
VERTEX
  8
SAPA_FOGBAND
  5
217F
 10
-23.4225
 20
-36.6880
 30
0.000000
  70
    32
  0
VERTEX
  8
SAPA_FOGBAND
  5
2180
 10
-23.4461
 20
-36.8278
 30
0.000000
  70
    32
  0
VERTEX
  8
SAPA_FOGBAND
  5
2181
 10
-23.4654
 20
-36.9693
 30
0.000000
  70
    32
  0
VERTEX
  8
SAPA_FOGBAND
  5
2182
 10
-23.4805
 20
-37.1121
 30
0.000000
  70
    32
  0
VERTEX
  8
SAPA_FOGBAND
  5
2183
 10
-23.4913
 20
-37.2561
 30
0.000000
  70
    32
  0
VERTEX
  8
SAPA_FOGBAND
  5
2184
 10
-23.4978
 20
-37.4007
 30
0.000000
  70
    32
  0
VERTEX
  8
SAPA_FOGBAND
  5
2185
 10
-23.5000
 20
-37.5456
 30
0.000000
  70
    32
  0
VERTEX
  8
SAPA_FOGBAND
  5
2186
 10
-23.4978
 20
-37.6906
 30
0.000000
  70
    32
  0
VERTEX
  8
SAPA_FOGBAND
  5
2187
 10
-23.4913
 20
-37.8352
 30
0.000000
  70
    32
  0
VERTEX
  8
SAPA_FOGBAND
  5
2188
 10
-23.4805
 20
-37.9791
 30
0.000000
  70
    32
  0
VERTEX
  8
SAPA_FOGBAND
  5
2189
 10
-23.4654
 20
-38.1220
 30
0.000000
  70
    32
  0
VERTEX
  8
SAPA_FOGBAND
  5
218A
 10
-23.4461
 20
-38.2635
 30
0.000000
  70
    32
  0
VERTEX
  8
SAPA_FOGBAND
  5
218B
 10
-23.4225
 20
-38.4032
 30
0.000000
  70
    32
  0
VERTEX
  8
SAPA_FOGBAND
  5
218C
 10
-23.3948
 20
-38.5409
 30
0.000000
  70
    32
  0
VERTEX
  8
SAPA_FOGBAND
  5
218D
 10
-23.3630
 20
-38.6762
 30
0.000000
  70
    32
  0
VERTEX
  8
SAPA_FOGBAND
  5
218E
 10
-23.3272
 20
-38.8088
 30
0.000000
  70
    32
  0
VERTEX
  8
SAPA_FOGBAND
  5
218F
 10
-23.2875
 20
-38.9383
 30
0.000000
  70
    32
  0
VERTEX
  8
SAPA_FOGBAND
  5
2190
 10
-23.2439
 20
-39.0645
 30
0.000000
  70
    32
  0
VERTEX
  8
SAPA_FOGBAND
  5
2191
 10
-23.1966
 20
-39.1870
 30
0.000000
  70
    32
  0
VERTEX
  8
SAPA_FOGBAND
  5
2192
 10
-23.1458
 20
-39.3055
 30
0.000000
  70
    32
  0
VERTEX
  8
SAPA_FOGBAND
  5
2193
 10
-23.0914
 20
-39.4199
 30
0.000000
  70
    32
  0
VERTEX
  8
SAPA_FOGBAND
  5
2194
 10
-23.0337
 20
-39.5297
 30
0.000000
  70
    32
  0
VERTEX
  8
SAPA_FOGBAND
  5
2195
 10
-22.9728
 20
-39.6347
 30
0.000000
  70
    32
  0
VERTEX
  8
SAPA_FOGBAND
  5
2196
 10
-22.9088
 20
-39.7347
 30
0.000000
  70
    32
  0
VERTEX
  8
SAPA_FOGBAND
  5
2197
 10
-22.8419
 20
-39.8294
 30
0.000000
  70
    32
  0
VERTEX
  8
SAPA_FOGBAND
  5
2198
 10
-22.7723
 20
-39.9186
 30
0.000000
  70
    32
  0
VERTEX
  8
SAPA_FOGBAND
  5
2199
 10
-22.7000
 20
-40.0021
 30
0.000000
  70
    32
  0
VERTEX
  8
SAPA_FOGBAND
  5
219A
 10
-22.6254
 20
-40.0797
 30
0.000000
  70
    32
  0
VERTEX
  8
SAPA_FOGBAND
  5
219B
 10
-22.5485
 20
-40.1512
 30
0.000000
  70
    32
  0
VERTEX
  8
SAPA_FOGBAND
  5
219C
 10
-22.4696
 20
-40.2163
 30
0.000000
  70
    32
  0
VERTEX
  8
SAPA_FOGBAND
  5
219D
 10
-22.3888
 20
-40.2751
 30
0.000000
  70
    32
  0
VERTEX
  8
SAPA_FOGBAND
  5
219E
 10
-22.3064
 20
-40.3273
 30
0.000000
  70
    32
  0
VERTEX
  8
SAPA_FOGBAND
  5
219F
 10
-22.2225
 20
-40.3728
 30
0.000000
  70
    32
  0
VERTEX
  8
SAPA_FOGBAND
  5
21A0
 10
-22.1374
 20
-40.4115
 30
0.000000
  70
    32
  0
VERTEX
  8
SAPA_FOGBAND
  5
21A1
 10
-22.0512
 20
-40.4432
 30
0.000000
  70
    32
  0
VERTEX
  8
SAPA_FOGBAND
  5
21A2
 10
-21.9641
 20
-40.4680
 30
0.000000
  70
    32
  0
VERTEX
  8
SAPA_FOGBAND
  5
21A3
 10
-21.8764
 20
-40.4858
 30
0.000000
  70
    32
  0
VERTEX
  8
SAPA_FOGBAND
  5
21A4
 10
-21.7883
 20
-40.4964
 30
0.000000
  70
    32
  0
VERTEX
  8
SAPA_FOGBAND
  5
21A5
 10
-21.7000
 20
-40.5000
 30
0.000000
  70
    32
  0
SEQEND
  8
SAPA_FOGBAND
  5
21A6
  0
INSERT
  5
1B7F
  8
SAPA_FOGBAND
  6
CONTINUOUS
  2
*X73
 10
0.0
 20
0.0
 30
0.0
1001
ACAD
1000
HATCH
1002
{
1070
    19
1000
ANSI37
1040
0.25
1040
-0.0000000000000002
1000
R14_HATCH_DATA
1000
1B7F
1011
1.0
1021
0.0
1031
0.0
1021
0.0
1031
0.0
1011
0.0
1021
0.0
1031
0.0
1021
1.0
1031
0.0
1011
0.0
1021
0.0
1031
0.0
1021
0.0
1031
1.0
1040
0.0
1010
0.0
1020
0.0
1030
1.0
1000
ANSI37
1070
     0
1070
     0
1071
        1
1071
        1
1071
        3
1070
     3
1040
-21.69999999999218
1040
-37.545638078316287
1040
-0.0000000000009323
1040
-2.9543618886820009
1040
0.6092686230810487
1040
3.0288543565674959
1040
8.8961375621551824
1070
     0
1070
     2
1040
-21.528106314816711
1040
-36.097247745463861
1040
1.5432917594600579
1040
3.9375020987711551
1040
4.2841286611507847
1070
     0
1070
     1
1040
-22.169018193595772
1040
-34.693331288384869
1040
-21.90249933918561
1040
-34.610031169442713
1071
        0
1070
     0
1070
     1
1040
-0.0000000000000002
1040
0.25
1070
     0
1070
     2
1040
2.3561944901923439
1040
420.88176377657828
1040
-403.4091569946487
1040
0.5612660075668219
1040
0.5612660075668222
1070
     0
1040
0.785398163397449
1040
420.88176377657828
1040
-403.4091569946487
1040
0.5612660075668222
1040
-0.5612660075668219
1070
     0
1071
        1
1040
-21.851617139245931
1040
-37.788408381380343
1040
0.0
1002
}
  0
POLYLINE
  5
1B80
  8
SAPA_FOGBAND
 66
     1
 10
0.0
 20
0.0
 30
0.0
 70
     1
  0
VERTEX
  5
2079
  8
SAPA_FOGBAND
 10
-4.1895214312530182
 20
-80.740583234060807
 30
0.0
  0
VERTEX
  5
207A
  8
SAPA_FOGBAND
 10
-4.189521431253004
 20
-80.517286458802715
 30
0.0
 42
0.3500011104185251
  0
VERTEX
  5
207B
  8
SAPA_FOGBAND
 10
-4.8117436534752382
 20
-79.737289624367861
 30
0.0
 42
-0.3500011104185275
  0
VERTEX
  5
207C
  8
SAPA_FOGBAND
 10
-5.5895214312530088
 20
-78.762293581324286
 30
0.0
  0
VERTEX
  5
207D
  8
SAPA_FOGBAND
 10
-5.5895214312530088
 20
-78.437289624367835
 30
0.0
 42
-0.4142135623730992
  0
VERTEX
  5
207E
  8
SAPA_FOGBAND
 10
-4.5895214312530088
 20
-77.43728962436785
 30
0.0
  0
VERTEX
  5
207F
  8
SAPA_FOGBAND
 10
4.6104785687470091
 20
-77.43728962436785
 30
0.0
 42
-0.4142135623730909
  0
VERTEX
  5
2080
  8
SAPA_FOGBAND
 10
5.610478568746994
 20
-78.437289624367835
 30
0.0
  0
VERTEX
  5
2081
  8
SAPA_FOGBAND
 10
5.6104785687470091
 20
-78.762293581324286
 30
0.0
 42
-0.3500011104185275
  0
VERTEX
  5
2082
  8
SAPA_FOGBAND
 10
4.8327007909692368
 20
-79.737289624367833
 30
0.0
 42
0.3500011104185328
  0
VERTEX
  5
2083
  8
SAPA_FOGBAND
 10
4.2104785687469892
 20
-80.517286458802715
 30
0.0
  0
VERTEX
  5
2084
  8
SAPA_FOGBAND
 10
4.2104785687469892
 20
-80.740583234060807
 30
0.0
 42
0.380963100045198
  0
VERTEX
  5
2085
  8
SAPA_FOGBAND
 10
4.653183177761842
 20
-81.237289624367861
 30
0.0
 42
0.0458039546811979
  0
VERTEX
  5
2086
  8
SAPA_FOGBAND
 10
7.942286737396409
 20
-81.313936755455245
 30
0.0
 42
-0.9570085662280619
  0
VERTEX
  5
2087
  8
SAPA_FOGBAND
 10
8.1659477525337767
 20
-83.299449725939098
 30
0.0
 42
-0.0782100801382191
  0
VERTEX
  5
2088
  8
SAPA_FOGBAND
 10
-8.1449906150397791
 20
-83.299449725939127
 30
0.0
 42
-0.9570085662280891
  0
VERTEX
  5
2089
  8
SAPA_FOGBAND
 10
-7.9213295999023829
 20
-81.313936755455245
 30
0.0
 42
0.0458039546811975
  0
VERTEX
  5
208A
  8
SAPA_FOGBAND
 10
-4.6322260402678701
 20
-81.237289624367861
 30
0.0
 42
0.380963100045198
  0
SEQEND
  5
208B
  8
SAPA_FOGBAND
  0
CIRCLE
  5
1B81
  8
SAPA_FOGBAND
 10
23.106096809031381
 20
-36.800000000001774
 30
0.0
 40
0.2549509756796394
  0
POLYLINE
  5
1B82
  8
SAPA_FOGBAND
 66
     1
 10
0.0
 20
0.0
 30
0.0
 70
     1
  0
VERTEX
  5
208C
  8
SAPA_FOGBAND
 10
20.756096809031408
 20
-35.500000000001769
 30
0.0
 42
0.4142135623730951
  0
VERTEX
  5
208D
  8
SAPA_FOGBAND
 10
20.956096809031411
 20
-35.300000000001774
 30
0.0
  0
VERTEX
  5
208E
  8
SAPA_FOGBAND
 10
20.956096809031411
 20
-33.500000000001762
 30
0.0
 42
0.9999999999999998
  0
VERTEX
  5
208F
  8
SAPA_FOGBAND
 10
19.656096809031389
 20
-33.500000000001762
 30
0.0
  0
VERTEX
  5
2090
  8
SAPA_FOGBAND
 10
19.656096809031389
 20
-35.300000000001774
 30
0.0
 42
0.4142135623730951
  0
VERTEX
  5
2091
  8
SAPA_FOGBAND
 10
19.856096809031381
 20
-35.500000000001769
 30
0.0
  0
VERTEX
  5
2092
  8
SAPA_FOGBAND
 10
20.606096809031381
 20
-35.500000000001769
 30
0.0
  0
SEQEND
  5
2093
  8
SAPA_FOGBAND
  0
POLYLINE
  5
1B83
  8
SAPA_FOGBAND
 66
     1
 10
0.0
 20
0.0
 30
0.0
 70
     1
  0
VERTEX
  5
2094
  8
SAPA_FOGBAND
 10
16.352506970545161
 20
-35.500000000001769
 30
0.0
 42
-0.267949192431121
  0
VERTEX
  5
2095
  8
SAPA_FOGBAND
 10
16.179301889788292
 20
-35.400000000001739
 30
0.0
 42
0.7673269879789569
  0
VERTEX
  5
2096
  8
SAPA_FOGBAND
 10
15.80609680903142
 20
-35.500000000001769
 30
0.0
  0
VERTEX
  5
2097
  8
SAPA_FOGBAND
 10
15.80609680903142
 20
-42.782887030406009
 30
0.0
 42
0.4602937089574736
  0
VERTEX
  5
2098
  8
SAPA_FOGBAND
 10
16.036919116371791
 20
-42.980497721843051
 30
0.0
  0
VERTEX
  5
2099
  8
SAPA_FOGBAND
 10
18.496255247898478
 20
-42.387406737847577
 30
0.0
 42
-0.6910703998708235
  0
VERTEX
  5
209A
  8
SAPA_FOGBAND
 10
18.680904965233761
 20
-42.712834204139313
 30
0.0
  0
VERTEX
  5
209B
  8
SAPA_FOGBAND
 10
15.982704242491019
 20
-43.008274837719739
 30
0.0
 42
0.928378177954751
  0
VERTEX
  5
209C
  8
SAPA_FOGBAND
 10
16.413281290025221
 20
-43.423753435875142
 30
0.0
  0
VERTEX
  5
209D
  8
SAPA_FOGBAND
 10
19.558520559312729
 20
-43.228542559027183
 30
0.0
 42
-0.6076316918600427
  0
VERTEX
  5
209E
  8
SAPA_FOGBAND
 10
19.807434932775539
 20
-43.323096729694377
 30
0.0
 42
0.38070580105552
  0
VERTEX
  5
209F
  8
SAPA_FOGBAND
 10
20.006096809031419
 20
-43.500000000001712
 30
0.0
  0
VERTEX
  5
20A0
  8
SAPA_FOGBAND
 10
20.30609680903143
 20
-43.500000000001712
 30
0.0
  0
VERTEX
  5
20A1
  8
SAPA_FOGBAND
 10
20.606096809031381
 20
-43.500000000001712
 30
0.0
 42
0.3807058010555201
  0
VERTEX
  5
20A2
  8
SAPA_FOGBAND
 10
20.80475868528719
 20
-43.323096729694321
 30
0.0
 42
-0.6076316918600374
  0
VERTEX
  5
20A3
  8
SAPA_FOGBAND
 10
21.053673058750061
 20
-43.228542559027183
 30
0.0
  0
VERTEX
  5
20A4
  8
SAPA_FOGBAND
 10
24.307287975458731
 20
-43.423753435875021
 30
0.0
 42
0.9283781779547513
  0
VERTEX
  5
20A5
  8
SAPA_FOGBAND
 10
24.737865022992931
 20
-43.008274837719561
 30
0.0
  0
VERTEX
  5
20A6
  8
SAPA_FOGBAND
 10
21.901350799516418
 20
-42.709922924871421
 30
0.0
 42
-0.6910703998708235
  0
VERTEX
  5
20A7
  8
SAPA_FOGBAND
 10
22.086000516851701
 20
-42.384495458579693
 30
0.0
  0
VERTEX
  5
20A8
  8
SAPA_FOGBAND
 10
24.575274501691009
 20
-42.980497721843051
 30
0.0
 42
0.4602937089574736
  0
VERTEX
  5
20A9
  8
SAPA_FOGBAND
 10
24.80609680903143
 20
-42.782887030406009
 30
0.0
  0
VERTEX
  5
20AA
  8
SAPA_FOGBAND
 10
24.80609680903143
 20
-35.500000000001769
 30
0.0
 42
0.7673269879789572
  0
VERTEX
  5
20AB
  8
SAPA_FOGBAND
 10
24.432891728274509
 20
-35.400000000001739
 30
0.0
 42
-0.267949192431121
  0
VERTEX
  5
20AC
  8
SAPA_FOGBAND
 10
24.25968664751764
 20
-35.500000000001769
 30
0.0
  0
VERTEX
  5
20AD
  8
SAPA_FOGBAND
 10
22.05609680903143
 20
-35.500000000001769
 30
0.0
 42
-0.4142135623730946
  0
VERTEX
  5
20AE
  8
SAPA_FOGBAND
 10
21.956096809031411
 20
-35.400000000001739
 30
0.0
  0
VERTEX
  5
20AF
  8
SAPA_FOGBAND
 10
21.956096809031411
 20
-34.400000000001739
 30
0.0
  0
VERTEX
  5
20B0
  8
SAPA_FOGBAND
 10
22.314152055257239
 20
-34.291388579560873
 30
0.0
 42
0.4364998583843341
  0
VERTEX
  5
20B1
  8
SAPA_FOGBAND
 10
22.442562145127681
 20
-34.027676570640949
 30
0.0
  0
VERTEX
  5
20B2
  8
SAPA_FOGBAND
 10
21.903703351646069
 20
-32.638382853197591
 30
0.0
 42
0.3095538907669666
  0
VERTEX
  5
20B3
  8
SAPA_FOGBAND
 10
20.971376671164819
 20
-32.000000000001762
 30
0.0
  0
VERTEX
  5
20B4
  8
SAPA_FOGBAND
 10
19.640816946897981
 20
-32.000000000001762
 30
0.0
 42
0.3095538907669666
  0
VERTEX
  5
20B5
  8
SAPA_FOGBAND
 10
18.708490266416732
 20
-32.638382853197591
 30
0.0
  0
VERTEX
  5
20B6
  8
SAPA_FOGBAND
 10
18.169631472935169
 20
-34.027676570640949
 30
0.0
 42
0.4364998583843343
  0
VERTEX
  5
20B7
  8
SAPA_FOGBAND
 10
18.298041562805619
 20
-34.291388579560873
 30
0.0
  0
VERTEX
  5
20B8
  8
SAPA_FOGBAND
 10
18.656096809031389
 20
-34.400000000001739
 30
0.0
  0
VERTEX
  5
20B9
  8
SAPA_FOGBAND
 10
18.656096809031389
 20
-35.400000000001739
 30
0.0
 42
-0.4142135623730946
  0
VERTEX
  5
20BA
  8
SAPA_FOGBAND
 10
18.55609680903143
 20
-35.500000000001769
 30
0.0
  0
SEQEND
  5
20BB
  8
SAPA_FOGBAND
  0
POLYLINE
  5
1B84
  8
SAPA_FOGBAND
 66
     1
 10
0.0
 20
0.0
 30
0.0
 70
     1
  0
VERTEX
  5
20BC
  8
SAPA_FOGBAND
 10
18.482229251553171
 20
-37.800000000001774
 30
0.0
 42
0.3042268896177264
  0
VERTEX
  5
20BD
  8
SAPA_FOGBAND
 10
18.204696775250511
 20
-37.986088961918078
 30
0.0
 42
0.2901372376591382
  0
VERTEX
  5
20BE
  8
SAPA_FOGBAND
 10
18.254982069468721
 20
-40.213945402555062
 30
0.0
 42
0.1927175523564936
  0
VERTEX
  5
20BF
  8
SAPA_FOGBAND
 10
18.415282049455801
 20
-40.368941574663609
 30
0.0
 42
0.1963728951991371
  0
VERTEX
  5
20C0
  8
SAPA_FOGBAND
 10
22.196911568606989
 20
-40.368941574663609
 30
0.0
 42
0.1927175523564951
  0
VERTEX
  5
20C1
  8
SAPA_FOGBAND
 10
22.35721154859408
 20
-40.213945402555062
 30
0.0
 42
0.2901372376591384
  0
VERTEX
  5
20C2
  8
SAPA_FOGBAND
 10
22.40749684281235
 20
-37.986088961918078
 30
0.0
 42
0.3042268896177278
  0
VERTEX
  5
20C3
  8
SAPA_FOGBAND
 10
22.129964366509618
 20
-37.800000000001774
 30
0.0
  0
SEQEND
  5
20C4
  8
SAPA_FOGBAND
  0
POLYLINE
  5
1B85
  8
SAPA_FOGBAND
 66
     1
 10
0.0
 20
0.0
 30
0.0
 70
     1
  0
VERTEX
  5
20C5
  8
SAPA_FOGBAND
 10
8.665151226199665
 20
-64.360800493659568
 30
0.0
  0
VERTEX
  5
20C6
  8
SAPA_FOGBAND
 10
11.66647838876815
 20
-64.852752833549417
 30
0.0
 42
0.4464785874932524
  0
VERTEX
  5
20C7
  8
SAPA_FOGBAND
 10
12.7751536457199
 20
-63.858675528443662
 30
0.0
  0
VERTEX
  5
20C8
  8
SAPA_FOGBAND
 10
12.7751536457199
 20
-62.313435434750787
 30
0.0
 42
0.622676997742357
  0
VERTEX
  5
20C9
  8
SAPA_FOGBAND
 10
11.16447915910612
 20
-61.52155370658739
 30
0.0
  0
VERTEX
  5
20CA
  8
SAPA_FOGBAND
 10
8.1631519965367225
 20
-62.44077696863998
 30
0.0
 42
0.232531183213058
  0
VERTEX
  5
20CB
  8
SAPA_FOGBAND
 10
7.7738264831496009
 20
-63.232658696803817
 30
0.0
  0
VERTEX
  5
20CC
  8
SAPA_FOGBAND
 10
7.7738264831505113
 20
-63.36672318855382
 30
0.0
 42
0.3826682380870913
  0
SEQEND
  5
20CD
  8
SAPA_FOGBAND
  0
POLYLINE
  5
1B86
  8
SAPA_FOGBAND
 66
     1
 10
0.0
 20
0.0
 30
0.0
 70
     1
  0
VERTEX
  5
20CE
  8
SAPA_FOGBAND
 10
21.76213688249209
 20
-57.296201445460618
 30
0.0
 42
0.4740571810231764
  0
VERTEX
  5
20CF
  8
SAPA_FOGBAND
 10
21.889430744855421
 20
-57.013918859822311
 30
0.0
  0
VERTEX
  5
20D0
  8
SAPA_FOGBAND
 10
21.269330242097571
 20
-55.567712723061973
 30
0.0
 42
0.2846003776496257
  0
VERTEX
  5
20D1
  8
SAPA_FOGBAND
 10
20.821686063636658
 20
-55.290456274014119
 30
0.0
  0
VERTEX
  5
20D2
  8
SAPA_FOGBAND
 10
19.1990600833069
 20
-55.290456274014119
 30
0.0
 42
0.2846003776496159
  0
VERTEX
  5
20D3
  8
SAPA_FOGBAND
 10
18.751415904845992
 20
-55.567712723062421
 30
0.0
  0
VERTEX
  5
20D4
  8
SAPA_FOGBAND
 10
18.131315402088141
 20
-57.013918859822311
 30
0.0
 42
0.4740571810232354
  0
VERTEX
  5
20D5
  8
SAPA_FOGBAND
 10
18.258609264450559
 20
-57.296201445460618
 30
0.0
  0
VERTEX
  5
20D6
  8
SAPA_FOGBAND
 10
18.510373073471779
 20
-57.363661354771018
 30
0.0
  0
VERTEX
  5
20D7
  8
SAPA_FOGBAND
 10
18.510373073471779
 20
-58.305086771653372
 30
0.0
 42
-0.4142135623730951
  0
VERTEX
  5
20D8
  8
SAPA_FOGBAND
 10
18.010373073471779
 20
-58.805086771653357
 30
0.0
  0
VERTEX
  5
20D9
  8
SAPA_FOGBAND
 10
14.982273522737151
 20
-58.80508677165291
 30
0.0
 42
0.1657205760184635
  0
VERTEX
  5
20DA
  8
SAPA_FOGBAND
 10
14.371599036123371
 20
-59.013205043489521
 30
0.0
  0
VERTEX
  5
20DB
  8
SAPA_FOGBAND
 10
5.0037086456468352
 20
-62.407790128345383
 30
0.0
 42
0.2325311832130358
  0
VERTEX
  5
20DC
  8
SAPA_FOGBAND
 10
4.80904588895282
 20
-62.803730992427532
 30
0.0
  0
VERTEX
  5
20DD
  8
SAPA_FOGBAND
 10
4.8090458889528191
 20
-64.034474548865106
 30
0.0
 42
0.3826682380870913
  0
VERTEX
  5
20DE
  8
SAPA_FOGBAND
 10
5.7003706320028824
 20
-65.028551853970853
 30
0.0
  0
VERTEX
  5
20DF
  8
SAPA_FOGBAND
 10
11.304839392299071
 20
-65.805086771653365
 30
0.0
  0
VERTEX
  5
20E0
  8
SAPA_FOGBAND
 10
25.010373051522041
 20
-65.805086771653365
 30
0.0
 42
0.4257917699693507
  0
VERTEX
  5
20E1
  8
SAPA_FOGBAND
 10
25.310140605120971
 20
-65.49327940912282
 30
0.0
  0
VERTEX
  5
20E2
  8
SAPA_FOGBAND
 10
24.82230079045075
 20
-59.093279409122268
 30
0.0
 42
0.4027293761437475
  0
VERTEX
  5
20E3
  8
SAPA_FOGBAND
 10
24.522533236853629
 20
-58.80508677165291
 30
0.0
  0
VERTEX
  5
20E4
  8
SAPA_FOGBAND
 10
22.010373073471779
 20
-58.805086771653357
 30
0.0
 42
-0.4142135623730951
  0
VERTEX
  5
20E5
  8
SAPA_FOGBAND
 10
21.510373073471779
 20
-58.305086771653372
 30
0.0
  0
VERTEX
  5
20E6
  8
SAPA_FOGBAND
 10
21.510373073471779
 20
-57.363661354771018
 30
0.0
  0
SEQEND
  5
20E7
  8
SAPA_FOGBAND
  0
POLYLINE
  5
1B87
  8
SAPA_FOGBAND
 66
     1
 10
0.0
 20
0.0
 30
0.0
 70
     1
  0
VERTEX
  5
20E8
  8
SAPA_FOGBAND
 10
19.11037307347214
 20
-56.890456274014483
 30
0.0
  0
VERTEX
  5
20E9
  8
SAPA_FOGBAND
 10
19.11037307347214
 20
-57.490456274014392
 30
0.0
 42
0.9999999999999998
  0
VERTEX
  5
20EA
  8
SAPA_FOGBAND
 10
20.910373073471419
 20
-57.490456274014392
 30
0.0
  0
VERTEX
  5
20EB
  8
SAPA_FOGBAND
 10
20.910373073471419
 20
-56.890456274014483
 30
0.0
 42
0.9999999999999998
  0
SEQEND
  5
20EC
  8
SAPA_FOGBAND
  0
POLYLINE
  5
1B88
  8
SAPA_FOGBAND
 66
     1
 10
0.0
 20
0.0
 30
0.0
  0
VERTEX
  5
20ED
  8
SAPA_FOGBAND
 10
23.61037307347214
 20
-58.80508677165291
 30
0.0
  0
VERTEX
  5
20EE
  8
SAPA_FOGBAND
 10
23.61037307347214
 20
-59.105086771653092
 30
0.0
 42
-0.4142135623730951
  0
VERTEX
  5
20EF
  8
SAPA_FOGBAND
 10
23.11037307347215
 20
-59.605086771653092
 30
0.0
  0
VERTEX
  5
20F0
  8
SAPA_FOGBAND
 10
15.81037307347105
 20
-59.605086771653092
 30
0.0
 42
-0.4142135623730951
  0
VERTEX
  5
20F1
  8
SAPA_FOGBAND
 10
15.31037307347105
 20
-59.105086771653092
 30
0.0
  0
VERTEX
  5
20F2
  8
SAPA_FOGBAND
 10
15.310373073471959
 20
-58.80508677165291
 30
0.0
  0
SEQEND
  5
20F3
  8
SAPA_FOGBAND
  0
POLYLINE
  5
1B89
  8
SAPA_FOGBAND
 10
22.073620207308991
 20
-62.826656685502833
 30
0.0
 66
     1
 70
     8
  0
VERTEX
  8
SAPA_FOGBAND
  5
21A7
 10
22.0736
 20
-62.8267
 30
0.000000
  70
    32
  0
VERTEX
  8
SAPA_FOGBAND
  5
21A8
 10
22.0703
 20
-62.7660
 30
0.000000
  70
    32
  0
VERTEX
  8
SAPA_FOGBAND
  5
21A9
 10
22.0589
 20
-62.7055
 30
0.000000
  70
    32
  0
VERTEX
  8
SAPA_FOGBAND
  5
21AA
 10
22.0397
 20
-62.6451
 30
0.000000
  70
    32
  0
VERTEX
  8
SAPA_FOGBAND
  5
21AB
 10
22.0126
 20
-62.5851
 30
0.000000
  70
    32
  0
VERTEX
  8
SAPA_FOGBAND
  5
21AC
 10
21.9778
 20
-62.5256
 30
0.000000
  70
    32
  0
VERTEX
  8
SAPA_FOGBAND
  5
21AD
 10
21.9352
 20
-62.4668
 30
0.000000
  70
    32
  0
VERTEX
  8
SAPA_FOGBAND
  5
21AE
 10
21.8850
 20
-62.4087
 30
0.000000
  70
    32
  0
VERTEX
  8
SAPA_FOGBAND
  5
21AF
 10
21.8273
 20
-62.3516
 30
0.000000
  70
    32
  0
VERTEX
  8
SAPA_FOGBAND
  5
21B0
 10
21.7622
 20
-62.2955
 30
0.000000
  70
    32
  0
VERTEX
  8
SAPA_FOGBAND
  5
21B1
 10
21.6900
 20
-62.2406
 30
0.000000
  70
    32
  0
VERTEX
  8
SAPA_FOGBAND
  5
21B2
 10
21.6107
 20
-62.1871
 30
0.000000
  70
    32
  0
VERTEX
  8
SAPA_FOGBAND
  5
21B3
 10
21.5246
 20
-62.1350
 30
0.000000
  70
    32
  0
VERTEX
  8
SAPA_FOGBAND
  5
21B4
 10
21.4319
 20
-62.0846
 30
0.000000
  70
    32
  0
VERTEX
  8
SAPA_FOGBAND
  5
21B5
 10
21.3327
 20
-62.0358
 30
0.000000
  70
    32
  0
VERTEX
  8
SAPA_FOGBAND
  5
21B6
 10
21.2275
 20
-61.9888
 30
0.000000
  70
    32
  0
VERTEX
  8
SAPA_FOGBAND
  5
21B7
 10
21.1163
 20
-61.9438
 30
0.000000
  70
    32
  0
VERTEX
  8
SAPA_FOGBAND
  5
21B8
 10
20.9994
 20
-61.9009
 30
0.000000
  70
    32
  0
VERTEX
  8
SAPA_FOGBAND
  5
21B9
 10
20.8773
 20
-61.8601
 30
0.000000
  70
    32
  0
VERTEX
  8
SAPA_FOGBAND
  5
21BA
 10
20.7500
 20
-61.8215
 30
0.000000
  70
    32
  0
VERTEX
  8
SAPA_FOGBAND
  5
21BB
 10
20.6180
 20
-61.7853
 30
0.000000
  70
    32
  0
VERTEX
  8
SAPA_FOGBAND
  5
21BC
 10
20.4815
 20
-61.7515
 30
0.000000
  70
    32
  0
VERTEX
  8
SAPA_FOGBAND
  5
21BD
 10
20.3410
 20
-61.7202
 30
0.000000
  70
    32
  0
VERTEX
  8
SAPA_FOGBAND
  5
21BE
 10
20.1967
 20
-61.6915
 30
0.000000
  70
    32
  0
VERTEX
  8
SAPA_FOGBAND
  5
21BF
 10
20.0489
 20
-61.6655
 30
0.000000
  70
    32
  0
VERTEX
  8
SAPA_FOGBAND
  5
21C0
 10
19.8981
 20
-61.6422
 30
0.000000
  70
    32
  0
VERTEX
  8
SAPA_FOGBAND
  5
21C1
 10
19.7446
 20
-61.6216
 30
0.000000
  70
    32
  0
VERTEX
  8
SAPA_FOGBAND
  5
21C2
 10
19.5887
 20
-61.6039
 30
0.000000
  70
    32
  0
VERTEX
  8
SAPA_FOGBAND
  5
21C3
 10
19.4309
 20
-61.5891
 30
0.000000
  70
    32
  0
VERTEX
  8
SAPA_FOGBAND
  5
21C4
 10
19.2715
 20
-61.5771
 30
0.000000
  70
    32
  0
VERTEX
  8
SAPA_FOGBAND
  5
21C5
 10
19.1109
 20
-61.5681
 30
0.000000
  70
    32
  0
VERTEX
  8
SAPA_FOGBAND
  5
21C6
 10
18.9495
 20
-61.5620
 30
0.000000
  70
    32
  0
VERTEX
  8
SAPA_FOGBAND
  5
21C7
 10
18.7876
 20
-61.5589
 30
0.000000
  70
    32
  0
VERTEX
  8
SAPA_FOGBAND
  5
21C8
 10
18.6258
 20
-61.5588
 30
0.000000
  70
    32
  0
VERTEX
  8
SAPA_FOGBAND
  5
21C9
 10
18.4643
 20
-61.5616
 30
0.000000
  70
    32
  0
VERTEX
  8
SAPA_FOGBAND
  5
21CA
 10
18.3036
 20
-61.5675
 30
0.000000
  70
    32
  0
VERTEX
  8
SAPA_FOGBAND
  5
21CB
 10
18.1439
 20
-61.5762
 30
0.000000
  70
    32
  0
VERTEX
  8
SAPA_FOGBAND
  5
21CC
 10
17.9859
 20
-61.5879
 30
0.000000
  70
    32
  0
VERTEX
  8
SAPA_FOGBAND
  5
21CD
 10
17.8297
 20
-61.6026
 30
0.000000
  70
    32
  0
VERTEX
  8
SAPA_FOGBAND
  5
21CE
 10
17.6758
 20
-61.6200
 30
0.000000
  70
    32
  0
VERTEX
  8
SAPA_FOGBAND
  5
21CF
 10
17.5245
 20
-61.6404
 30
0.000000
  70
    32
  0
VERTEX
  8
SAPA_FOGBAND
  5
21D0
 10
17.3763
 20
-61.6634
 30
0.000000
  70
    32
  0
VERTEX
  8
SAPA_FOGBAND
  5
21D1
 10
17.2314
 20
-61.6893
 30
0.000000
  70
    32
  0
VERTEX
  8
SAPA_FOGBAND
  5
21D2
 10
17.0902
 20
-61.7177
 30
0.000000
  70
    32
  0
VERTEX
  8
SAPA_FOGBAND
  5
21D3
 10
16.9532
 20
-61.7488
 30
0.000000
  70
    32
  0
VERTEX
  8
SAPA_FOGBAND
  5
21D4
 10
16.8204
 20
-61.7824
 30
0.000000
  70
    32
  0
VERTEX
  8
SAPA_FOGBAND
  5
21D5
 10
16.6925
 20
-61.8184
 30
0.000000
  70
    32
  0
VERTEX
  8
SAPA_FOGBAND
  5
21D6
 10
16.5695
 20
-61.8568
 30
0.000000
  70
    32
  0
VERTEX
  8
SAPA_FOGBAND
  5
21D7
 10
16.4518
 20
-61.8974
 30
0.000000
  70
    32
  0
VERTEX
  8
SAPA_FOGBAND
  5
21D8
 10
16.3398
 20
-61.9402
 30
0.000000
  70
    32
  0
VERTEX
  8
SAPA_FOGBAND
  5
21D9
 10
16.2336
 20
-61.9850
 30
0.000000
  70
    32
  0
VERTEX
  8
SAPA_FOGBAND
  5
21DA
 10
16.1335
 20
-62.0318
 30
0.000000
  70
    32
  0
VERTEX
  8
SAPA_FOGBAND
  5
21DB
 10
16.0398
 20
-62.0805
 30
0.000000
  70
    32
  0
VERTEX
  8
SAPA_FOGBAND
  5
21DC
 10
15.9527
 20
-62.1308
 30
0.000000
  70
    32
  0
VERTEX
  8
SAPA_FOGBAND
  5
21DD
 10
15.8723
 20
-62.1827
 30
0.000000
  70
    32
  0
VERTEX
  8
SAPA_FOGBAND
  5
21DE
 10
15.7990
 20
-62.2362
 30
0.000000
  70
    32
  0
VERTEX
  8
SAPA_FOGBAND
  5
21DF
 10
15.7329
 20
-62.2909
 30
0.000000
  70
    32
  0
VERTEX
  8
SAPA_FOGBAND
  5
21E0
 10
15.6740
 20
-62.3469
 30
0.000000
  70
    32
  0
VERTEX
  8
SAPA_FOGBAND
  5
21E1
 10
15.6227
 20
-62.4039
 30
0.000000
  70
    32
  0
VERTEX
  8
SAPA_FOGBAND
  5
21E2
 10
15.5789
 20
-62.4619
 30
0.000000
  70
    32
  0
VERTEX
  8
SAPA_FOGBAND
  5
21E3
 10
15.5429
 20
-62.5207
 30
0.000000
  70
    32
  0
VERTEX
  8
SAPA_FOGBAND
  5
21E4
 10
15.5146
 20
-62.5802
 30
0.000000
  70
    32
  0
VERTEX
  8
SAPA_FOGBAND
  5
21E5
 10
15.4942
 20
-62.6401
 30
0.000000
  70
    32
  0
VERTEX
  8
SAPA_FOGBAND
  5
21E6
 10
15.4817
 20
-62.7004
 30
0.000000
  70
    32
  0
VERTEX
  8
SAPA_FOGBAND
  5
21E7
 10
15.4771
 20
-62.7610
 30
0.000000
  70
    32
  0
VERTEX
  8
SAPA_FOGBAND
  5
21E8
 10
15.4805
 20
-62.8216
 30
0.000000
  70
    32
  0
VERTEX
  8
SAPA_FOGBAND
  5
21E9
 10
15.4918
 20
-62.8822
 30
0.000000
  70
    32
  0
VERTEX
  8
SAPA_FOGBAND
  5
21EA
 10
15.5110
 20
-62.9426
 30
0.000000
  70
    32
  0
VERTEX
  8
SAPA_FOGBAND
  5
21EB
 10
15.5381
 20
-63.0025
 30
0.000000
  70
    32
  0
VERTEX
  8
SAPA_FOGBAND
  5
21EC
 10
15.5729
 20
-63.0620
 30
0.000000
  70
    32
  0
VERTEX
  8
SAPA_FOGBAND
  5
21ED
 10
15.6155
 20
-63.1209
 30
0.000000
  70
    32
  0
VERTEX
  8
SAPA_FOGBAND
  5
21EE
 10
15.6657
 20
-63.1789
 30
0.000000
  70
    32
  0
VERTEX
  8
SAPA_FOGBAND
  5
21EF
 10
15.7234
 20
-63.2361
 30
0.000000
  70
    32
  0
VERTEX
  8
SAPA_FOGBAND
  5
21F0
 10
15.7885
 20
-63.2921
 30
0.000000
  70
    32
  0
VERTEX
  8
SAPA_FOGBAND
  5
21F1
 10
15.8607
 20
-63.3470
 30
0.000000
  70
    32
  0
VERTEX
  8
SAPA_FOGBAND
  5
21F2
 10
15.9400
 20
-63.4005
 30
0.000000
  70
    32
  0
VERTEX
  8
SAPA_FOGBAND
  5
21F3
 10
16.0261
 20
-63.4526
 30
0.000000
  70
    32
  0
VERTEX
  8
SAPA_FOGBAND
  5
21F4
 10
16.1188
 20
-63.5031
 30
0.000000
  70
    32
  0
VERTEX
  8
SAPA_FOGBAND
  5
21F5
 10
16.2180
 20
-63.5519
 30
0.000000
  70
    32
  0
VERTEX
  8
SAPA_FOGBAND
  5
21F6
 10
16.3232
 20
-63.5988
 30
0.000000
  70
    32
  0
VERTEX
  8
SAPA_FOGBAND
  5
21F7
 10
16.4344
 20
-63.6438
 30
0.000000
  70
    32
  0
VERTEX
  8
SAPA_FOGBAND
  5
21F8
 10
16.5513
 20
-63.6868
 30
0.000000
  70
    32
  0
VERTEX
  8
SAPA_FOGBAND
  5
21F9
 10
16.6735
 20
-63.7276
 30
0.000000
  70
    32
  0
VERTEX
  8
SAPA_FOGBAND
  5
21FA
 10
16.8007
 20
-63.7662
 30
0.000000
  70
    32
  0
VERTEX
  8
SAPA_FOGBAND
  5
21FB
 10
16.9327
 20
-63.8024
 30
0.000000
  70
    32
  0
VERTEX
  8
SAPA_FOGBAND
  5
21FC
 10
17.0692
 20
-63.8362
 30
0.000000
  70
    32
  0
VERTEX
  8
SAPA_FOGBAND
  5
21FD
 10
17.2097
 20
-63.8674
 30
0.000000
  70
    32
  0
VERTEX
  8
SAPA_FOGBAND
  5
21FE
 10
17.3540
 20
-63.8961
 30
0.000000
  70
    32
  0
VERTEX
  8
SAPA_FOGBAND
  5
21FF
 10
17.5018
 20
-63.9222
 30
0.000000
  70
    32
  0
VERTEX
  8
SAPA_FOGBAND
  5
2200
 10
17.6526
 20
-63.9455
 30
0.000000
  70
    32
  0
VERTEX
  8
SAPA_FOGBAND
  5
2201
 10
17.8062
 20
-63.9660
 30
0.000000
  70
    32
  0
VERTEX
  8
SAPA_FOGBAND
  5
2202
 10
17.9620
 20
-63.9838
 30
0.000000
  70
    32
  0
VERTEX
  8
SAPA_FOGBAND
  5
2203
 10
18.1198
 20
-63.9986
 30
0.000000
  70
    32
  0
VERTEX
  8
SAPA_FOGBAND
  5
2204
 10
18.2792
 20
-64.0106
 30
0.000000
  70
    32
  0
VERTEX
  8
SAPA_FOGBAND
  5
2205
 10
18.4398
 20
-64.0196
 30
0.000000
  70
    32
  0
VERTEX
  8
SAPA_FOGBAND
  5
2206
 10
18.6012
 20
-64.0256
 30
0.000000
  70
    32
  0
VERTEX
  8
SAPA_FOGBAND
  5
2207
 10
18.7631
 20
-64.0287
 30
0.000000
  70
    32
  0
VERTEX
  8
SAPA_FOGBAND
  5
2208
 10
18.9249
 20
-64.0289
 30
0.000000
  70
    32
  0
VERTEX
  8
SAPA_FOGBAND
  5
2209
 10
19.0864
 20
-64.0260
 30
0.000000
  70
    32
  0
VERTEX
  8
SAPA_FOGBAND
  5
220A
 10
19.2471
 20
-64.0202
 30
0.000000
  70
    32
  0
VERTEX
  8
SAPA_FOGBAND
  5
220B
 10
19.4068
 20
-64.0114
 30
0.000000
  70
    32
  0
VERTEX
  8
SAPA_FOGBAND
  5
220C
 10
19.5648
 20
-63.9997
 30
0.000000
  70
    32
  0
VERTEX
  8
SAPA_FOGBAND
  5
220D
 10
19.7210
 20
-63.9851
 30
0.000000
  70
    32
  0
VERTEX
  8
SAPA_FOGBAND
  5
220E
 10
19.8749
 20
-63.9676
 30
0.000000
  70
    32
  0
VERTEX
  8
SAPA_FOGBAND
  5
220F
 10
20.0262
 20
-63.9473
 30
0.000000
  70
    32
  0
VERTEX
  8
SAPA_FOGBAND
  5
2210
 10
20.1744
 20
-63.9242
 30
0.000000
  70
    32
  0
VERTEX
  8
SAPA_FOGBAND
  5
2211
 10
20.3193
 20
-63.8984
 30
0.000000
  70
    32
  0
VERTEX
  8
SAPA_FOGBAND
  5
2212
 10
20.4605
 20
-63.8699
 30
0.000000
  70
    32
  0
VERTEX
  8
SAPA_FOGBAND
  5
2213
 10
20.5976
 20
-63.8389
 30
0.000000
  70
    32
  0
VERTEX
  8
SAPA_FOGBAND
  5
2214
 10
20.7303
 20
-63.8053
 30
0.000000
  70
    32
  0
VERTEX
  8
SAPA_FOGBAND
  5
2215
 10
20.8582
 20
-63.7693
 30
0.000000
  70
    32
  0
VERTEX
  8
SAPA_FOGBAND
  5
2216
 10
20.9812
 20
-63.7309
 30
0.000000
  70
    32
  0
VERTEX
  8
SAPA_FOGBAND
  5
2217
 10
21.0989
 20
-63.6903
 30
0.000000
  70
    32
  0
VERTEX
  8
SAPA_FOGBAND
  5
2218
 10
21.2110
 20
-63.6475
 30
0.000000
  70
    32
  0
VERTEX
  8
SAPA_FOGBAND
  5
2219
 10
21.3172
 20
-63.6026
 30
0.000000
  70
    32
  0
VERTEX
  8
SAPA_FOGBAND
  5
221A
 10
21.4172
 20
-63.5558
 30
0.000000
  70
    32
  0
VERTEX
  8
SAPA_FOGBAND
  5
221B
 10
21.5109
 20
-63.5072
 30
0.000000
  70
    32
  0
VERTEX
  8
SAPA_FOGBAND
  5
221C
 10
21.5981
 20
-63.4569
 30
0.000000
  70
    32
  0
VERTEX
  8
SAPA_FOGBAND
  5
221D
 10
21.6784
 20
-63.4049
 30
0.000000
  70
    32
  0
VERTEX
  8
SAPA_FOGBAND
  5
221E
 10
21.7517
 20
-63.3515
 30
0.000000
  70
    32
  0
VERTEX
  8
SAPA_FOGBAND
  5
221F
 10
21.8179
 20
-63.2967
 30
0.000000
  70
    32
  0
VERTEX
  8
SAPA_FOGBAND
  5
2220
 10
21.8767
 20
-63.2408
 30
0.000000
  70
    32
  0
VERTEX
  8
SAPA_FOGBAND
  5
2221
 10
21.9280
 20
-63.1837
 30
0.000000
  70
    32
  0
VERTEX
  8
SAPA_FOGBAND
  5
2222
 10
21.9718
 20
-63.1257
 30
0.000000
  70
    32
  0
VERTEX
  8
SAPA_FOGBAND
  5
2223
 10
22.0078
 20
-63.0669
 30
0.000000
  70
    32
  0
VERTEX
  8
SAPA_FOGBAND
  5
2224
 10
22.0361
 20
-63.0075
 30
0.000000
  70
    32
  0
VERTEX
  8
SAPA_FOGBAND
  5
2225
 10
22.0565
 20
-62.9475
 30
0.000000
  70
    32
  0
VERTEX
  8
SAPA_FOGBAND
  5
2226
 10
22.0690
 20
-62.8872
 30
0.000000
  70
    32
  0
VERTEX
  8
SAPA_FOGBAND
  5
2227
 10
22.0736
 20
-62.8267
 30
0.000000
  70
    32
  0
SEQEND
  8
SAPA_FOGBAND
  5
2228
  0
POLYLINE
  5
1B8A
  8
SAPA_FOGBAND
 10
-15.182155401672924
 20
-58.646125407834958
 30
0.0
 66
     1
 70
     8
  0
VERTEX
  8
SAPA_FOGBAND
  5
2229
 10
-15.1822
 20
-58.6461
 30
0.000000
  70
    32
  0
VERTEX
  8
SAPA_FOGBAND
  5
222A
 10
-15.1866
 20
-58.7402
 30
0.000000
  70
    32
  0
VERTEX
  8
SAPA_FOGBAND
  5
222B
 10
-15.2001
 20
-58.8340
 30
0.000000
  70
    32
  0
VERTEX
  8
SAPA_FOGBAND
  5
222C
 10
-15.2225
 20
-58.9274
 30
0.000000
  70
    32
  0
VERTEX
  8
SAPA_FOGBAND
  5
222D
 10
-15.2539
 20
-59.0201
 30
0.000000
  70
    32
  0
VERTEX
  8
SAPA_FOGBAND
  5
222E
 10
-15.2940
 20
-59.1118
 30
0.000000
  70
    32
  0
VERTEX
  8
SAPA_FOGBAND
  5
222F
 10
-15.3428
 20
-59.2025
 30
0.000000
  70
    32
  0
VERTEX
  8
SAPA_FOGBAND
  5
2230
 10
-15.4003
 20
-59.2918
 30
0.000000
  70
    32
  0
VERTEX
  8
SAPA_FOGBAND
  5
2231
 10
-15.4662
 20
-59.3796
 30
0.000000
  70
    32
  0
VERTEX
  8
SAPA_FOGBAND
  5
2232
 10
-15.5404
 20
-59.4656
 30
0.000000
  70
    32
  0
VERTEX
  8
SAPA_FOGBAND
  5
2233
 10
-15.6227
 20
-59.5496
 30
0.000000
  70
    32
  0
VERTEX
  8
SAPA_FOGBAND
  5
2234
 10
-15.7130
 20
-59.6315
 30
0.000000
  70
    32
  0
VERTEX
  8
SAPA_FOGBAND
  5
2235
 10
-15.8110
 20
-59.7110
 30
0.000000
  70
    32
  0
VERTEX
  8
SAPA_FOGBAND
  5
2236
 10
-15.9165
 20
-59.7879
 30
0.000000
  70
    32
  0
VERTEX
  8
SAPA_FOGBAND
  5
2237
 10
-16.0291
 20
-59.8621
 30
0.000000
  70
    32
  0
VERTEX
  8
SAPA_FOGBAND
  5
2238
 10
-16.1487
 20
-59.9333
 30
0.000000
  70
    32
  0
VERTEX
  8
SAPA_FOGBAND
  5
2239
 10
-16.2750
 20
-60.0014
 30
0.000000
  70
    32
  0
VERTEX
  8
SAPA_FOGBAND
  5
223A
 10
-16.4077
 20
-60.0663
 30
0.000000
  70
    32
  0
VERTEX
  8
SAPA_FOGBAND
  5
223B
 10
-16.5463
 20
-60.1277
 30
0.000000
  70
    32
  0
VERTEX
  8
SAPA_FOGBAND
  5
223C
 10
-16.6907
 20
-60.1856
 30
0.000000
  70
    32
  0
VERTEX
  8
SAPA_FOGBAND
  5
223D
 10
-16.8405
 20
-60.2398
 30
0.000000
  70
    32
  0
VERTEX
  8
SAPA_FOGBAND
  5
223E
 10
-16.9952
 20
-60.2901
 30
0.000000
  70
    32
  0
VERTEX
  8
SAPA_FOGBAND
  5
223F
 10
-17.1545
 20
-60.3365
 30
0.000000
  70
    32
  0
VERTEX
  8
SAPA_FOGBAND
  5
2240
 10
-17.3181
 20
-60.3788
 30
0.000000
  70
    32
  0
VERTEX
  8
SAPA_FOGBAND
  5
2241
 10
-17.4856
 20
-60.4169
 30
0.000000
  70
    32
  0
VERTEX
  8
SAPA_FOGBAND
  5
2242
 10
-17.6564
 20
-60.4508
 30
0.000000
  70
    32
  0
VERTEX
  8
SAPA_FOGBAND
  5
2243
 10
-17.8303
 20
-60.4803
 30
0.000000
  70
    32
  0
VERTEX
  8
SAPA_FOGBAND
  5
2244
 10
-18.0068
 20
-60.5054
 30
0.000000
  70
    32
  0
VERTEX
  8
SAPA_FOGBAND
  5
2245
 10
-18.1855
 20
-60.5260
 30
0.000000
  70
    32
  0
VERTEX
  8
SAPA_FOGBAND
  5
2246
 10
-18.3660
 20
-60.5421
 30
0.000000
  70
    32
  0
VERTEX
  8
SAPA_FOGBAND
  5
2247
 10
-18.5477
 20
-60.5536
 30
0.000000
  70
    32
  0
VERTEX
  8
SAPA_FOGBAND
  5
2248
 10
-18.7304
 20
-60.5605
 30
0.000000
  70
    32
  0
VERTEX
  8
SAPA_FOGBAND
  5
2249
 10
-18.9135
 20
-60.5628
 30
0.000000
  70
    32
  0
VERTEX
  8
SAPA_FOGBAND
  5
224A
 10
-19.0966
 20
-60.5605
 30
0.000000
  70
    32
  0
VERTEX
  8
SAPA_FOGBAND
  5
224B
 10
-19.2792
 20
-60.5536
 30
0.000000
  70
    32
  0
VERTEX
  8
SAPA_FOGBAND
  5
224C
 10
-19.4610
 20
-60.5421
 30
0.000000
  70
    32
  0
VERTEX
  8
SAPA_FOGBAND
  5
224D
 10
-19.6414
 20
-60.5260
 30
0.000000
  70
    32
  0
VERTEX
  8
SAPA_FOGBAND
  5
224E
 10
-19.8201
 20
-60.5054
 30
0.000000
  70
    32
  0
VERTEX
  8
SAPA_FOGBAND
  5
224F
 10
-19.9966
 20
-60.4803
 30
0.000000
  70
    32
  0
VERTEX
  8
SAPA_FOGBAND
  5
2250
 10
-20.1705
 20
-60.4508
 30
0.000000
  70
    32
  0
VERTEX
  8
SAPA_FOGBAND
  5
2251
 10
-20.3414
 20
-60.4169
 30
0.000000
  70
    32
  0
VERTEX
  8
SAPA_FOGBAND
  5
2252
 10
-20.5088
 20
-60.3788
 30
0.000000
  70
    32
  0
VERTEX
  8
SAPA_FOGBAND
  5
2253
 10
-20.6724
 20
-60.3365
 30
0.000000
  70
    32
  0
VERTEX
  8
SAPA_FOGBAND
  5
2254
 10
-20.8318
 20
-60.2901
 30
0.000000
  70
    32
  0
VERTEX
  8
SAPA_FOGBAND
  5
2255
 10
-20.9865
 20
-60.2398
 30
0.000000
  70
    32
  0
VERTEX
  8
SAPA_FOGBAND
  5
2256
 10
-21.1362
 20
-60.1856
 30
0.000000
  70
    32
  0
VERTEX
  8
SAPA_FOGBAND
  5
2257
 10
-21.2806
 20
-60.1277
 30
0.000000
  70
    32
  0
VERTEX
  8
SAPA_FOGBAND
  5
2258
 10
-21.4193
 20
-60.0663
 30
0.000000
  70
    32
  0
VERTEX
  8
SAPA_FOGBAND
  5
2259
 10
-21.5519
 20
-60.0014
 30
0.000000
  70
    32
  0
VERTEX
  8
SAPA_FOGBAND
  5
225A
 10
-21.6782
 20
-59.9333
 30
0.000000
  70
    32
  0
VERTEX
  8
SAPA_FOGBAND
  5
225B
 10
-21.7978
 20
-59.8621
 30
0.000000
  70
    32
  0
VERTEX
  8
SAPA_FOGBAND
  5
225C
 10
-21.9105
 20
-59.7879
 30
0.000000
  70
    32
  0
VERTEX
  8
SAPA_FOGBAND
  5
225D
 10
-22.0159
 20
-59.7110
 30
0.000000
  70
    32
  0
VERTEX
  8
SAPA_FOGBAND
  5
225E
 10
-22.1139
 20
-59.6315
 30
0.000000
  70
    32
  0
VERTEX
  8
SAPA_FOGBAND
  5
225F
 10
-22.2042
 20
-59.5496
 30
0.000000
  70
    32
  0
VERTEX
  8
SAPA_FOGBAND
  5
2260
 10
-22.2865
 20
-59.4656
 30
0.000000
  70
    32
  0
VERTEX
  8
SAPA_FOGBAND
  5
2261
 10
-22.3608
 20
-59.3796
 30
0.000000
  70
    32
  0
VERTEX
  8
SAPA_FOGBAND
  5
2262
 10
-22.4267
 20
-59.2918
 30
0.000000
  70
    32
  0
VERTEX
  8
SAPA_FOGBAND
  5
2263
 10
-22.4841
 20
-59.2025
 30
0.000000
  70
    32
  0
VERTEX
  8
SAPA_FOGBAND
  5
2264
 10
-22.5330
 20
-59.1118
 30
0.000000
  70
    32
  0
VERTEX
  8
SAPA_FOGBAND
  5
2265
 10
-22.5731
 20
-59.0201
 30
0.000000
  70
    32
  0
VERTEX
  8
SAPA_FOGBAND
  5
2266
 10
-22.6044
 20
-58.9274
 30
0.000000
  70
    32
  0
VERTEX
  8
SAPA_FOGBAND
  5
2267
 10
-22.6268
 20
-58.8340
 30
0.000000
  70
    32
  0
VERTEX
  8
SAPA_FOGBAND
  5
2268
 10
-22.6403
 20
-58.7402
 30
0.000000
  70
    32
  0
VERTEX
  8
SAPA_FOGBAND
  5
2269
 10
-22.6448
 20
-58.6461
 30
0.000000
  70
    32
  0
VERTEX
  8
SAPA_FOGBAND
  5
226A
 10
-22.6403
 20
-58.5521
 30
0.000000
  70
    32
  0
VERTEX
  8
SAPA_FOGBAND
  5
226B
 10
-22.6268
 20
-58.4583
 30
0.000000
  70
    32
  0
VERTEX
  8
SAPA_FOGBAND
  5
226C
 10
-22.6044
 20
-58.3649
 30
0.000000
  70
    32
  0
VERTEX
  8
SAPA_FOGBAND
  5
226D
 10
-22.5731
 20
-58.2722
 30
0.000000
  70
    32
  0
VERTEX
  8
SAPA_FOGBAND
  5
226E
 10
-22.5330
 20
-58.1804
 30
0.000000
  70
    32
  0
VERTEX
  8
SAPA_FOGBAND
  5
226F
 10
-22.4841
 20
-58.0897
 30
0.000000
  70
    32
  0
VERTEX
  8
SAPA_FOGBAND
  5
2270
 10
-22.4267
 20
-58.0004
 30
0.000000
  70
    32
  0
VERTEX
  8
SAPA_FOGBAND
  5
2271
 10
-22.3608
 20
-57.9126
 30
0.000000
  70
    32
  0
VERTEX
  8
SAPA_FOGBAND
  5
2272
 10
-22.2865
 20
-57.8266
 30
0.000000
  70
    32
  0
VERTEX
  8
SAPA_FOGBAND
  5
2273
 10
-22.2042
 20
-57.7426
 30
0.000000
  70
    32
  0
VERTEX
  8
SAPA_FOGBAND
  5
2274
 10
-22.1139
 20
-57.6607
 30
0.000000
  70
    32
  0
VERTEX
  8
SAPA_FOGBAND
  5
2275
 10
-22.0159
 20
-57.5813
 30
0.000000
  70
    32
  0
VERTEX
  8
SAPA_FOGBAND
  5
2276
 10
-21.9105
 20
-57.5044
 30
0.000000
  70
    32
  0
VERTEX
  8
SAPA_FOGBAND
  5
2277
 10
-21.7978
 20
-57.4302
 30
0.000000
  70
    32
  0
VERTEX
  8
SAPA_FOGBAND
  5
2278
 10
-21.6782
 20
-57.3590
 30
0.000000
  70
    32
  0
VERTEX
  8
SAPA_FOGBAND
  5
2279
 10
-21.5519
 20
-57.2908
 30
0.000000
  70
    32
  0
VERTEX
  8
SAPA_FOGBAND
  5
227A
 10
-21.4193
 20
-57.2260
 30
0.000000
  70
    32
  0
VERTEX
  8
SAPA_FOGBAND
  5
227B
 10
-21.2806
 20
-57.1645
 30
0.000000
  70
    32
  0
VERTEX
  8
SAPA_FOGBAND
  5
227C
 10
-21.1362
 20
-57.1066
 30
0.000000
  70
    32
  0
VERTEX
  8
SAPA_FOGBAND
  5
227D
 10
-20.9865
 20
-57.0525
 30
0.000000
  70
    32
  0
VERTEX
  8
SAPA_FOGBAND
  5
227E
 10
-20.8318
 20
-57.0021
 30
0.000000
  70
    32
  0
VERTEX
  8
SAPA_FOGBAND
  5
227F
 10
-20.6724
 20
-56.9558
 30
0.000000
  70
    32
  0
VERTEX
  8
SAPA_FOGBAND
  5
2280
 10
-20.5088
 20
-56.9135
 30
0.000000
  70
    32
  0
VERTEX
  8
SAPA_FOGBAND
  5
2281
 10
-20.3414
 20
-56.8753
 30
0.000000
  70
    32
  0
VERTEX
  8
SAPA_FOGBAND
  5
2282
 10
-20.1705
 20
-56.8415
 30
0.000000
  70
    32
  0
VERTEX
  8
SAPA_FOGBAND
  5
2283
 10
-19.9966
 20
-56.8120
 30
0.000000
  70
    32
  0
VERTEX
  8
SAPA_FOGBAND
  5
2284
 10
-19.8201
 20
-56.7869
 30
0.000000
  70
    32
  0
VERTEX
  8
SAPA_FOGBAND
  5
2285
 10
-19.6414
 20
-56.7663
 30
0.000000
  70
    32
  0
VERTEX
  8
SAPA_FOGBAND
  5
2286
 10
-19.4610
 20
-56.7502
 30
0.000000
  70
    32
  0
VERTEX
  8
SAPA_FOGBAND
  5
2287
 10
-19.2792
 20
-56.7387
 30
0.000000
  70
    32
  0
VERTEX
  8
SAPA_FOGBAND
  5
2288
 10
-19.0966
 20
-56.7317
 30
0.000000
  70
    32
  0
VERTEX
  8
SAPA_FOGBAND
  5
2289
 10
-18.9135
 20
-56.7294
 30
0.000000
  70
    32
  0
VERTEX
  8
SAPA_FOGBAND
  5
228A
 10
-18.7304
 20
-56.7317
 30
0.000000
  70
    32
  0
VERTEX
  8
SAPA_FOGBAND
  5
228B
 10
-18.5477
 20
-56.7387
 30
0.000000
  70
    32
  0
VERTEX
  8
SAPA_FOGBAND
  5
228C
 10
-18.3660
 20
-56.7502
 30
0.000000
  70
    32
  0
VERTEX
  8
SAPA_FOGBAND
  5
228D
 10
-18.1855
 20
-56.7663
 30
0.000000
  70
    32
  0
VERTEX
  8
SAPA_FOGBAND
  5
228E
 10
-18.0068
 20
-56.7869
 30
0.000000
  70
    32
  0
VERTEX
  8
SAPA_FOGBAND
  5
228F
 10
-17.8303
 20
-56.8120
 30
0.000000
  70
    32
  0
VERTEX
  8
SAPA_FOGBAND
  5
2290
 10
-17.6564
 20
-56.8415
 30
0.000000
  70
    32
  0
VERTEX
  8
SAPA_FOGBAND
  5
2291
 10
-17.4856
 20
-56.8753
 30
0.000000
  70
    32
  0
VERTEX
  8
SAPA_FOGBAND
  5
2292
 10
-17.3181
 20
-56.9135
 30
0.000000
  70
    32
  0
VERTEX
  8
SAPA_FOGBAND
  5
2293
 10
-17.1545
 20
-56.9558
 30
0.000000
  70
    32
  0
VERTEX
  8
SAPA_FOGBAND
  5
2294
 10
-16.9952
 20
-57.0021
 30
0.000000
  70
    32
  0
VERTEX
  8
SAPA_FOGBAND
  5
2295
 10
-16.8405
 20
-57.0525
 30
0.000000
  70
    32
  0
VERTEX
  8
SAPA_FOGBAND
  5
2296
 10
-16.6907
 20
-57.1066
 30
0.000000
  70
    32
  0
VERTEX
  8
SAPA_FOGBAND
  5
2297
 10
-16.5463
 20
-57.1645
 30
0.000000
  70
    32
  0
VERTEX
  8
SAPA_FOGBAND
  5
2298
 10
-16.4077
 20
-57.2260
 30
0.000000
  70
    32
  0
VERTEX
  8
SAPA_FOGBAND
  5
2299
 10
-16.2750
 20
-57.2908
 30
0.000000
  70
    32
  0
VERTEX
  8
SAPA_FOGBAND
  5
229A
 10
-16.1487
 20
-57.3590
 30
0.000000
  70
    32
  0
VERTEX
  8
SAPA_FOGBAND
  5
229B
 10
-16.0291
 20
-57.4302
 30
0.000000
  70
    32
  0
VERTEX
  8
SAPA_FOGBAND
  5
229C
 10
-15.9165
 20
-57.5044
 30
0.000000
  70
    32
  0
VERTEX
  8
SAPA_FOGBAND
  5
229D
 10
-15.8110
 20
-57.5813
 30
0.000000
  70
    32
  0
VERTEX
  8
SAPA_FOGBAND
  5
229E
 10
-15.7130
 20
-57.6607
 30
0.000000
  70
    32
  0
VERTEX
  8
SAPA_FOGBAND
  5
229F
 10
-15.6227
 20
-57.7426
 30
0.000000
  70
    32
  0
VERTEX
  8
SAPA_FOGBAND
  5
22A0
 10
-15.5404
 20
-57.8266
 30
0.000000
  70
    32
  0
VERTEX
  8
SAPA_FOGBAND
  5
22A1
 10
-15.4662
 20
-57.9126
 30
0.000000
  70
    32
  0
VERTEX
  8
SAPA_FOGBAND
  5
22A2
 10
-15.4003
 20
-58.0004
 30
0.000000
  70
    32
  0
VERTEX
  8
SAPA_FOGBAND
  5
22A3
 10
-15.3428
 20
-58.0897
 30
0.000000
  70
    32
  0
VERTEX
  8
SAPA_FOGBAND
  5
22A4
 10
-15.2940
 20
-58.1804
 30
0.000000
  70
    32
  0
VERTEX
  8
SAPA_FOGBAND
  5
22A5
 10
-15.2539
 20
-58.2722
 30
0.000000
  70
    32
  0
VERTEX
  8
SAPA_FOGBAND
  5
22A6
 10
-15.2225
 20
-58.3649
 30
0.000000
  70
    32
  0
VERTEX
  8
SAPA_FOGBAND
  5
22A7
 10
-15.2001
 20
-58.4583
 30
0.000000
  70
    32
  0
VERTEX
  8
SAPA_FOGBAND
  5
22A8
 10
-15.1866
 20
-58.5521
 30
0.000000
  70
    32
  0
VERTEX
  8
SAPA_FOGBAND
  5
22A9
 10
-15.1822
 20
-58.6461
 30
0.000000
  70
    32
  0
SEQEND
  8
SAPA_FOGBAND
  5
22AA
  0
POLYLINE
  5
1B8B
  8
SAPA_FOGBAND
 66
     1
 10
0.0
 20
0.0
 30
0.0
  0
VERTEX
  5
20F4
  8
SAPA_FOGBAND
 10
-23.787839836612111
 20
-51.800000000001802
 30
0.0
  0
VERTEX
  5
20F5
  8
SAPA_FOGBAND
 10
-23.787839836612111
 20
-51.500000000001847
 30
0.0
  0
VERTEX
  5
20F6
  8
SAPA_FOGBAND
 10
-23.787839836612111
 20
-51.800000000001802
 30
0.0
 42
0.4142135623730951
  0
VERTEX
  5
20F7
  8
SAPA_FOGBAND
 10
-23.287839836612111
 20
-52.300000000001809
 30
0.0
  0
VERTEX
  5
20F8
  8
SAPA_FOGBAND
 10
-15.987839836612149
 20
-52.300000000001859
 30
0.0
 42
0.4142135623730951
  0
VERTEX
  5
20F9
  8
SAPA_FOGBAND
 10
-15.487839836612149
 20
-51.800000000001873
 30
0.0
  0
VERTEX
  5
20FA
  8
SAPA_FOGBAND
 10
-15.487839836612149
 20
-51.500000000001847
 30
0.0
  0
SEQEND
  5
20FB
  8
SAPA_FOGBAND
  0
POLYLINE
  5
1B8C
  8
SAPA_FOGBAND
 66
     1
 10
0.0
 20
0.0
 30
0.0
 70
     1
  0
VERTEX
  5
20FC
  8
SAPA_FOGBAND
 10
-21.087839836612119
 20
-49.585369502363079
 30
0.0
  0
VERTEX
  5
20FD
  8
SAPA_FOGBAND
 10
-21.087839836612119
 20
-50.185369502363052
 30
0.0
 42
0.9999999999999998
  0
VERTEX
  5
20FE
  8
SAPA_FOGBAND
 10
-19.287839836612161
 20
-50.185369502363052
 30
0.0
  0
VERTEX
  5
20FF
  8
SAPA_FOGBAND
 10
-19.287839836612111
 20
-49.585369502363079
 30
0.0
 42
0.9999999999999998
  0
SEQEND
  5
2100
  8
SAPA_FOGBAND
  0
POLYLINE
  5
1B8D
  8
SAPA_FOGBAND
 66
     1
 10
0.0
 20
0.0
 30
0.0
 70
     1
  0
VERTEX
  5
2101
  8
SAPA_FOGBAND
 10
-11.49897524277438
 20
-56.418068725706668
 30
0.0
 42
0.646356061736289
  0
VERTEX
  5
2102
  8
SAPA_FOGBAND
 10
-13.1616921057529
 20
-57.166938780872357
 30
0.0
  0
VERTEX
  5
2103
  8
SAPA_FOGBAND
 10
-13.1616921057529
 20
-60.64591139233243
 30
0.0
 42
0.4879283649264857
  0
VERTEX
  5
2104
  8
SAPA_FOGBAND
 10
-11.919156480716561
 20
-61.61605389247778
 30
0.0
  0
VERTEX
  5
2105
  8
SAPA_FOGBAND
 10
-9.0413590643767971
 20
-60.896604538392843
 30
0.0
 42
0.3441507314089108
  0
VERTEX
  5
2106
  8
SAPA_FOGBAND
 10
-8.2838946894131311
 20
-59.926462038247507
 30
0.0
  0
VERTEX
  5
2107
  8
SAPA_FOGBAND
 10
-8.2838946894131151
 20
-59.713662158164219
 30
0.0
 42
0.214804042991016
  0
VERTEX
  5
2108
  8
SAPA_FOGBAND
 10
-8.6211778264346037
 20
-58.964792102998508
 30
0.0
  0
SEQEND
  5
2109
  8
SAPA_FOGBAND
  0
POLYLINE
  5
1B8E
  8
SAPA_FOGBAND
 66
     1
 10
0.0
 20
0.0
 30
0.0
 70
     1
  0
VERTEX
  5
210A
  8
SAPA_FOGBAND
 10
-18.187839836612142
 20
-51.500000000001847
 30
0.0
 42
-0.4142135623730951
  0
VERTEX
  5
210B
  8
SAPA_FOGBAND
 10
-18.687839836612142
 20
-51.000000000001862
 30
0.0
  0
VERTEX
  5
210C
  8
SAPA_FOGBAND
 10
-18.687839836612142
 20
-50.05857458311997
 30
0.0
  0
VERTEX
  5
210D
  8
SAPA_FOGBAND
 10
-18.436076027591671
 20
-49.991114673809513
 30
0.0
 42
0.474057181023226
  0
VERTEX
  5
210E
  8
SAPA_FOGBAND
 10
-18.308782165228049
 20
-49.708832088170922
 30
0.0
  0
VERTEX
  5
210F
  8
SAPA_FOGBAND
 10
-18.928882667986692
 20
-48.262625951411032
 30
0.0
 42
0.2846003776496053
  0
VERTEX
  5
2110
  8
SAPA_FOGBAND
 10
-19.376526846446801
 20
-47.985369502363064
 30
0.0
  0
VERTEX
  5
2111
  8
SAPA_FOGBAND
 10
-20.999152826777411
 20
-47.985369502363064
 30
0.0
 42
0.2846003776496055
  0
VERTEX
  5
2112
  8
SAPA_FOGBAND
 10
-21.446797005237581
 20
-48.262625951411032
 30
0.0
  0
VERTEX
  5
2113
  8
SAPA_FOGBAND
 10
-22.06689750799617
 20
-49.708832088170858
 30
0.0
 42
0.474057181023226
  0
VERTEX
  5
2114
  8
SAPA_FOGBAND
 10
-21.939603645632609
 20
-49.991114673809513
 30
0.0
  0
VERTEX
  5
2115
  8
SAPA_FOGBAND
 10
-21.687839836612142
 20
-50.05857458311997
 30
0.0
  0
VERTEX
  5
2116
  8
SAPA_FOGBAND
 10
-21.687839836612142
 20
-51.000000000001862
 30
0.0
 42
-0.4142135623730951
  0
VERTEX
  5
2117
  8
SAPA_FOGBAND
 10
-22.187839836612142
 20
-51.500000000001847
 30
0.0
  0
VERTEX
  5
2118
  8
SAPA_FOGBAND
 10
-24.69999999999359
 20
-51.500000000001791
 30
0.0
 42
0.4052499559557504
  0
VERTEX
  5
2119
  8
SAPA_FOGBAND
 10
-24.999858634294721
 20
-51.790791339129143
 30
0.0
  0
VERTEX
  5
211A
  8
SAPA_FOGBAND
 10
-25.48769844896416
 20
-62.69079133912917
 30
0.0
 42
0.4232343445545565
  0
VERTEX
  5
211B
  8
SAPA_FOGBAND
 10
-25.187839814663018
 20
-63.000000000001862
 30
0.0
  0
VERTEX
  5
211C
  8
SAPA_FOGBAND
 10
-11.54939264942098
 20
-63.000000000001862
 30
0.0
 42
0.0613213552369726
  0
VERTEX
  5
211D
  8
SAPA_FOGBAND
 10
-11.428124836902811
 20
-62.98507125007454
 30
0.0
  0
VERTEX
  5
211E
  8
SAPA_FOGBAND
 10
-5.9453042115758024
 20
-62.414366093742721
 30
0.0
 42
0.3441507314089092
  0
VERTEX
  5
211F
  8
SAPA_FOGBAND
 10
-5.1878398366121408
 20
-61.444223593597393
 30
0.0
  0
VERTEX
  5
2120
  8
SAPA_FOGBAND
 10
-5.1878398366121408
 20
-60.206139425069189
 30
0.0
 42
0.2148040429910146
  0
VERTEX
  5
2121
  8
SAPA_FOGBAND
 10
-5.3564814051228771
 20
-59.831704397486327
 30
0.0
  0
VERTEX
  5
2122
  8
SAPA_FOGBAND
 10
-14.48753053661753
 20
-51.751129944836102
 30
0.0
 42
0.1831167524995932
  0
VERTEX
  5
2123
  8
SAPA_FOGBAND
 10
-15.150247399596051
 20
-51.500000000001847
 30
0.0
  0
SEQEND
  5
2124
  8
SAPA_FOGBAND
  0
VIEWPORT
  5
C4
 67
     1
  8
0
 10
209.49949014430729
 20
130.70624923706049
 30
0.0
 40
625.55625699991936
 41
256.8421457311839
 68
     1
 69
     1
1001
ACAD
1000
MVIEW
1002
{
1070
    16
1010
0.0
1020
0.0
1030
0.0
1010
0.0
1020
0.0
1030
1.0
1040
0.0
1040
256.8421457311839
1040
209.49949014430729
1040
130.70624923706049
1040
50.0
1040
0.0
1040
0.0
1070
     0
1070
     0
1070
     1
1070
     1
1070
     0
1070
     0
1070
     0
1070
     0
1040
0.0
1040
0.0
1040
0.0
1040
10.0
1040
10.0
1040
10.0
1040
10.0
1070
     0
1002
{
1002
}
1002
}
  0
ENDSEC
  0
EOF
