  0
SECTION
  2
HEADER
  9
$ACADVER
  1
AC1009
  9
$INSBASE
 10
0.0
 20
0.0
 30
0.0
  9
$EXTMIN
 10
-95.524445940289809
 20
-60.957150622588479
 30
0.0
  9
$EXTMAX
 10
58.822858504106883
 20
41.810759691130727
 30
0.0
  9
$LIMMIN
 10
0.0
 20
0.0
  9
$LIMMAX
 10
790.0
 20
790.0
  9
$ORTHOMODE
 70
     1
  9
$REGENMODE
 70
     1
  9
$FILLMODE
 70
     1
  9
$QTEXTMODE
 70
     0
  9
$MIRRTEXT
 70
     1
  9
$DRAGMODE
 70
     2
  9
$LTSCALE
 40
4.0
  9
$OSMODE
 70
   167
  9
$ATTMODE
 70
     1
  9
$TEXTSIZE
 40
3.5
  9
$TRACEWID
 40
0.05
  9
$TEXTSTYLE
  7
ISO
  9
$CLAYER
  8
0
  9
$CELTYPE
  6
BYLAYER
  9
$CECOLOR
 62
   256
  9
$DIMSCALE
 40
0.0
  9
$DIMASZ
 40
3.0
  9
$DIMEXO
 40
1.5
  9
$DIMDLI
 40
10.0
  9
$DIMRND
 40
0.0
  9
$DIMDLE
 40
0.0
  9
$DIMEXE
 40
1.5
  9
$DIMTP
 40
0.0
  9
$DIMTM
 40
0.0
  9
$DIMTXT
 40
3.0
  9
$DIMCEN
 40
-5.0
  9
$DIMTSZ
 40
0.0
  9
$DIMTOL
 70
     0
  9
$DIMLIM
 70
     0
  9
$DIMTIH
 70
     0
  9
$DIMTOH
 70
     0
  9
$DIMSE1
 70
     0
  9
$DIMSE2
 70
     0
  9
$DIMTAD
 70
     1
  9
$DIMZIN
 70
     8
  9
$DIMBLK
  1

  9
$DIMASO
 70
     1
  9
$DIMSHO
 70
     1
  9
$DIMPOST
  1

  9
$DIMAPOST
  1

  9
$DIMALT
 70
     0
  9
$DIMALTD
 70
     0
  9
$DIMALTF
 40
25.399999999999999
  9
$DIMLFAC
 40
-1.0
  9
$DIMTOFL
 70
     1
  9
$DIMTVP
 40
0.0
  9
$DIMTIX
 70
     0
  9
$DIMSOXD
 70
     0
  9
$DIMSAH
 70
     0
  9
$DIMBLK1
  1

  9
$DIMBLK2
  1

  9
$DIMSTYLE
  2
MASKIN
  9
$DIMCLRD
 70
   256
  9
$DIMCLRE
 70
   256
  9
$DIMCLRT
 70
     2
  9
$DIMTFAC
 40
1.0
  9
$DIMGAP
 40
1.0
  9
$LUNITS
 70
     2
  9
$LUPREC
 70
     8
  9
$SKETCHINC
 40
0.1
  9
$FILLETRAD
 40
0.0
  9
$AUNITS
 70
     0
  9
$AUPREC
 70
     8
  9
$MENU
  1
ACAD
  9
$ELEVATION
 40
0.0
  9
$PELEVATION
 40
0.0
  9
$THICKNESS
 40
0.0
  9
$LIMCHECK
 70
     0
  9
$BLIPMODE
 70
     0
  9
$CHAMFERA
 40
0.0
  9
$CHAMFERB
 40
0.0
  9
$SKPOLY
 70
     0
  9
$TDCREATE
 40
2456297.4478323259
  9
$TDUPDATE
 40
2456647.4716657642
  9
$TDINDWG
 40
0.5329932523000001
  9
$TDUSRTIMER
 40
0.5329932523000001
  9
$USRTIMER
 70
     1
  9
$ANGBASE
 50
0.0
  9
$ANGDIR
 70
     0
  9
$PDMODE
 70
     0
  9
$PDSIZE
 40
0.0
  9
$PLINEWID
 40
0.0
  9
$COORDS
 70
     1
  9
$SPLFRAME
 70
     0
  9
$SPLINETYPE
 70
     6
  9
$SPLINESEGS
 70
     8
  9
$ATTDIA
 70
     0
  9
$ATTREQ
 70
     1
  9
$HANDLING
 70
     1
  9
$HANDSEED
  5
24AE
  9
$SURFTAB1
 70
     6
  9
$SURFTAB2
 70
     6
  9
$SURFTYPE
 70
     6
  9
$SURFU
 70
     6
  9
$SURFV
 70
     6
  9
$UCSNAME
  2

  9
$UCSORG
 10
0.0
 20
0.0
 30
0.0
  9
$UCSXDIR
 10
1.0
 20
0.0
 30
0.0
  9
$UCSYDIR
 10
0.0
 20
1.0
 30
0.0
  9
$PUCSNAME
  2

  9
$PUCSORG
 10
0.0
 20
0.0
 30
0.0
  9
$PUCSXDIR
 10
1.0
 20
0.0
 30
0.0
  9
$PUCSYDIR
 10
0.0
 20
1.0
 30
0.0
  9
$USERI1
 70
     0
  9
$USERI2
 70
     0
  9
$USERI3
 70
     0
  9
$USERI4
 70
     0
  9
$USERI5
 70
     0
  9
$USERR1
 40
0.0
  9
$USERR2
 40
0.0
  9
$USERR3
 40
0.0
  9
$USERR4
 40
0.0
  9
$USERR5
 40
0.0
  9
$WORLDVIEW
 70
     1
  9
$SHADEDGE
 70
     3
  9
$SHADEDIF
 70
    70
  9
$TILEMODE
 70
     1
  9
$MAXACTVP
 70
    16
  9
$PLIMCHECK
 70
     0
  9
$PEXTMIN
 10
1.0000000000000000E+020
 20
1.0000000000000000E+020
 30
1.0000000000000000E+020
  9
$PEXTMAX
 10
-1.0000000000000000E+020
 20
-1.0000000000000000E+020
 30
-1.0000000000000000E+020
  9
$PLIMMIN
 10
-5.069427490234375
 20
-5.8737497329711914
  9
$PLIMMAX
 10
291.89889526367187
 20
204.0995779037475
  9
$UNITMODE
 70
     0
  9
$VISRETAIN
 70
     1
  9
$PLINEGEN
 70
     0
  9
$PSLTSCALE
 70
     1
  0
ENDSEC
  0
SECTION
  2
TABLES
  0
TABLE
  2
VPORT
 70
     1
  0
VPORT
  2
*ACTIVE
 70
     0
 10
0.0
 20
0.0
 11
1.0
 21
1.0
 12
4.0292826977156722
 22
22.914434289076301
 13
0.0
 23
0.0
 14
1.0
 24
1.0
 15
0.0
 25
0.0
 16
0.0
 26
0.0
 36
1.0
 17
0.0
 27
0.0
 37
0.0
 40
145.51143322245579
 41
2.112307692307692
 42
50.0
 43
0.0
 44
0.0
 50
0.0
 51
0.0
 71
     0
 72
   100
 73
     1
 74
     1
 75
     0
 76
     0
 77
     0
 78
     0
  0
ENDTAB
  0
TABLE
  2
LTYPE
 70
    45
  0
LTYPE
  2
CONTINUOUS
 70
     0
  3
Solid line
 72
    65
 73
     0
 40
0.0
  0
LTYPE
  2
DASHDOT
 70
     0
  3
__ . __ . __ . __ . __ . __ . __ . __ . __ . __
 72
    65
 73
     4
 40
1.0
 49
0.5
 49
-0.25
 49
0.0
 49
-0.25
  0
LTYPE
  2
BYGG-018516$0$NEWDOT
 70
     0
  3
____ . ____ . ____ . ____ . ____ . ____ . ____
 72
    65
 73
     4
 40
2.0
 49
1.0
 49
-0.5
 49
0.0
 49
-0.5
  0
LTYPE
  2
BYGG-018516$0$ZIGZAG
 70
     0
  3
Zig zag /\/\/\/\/\/\/\/\/\/\/\/\/\/\/\/\/\/\/\/\/\/\/\/
 72
    65
 73
     4
 40
20.32254
 49
0.00254
 49
-5.0800000000000001
 49
-10.16
 49
-5.0800000000000001
  0
LTYPE
  2
BYGG-014269$0$NEWDOT
 70
     0
  3
____ . ____ . ____ . ____ . ____ . ____ . ____
 72
    65
 73
     4
 40
2.0
 49
1.0
 49
-0.5
 49
0.0
 49
-0.5
  0
LTYPE
  2
BYGG-014269$0$ZIGZAG
 70
     0
  3
Zig zag /\/\/\/\/\/\/\/\/\/\/\/\/\/\/\/\/\/\/\/\/\/\/\/
 72
    65
 73
     4
 40
20.32254
 49
0.00254
 49
-5.0800000000000001
 49
-10.16
 49
-5.0800000000000001
  0
LTYPE
  2
BYGG-018731$0$NEWDOT
 70
     0
  3
____ . ____ . ____ . ____ . ____ . ____ . ____
 72
    65
 73
     4
 40
2.0
 49
1.0
 49
-0.5
 49
0.0
 49
-0.5
  0
LTYPE
  2
BYGG-018731$0$DASHDOT
 70
     0
  3
__ . __ . __ . __ . __ . __ . __ . __ . __ . __
 72
    65
 73
     4
 40
1.0
 49
0.5
 49
-0.25
 49
0.0
 49
-0.25
  0
LTYPE
  2
BYGG-018731$0$DASHED
 70
     0
  3
__ __ __ __ __ __ __ __ __ __ __ __ __ __ __
 72
    65
 73
     2
 40
0.75
 49
0.5
 49
-0.25
  0
LTYPE
  2
BYGG-018731$0$PHANTOM
 70
     0
  3
Phantom ______  __  __  ______  __  __  ______
 72
    65
 73
     6
 40
63.5
 49
31.75
 49
-6.3499999999999988
 49
6.3499999999999988
 49
-6.3499999999999988
 49
6.3499999999999988
 49
-6.3499999999999988
  0
LTYPE
  2
BYGG-029261$0$NEWDOT
 70
     0
  3
____ . ____ . ____ . ____ . ____ . ____ . ____
 72
    65
 73
     4
 40
2.0
 49
1.0
 49
-0.5
 49
0.0
 49
-0.5
  0
LTYPE
  2
BYGG-029261$0$DASHDOT
 70
     0
  3
__ . __ . __ . __ . __ . __ . __ . __ . __ . __
 72
    65
 73
     4
 40
1.0
 49
0.5
 49
-0.25
 49
0.0
 49
-0.25
  0
LTYPE
  2
BYGG-029261$0$DASHED
 70
     0
  3
__ __ __ __ __ __ __ __ __ __ __ __ __ __ __
 72
    65
 73
     2
 40
0.75
 49
0.5
 49
-0.25
  0
LTYPE
  2
BYGG-029261$0$PHANTOM
 70
     0
  3
Phantom ______  __  __  ______  __  __  ______
 72
    65
 73
     6
 40
63.5
 49
31.75
 49
-6.3499999999999988
 49
6.3499999999999988
 49
-6.3499999999999988
 49
6.3499999999999988
 49
-6.3499999999999988
  0
LTYPE
  2
BYGG-019653$0$NEWDOT
 70
     0
  3
____ . ____ . ____ . ____ . ____ . ____ . ____
 72
    65
 73
     4
 40
2.0
 49
1.0
 49
-0.5
 49
0.0
 49
-0.5
  0
LTYPE
  2
BYGG-019653$0$DASHDOT
 70
     0
  3
__ . __ . __ . __ . __ . __ . __ . __ . __ . __
 72
    65
 73
     4
 40
1.0
 49
0.5
 49
-0.25
 49
0.0
 49
-0.25
  0
LTYPE
  2
BYGG-019653$0$DASHED
 70
     0
  3
__ __ __ __ __ __ __ __ __ __ __ __ __ __ __
 72
    65
 73
     2
 40
0.75
 49
0.5
 49
-0.25
  0
LTYPE
  2
BYGG-019653$0$PHANTOM
 70
     0
  3
Phantom ______  __  __  ______  __  __  ______
 72
    65
 73
     6
 40
63.5
 49
31.75
 49
-6.3499999999999988
 49
6.3499999999999988
 49
-6.3499999999999988
 49
6.3499999999999988
 49
-6.3499999999999988
  0
LTYPE
  2
BYGG-020945$0$NEWDOT
 70
     0
  3
____ . ____ . ____ . ____ . ____ . ____ . ____
 72
    65
 73
     4
 40
2.0
 49
1.0
 49
-0.5
 49
0.0
 49
-0.5
  0
LTYPE
  2
BYGG-020945$0$DASHDOT
 70
     0
  3
__ . __ . __ . __ . __ . __ . __ . __ . __ . __
 72
    65
 73
     4
 40
1.0
 49
0.5
 49
-0.25
 49
0.0
 49
-0.25
  0
LTYPE
  2
BYGG-020945$0$DASHED
 70
     0
  3
__ __ __ __ __ __ __ __ __ __ __ __ __ __ __
 72
    65
 73
     2
 40
0.75
 49
0.5
 49
-0.25
  0
LTYPE
  2
BYGG-020945$0$PHANTOM
 70
     0
  3
Phantom ______  __  __  ______  __  __  ______
 72
    65
 73
     6
 40
63.5
 49
31.75
 49
-6.3499999999999988
 49
6.3499999999999988
 49
-6.3499999999999988
 49
6.3499999999999988
 49
-6.3499999999999988
  0
LTYPE
  2
BYGG-014113$0$NEWDOT
 70
     0
  3
____ . ____ . ____ . ____ . ____ . ____ . ____
 72
    65
 73
     4
 40
2.0
 49
1.0
 49
-0.5
 49
0.0
 49
-0.5
  0
LTYPE
  2
BYGG-014113$0$DASHDOT
 70
     0
  3
__ . __ . __ . __ . __ . __ . __ . __ . __ . __
 72
    65
 73
     4
 40
1.0
 49
0.5
 49
-0.25
 49
0.0
 49
-0.25
  0
LTYPE
  2
BYGG-014113$0$DASHED
 70
     0
  3
__ __ __ __ __ __ __ __ __ __ __ __ __ __ __
 72
    65
 73
     2
 40
0.75
 49
0.5
 49
-0.25
  0
LTYPE
  2
BYGG-028959$0$NEWDOT
 70
     0
  3
____ . ____ . ____ . ____ . ____ . ____ . ____
 72
    65
 73
     4
 40
2.0
 49
1.0
 49
-0.5
 49
0.0
 49
-0.5
  0
LTYPE
  2
BYGG-028959$0$DASHDOT
 70
     0
  3
__ . __ . __ . __ . __ . __ . __ . __ . __ . __
 72
    65
 73
     4
 40
1.0
 49
0.5
 49
-0.25
 49
0.0
 49
-0.25
  0
LTYPE
  2
BYGG-028959$0$DASHED
 70
     0
  3
__ __ __ __ __ __ __ __ __ __ __ __ __ __ __
 72
    65
 73
     2
 40
0.75
 49
0.5
 49
-0.25
  0
LTYPE
  2
BYGG-028959$0$PHANTOM
 70
     0
  3
Phantom ______  __  __  ______  __  __  ______
 72
    65
 73
     6
 40
63.5
 49
31.75
 49
-6.3499999999999988
 49
6.3499999999999988
 49
-6.3499999999999988
 49
6.3499999999999988
 49
-6.3499999999999988
  0
LTYPE
  2
BYGG-025538$0$NEWDOT
 70
     0
  3
____ . ____ . ____ . ____ . ____ . ____ . ____
 72
    65
 73
     4
 40
2.0
 49
1.0
 49
-0.5
 49
0.0
 49
-0.5
  0
LTYPE
  2
BYGG-025538$0$DASHDOT
 70
     0
  3
__ . __ . __ . __ . __ . __ . __ . __ . __ . __
 72
    65
 73
     4
 40
1.0
 49
0.5
 49
-0.25
 49
0.0
 49
-0.25
  0
LTYPE
  2
BYGG-025538$0$DASHED
 70
     0
  3
__ __ __ __ __ __ __ __ __ __ __ __ __ __ __
 72
    65
 73
     2
 40
0.75
 49
0.5
 49
-0.25
  0
LTYPE
  2
BYGG-025538$0$PHANTOM
 70
     0
  3
Phantom ______  __  __  ______  __  __  ______
 72
    65
 73
     6
 40
63.5
 49
31.75
 49
-6.3499999999999988
 49
6.3499999999999988
 49
-6.3499999999999988
 49
6.3499999999999988
 49
-6.3499999999999988
  0
LTYPE
  2
BYGG-019718$0$NEWDOT
 70
     0
  3
____ . ____ . ____ . ____ . ____ . ____ . ____
 72
    65
 73
     4
 40
2.0
 49
1.0
 49
-0.5
 49
0.0
 49
-0.5
  0
LTYPE
  2
BYGG-019718$0$DASHDOT
 70
     0
  3
__ . __ . __ . __ . __ . __ . __ . __ . __ . __
 72
    65
 73
     4
 40
1.0
 49
0.5
 49
-0.25
 49
0.0
 49
-0.25
  0
LTYPE
  2
BYGG-019718$0$DASHED
 70
     0
  3
__ __ __ __ __ __ __ __ __ __ __ __ __ __ __
 72
    65
 73
     2
 40
0.75
 49
0.5
 49
-0.25
  0
LTYPE
  2
BYGG-019718$0$PHANTOM
 70
     0
  3
Phantom ______  __  __  ______  __  __  ______
 72
    65
 73
     6
 40
63.5
 49
31.75
 49
-6.3499999999999988
 49
6.3499999999999988
 49
-6.3499999999999988
 49
6.3499999999999988
 49
-6.3499999999999988
  0
LTYPE
  2
BYGG-024894$0$DASHDOT
 70
     0
  3
__ . __ . __ . __ . __ . __ . __ . __ . __ . __
 72
    65
 73
     4
 40
1.0
 49
0.5
 49
-0.25
 49
0.0
 49
-0.25
  0
LTYPE
  2
BYGG-019612$0$NEWDOT
 70
     0
  3
____ . ____ . ____ . ____ . ____ . ____ . ____
 72
    65
 73
     4
 40
2.0
 49
1.0
 49
-0.5
 49
0.0
 49
-0.5
  0
LTYPE
  2
BYGG-019612$0$DASHDOT
 70
     0
  3
__ . __ . __ . __ . __ . __ . __ . __ . __ . __
 72
    65
 73
     4
 40
1.0
 49
0.5
 49
-0.25
 49
0.0
 49
-0.25
  0
LTYPE
  2
BYGG-019612$0$DASHED
 70
     0
  3
__ __ __ __ __ __ __ __ __ __ __ __ __ __ __
 72
    65
 73
     2
 40
0.75
 49
0.5
 49
-0.25
  0
LTYPE
  2
BYGG-019612$0$PHANTOM
 70
     0
  3
Phantom ______  __  __  ______  __  __  ______
 72
    65
 73
     6
 40
63.5
 49
31.75
 49
-6.3499999999999988
 49
6.3499999999999988
 49
-6.3499999999999988
 49
6.3499999999999988
 49
-6.3499999999999988
  0
LTYPE
  2
BYGG-019612$0$ZIGZAG
 70
     0
  3
Zig zag /\/\/\/\/\/\/\/\/\/\/\/\/\/\/\/\/\/\/\/\/\/\/\/
 72
    65
 73
     4
 40
20.32254
 49
0.00254
 49
-5.0800000000000001
 49
-10.16
 49
-5.0800000000000001
  0
LTYPE
  2
BYGG-019653$0$DOT_CENTER
 70
     0
  3
Dot_Center
 72
    65
 73
     4
 40
14.0
 49
12.0
 49
-1.0
 49
0.0
 49
-1.0
  0
LTYPE
  2
BYGG-019653$0$DASH_CENTER
 70
     0
  3
Dash_Center
 72
    65
 73
     4
 40
14.0
 49
11.0
 49
-1.0
 49
1.0
 49
-1.0
  0
ENDTAB
  0
TABLE
  2
LAYER
 70
   261
  0
LAYER
  2
0
 70
     0
 62
     7
  6
CONTINUOUS
  0
LAYER
  2
SAPA_ARTIKELNR
 70
     0
 62
     4
  6
CONTINUOUS
  0
LAYER
  2
SAPA_GLAS
 70
     0
 62
     4
  6
CONTINUOUS
  0
LAYER
  2
SAPA_ANSLUTNING
 70
     0
 62
     6
  6
CONTINUOUS
  0
LAYER
  2
SAPA_ISOLATOR
 70
     0
 62
     4
  6
CONTINUOUS
  0
LAYER
  2
SAPA_FOGBAND
 70
     0
 62
     2
  6
CONTINUOUS
  0
LAYER
  2
SAPA_PROFIL
 70
     0
 62
     7
  6
CONTINUOUS
  0
ENDTAB
  0
TABLE
  2
STYLE
 70
    34
  0
STYLE
  2
STANDARD
 70
     0
 40
0.0
 41
1.0
 50
0.0
 71
     0
 42
0.2
  3
txt
  4

  0
STYLE
  2
ISO
 70
     0
 40
0.0
 41
1.0
 50
0.0
 71
     0
 42
3.5
  3
txt
  4

  0
STYLE
  2

 70
     1
 40
0.0
 41
1.0
 50
0.0
 71
     0
 42
0.2
  3
ltypeshp.shx
  4

  0
STYLE
  2
BYGG-021665$0$STANDARD
 70
     0
 40
0.0
 41
1.0
 50
0.0
 71
     0
 42
0.2
  3
txt
  4

  0
STYLE
  2
BYGG-021665$0$ISO
 70
     0
 40
0.0
 41
1.0
 50
0.0
 71
     0
 42
3.5
  3
isocp3.shx
  4

  0
STYLE
  2
BYGG-018516$0$STANDARD
 70
     0
 40
0.0
 41
1.0
 50
0.0
 71
     0
 42
0.2
  3
txt
  4

  0
STYLE
  2
BYGG-018516$0$ISO
 70
     0
 40
0.0
 41
1.0
 50
0.0
 71
     0
 42
3.5
  3
isocp3.shx
  4

  0
STYLE
  2
BYGG-021581$0$STANDARD
 70
     0
 40
0.0
 41
1.0
 50
0.0
 71
     0
 42
0.2
  3
txt
  4

  0
STYLE
  2
BYGG-014269$0$STANDARD
 70
     0
 40
0.0
 41
1.0
 50
0.0
 71
     0
 42
0.2
  3
txt
  4

  0
STYLE
  2
BYGG-014269$0$ISO
 70
     0
 40
0.0
 41
1.0
 50
0.0
 71
     0
 42
2.5
  3
isocp3.shx
  4

  0
STYLE
  2
BYGG-018731$0$STANDARD
 70
     0
 40
0.0
 41
1.0
 50
0.0
 71
     0
 42
0.2
  3
txt
  4

  0
STYLE
  2
BYGG-018731$0$ISO
 70
     0
 40
0.0
 41
1.0
 50
0.0
 71
     0
 42
3.5
  3
txt
  4

  0
STYLE
  2
BYGG-029261$0$STANDARD
 70
     0
 40
0.0
 41
1.0
 50
0.0
 71
     0
 42
0.2
  3
txt
  4

  0
STYLE
  2
BYGG-029261$0$ISO
 70
     0
 40
0.0
 41
1.0
 50
0.0
 71
     0
 42
3.5
  3
txt
  4

  0
STYLE
  2
BYGG-019653$0$STANDARD
 70
     0
 40
0.0
 41
1.0
 50
0.0
 71
     0
 42
0.2
  3
txt
  4

  0
STYLE
  2
BYGG-019653$0$ISO
 70
     0
 40
0.0
 41
1.0
 50
0.0
 71
     0
 42
3.5
  3
txt
  4

  0
STYLE
  2
BYGG-019653$0$CONVERTER_11
 70
     0
 40
0.0
 41
0.72
 50
0.0
 71
     0
 42
0.2
  3
txt.shx
  4

  0
STYLE
  2
BYGG-020945$0$STANDARD
 70
     0
 40
0.0
 41
1.0
 50
0.0
 71
     0
 42
0.2
  3
txt
  4

  0
STYLE
  2
BYGG-020945$0$ISO
 70
     0
 40
0.0
 41
1.0
 50
0.0
 71
     0
 42
3.5
  3
txt
  4

  0
STYLE
  2
BYGG-014113$0$STANDARD
 70
     0
 40
0.0
 41
1.0
 50
0.0
 71
     0
 42
0.2
  3
txt
  4

  0
STYLE
  2
BYGG-014113$0$ISO
 70
     0
 40
0.0
 41
1.0
 50
0.0
 71
     0
 42
3.5
  3
isocp3.shx
  4

  0
STYLE
  2
BYGG-014113$0$SIMPLEX
 70
     0
 40
0.0
 41
1.0
 50
0.0
 71
     0
 42
0.4
  3
simplex
  4

  0
STYLE
  2
BYGG-028959$0$STANDARD
 70
     0
 40
0.0
 41
1.0
 50
0.0
 71
     0
 42
0.2
  3
txt
  4

  0
STYLE
  2
BYGG-028959$0$ISO
 70
     0
 40
0.0
 41
1.0
 50
0.0
 71
     0
 42
3.5
  3
txt
  4

  0
STYLE
  2
BYGG-025538$0$STANDARD
 70
     0
 40
0.0
 41
1.0
 50
0.0
 71
     0
 42
0.2
  3
txt
  4

  0
STYLE
  2
BYGG-025538$0$ISO
 70
     0
 40
0.0
 41
1.0
 50
0.0
 71
     0
 42
3.5
  3
txt
  4

  0
STYLE
  2
BYGG-019718$0$STANDARD
 70
     0
 40
0.0
 41
1.0
 50
0.0
 71
     0
 42
0.2
  3
txt
  4

  0
STYLE
  2
BYGG-019718$0$ISO
 70
     0
 40
0.0
 41
1.0
 50
0.0
 71
     0
 42
3.5
  3
txt
  4

  0
STYLE
  2
BYGG-024973$0$STANDARD
 70
     0
 40
0.0
 41
1.0
 50
0.0
 71
     0
 42
0.2
  3
txt
  4

  0
STYLE
  2
BYGG-024973$0$ISO
 70
     0
 40
0.0
 41
1.0
 50
0.0
 71
     0
 42
3.5
  3
txt
  4

  0
STYLE
  2
BYGG-024894$0$STANDARD
 70
     0
 40
0.0
 41
1.0
 50
0.0
 71
     0
 42
0.2
  3
txt
  4

  0
STYLE
  2
BYGG-024894$0$ISO
 70
     0
 40
0.0
 41
1.0
 50
0.0
 71
     0
 42
3.5
  3
txt
  4

  0
STYLE
  2
BYGG-019612$0$STANDARD
 70
     0
 40
0.0
 41
1.0
 50
0.0
 71
     0
 42
0.2
  3
txt
  4

  0
STYLE
  2
BYGG-019612$0$ISO
 70
     0
 40
0.0
 41
1.0
 50
0.0
 71
     0
 42
3.5
  3
txt
  4

  0
ENDTAB
  0
TABLE
  2
VIEW
 70
     0
  0
ENDTAB
  0
TABLE
  2
UCS
 70
     0
  0
ENDTAB
  0
TABLE
  2
APPID
 70
    23
  0
APPID
  2
ACAD
 70
     0
  0
APPID
  2
ACAD_DSTYLE_DIMTEXT_FILL
 70
     0
  0
APPID
  2
ACAD_DSTYLE_DIMEXT_LENGTH
 70
     0
  0
APPID
  2
ACAD_DSTYLE_DIMEXT_ENABLED
 70
     0
  0
APPID
  2
ACAD_DSTYLE_DIM_LINETYPE
 70
     0
  0
APPID
  2
ACAD_DSTYLE_DIM_EXT1_LINETYPE
 70
     0
  0
APPID
  2
ACAD_DSTYLE_DIM_EXT2_LINETYPE
 70
     0
  0
APPID
  2
ACAD_DSTYLE_DIMJOGGED_JOGA
 70
     0
  0
APPID
  2
ACAD_DSTYLE_DIMARC_LENGTH_
 70
     0
  0
APPID
  2
ACAD_PSEXT
 70
     0
  0
APPID
  2
ACAD_MLEADERVER
 70
     0
  0
APPID
  2
ACAD_NAV_VCDISPLAY
 70
     0
  0
APPID
  2
ACAD_EXEMPT_FROM_CAD_STANDARDS
 70
     0
  0
APPID
  2
ACAECLAYERSTANDARD
 70
     0
  0
APPID
  2
ACADANNOTATIVE
 70
     0
  0
APPID
  2
AMG_ARCHIVE11
 70
     0
  0
APPID
  2
GRADIENTCOLOR1ACI
 70
     0
  0
APPID
  2
GRADIENTCOLOR2ACI
 70
     0
  0
APPID
  2
AME_SOL
 70
     0
  0
APPID
  2
ACDBDYNAMICBLOCKGUID
 70
     0
  0
APPID
  2
ACDBBLOCKREPETAG
 70
     0
  0
APPID
  2
AEC_XDATA_BOUND_SPACE
 70
     0
  0
APPID
  2
ACCMTRANSPARENCY
 70
     0
  0
ENDTAB
  0
TABLE
  2
DIMSTYLE
 70
    48
  0
DIMSTYLE
  2
STANDARD
 70
     0
  3

  4

  5

  6

  7

 40
1.0
 41
0.18
 42
0.0625
 43
0.38
 44
0.18
 45
0.0
 46
0.0
 47
0.0
 48
0.0
140
0.18
141
0.09
142
0.0
143
25.399999999999999
144
1.0
145
0.0
146
1.0
147
0.09
 71
     0
 72
     0
 73
     1
 74
     1
 75
     0
 76
     0
 77
     0
 78
     0
170
     0
171
     2
172
     0
173
     0
174
     0
175
     0
176
     0
177
     0
178
     0
  0
DIMSTYLE
  2
MASKIN
 70
     0
  3

  4

  5

  6

  7

 40
0.0
 41
3.0
 42
1.5
 43
10.0
 44
1.5
 45
0.0
 46
0.0
 47
0.0
 48
0.0
140
3.0
141
-5.0
142
0.0
143
25.399999999999999
144
-1.0
145
0.0
146
1.0
147
1.0
 71
     0
 72
     0
 73
     0
 74
     0
 75
     0
 76
     0
 77
     1
 78
     8
170
     0
171
     0
172
     1
173
     0
174
     0
175
     0
176
   256
177
   256
178
     2
  0
DIMSTYLE
  2
BYGG-021665$0$MASKIN
 70
     0
  3

  4

  5

  6

  7

 40
0.0
 41
3.0
 42
1.5
 43
10.0
 44
1.5
 45
0.0
 46
0.0
 47
0.0
 48
0.0
140
3.0
141
-5.0
142
0.0
143
25.399999999999999
144
-1.0
145
0.0
146
1.0
147
1.0
 71
     0
 72
     0
 73
     0
 74
     0
 75
     0
 76
     0
 77
     1
 78
     8
170
     0
171
     0
172
     1
173
     0
174
     0
175
     0
176
   256
177
   256
178
   256
  0
DIMSTYLE
  2
BYGG-018516$0$STANDARD
 70
     0
  3

  4

  5

  6

  7

 40
1.0
 41
0.18
 42
0.0625
 43
0.38
 44
0.18
 45
0.0
 46
0.0
 47
0.0
 48
0.0
140
0.18
141
0.09
142
0.0
143
25.399999999999999
144
1.0
145
0.0
146
1.0
147
0.09
 71
     0
 72
     0
 73
     1
 74
     1
 75
     0
 76
     0
 77
     0
 78
     0
170
     0
171
     2
172
     0
173
     0
174
     0
175
     0
176
     0
177
     0
178
     0
  0
DIMSTYLE
  2
BYGG-018516$0$MASKIN
 70
     0
  3

  4

  5

  6

  7

 40
0.0
 41
3.0
 42
1.5
 43
10.0
 44
1.5
 45
0.0
 46
0.0
 47
0.0
 48
0.0
140
3.0
141
-5.0
142
0.0
143
25.399999999999999
144
-1.0
145
0.0
146
1.0
147
1.0
 71
     0
 72
     0
 73
     0
 74
     0
 75
     0
 76
     0
 77
     1
 78
     8
170
     0
171
     0
172
     1
173
     0
174
     0
175
     0
176
   256
177
   256
178
     2
  0
DIMSTYLE
  2
BYGG-021581$0$STANDARD
 70
     0
  3

  4

  5

  6

  7

 40
1.0
 41
0.18
 42
0.0625
 43
0.38
 44
0.18
 45
0.0
 46
0.0
 47
0.0
 48
0.0
140
0.18
141
0.09
142
0.0
143
25.399999999999999
144
1.0
145
0.0
146
1.0
147
0.09
 71
     0
 72
     0
 73
     1
 74
     1
 75
     0
 76
     0
 77
     0
 78
     0
170
     0
171
     2
172
     0
173
     0
174
     0
175
     0
176
     0
177
     0
178
     0
  0
DIMSTYLE
  2
BYGG-014269$0$STANDARD
 70
     0
  3

  4

  5

  6

  7

 40
1.0
 41
0.18
 42
0.0625
 43
0.38
 44
0.18
 45
0.0
 46
0.0
 47
0.0
 48
0.0
140
0.18
141
0.09
142
0.0
143
25.399999999999999
144
1.0
145
0.0
146
1.0
147
0.09
 71
     0
 72
     0
 73
     1
 74
     1
 75
     0
 76
     0
 77
     0
 78
     0
170
     0
171
     2
172
     0
173
     0
174
     0
175
     0
176
     0
177
     0
178
     0
  0
DIMSTYLE
  2
BYGG-014269$0$MASKIN
 70
     0
  3

  4

  5

  6

  7

 40
0.0
 41
3.0
 42
1.5
 43
10.0
 44
1.5
 45
0.0
 46
0.0
 47
0.0
 48
0.0
140
3.0
141
-5.0
142
0.0
143
25.399999999999999
144
-1.0
145
0.0
146
1.0
147
1.0
 71
     0
 72
     0
 73
     0
 74
     1
 75
     0
 76
     0
 77
     1
 78
     8
170
     0
171
     0
172
     1
173
     0
174
     0
175
     0
176
   256
177
   256
178
     2
  0
DIMSTYLE
  2
BYGG-018731$0$STANDARD
 70
     0
  3

  4

  5

  6

  7

 40
1.0
 41
0.18
 42
0.0625
 43
0.38
 44
0.18
 45
0.0
 46
0.0
 47
0.0
 48
0.0
140
0.18
141
0.09
142
0.0
143
25.399999999999999
144
1.0
145
0.0
146
1.0
147
0.09
 71
     0
 72
     0
 73
     1
 74
     1
 75
     0
 76
     0
 77
     0
 78
     0
170
     0
171
     2
172
     0
173
     0
174
     0
175
     0
176
     0
177
     0
178
     0
  0
DIMSTYLE
  2
BYGG-018731$0$MASKIN
 70
     0
  3

  4

  5

  6

  7

 40
0.0
 41
3.0
 42
1.5
 43
10.0
 44
1.5
 45
0.0
 46
0.0
 47
0.0
 48
0.0
140
3.0
141
-5.0
142
0.0
143
25.399999999999999
144
-1.0
145
0.0
146
1.0
147
1.0
 71
     0
 72
     0
 73
     0
 74
     0
 75
     0
 76
     0
 77
     1
 78
     8
170
     0
171
     0
172
     1
173
     0
174
     0
175
     0
176
   256
177
   256
178
     2
  0
DIMSTYLE
  2
BYGG-029261$0$STANDARD
 70
     0
  3

  4

  5

  6

  7

 40
1.0
 41
0.18
 42
0.0625
 43
0.38
 44
0.18
 45
0.0
 46
0.0
 47
0.0
 48
0.0
140
0.18
141
0.09
142
0.0
143
25.399999999999999
144
1.0
145
0.0
146
1.0
147
0.09
 71
     0
 72
     0
 73
     1
 74
     1
 75
     0
 76
     0
 77
     0
 78
     0
170
     0
171
     2
172
     0
173
     0
174
     0
175
     0
176
     0
177
     0
178
     0
  0
DIMSTYLE
  2
BYGG-029261$0$MASKIN
 70
     0
  3

  4

  5

  6

  7

 40
0.0
 41
3.0
 42
1.5
 43
10.0
 44
1.5
 45
0.0
 46
0.0
 47
0.0
 48
0.0
140
3.0
141
-5.0
142
0.0
143
25.399999999999999
144
-1.0
145
0.0
146
1.0
147
1.0
 71
     0
 72
     0
 73
     0
 74
     0
 75
     0
 76
     0
 77
     1
 78
     8
170
     0
171
     0
172
     1
173
     0
174
     0
175
     0
176
   256
177
   256
178
     2
  0
DIMSTYLE
  2
BYGG-029261$0$ISO-25
 70
     0
  3

  4

  5

  6

  7

 40
1.0
 41
2.5
 42
0.625
 43
3.75
 44
1.25
 45
0.0
 46
0.0
 47
0.0
 48
0.0
140
2.5
141
2.5
142
0.0
143
0.03937007874016
144
1.0
145
0.0
146
1.0
147
0.625
 71
     0
 72
     0
 73
     0
 74
     0
 75
     0
 76
     0
 77
     1
 78
     8
170
     0
171
     3
172
     1
173
     0
174
     0
175
     0
176
     0
177
     0
178
     0
  0
DIMSTYLE
  2
BYGG-019653$0$STANDARD
 70
     0
  3

  4

  5

  6

  7

 40
1.0
 41
0.18
 42
0.0625
 43
0.38
 44
0.18
 45
0.0
 46
0.0
 47
0.0
 48
0.0
140
0.18
141
0.09
142
0.0
143
25.399999999999999
144
1.0
145
0.0
146
1.0
147
0.09
 71
     0
 72
     0
 73
     1
 74
     1
 75
     0
 76
     0
 77
     0
 78
     0
170
     0
171
     2
172
     0
173
     0
174
     0
175
     0
176
     0
177
     0
178
     0
  0
DIMSTYLE
  2
BYGG-019653$0$MASKIN
 70
     0
  3

  4

  5

  6

  7

 40
0.0
 41
3.0
 42
1.5
 43
10.0
 44
1.5
 45
0.0
 46
0.0
 47
0.0
 48
0.0
140
3.0
141
-5.0
142
0.0
143
25.399999999999999
144
-1.0
145
0.0
146
1.0
147
1.0
 71
     0
 72
     0
 73
     0
 74
     0
 75
     0
 76
     0
 77
     1
 78
     8
170
     0
171
     0
172
     1
173
     0
174
     0
175
     0
176
   256
177
   256
178
     2
  0
DIMSTYLE
  2
BYGG-019653$0$ME10_DIM_10
 70
     0
  3

  4

  5

  6

  7

 40
1.0
 41
0.7
 42
0.0
 43
0.38
 44
0.4
 45
0.0
 46
0.0
 47
0.0
 48
0.0
140
0.7
141
0.09
142
0.0
143
25.399999999999999
144
1.0
145
0.0
146
1.0
147
0.4
 71
     0
 72
     0
 73
     0
 74
     0
 75
     0
 76
     0
 77
     1
 78
     8
170
     0
171
     2
172
     1
173
     1
174
     0
175
     0
176
     1
177
     1
178
     2
  0
DIMSTYLE
  2
BYGG-019653$0$ME10_DIM_11
 70
     0
  3

  4

  5

  6

  7

 40
1.0
 41
0.7
 42
0.0
 43
0.38
 44
0.4
 45
0.0
 46
0.0
 47
0.0
 48
0.0
140
0.7
141
0.09
142
0.0
143
25.399999999999999
144
1.0
145
0.0
146
1.0
147
0.4
 71
     0
 72
     0
 73
     0
 74
     0
 75
     0
 76
     0
 77
     1
 78
     8
170
     0
171
     2
172
     1
173
     1
174
     0
175
     0
176
     1
177
     1
178
     2
  0
DIMSTYLE
  2
BYGG-019653$0$ME10_DIM_12
 70
     0
  3
(<>)
  4

  5

  6

  7

 40
1.0
 41
0.7
 42
0.0
 43
0.38
 44
0.4
 45
0.0
 46
0.0
 47
0.0
 48
0.0
140
0.7
141
0.09
142
0.0
143
25.399999999999999
144
1.0
145
0.0
146
1.0
147
0.4
 71
     0
 72
     0
 73
     0
 74
     0
 75
     0
 76
     0
 77
     1
 78
     8
170
     0
171
     2
172
     1
173
     1
174
     0
175
     0
176
     1
177
     1
178
     2
  0
DIMSTYLE
  2
BYGG-019653$0$ME10_DIM_13
 70
     0
  3

  4

  5

  6

  7

 40
1.0
 41
0.7
 42
0.0
 43
0.38
 44
0.4
 45
0.0
 46
0.0
 47
0.0
 48
0.0
140
0.7
141
0.09
142
0.0
143
25.399999999999999
144
1.0
145
0.0
146
1.0
147
0.4
 71
     0
 72
     0
 73
     0
 74
     0
 75
     0
 76
     0
 77
     1
 78
     8
170
     0
171
     2
172
     1
173
     1
174
     0
175
     0
176
     1
177
     1
178
     2
  0
DIMSTYLE
  2
BYGG-019653$0$ME10_DIM_14
 70
     0
  3

  4

  5

  6

  7

 40
1.0
 41
0.7
 42
0.0
 43
0.38
 44
0.4
 45
0.0
 46
0.0
 47
0.0
 48
0.0
140
0.7
141
0.09
142
0.0
143
25.399999999999999
144
1.0
145
0.0
146
1.0
147
0.4
 71
     0
 72
     0
 73
     0
 74
     0
 75
     0
 76
     0
 77
     1
 78
     8
170
     0
171
     2
172
     1
173
     1
174
     0
175
     0
176
     1
177
     1
178
     2
  0
DIMSTYLE
  2
BYGG-019653$0$ME10_DIM_15
 70
     0
  3

  4

  5

  6

  7

 40
1.0
 41
0.7
 42
0.0
 43
0.38
 44
0.4
 45
0.0
 46
0.0
 47
0.0
 48
0.0
140
0.7
141
0.09
142
0.0
143
25.399999999999999
144
1.0
145
0.0
146
1.0
147
0.4
 71
     0
 72
     0
 73
     0
 74
     0
 75
     0
 76
     0
 77
     1
 78
     8
170
     0
171
     2
172
     1
173
     1
174
     0
175
     0
176
     1
177
     1
178
     2
  0
DIMSTYLE
  2
BYGG-019653$0$ME10_DIM_16
 70
     0
  3

  4

  5

  6

  7

 40
1.0
 41
0.7
 42
0.0
 43
0.38
 44
0.4
 45
0.0
 46
0.0
 47
0.3
 48
0.3
140
0.7
141
0.09
142
0.0
143
25.399999999999999
144
1.0
145
0.0
146
0.6
147
0.4
 71
     1
 72
     0
 73
     0
 74
     0
 75
     0
 76
     0
 77
     1
 78
     8
170
     0
171
     2
172
     1
173
     1
174
     0
175
     0
176
     1
177
     1
178
     2
  0
DIMSTYLE
  2
BYGG-019653$0$ME10_DIM_17
 70
     0
  3

  4

  5

  6

  7

 40
1.0
 41
0.7
 42
0.0
 43
0.38
 44
0.4
 45
0.0
 46
0.0
 47
0.0
 48
0.0
140
0.7
141
0.09
142
0.0
143
25.399999999999999
144
1.0
145
0.0
146
1.0
147
0.4
 71
     0
 72
     0
 73
     0
 74
     0
 75
     0
 76
     0
 77
     1
 78
     8
170
     0
171
     2
172
     1
173
     1
174
     0
175
     0
176
     1
177
     1
178
     2
  0
DIMSTYLE
  2
BYGG-019653$0$ME10_DIM_18
 70
     0
  3

  4

  5

  6

  7

 40
1.0
 41
0.7
 42
0.0
 43
0.38
 44
0.4
 45
0.0
 46
0.0
 47
0.3
 48
0.3
140
0.7
141
0.09
142
0.0
143
25.399999999999999
144
1.0
145
0.0
146
0.6
147
0.4
 71
     1
 72
     0
 73
     0
 74
     0
 75
     0
 76
     0
 77
     1
 78
     8
170
     0
171
     2
172
     1
173
     1
174
     0
175
     0
176
     1
177
     1
178
     2
  0
DIMSTYLE
  2
BYGG-019653$0$ME10_DIM_19
 70
     0
  3

  4

  5

  6

  7

 40
1.0
 41
0.7
 42
0.0
 43
0.38
 44
0.4
 45
0.0
 46
0.0
 47
0.0
 48
0.0
140
0.7
141
0.09
142
0.0
143
25.399999999999999
144
1.0
145
0.0
146
1.0
147
0.4
 71
     0
 72
     0
 73
     0
 74
     0
 75
     0
 76
     0
 77
     1
 78
     8
170
     0
171
     2
172
     1
173
     1
174
     0
175
     0
176
     1
177
     1
178
     2
  0
DIMSTYLE
  2
BYGG-019653$0$ME10_DIM_20
 70
     0
  3

  4

  5

  6

  7

 40
1.0
 41
0.7
 42
0.0
 43
0.38
 44
0.4
 45
0.0
 46
0.0
 47
0.0
 48
0.0
140
0.7
141
0.09
142
0.0
143
25.399999999999999
144
1.0
145
0.0
146
1.0
147
0.4
 71
     0
 72
     0
 73
     0
 74
     0
 75
     0
 76
     0
 77
     1
 78
     8
170
     0
171
     2
172
     1
173
     1
174
     0
175
     0
176
     1
177
     1
178
     2
  0
DIMSTYLE
  2
BYGG-019653$0$ME10_DIM_21
 70
     0
  3
(<>)
  4

  5

  6

  7

 40
1.0
 41
0.7
 42
0.0
 43
0.38
 44
0.4
 45
0.0
 46
0.0
 47
0.0
 48
0.0
140
0.7
141
0.09
142
0.0
143
25.399999999999999
144
1.0
145
0.0
146
1.0
147
0.4
 71
     0
 72
     0
 73
     0
 74
     0
 75
     0
 76
     0
 77
     1
 78
     8
170
     0
171
     2
172
     1
173
     1
174
     0
175
     0
176
     1
177
     1
178
     2
  0
DIMSTYLE
  2
BYGG-019653$0$ME10_DIM_22
 70
     0
  3

  4

  5

  6

  7

 40
1.0
 41
0.7
 42
0.0
 43
0.38
 44
0.4
 45
0.0
 46
0.0
 47
0.0
 48
0.0
140
0.7
141
0.09
142
0.0
143
25.399999999999999
144
1.0
145
0.0
146
1.0
147
0.4
 71
     0
 72
     0
 73
     0
 74
     0
 75
     0
 76
     0
 77
     1
 78
     8
170
     0
171
     2
172
     1
173
     1
174
     0
175
     0
176
     1
177
     1
178
     2
  0
DIMSTYLE
  2
BYGG-019653$0$ME10_DIM_23
 70
     0
  3

  4

  5

  6

  7

 40
1.0
 41
0.7
 42
0.0
 43
0.38
 44
0.4
 45
0.0
 46
0.0
 47
0.0
 48
0.0
140
0.7
141
0.09
142
0.0
143
25.399999999999999
144
1.0
145
0.0
146
1.0
147
0.4
 71
     0
 72
     0
 73
     0
 74
     0
 75
     0
 76
     0
 77
     1
 78
     8
170
     0
171
     2
172
     1
173
     1
174
     0
175
     0
176
     1
177
     1
178
     2
  0
DIMSTYLE
  2
BYGG-020945$0$STANDARD
 70
     0
  3

  4

  5

  6

  7

 40
1.0
 41
0.18
 42
0.0625
 43
0.38
 44
0.18
 45
0.0
 46
0.0
 47
0.0
 48
0.0
140
0.18
141
0.09
142
0.0
143
25.399999999999999
144
1.0
145
0.0
146
1.0
147
0.09
 71
     0
 72
     0
 73
     1
 74
     1
 75
     0
 76
     0
 77
     0
 78
     0
170
     0
171
     2
172
     0
173
     0
174
     0
175
     0
176
     0
177
     0
178
     0
  0
DIMSTYLE
  2
BYGG-020945$0$MASKIN
 70
     0
  3

  4

  5

  6

  7

 40
0.0
 41
3.0
 42
1.5
 43
10.0
 44
1.5
 45
0.0
 46
0.0
 47
0.0
 48
0.0
140
3.0
141
-5.0
142
0.0
143
25.399999999999999
144
-1.0
145
0.0
146
1.0
147
1.0
 71
     0
 72
     0
 73
     0
 74
     0
 75
     0
 76
     0
 77
     1
 78
     8
170
     0
171
     0
172
     1
173
     0
174
     0
175
     0
176
   256
177
   256
178
     2
  0
DIMSTYLE
  2
BYGG-014113$0$MASKIN
 70
     0
  3

  4

  5

  6

  7

 40
0.0
 41
3.0
 42
1.5
 43
10.0
 44
1.5
 45
0.0
 46
0.0
 47
0.0
 48
0.0
140
3.0
141
-5.0
142
0.0
143
25.399999999999999
144
-1.0
145
0.0
146
1.0
147
1.0
 71
     0
 72
     0
 73
     0
 74
     0
 75
     0
 76
     0
 77
     1
 78
     8
170
     0
171
     0
172
     1
173
     0
174
     0
175
     0
176
   256
177
   256
178
   256
  0
DIMSTYLE
  2
BYGG-014113$0$MASKIN1
 70
     0
  3

  4

  5

  6

  7

 40
1.0
 41
3.0
 42
1.5
 43
10.0
 44
1.5
 45
0.0
 46
0.0
 47
0.0
 48
0.0
140
3.0
141
-5.0
142
0.0
143
25.399999999999999
144
1.0
145
0.0
146
1.0
147
0.9
 71
     0
 72
     0
 73
     0
 74
     0
 75
     0
 76
     0
 77
     1
 78
     8
170
     0
171
     0
172
     1
173
     0
174
     0
175
     0
176
   256
177
   256
178
   256
  0
DIMSTYLE
  2
BYGG-014113$0$MASKIN2
 70
     0
  3

  4

  5

  6

  7

 40
1.0
 41
3.0
 42
1.5
 43
10.0
 44
1.5
 45
0.0
 46
0.0
 47
0.0
 48
0.0
140
3.0
141
-5.0
142
0.0
143
25.399999999999999
144
1.0
145
0.0
146
1.0
147
0.9
 71
     0
 72
     0
 73
     0
 74
     0
 75
     0
 76
     0
 77
     1
 78
     8
170
     0
171
     0
172
     1
173
     0
174
     0
175
     0
176
   256
177
   256
178
   256
  0
DIMSTYLE
  2
BYGG-014113$0$MASKIN3
 70
     0
  3

  4

  5

  6

  7

 40
1.0
 41
3.0
 42
1.5
 43
10.0
 44
1.5
 45
0.0
 46
0.0
 47
0.0
 48
0.0
140
3.0
141
-5.0
142
0.0
143
25.399999999999999
144
1.0
145
0.0
146
1.0
147
0.9
 71
     0
 72
     0
 73
     0
 74
     0
 75
     0
 76
     0
 77
     1
 78
     8
170
     0
171
     0
172
     1
173
     0
174
     0
175
     0
176
   256
177
   256
178
   256
  0
DIMSTYLE
  2
BYGG-014113$0$STANDARD
 70
     0
  3

  4

  5

  6

  7

 40
1.0
 41
0.18
 42
0.0625
 43
0.38
 44
0.18
 45
0.0
 46
0.0
 47
0.0
 48
0.0
140
0.18
141
0.09
142
0.0
143
25.399999999999999
144
1.0
145
0.0
146
1.0
147
0.09
 71
     0
 72
     0
 73
     1
 74
     1
 75
     0
 76
     0
 77
     0
 78
     0
170
     0
171
     2
172
     0
173
     0
174
     0
175
     0
176
     0
177
     0
178
     0
  0
DIMSTYLE
  2
BYGG-028959$0$STANDARD
 70
     0
  3

  4

  5

  6

  7

 40
1.0
 41
0.18
 42
0.0625
 43
0.38
 44
0.18
 45
0.0
 46
0.0
 47
0.0
 48
0.0
140
0.18
141
0.09
142
0.0
143
25.399999999999999
144
1.0
145
0.0
146
1.0
147
0.09
 71
     0
 72
     0
 73
     1
 74
     1
 75
     0
 76
     0
 77
     0
 78
     0
170
     0
171
     2
172
     0
173
     0
174
     0
175
     0
176
     0
177
     0
178
     0
  0
DIMSTYLE
  2
BYGG-028959$0$MASKIN
 70
     0
  3

  4

  5

  6

  7

 40
0.0
 41
3.0
 42
1.5
 43
10.0
 44
1.5
 45
0.0
 46
0.0
 47
0.0
 48
0.0
140
3.0
141
-5.0
142
0.0
143
25.399999999999999
144
-1.0
145
0.0
146
1.0
147
1.0
 71
     0
 72
     0
 73
     0
 74
     0
 75
     0
 76
     0
 77
     1
 78
     8
170
     0
171
     0
172
     1
173
     0
174
     0
175
     0
176
   256
177
   256
178
     2
  0
DIMSTYLE
  2
BYGG-025538$0$STANDARD
 70
     0
  3

  4

  5

  6

  7

 40
1.0
 41
0.18
 42
0.0625
 43
0.38
 44
0.18
 45
0.0
 46
0.0
 47
0.0
 48
0.0
140
0.18
141
0.09
142
0.0
143
25.399999999999999
144
1.0
145
0.0
146
1.0
147
0.09
 71
     0
 72
     0
 73
     1
 74
     1
 75
     0
 76
     0
 77
     0
 78
     0
170
     0
171
     2
172
     0
173
     0
174
     0
175
     0
176
     0
177
     0
178
     0
  0
DIMSTYLE
  2
BYGG-025538$0$MASKIN
 70
     0
  3

  4

  5

  6

  7

 40
0.0
 41
3.0
 42
1.5
 43
10.0
 44
1.5
 45
0.0
 46
0.0
 47
0.0
 48
0.0
140
3.0
141
-5.0
142
0.0
143
25.399999999999999
144
-1.0
145
0.0
146
1.0
147
1.0
 71
     0
 72
     0
 73
     0
 74
     0
 75
     0
 76
     0
 77
     1
 78
     8
170
     0
171
     0
172
     1
173
     0
174
     0
175
     0
176
   256
177
   256
178
     2
  0
DIMSTYLE
  2
BYGG-019718$0$STANDARD
 70
     0
  3

  4

  5

  6

  7

 40
1.0
 41
0.18
 42
0.0625
 43
0.38
 44
0.18
 45
0.0
 46
0.0
 47
0.0
 48
0.0
140
0.18
141
0.09
142
0.0
143
25.399999999999999
144
1.0
145
0.0
146
1.0
147
0.09
 71
     0
 72
     0
 73
     1
 74
     1
 75
     0
 76
     0
 77
     0
 78
     0
170
     0
171
     2
172
     0
173
     0
174
     0
175
     0
176
     0
177
     0
178
     0
  0
DIMSTYLE
  2
BYGG-019718$0$MASKIN
 70
     0
  3

  4

  5

  6

  7

 40
0.0
 41
3.0
 42
1.5
 43
10.0
 44
1.5
 45
0.0
 46
0.0
 47
0.0
 48
0.0
140
3.0
141
-5.0
142
0.0
143
25.399999999999999
144
-1.0
145
0.0
146
1.0
147
1.0
 71
     0
 72
     0
 73
     0
 74
     0
 75
     0
 76
     0
 77
     1
 78
     8
170
     0
171
     0
172
     1
173
     0
174
     0
175
     0
176
   256
177
   256
178
     2
  0
DIMSTYLE
  2
BYGG-024973$0$STANDARD
 70
     0
  3

  4

  5

  6

  7

 40
1.0
 41
0.18
 42
0.0625
 43
0.38
 44
0.18
 45
0.0
 46
0.0
 47
0.0
 48
0.0
140
0.18
141
0.09
142
0.0
143
25.399999999999999
144
1.0
145
0.0
146
1.0
147
0.09
 71
     0
 72
     0
 73
     1
 74
     1
 75
     0
 76
     0
 77
     0
 78
     0
170
     0
171
     2
172
     0
173
     0
174
     0
175
     0
176
     0
177
     0
178
     0
  0
DIMSTYLE
  2
BYGG-024973$0$MASKIN
 70
     0
  3

  4

  5

  6

  7

 40
0.0
 41
3.0
 42
1.5
 43
10.0
 44
1.5
 45
0.0
 46
0.0
 47
0.0
 48
0.0
140
3.0
141
-5.0
142
0.0
143
25.399999999999999
144
-1.0
145
0.0
146
1.0
147
1.0
 71
     0
 72
     0
 73
     0
 74
     0
 75
     0
 76
     0
 77
     1
 78
     8
170
     0
171
     0
172
     1
173
     0
174
     0
175
     0
176
   256
177
   256
178
     2
  0
DIMSTYLE
  2
BYGG-024894$0$STANDARD
 70
     0
  3

  4

  5

  6

  7

 40
1.0
 41
0.18
 42
0.0625
 43
0.38
 44
0.18
 45
0.0
 46
0.0
 47
0.0
 48
0.0
140
0.18
141
0.09
142
0.0
143
25.399999999999999
144
1.0
145
0.0
146
1.0
147
0.09
 71
     0
 72
     0
 73
     1
 74
     1
 75
     0
 76
     0
 77
     0
 78
     0
170
     0
171
     2
172
     0
173
     0
174
     0
175
     0
176
     0
177
     0
178
     0
  0
DIMSTYLE
  2
BYGG-024894$0$MASKIN
 70
     0
  3

  4

  5

  6

  7

 40
0.0
 41
3.0
 42
1.5
 43
10.0
 44
1.5
 45
0.0
 46
0.0
 47
0.0
 48
0.0
140
3.0
141
-5.0
142
0.0
143
25.399999999999999
144
-1.0
145
0.0
146
1.0
147
1.0
 71
     0
 72
     0
 73
     0
 74
     0
 75
     0
 76
     0
 77
     1
 78
     8
170
     0
171
     0
172
     1
173
     0
174
     0
175
     0
176
   256
177
   256
178
     2
  0
DIMSTYLE
  2
BYGG-019612$0$STANDARD
 70
     0
  3

  4

  5

  6

  7

 40
1.0
 41
0.18
 42
0.0625
 43
0.38
 44
0.18
 45
0.0
 46
0.0
 47
0.0
 48
0.0
140
0.18
141
0.09
142
0.0
143
25.399999999999999
144
1.0
145
0.0
146
1.0
147
0.09
 71
     0
 72
     0
 73
     1
 74
     1
 75
     0
 76
     0
 77
     0
 78
     0
170
     0
171
     2
172
     0
173
     0
174
     0
175
     0
176
     0
177
     0
178
     0
  0
DIMSTYLE
  2
BYGG-019612$0$MASKIN
 70
     0
  3

  4

  5

  6

  7

 40
0.0
 41
3.0
 42
1.5
 43
10.0
 44
1.5
 45
0.0
 46
0.0
 47
0.0
 48
0.0
140
3.0
141
-5.0
142
0.0
143
25.399999999999999
144
-1.0
145
0.0
146
1.0
147
1.0
 71
     0
 72
     0
 73
     0
 74
     0
 75
     0
 76
     0
 77
     1
 78
     8
170
     0
171
     0
172
     1
173
     0
174
     0
175
     0
176
   256
177
   256
178
     2
  0
ENDTAB
  0
ENDSEC
  0
SECTION
  2
BLOCKS
  0
BLOCK
  8
0
  2
$MODEL_SPACE
 70
     0
 10
0.0
 20
0.0
 30
0.0
  3
$MODEL_SPACE
  1

  0
ENDBLK
  5
37
  8
0
  0
BLOCK
 67
     1
  8
0
  2
$PAPER_SPACE
 70
     0
 10
0.0
 20
0.0
 30
0.0
  3
$PAPER_SPACE
  1

  0
ENDBLK
  5
35
 67
     1
  8
0
  0
BLOCK
  8
0
  2
*X13
 70
     1
 10
0.0
 20
0.0
 30
0.0
  3
*X13
  1

  0
LINE
  5
136C
  8
0
 62
     0
 10
652.5
 20
643.02386247000004
 30
0.0
 11
653.43749999999989
 21
643.02386247000004
 31
0.0
  0
LINE
  5
136D
  8
0
 62
     0
 10
655.3125
 20
643.02386247000004
 30
0.0
 11
656.25
 21
643.02386247000004
 31
0.0
  0
LINE
  5
136E
  8
0
 62
     0
 10
658.12499999999989
 20
643.02386247000004
 30
0.0
 11
659.0625
 21
643.02386247000004
 31
0.0
  0
LINE
  5
136F
  8
0
 62
     0
 10
660.9375
 20
643.02386247000004
 30
0.0
 11
661.875
 21
643.02386247000004
 31
0.0
  0
LINE
  5
1370
  8
0
 62
     0
 10
663.75
 20
643.02386247000004
 30
0.0
 11
664.6875
 21
643.02386247000004
 31
0.0
  0
LINE
  5
1371
  8
0
 62
     0
 10
652.5
 20
644.64766010250003
 30
0.0
 11
653.43749999999989
 21
644.64766010250003
 31
0.0
  0
LINE
  5
1372
  8
0
 62
     0
 10
655.3125
 20
644.64766010250003
 30
0.0
 11
656.25
 21
644.64766010250003
 31
0.0
  0
LINE
  5
1373
  8
0
 62
     0
 10
658.12499999999989
 20
644.64766010250003
 30
0.0
 11
659.0625
 21
644.64766010250003
 31
0.0
  0
LINE
  5
1374
  8
0
 62
     0
 10
660.9375
 20
644.64766010250003
 30
0.0
 11
661.875
 21
644.64766010250003
 31
0.0
  0
LINE
  5
1375
  8
0
 62
     0
 10
663.75
 20
644.64766010250003
 30
0.0
 11
664.6875
 21
644.64766010250003
 31
0.0
  0
LINE
  5
1376
  8
0
 62
     0
 10
652.5
 20
646.2714577349999
 30
0.0
 11
653.43749999999989
 21
646.2714577349999
 31
0.0
  0
LINE
  5
1377
  8
0
 62
     0
 10
655.3125
 20
646.2714577349999
 30
0.0
 11
656.25
 21
646.2714577349999
 31
0.0
  0
LINE
  5
1378
  8
0
 62
     0
 10
658.12499999999989
 20
646.2714577349999
 30
0.0
 11
659.0625
 21
646.2714577349999
 31
0.0
  0
LINE
  5
1379
  8
0
 62
     0
 10
660.9375
 20
646.2714577349999
 30
0.0
 11
661.875
 21
646.2714577349999
 31
0.0
  0
LINE
  5
137A
  8
0
 62
     0
 10
663.75
 20
646.2714577349999
 30
0.0
 11
664.67805486722375
 21
646.2714577349999
 31
0.0
  0
LINE
  5
137B
  8
0
 62
     0
 10
652.5
 20
647.8952553675
 30
0.0
 11
653.43749999999989
 21
647.8952553675
 31
0.0
  0
LINE
  5
137C
  8
0
 62
     0
 10
655.3125
 20
647.8952553675
 30
0.0
 11
656.25
 21
647.8952553675
 31
0.0
  0
LINE
  5
137D
  8
0
 62
     0
 10
658.12499999999989
 20
647.8952553675
 30
0.0
 11
659.0625
 21
647.8952553675
 31
0.0
  0
LINE
  5
137E
  8
0
 62
     0
 10
660.9375
 20
647.8952553675
 30
0.0
 11
661.875
 21
647.8952553675
 31
0.0
  0
LINE
  5
137F
  8
0
 62
     0
 10
663.75
 20
647.8952553675
 30
0.0
 11
664.19384133892459
 21
647.8952553675
 31
0.0
  0
LINE
  5
1380
  8
0
 62
     0
 10
652.5
 20
649.51905299999999
 30
0.0
 11
653.43749999999989
 21
649.51905299999999
 31
0.0
  0
LINE
  5
1381
  8
0
 62
     0
 10
655.3125
 20
649.51905299999999
 30
0.0
 11
656.25
 21
649.51905299999999
 31
0.0
  0
LINE
  5
1382
  8
0
 62
     0
 10
658.12499999999989
 20
649.51905299999999
 30
0.0
 11
659.0625
 21
649.51905299999999
 31
0.0
  0
LINE
  5
1383
  8
0
 62
     0
 10
660.9375
 20
649.51905299999999
 30
0.0
 11
661.875
 21
649.51905299999999
 31
0.0
  0
LINE
  5
1384
  8
0
 62
     0
 10
655.3125
 20
651.14285063250009
 30
0.0
 11
656.25
 21
651.14285063250009
 31
0.0
  0
LINE
  5
1385
  8
0
 62
     0
 10
658.12499999999989
 20
651.14285063250009
 30
0.0
 11
659.0625
 21
651.14285063250009
 31
0.0
  0
LINE
  5
1386
  8
0
 62
     0
 10
660.9375
 20
651.14285063250009
 30
0.0
 11
661.87200755723472
 21
651.14285063250009
 31
0.0
  0
LINE
  5
1387
  8
0
 62
     0
 10
652.5
 20
641.40006483750005
 30
0.0
 11
653.43749999999989
 21
641.40006483750005
 31
0.0
  0
LINE
  5
1388
  8
0
 62
     0
 10
655.3125
 20
641.40006483750005
 30
0.0
 11
656.25
 21
641.40006483750005
 31
0.0
  0
LINE
  5
1389
  8
0
 62
     0
 10
658.12499999999989
 20
641.40006483750005
 30
0.0
 11
659.0625
 21
641.40006483750005
 31
0.0
  0
LINE
  5
138A
  8
0
 62
     0
 10
660.9375
 20
641.40006483750005
 30
0.0
 11
661.875
 21
641.40006483750005
 31
0.0
  0
LINE
  5
138B
  8
0
 62
     0
 10
663.75
 20
641.40006483750005
 30
0.0
 11
664.21401629789841
 21
641.40006483750005
 31
0.0
  0
LINE
  5
138C
  8
0
 62
     0
 10
652.5
 20
639.77626720499995
 30
0.0
 11
653.43749999999989
 21
639.77626720499995
 31
0.0
  0
LINE
  5
138D
  8
0
 62
     0
 10
655.3125
 20
639.77626720499995
 30
0.0
 11
656.25
 21
639.77626720499995
 31
0.0
  0
LINE
  5
138E
  8
0
 62
     0
 10
658.12499999999989
 20
639.77626720499995
 30
0.0
 11
659.0625
 21
639.77626720499995
 31
0.0
  0
LINE
  5
138F
  8
0
 62
     0
 10
660.9375
 20
639.77626720499995
 30
0.0
 11
661.875
 21
639.77626720499995
 31
0.0
  0
LINE
  5
1390
  8
0
 62
     0
 10
655.3125
 20
638.15246957249997
 30
0.0
 11
656.25
 21
638.15246957249997
 31
0.0
  0
LINE
  5
1391
  8
0
 62
     0
 10
658.12499999999989
 20
638.15246957249997
 30
0.0
 11
659.0625
 21
638.15246957249997
 31
0.0
  0
LINE
  5
1392
  8
0
 62
     0
 10
660.9375
 20
638.15246957249997
 30
0.0
 11
661.875
 21
638.15246957249997
 31
0.0
  0
LINE
  5
1393
  8
0
 62
     0
 10
660.93750019216554
 20
638.15246952460484
 30
0.0
 11
660.46875019216554
 21
638.96436834065275
 31
0.0
  0
LINE
  5
1394
  8
0
 62
     0
 10
659.53125019216554
 20
640.58816597274847
 30
0.0
 11
659.06250019216554
 21
641.4000647887965
 31
0.0
  0
LINE
  5
1395
  8
0
 62
     0
 10
658.12500019216554
 20
643.02386242089233
 30
0.0
 11
657.65625019216554
 21
643.83576123694024
 31
0.0
  0
LINE
  5
1396
  8
0
 62
     0
 10
656.71875019216554
 20
645.45955886903596
 30
0.0
 11
656.25000019216554
 21
646.27145768508399
 31
0.0
  0
LINE
  5
1397
  8
0
 62
     0
 10
655.31250019216554
 20
647.89525531717982
 30
0.0
 11
654.84375019216554
 21
648.70715413322773
 31
0.0
  0
LINE
  5
1398
  8
0
 62
     0
 10
653.90625019216554
 20
650.33095176532345
 30
0.0
 11
653.51494448795324
 21
651.00871312631091
 31
0.0
  0
LINE
  5
1399
  8
0
 62
     0
 10
659.53125019181539
 20
637.34057070835479
 30
0.0
 11
659.0625001918155
 21
638.1524695244027
 31
0.0
  0
LINE
  5
139A
  8
0
 62
     0
 10
658.1250001918155
 20
639.77626715649853
 30
0.0
 11
657.6562501918155
 21
640.58816597254645
 31
0.0
  0
LINE
  5
139B
  8
0
 62
     0
 10
656.7187501918155
 20
642.21196360464216
 30
0.0
 11
656.2500001918155
 21
643.02386242069019
 31
0.0
  0
LINE
  5
139C
  8
0
 62
     0
 10
655.3125001918155
 20
644.64766005278591
 30
0.0
 11
654.84375019181539
 21
645.45955886883394
 31
0.0
  0
LINE
  5
139D
  8
0
 62
     0
 10
653.9062501918155
 20
647.08335650092965
 30
0.0
 11
653.4375001918155
 21
647.89525531697768
 31
0.0
  0
LINE
  5
139E
  8
0
 62
     0
 10
652.50000019181539
 20
649.5190529490734
 30
0.0
 11
652.37394461146403
 21
649.73738761881975
 31
0.0
  0
LINE
  5
139F
  8
0
 62
     0
 10
658.00591026387121
 20
636.73494169736773
 30
0.0
 11
657.65625019146535
 21
637.34057070815265
 31
0.0
  0
LINE
  5
13A0
  8
0
 62
     0
 10
656.71875019146535
 20
638.9643683402486
 30
0.0
 11
656.25000019146546
 21
639.77626715629651
 31
0.0
  0
LINE
  5
13A1
  8
0
 62
     0
 10
655.31250019146535
 20
641.40006478839234
 30
0.0
 11
654.84375019146535
 21
642.21196360444014
 31
0.0
  0
LINE
  5
13A2
  8
0
 62
     0
 10
653.90625019146546
 20
643.83576123653597
 30
0.0
 11
653.43750019146535
 21
644.647660052584
 31
0.0
  0
LINE
  5
13A3
  8
0
 62
     0
 10
652.50000019146535
 20
646.27145768467983
 30
0.0
 11
652.03125019146535
 21
647.08335650072775
 31
0.0
  0
LINE
  5
13A4
  8
0
 62
     0
 10
655.3125001911153
 20
638.15246952399855
 30
0.0
 11
654.8437501911153
 21
638.96436834004635
 31
0.0
  0
LINE
  5
13A5
  8
0
 62
     0
 10
653.9062501911153
 20
640.58816597214229
 30
0.0
 11
653.43750019111519
 21
641.40006478819021
 31
0.0
  0
LINE
  5
13A6
  8
0
 62
     0
 10
652.5000001911153
 20
643.02386242028604
 30
0.0
 11
652.0312501911153
 21
643.83576123633395
 31
0.0
  0
LINE
  5
13A7
  8
0
 62
     0
 10
651.09375019111519
 20
645.45955886842978
 30
0.0
 11
650.80423117281941
 21
645.96102051787568
 31
0.0
  0
LINE
  5
13A8
  8
0
 62
     0
 10
652.50000019076526
 20
639.77626715589236
 30
0.0
 11
652.03125019076526
 21
640.58816597194016
 31
0.0
  0
LINE
  5
13A9
  8
0
 62
     0
 10
651.09375019076538
 20
642.2119636040361
 30
0.0
 11
650.99485068706429
 21
642.38326256928951
 31
0.0
  0
LINE
  5
13AA
  8
0
 62
     0
 10
662.34375019251547
 20
638.96436834085478
 30
0.0
 11
661.87500019251559
 21
639.7762671569028
 31
0.0
  0
LINE
  5
13AB
  8
0
 62
     0
 10
660.93750019251559
 20
641.40006478899863
 30
0.0
 11
660.46875019251547
 21
642.21196360504655
 31
0.0
  0
LINE
  5
13AC
  8
0
 62
     0
 10
659.53125019251559
 20
643.83576123714226
 30
0.0
 11
659.06250019251559
 21
644.64766005319018
 31
0.0
  0
LINE
  5
13AD
  8
0
 62
     0
 10
658.12500019251547
 20
646.27145768528612
 30
0.0
 11
657.65625019251547
 21
647.08335650133404
 31
0.0
  0
LINE
  5
13AE
  8
0
 62
     0
 10
656.71875019251559
 20
648.70715413342975
 30
0.0
 11
656.25000019251559
 21
649.51905294947767
 31
0.0
  0
LINE
  5
13AF
  8
0
 62
     0
 10
655.31250019251547
 20
651.14285058157361
 30
0.0
 11
654.98947507134699
 21
651.7023465035586
 31
0.0
  0
LINE
  5
13B0
  8
0
 62
     0
 10
663.56178133362096
 20
640.10227178425896
 30
0.0
 11
663.28125019286563
 21
640.58816597315274
 31
0.0
  0
LINE
  5
13B1
  8
0
 62
     0
 10
662.34375019286551
 20
642.21196360524846
 30
0.0
 11
661.87500019286563
 21
643.02386242129637
 31
0.0
  0
LINE
  5
13B2
  8
0
 62
     0
 10
660.93750019286563
 20
644.64766005339231
 30
0.0
 11
660.46875019286563
 21
645.45955886944023
 31
0.0
  0
LINE
  5
13B3
  8
0
 62
     0
 10
659.53125019286563
 20
647.08335650153595
 30
0.0
 11
659.06250019286563
 21
647.89525531758386
 31
0.0
  0
LINE
  5
13B4
  8
0
 62
     0
 10
658.12500019286563
 20
649.5190529496798
 30
0.0
 11
657.65625019286551
 21
650.33095176572772
 31
0.0
  0
LINE
  5
13B5
  8
0
 62
     0
 10
663.75000019321556
 20
643.02386242149862
 30
0.0
 11
663.28125019321556
 21
643.83576123754654
 31
0.0
  0
LINE
  5
13B6
  8
0
 62
     0
 10
662.34375019321556
 20
645.45955886964225
 30
0.0
 11
661.87500019321556
 21
646.27145768569017
 31
0.0
  0
LINE
  5
13B7
  8
0
 62
     0
 10
660.93750019321556
 20
647.89525531778611
 30
0.0
 11
660.46875019321556
 21
648.70715413383402
 31
0.0
  0
LINE
  5
13B8
  8
0
 62
     0
 10
659.53125019321556
 20
650.33095176592985
 30
0.0
 11
659.06250019321556
 21
651.14285058197765
 31
0.0
  0
LINE
  5
13B9
  8
0
 62
     0
 10
664.83358285314341
 20
644.39463746530294
 30
0.0
 11
664.68750019356548
 21
644.64766005379636
 31
0.0
  0
LINE
  5
13BA
  8
0
 62
     0
 10
663.7500001935656
 20
646.2714576858923
 30
0.0
 11
663.2812501935656
 21
647.08335650194022
 31
0.0
  0
LINE
  5
13BB
  8
0
 62
     0
 10
662.34375019356548
 20
648.70715413403605
 30
0.0
 11
661.8750001935656
 21
649.51905295008385
 31
0.0
  0
LINE
  5
13BC
  8
0
 62
     0
 10
660.9375001935656
 20
651.14285058217979
 30
0.0
 11
660.61464782451731
 21
651.70204728871533
 31
0.0
  0
LINE
  5
13BD
  8
0
 62
     0
 10
653.43750005285438
 20
639.77626701523855
 30
0.0
 11
653.90625005285438
 21
640.58816583128635
 31
0.0
  0
LINE
  5
13BE
  8
0
 62
     0
 10
654.84375005285426
 20
642.21196346338229
 30
0.0
 11
655.31250005285426
 21
643.0238622794302
 31
0.0
  0
LINE
  5
13BF
  8
0
 62
     0
 10
656.25000005285438
 20
644.64765991152603
 30
0.0
 11
656.71875005285426
 21
645.45955872757395
 31
0.0
  0
LINE
  5
13C0
  8
0
 62
     0
 10
657.65625005285426
 20
647.08335635966978
 30
0.0
 11
658.12500005285438
 21
647.89525517571769
 31
0.0
  0
LINE
  5
13C1
  8
0
 62
     0
 10
659.06250005285426
 20
649.51905280781352
 30
0.0
 11
659.53125005285426
 21
650.33095162386144
 31
0.0
  0
LINE
  5
13C2
  8
0
 62
     0
 10
652.03125005250433
 20
640.5881658314886
 30
0.0
 11
652.50000005250433
 21
641.40006464753651
 31
0.0
  0
LINE
  5
13C3
  8
0
 62
     0
 10
653.43750005250433
 20
643.02386227963234
 30
0.0
 11
653.90625005250433
 21
643.83576109568025
 31
0.0
  0
LINE
  5
13C4
  8
0
 62
     0
 10
654.84375005250433
 20
645.45955872777597
 30
0.0
 11
655.31250005250433
 21
646.271457543824
 31
0.0
  0
LINE
  5
13C5
  8
0
 62
     0
 10
656.25000005250433
 20
647.89525517591983
 30
0.0
 11
656.71875005250433
 21
648.70715399196774
 31
0.0
  0
LINE
  5
13C6
  8
0
 62
     0
 10
657.65625005250433
 20
650.33095162406346
 30
0.0
 11
658.12500005250433
 21
651.14285044011149
 31
0.0
  0
LINE
  5
13C7
  8
0
 62
     0
 10
651.05988341627722
 20
642.15330472976609
 30
0.0
 11
651.09375005215418
 21
642.21196346378656
 31
0.0
  0
LINE
  5
13C8
  8
0
 62
     0
 10
652.03125005215418
 20
643.83576109588228
 30
0.0
 11
652.50000005215429
 21
644.6476599119303
 31
0.0
  0
LINE
  5
13C9
  8
0
 62
     0
 10
653.43750005215418
 20
646.27145754402613
 30
0.0
 11
653.90625005215418
 21
647.08335636007405
 31
0.0
  0
LINE
  5
13CA
  8
0
 62
     0
 10
654.84375005215429
 20
648.70715399216976
 30
0.0
 11
655.31250005215429
 21
649.51905280821779
 31
0.0
  0
LINE
  5
13CB
  8
0
 62
     0
 10
656.25000005215418
 20
651.14285044031362
 30
0.0
 11
656.57297662478243
 21
651.70226227375997
 31
0.0
  0
LINE
  5
13CC
  8
0
 62
     0
 10
650.70149549931818
 20
644.78015391377414
 30
0.0
 11
651.09375005180425
 21
645.45955872818024
 31
0.0
  0
LINE
  5
13CD
  8
0
 62
     0
 10
652.03125005180425
 20
647.08335636027596
 30
0.0
 11
652.50000005180425
 21
647.89525517632399
 31
0.0
  0
LINE
  5
13CE
  8
0
 62
     0
 10
653.43750005180425
 20
649.51905280841981
 30
0.0
 11
653.90625005180425
 21
650.33095162446773
 31
0.0
  0
LINE
  5
13CF
  8
0
 62
     0
 10
654.84375005320442
 20
638.96436819898861
 30
0.0
 11
655.31250005320442
 21
639.77626701503652
 31
0.0
  0
LINE
  5
13D0
  8
0
 62
     0
 10
656.25000005320442
 20
641.40006464713235
 30
0.0
 11
656.7187500532043
 21
642.21196346318015
 31
0.0
  0
LINE
  5
13D1
  8
0
 62
     0
 10
657.65625005320442
 20
643.8357610952761
 30
0.0
 11
658.12500005320442
 21
644.64765991132401
 31
0.0
  0
LINE
  5
13D2
  8
0
 62
     0
 10
659.0625000532043
 20
646.27145754341984
 30
0.0
 11
659.53125005320442
 21
647.08335635946764
 31
0.0
  0
LINE
  5
13D3
  8
0
 62
     0
 10
660.46875005320442
 20
648.70715399156359
 30
0.0
 11
660.93750005320442
 21
649.5190528076115
 31
0.0
  0
LINE
  5
13D4
  8
0
 62
     0
 10
656.25000005355434
 20
638.15246938273845
 30
0.0
 11
656.71875005355434
 21
638.96436819878636
 31
0.0
  0
LINE
  5
13D5
  8
0
 62
     0
 10
657.65625005355434
 20
640.5881658308823
 30
0.0
 11
658.12500005355434
 21
641.40006464693022
 31
0.0
  0
LINE
  5
13D6
  8
0
 62
     0
 10
659.06250005355434
 20
643.02386227902605
 30
0.0
 11
659.53125005355434
 21
643.83576109507385
 31
0.0
  0
LINE
  5
13D7
  8
0
 62
     0
 10
660.46875005355434
 20
645.45955872716979
 30
0.0
 11
660.93750005355434
 21
646.27145754321771
 31
0.0
  0
LINE
  5
13D8
  8
0
 62
     0
 10
661.87500005355434
 20
647.89525517531354
 30
0.0
 11
662.34375005355434
 21
648.70715399136145
 31
0.0
  0
LINE
  5
13D9
  8
0
 62
     0
 10
657.65625005390439
 20
637.34057056648851
 30
0.0
 11
658.12500005390439
 21
638.15246938253642
 31
0.0
  0
LINE
  5
13DA
  8
0
 62
     0
 10
659.06250005390427
 20
639.77626701463225
 30
0.0
 11
659.53125005390427
 21
640.58816583068005
 31
0.0
  0
LINE
  5
13DB
  8
0
 62
     0
 10
660.46875005390439
 20
642.211963462776
 30
0.0
 11
660.93750005390439
 21
643.0238622788238
 31
0.0
  0
LINE
  5
13DC
  8
0
 62
     0
 10
661.87500005390427
 20
644.64765991091974
 30
0.0
 11
662.34375005390439
 21
645.45955872696754
 31
0.0
  0
LINE
  5
13DD
  8
0
 62
     0
 10
663.28125005390439
 20
647.08335635906349
 30
0.0
 11
663.75000005390427
 21
647.89525517511129
 31
0.0
  0
LINE
  5
13DE
  8
0
 62
     0
 10
659.18159006375561
 20
636.73494169736853
 30
0.0
 11
659.53125005425443
 21
637.34057056628649
 31
0.0
  0
LINE
  5
13DF
  8
0
 62
     0
 10
660.46875005425443
 20
638.96436819838232
 30
0.0
 11
660.93750005425443
 21
639.77626701443023
 31
0.0
  0
LINE
  5
13E0
  8
0
 62
     0
 10
661.87500005425443
 20
641.40006464652595
 30
0.0
 11
662.34375005425443
 21
642.21196346257386
 31
0.0
  0
LINE
  5
13E1
  8
0
 62
     0
 10
663.28125005425443
 20
643.83576109466981
 30
0.0
 11
663.75000005425443
 21
644.64765991071772
 31
0.0
  0
LINE
  5
13E2
  8
0
 62
     0
 10
661.87500005460436
 20
638.15246938213215
 30
0.0
 11
662.34375005460436
 21
638.96436819818018
 31
0.0
  0
LINE
  5
13E3
  8
0
 62
     0
 10
663.28125005460436
 20
640.58816583027601
 30
0.0
 11
663.75000005460447
 21
641.40006464632393
 31
0.0
  0
LINE
  5
13E4
  8
0
 62
     0
 10
664.68750005460436
 20
643.02386227841976
 30
0.0
 11
664.68760953831224
 21
643.02405190976435
 31
0.0
  0
ENDBLK
  5
13E5
  8
0
  0
BLOCK
  8
0
  2
*X14
 70
     1
 10
0.0
 20
0.0
 30
0.0
  3
*X14
  1

  0
LINE
  5
13E8
  8
0
 62
     0
 10
664.09178699241295
 20
641.11081660385003
 30
0.0
 11
674.71335800871032
 21
651.73238762014739
 31
0.0
  0
LINE
  5
13E9
  8
0
 62
     0
 10
664.77077248925355
 20
643.55756905365706
 30
0.0
 11
672.94162144396012
 21
651.72841800836363
 31
0.0
  0
LINE
  5
13EA
  8
0
 62
     0
 10
664.80514764081295
 20
645.35971115818279
 30
0.0
 11
671.1698848792098
 21
651.72444839657965
 31
0.0
  0
LINE
  5
13EB
  8
0
 62
     0
 10
664.54135172436111
 20
646.86368219469728
 30
0.0
 11
669.39814831445983
 21
651.72047878479589
 31
0.0
  0
LINE
  5
13EC
  8
0
 62
     0
 10
664.07721491841846
 20
648.16731234172096
 30
0.0
 11
667.62641174970963
 21
651.71650917301224
 31
0.0
  0
LINE
  5
13ED
  8
0
 62
     0
 10
663.45507075806029
 20
649.31293513432934
 30
0.0
 11
665.85467518495955
 21
651.71253956122848
 31
0.0
  0
LINE
  5
13EE
  8
0
 62
     0
 10
662.69527746216227
 20
650.32090879139764
 30
0.0
 11
664.08293862020935
 21
651.70856994944461
 31
0.0
  0
LINE
  5
13EF
  8
0
 62
     0
 10
661.80624212129135
 20
651.19964040349305
 30
0.0
 11
662.31120205545915
 21
651.70460033766085
 31
0.0
  0
LINE
  5
13F0
  8
0
 62
     0
 10
661.48367903889755
 20
636.7349416973683
 30
0.0
 11
674.96855701858385
 21
650.21981967705472
 31
0.0
  0
LINE
  5
13F1
  8
0
 62
     0
 10
663.25144599186308
 20
636.7349416973675
 30
0.0
 11
673.99871814906226
 21
647.48221385456657
 31
0.0
  0
LINE
  5
13F2
  8
0
 62
     0
 10
665.01921294482895
 20
636.73494169736693
 30
0.0
 11
673.71020570551673
 21
645.42593445805471
 31
0.0
  0
LINE
  5
13F3
  8
0
 62
     0
 10
666.78697989779459
 20
636.73494169736625
 30
0.0
 11
673.73571980871316
 21
643.68368160828493
 31
0.0
  0
LINE
  5
13F4
  8
0
 62
     0
 10
668.55474685076024
 20
636.73494169736546
 30
0.0
 11
673.9646008262381
 21
642.14479567284332
 31
0.0
  0
LINE
  5
13F5
  8
0
 62
     0
 10
670.32251380372577
 20
636.73494169736466
 30
0.0
 11
674.34587723605989
 21
640.75830512969878
 31
0.0
  0
LINE
  5
13F6
  8
0
 62
     0
 10
672.09028075669164
 20
636.73494169736409
 30
0.0
 11
674.85162751525343
 21
639.49628845592599
 31
0.0
  0
LINE
  5
13F7
  8
0
 62
     0
 10
673.85804770965717
 20
636.73494169736341
 30
0.0
 11
675.46525045857607
 21
638.3421444462823
 31
0.0
  0
LINE
  5
13F8
  8
0
 62
     0
 10
675.62581466262293
 20
636.73494169736273
 30
0.0
 11
676.17667142569439
 21
637.28579846043431
 31
0.0
  0
LINE
  5
13F9
  8
0
 62
     0
 10
674.94813740368249
 20
636.73494169736296
 30
0.0
 11
664.42571164845106
 21
647.25736745259451
 31
0.0
  0
LINE
  5
13FA
  8
0
 62
     0
 10
673.18037045071549
 20
636.73494169736375
 30
0.0
 11
664.82388750735845
 21
645.0914246407209
 31
0.0
  0
LINE
  5
13FB
  8
0
 62
     0
 10
671.41260349774848
 20
636.73494169736443
 30
0.0
 11
664.74947775175656
 21
643.39806744335624
 31
0.0
  0
LINE
  5
13FC
  8
0
 62
     0
 10
669.64483654478136
 20
636.73494169736512
 30
0.0
 11
664.417425608092
 21
641.96235263405447
 31
0.0
  0
LINE
  5
13FD
  8
0
 62
     0
 10
667.87706959181435
 20
636.7349416973658
 30
0.0
 11
663.90155215498339
 21
640.71045913419675
 31
0.0
  0
LINE
  5
13FE
  8
0
 62
     0
 10
666.10930263884734
 20
636.73494169736648
 30
0.0
 11
663.23559263250309
 21
639.60865170371073
 31
0.0
  0
LINE
  5
13FF
  8
0
 62
     0
 10
664.34153568588022
 20
636.73494169736705
 30
0.0
 11
662.43561015776459
 21
638.64086722548279
 31
0.0
  0
LINE
  5
1400
  8
0
 62
     0
 10
662.57376873291321
 20
636.73494169736784
 30
0.0
 11
661.50716293782148
 21
637.80154749245946
 31
0.0
  0
LINE
  5
1401
  8
0
 62
     0
 10
660.80600177994597
 20
636.73494169736864
 30
0.0
 11
660.44733879488956
 21
637.09360468242505
 31
0.0
  0
LINE
  5
1402
  8
0
 62
     0
 10
676.21241305586818
 20
637.23843299814371
 30
0.0
 11
661.74750868280955
 21
651.70333737120245
 31
0.0
  0
LINE
  5
1403
  8
0
 62
     0
 10
674.28942041755818
 20
640.92919258942015
 30
0.0
 11
663.51132377221882
 21
651.70728923475963
 31
0.0
  0
LINE
  5
1404
  8
0
 62
     0
 10
673.78646674670892
 20
643.19991321323585
 30
0.0
 11
665.27513886162785
 21
651.71124109831692
 31
0.0
  0
LINE
  5
1405
  8
0
 62
     0
 10
673.69521395697404
 20
645.05893295593705
 30
0.0
 11
667.03895395103677
 21
651.71519296187421
 31
0.0
  0
LINE
  5
1406
  8
0
 62
     0
 10
673.84391769434785
 20
646.67799617152957
 30
0.0
 11
668.80276904044604
 21
651.71914482543139
 31
0.0
  0
LINE
  5
1407
  8
0
 62
     0
 10
674.16320206832222
 20
648.12647875052164
 30
0.0
 11
670.56658412985496
 21
651.72309668898868
 31
0.0
  0
LINE
  5
1408
  8
0
 62
     0
 10
674.61728679401642
 20
649.44016097779388
 30
0.0
 11
672.33039921926422
 21
651.72704855254597
 31
0.0
  0
LINE
  5
1409
  8
0
 62
     0
 10
675.1854759545937
 20
650.63973877018293
 30
0.0
 11
674.09421430867326
 21
651.73100041610326
 31
0.0
  0
ENDBLK
  5
140A
  8
0
  0
BLOCK
  8
0
  2
*U73
 70
     1
 10
0.0
 20
0.0
 30
0.0
  3
*U73
  1

  0
TEXT
  5
1D17
  8
SAPA_ARTIKELNR
 10
49.682835003788853
 20
-7.489531390261595
 30
0.0
 40
3.5
  1
68653
 50
89.999999999999986
  7
ISO
  0
ENDBLK
  5
1D19
  8
0
  0
BLOCK
  8
0
  2
*X74
 70
     1
 10
0.0
 20
0.0
 30
0.0
  3
*X74
  1

  0
LINE
  5
1D49
  8
0
 62
     0
 10
-72.480494727145668
 20
25.365504151556351
 30
0.0
 11
-72.417535120949665
 21
25.329154405971021
 31
0.0
  0
LINE
  5
1D4A
  8
0
 62
     0
 10
-70.355312292441909
 20
25.726029121474902
 30
0.0
 11
-69.667904628188012
 21
25.3291541214749
 31
0.0
  0
LINE
  5
1D4B
  8
0
 62
     0
 10
-72.417535285203599
 20
26.916654121474899
 30
0.0
 11
-71.730127620949702
 21
26.519779121474901
 31
0.0
  0
LINE
  5
1D4C
  8
0
 62
     0
 10
-67.605681799680198
 20
25.726028836978831
 30
0.0
 11
-66.918274135426302
 21
25.329153836978829
 31
0.0
  0
LINE
  5
1D4D
  8
0
 62
     0
 10
-69.667904792441874
 20
26.916653836978831
 30
0.0
 11
-68.980497128187992
 21
26.51977883697883
 31
0.0
  0
LINE
  5
1D4E
  8
0
 62
     0
 10
-71.730127785203578
 20
28.107278836978828
 30
0.0
 11
-71.042720120949681
 21
27.710403836978831
 31
0.0
  0
LINE
  5
1D4F
  8
0
 62
     0
 10
-64.856051306918516
 20
25.72602855248272
 30
0.0
 11
-64.16864364266462
 21
25.329153552482719
 31
0.0
  0
LINE
  5
1D50
  8
0
 62
     0
 10
-66.918274299680206
 20
26.916653552482721
 30
0.0
 11
-66.23086663542631
 21
26.51977855248272
 31
0.0
  0
LINE
  5
1D51
  8
0
 62
     0
 10
-68.980497292441896
 20
28.107278552482718
 30
0.0
 11
-68.293089628187985
 21
27.71040355248272
 31
0.0
  0
LINE
  5
1D52
  8
0
 62
     0
 10
-71.042720285203586
 20
29.297903552482719
 30
0.0
 11
-70.35531262094969
 21
28.901028552482721
 31
0.0
  0
LINE
  5
1D53
  8
0
 62
     0
 10
-72.48049472714564
 20
30.128003013571931
 30
0.0
 11
-72.417535613711379
 21
30.091653552482718
 31
0.0
  0
LINE
  5
1D54
  8
0
 62
     0
 10
-62.10642081415682
 20
25.726028267986631
 30
0.0
 11
-61.419013149902923
 21
25.32915326798663
 31
0.0
  0
LINE
  5
1D55
  8
0
 62
     0
 10
-64.16864380691851
 20
26.916653267986629
 30
0.0
 11
-63.481236142664613
 21
26.519778267986631
 31
0.0
  0
LINE
  5
1D56
  8
0
 62
     0
 10
-66.2308667996802
 20
28.107278267986629
 30
0.0
 11
-65.543459135426303
 21
27.710403267986631
 31
0.0
  0
LINE
  5
1D57
  8
0
 62
     0
 10
-68.29308979244189
 20
29.29790326798663
 30
0.0
 11
-67.605682128187993
 21
28.901028267986629
 31
0.0
  0
LINE
  5
1D58
  8
0
 62
     0
 10
-70.35531278520358
 20
30.488528267986631
 30
0.0
 11
-69.667905120949683
 21
30.091653267986629
 31
0.0
  0
LINE
  5
1D59
  8
0
 62
     0
 10
-72.41753577796527
 20
31.679153267986631
 30
0.0
 11
-71.730128113711373
 21
31.28227826798663
 31
0.0
  0
LINE
  5
1D5A
  8
0
 62
     0
 10
-59.356790321395138
 20
25.72602798349055
 30
0.0
 11
-58.669382657141242
 21
25.329152983490552
 31
0.0
  0
LINE
  5
1D5B
  8
0
 62
     0
 10
-61.419013314156828
 20
26.91665298349055
 30
0.0
 11
-60.731605649902932
 21
26.519777983490549
 31
0.0
  0
LINE
  5
1D5C
  8
0
 62
     0
 10
-63.481236306918511
 20
28.107277983490551
 30
0.0
 11
-62.793828642664621
 21
27.71040298349055
 31
0.0
  0
LINE
  5
1D5D
  8
0
 62
     0
 10
-65.543459299680208
 20
29.297902983490552
 30
0.0
 11
-64.856051635426311
 21
28.90102798349055
 31
0.0
  0
LINE
  5
1D5E
  8
0
 62
     0
 10
-67.605682292441884
 20
30.488527983490549
 30
0.0
 11
-66.918274628188001
 21
30.091652983490551
 31
0.0
  0
LINE
  5
1D5F
  8
0
 62
     0
 10
-69.667905285203588
 20
31.67915298349055
 30
0.0
 11
-68.980497620949691
 21
31.282277983490552
 31
0.0
  0
LINE
  5
1D60
  8
0
 62
     0
 10
-71.730128277965278
 20
32.86977798349055
 30
0.0
 11
-71.042720613711381
 21
32.472902983490549
 31
0.0
  0
LINE
  5
1D61
  8
0
 62
     0
 10
-58.669382821395189
 20
26.916652698994469
 30
0.0
 11
-57.981975157141292
 21
26.51977769899446
 31
0.0
  0
LINE
  5
1D62
  8
0
 62
     0
 10
-60.731605814156879
 20
28.107277698994469
 30
0.0
 11
-60.044198149902982
 21
27.710402698994461
 31
0.0
  0
LINE
  5
1D63
  8
0
 62
     0
 10
-62.793828806918569
 20
29.29790269899447
 30
0.0
 11
-62.106421142664672
 21
28.901027698994469
 31
0.0
  0
LINE
  5
1D64
  8
0
 62
     0
 10
-64.856051799680245
 20
30.488527698994471
 30
0.0
 11
-64.168644135426362
 21
30.091652698994469
 31
0.0
  0
LINE
  5
1D65
  8
0
 62
     0
 10
-66.918274792441949
 20
31.679152698994471
 30
0.0
 11
-66.230867128188052
 21
31.28227769899447
 31
0.0
  0
LINE
  5
1D66
  8
0
 62
     0
 10
-68.980497785203639
 20
32.869777698994469
 30
0.0
 11
-68.293090120949742
 21
32.472902698994467
 31
0.0
  0
LINE
  5
1D67
  8
0
 62
     0
 10
-71.042720777965329
 20
34.06040269899448
 30
0.0
 11
-70.355313113711432
 21
33.663527698994471
 31
0.0
  0
LINE
  5
1D68
  8
0
 62
     0
 10
-72.480494727145611
 20
34.890501875587553
 30
0.0
 11
-72.417536106473122
 21
34.854152698994483
 31
0.0
  0
LINE
  5
1D69
  8
0
 62
     0
 10
-57.981975321395169
 20
28.107277414498359
 30
0.0
 11
-57.480494727145647
 21
27.817747458415031
 31
0.0
  0
LINE
  5
1D6A
  8
0
 62
     0
 10
-60.044198314156858
 20
29.29790241449837
 30
0.0
 11
-59.356790649902962
 21
28.901027414498358
 31
0.0
  0
LINE
  5
1D6B
  8
0
 62
     0
 10
-62.106421306918548
 20
30.488527414498371
 30
0.0
 11
-61.419013642664652
 21
30.091652414498359
 31
0.0
  0
LINE
  5
1D6C
  8
0
 62
     0
 10
-64.168644299680238
 20
31.679152414498368
 30
0.0
 11
-63.481236635426342
 21
31.28227741449836
 31
0.0
  0
LINE
  5
1D6D
  8
0
 62
     0
 10
-66.230867292441914
 20
32.869777414498373
 30
0.0
 11
-65.543459628188032
 21
32.472902414498371
 31
0.0
  0
LINE
  5
1D6E
  8
0
 62
     0
 10
-68.293090285203618
 20
34.06040241449837
 30
0.0
 11
-67.605682620949722
 21
33.663527414498368
 31
0.0
  0
LINE
  5
1D6F
  8
0
 62
     0
 10
-70.355313277965308
 20
35.251027414498367
 30
0.0
 11
-69.667905613711412
 21
34.85415241449838
 31
0.0
  0
LINE
  5
1D70
  8
0
 62
     0
 10
-72.417536270726998
 20
36.441652414498378
 30
0.0
 11
-71.730128606473102
 21
36.044777414498377
 31
0.0
  0
LINE
  5
1D71
  8
0
 62
     0
 10
-59.356790814156867
 20
30.488527130002279
 30
0.0
 11
-58.66938314990297
 21
30.09165213000227
 31
0.0
  0
LINE
  5
1D72
  8
0
 62
     0
 10
-61.419013806918549
 20
31.679152130002279
 30
0.0
 11
-60.73160614266466
 21
31.282277130002281
 31
0.0
  0
LINE
  5
1D73
  8
0
 62
     0
 10
-63.481236799680246
 20
32.869777130002277
 30
0.0
 11
-62.79382913542635
 21
32.472902130002282
 31
0.0
  0
LINE
  5
1D74
  8
0
 62
     0
 10
-65.543459792441936
 20
34.060402130002281
 30
0.0
 11
-64.856052128188026
 21
33.663527130002279
 31
0.0
  0
LINE
  5
1D75
  8
0
 62
     0
 10
-67.605682785203626
 20
35.251027130002292
 30
0.0
 11
-66.91827512094973
 21
34.854152130002291
 31
0.0
  0
LINE
  5
1D76
  8
0
 62
     0
 10
-69.667905777965316
 20
36.441652130002289
 30
0.0
 11
-68.98049811371142
 21
36.044777130002288
 31
0.0
  0
LINE
  5
1D77
  8
0
 62
     0
 10
-71.730128770727006
 20
37.632277130002301
 30
0.0
 11
-71.04272110647311
 21
37.235402130002292
 31
0.0
  0
LINE
  5
1D78
  8
0
 62
     0
 10
-58.669383314156867
 20
31.679151845506169
 30
0.0
 11
-57.981975649902978
 21
31.282276845506161
 31
0.0
  0
LINE
  5
1D79
  8
0
 62
     0
 10
-60.731606306918557
 20
32.869776845506173
 30
0.0
 11
-60.044198642664661
 21
32.472901845506172
 31
0.0
  0
LINE
  5
1D7A
  8
0
 62
     0
 10
-62.793829299680262
 20
34.060401845506171
 30
0.0
 11
-62.106421635426358
 21
33.663526845506169
 31
0.0
  0
LINE
  5
1D7B
  8
0
 62
     0
 10
-64.856052292441944
 20
35.251026845506168
 30
0.0
 11
-64.168644628188034
 21
34.854151845506181
 31
0.0
  0
LINE
  5
1D7C
  8
0
 62
     0
 10
-66.918275285203634
 20
36.441651845506179
 30
0.0
 11
-66.230867620949738
 21
36.044776845506178
 31
0.0
  0
LINE
  5
1D7D
  8
0
 62
     0
 10
-68.980498277965324
 20
37.632276845506183
 30
0.0
 11
-68.293090613711428
 21
37.235401845506182
 31
0.0
  0
LINE
  5
1D7E
  8
0
 62
     0
 10
-71.042721270727014
 20
38.822901845506188
 30
0.0
 11
-70.355313606473104
 21
38.426026845506193
 31
0.0
  0
LINE
  5
1D7F
  8
0
 62
     0
 10
-72.480494727145583
 20
39.653000737603151
 30
0.0
 11
-72.417536599234808
 21
39.61665184550619
 31
0.0
  0
LINE
  5
1D80
  8
0
 62
     0
 10
-57.981975814156819
 20
32.869776561010013
 30
0.0
 11
-57.480494727145647
 21
32.580246320430597
 31
0.0
  0
LINE
  5
1D81
  8
0
 62
     0
 10
-60.044198806918523
 20
34.060401561010018
 30
0.0
 11
-59.356791142664619
 21
33.663526561010023
 31
0.0
  0
LINE
  5
1D82
  8
0
 62
     0
 10
-62.106421799680199
 20
35.251026561010022
 30
0.0
 11
-61.419014135426309
 21
34.854151561010021
 31
0.0
  0
LINE
  5
1D83
  8
0
 62
     0
 10
-64.168644792441896
 20
36.441651561010033
 30
0.0
 11
-63.481237128187999
 21
36.044776561010032
 31
0.0
  0
LINE
  5
1D84
  8
0
 62
     0
 10
-66.230867785203586
 20
37.63227656101003
 30
0.0
 11
-65.543460120949689
 21
37.235401561010029
 31
0.0
  0
LINE
  5
1D85
  8
0
 62
     0
 10
-68.293090777965276
 20
38.822901561010028
 30
0.0
 11
-67.605683113711365
 21
38.42602656101004
 31
0.0
  0
LINE
  5
1D86
  8
0
 62
     0
 10
-70.341726694700583
 20
40.005682059008699
 30
0.0
 11
-69.667906106473069
 21
39.616651561010038
 31
0.0
  0
LINE
  5
1D87
  8
0
 62
     0
 10
-59.356791306918559
 20
35.251026276513961
 30
0.0
 11
-58.669383642664663
 21
34.854151276513953
 31
0.0
  0
LINE
  5
1D88
  8
0
 62
     0
 10
-61.419014299680263
 20
36.441651276513959
 30
0.0
 11
-60.73160663542636
 21
36.044776276513957
 31
0.0
  0
LINE
  5
1D89
  8
0
 62
     0
 10
-63.481237292441939
 20
37.632276276513963
 30
0.0
 11
-62.79382962818805
 21
37.235401276513961
 31
0.0
  0
LINE
  5
1D8A
  8
0
 62
     0
 10
-65.543460285203636
 20
38.822901276513967
 30
0.0
 11
-64.85605262094974
 21
38.426026276513973
 31
0.0
  0
LINE
  5
1D8B
  8
0
 62
     0
 10
-67.592096694700587
 20
40.005682059008699
 30
0.0
 11
-66.91827561371143
 21
39.61665127651397
 31
0.0
  0
LINE
  5
1D8C
  8
0
 62
     0
 10
-58.669383806918482
 20
36.44165099201782
 30
0.0
 11
-57.981976142664593
 21
36.044775992017819
 31
0.0
  0
LINE
  5
1D8D
  8
0
 62
     0
 10
-60.731606799680179
 20
37.632275992017817
 30
0.0
 11
-60.044199135426283
 21
37.23540099201783
 31
0.0
  0
LINE
  5
1D8E
  8
0
 62
     0
 10
-62.793829792441869
 20
38.822900992017829
 30
0.0
 11
-62.106422128187972
 21
38.426025992017827
 31
0.0
  0
LINE
  5
1D8F
  8
0
 62
     0
 10
-64.842466694700562
 20
40.005682059008691
 30
0.0
 11
-64.168645120949662
 21
39.616650992017831
 31
0.0
  0
LINE
  5
1D90
  8
0
 62
     0
 10
-57.98197630691849
 20
37.632275707521742
 30
0.0
 11
-57.480494727145619
 21
37.342745182446251
 31
0.0
  0
LINE
  5
1D91
  8
0
 62
     0
 10
-60.04419929968018
 20
38.822900707521747
 30
0.0
 11
-59.356791635426283
 21
38.426025707521752
 31
0.0
  0
LINE
  5
1D92
  8
0
 62
     0
 10
-62.092836694700573
 20
40.005682059008699
 30
0.0
 11
-61.419014628187973
 21
39.61665070752175
 31
0.0
  0
LINE
  5
1D93
  8
0
 62
     0
 10
-59.343206694700598
 20
40.005682059008713
 30
0.0
 11
-58.669384135426291
 21
39.616650423025654
 31
0.0
  0
LINE
  5
1D94
  8
0
 62
     0
 10
-58.66938479244228
 20
25.329208460229129
 30
0.0
 11
-57.981977128188383
 21
25.72608346022912
 31
0.0
  0
LINE
  5
1D95
  8
0
 62
     0
 10
-59.356792292442229
 20
26.519833175733069
 30
0.0
 11
-58.66938462818834
 21
26.916708175733071
 31
0.0
  0
LINE
  5
1D96
  8
0
 62
     0
 10
-61.419015285203919
 20
25.329208175733079
 30
0.0
 11
-60.73160762095003
 21
25.72608317573307
 31
0.0
  0
LINE
  5
1D97
  8
0
 62
     0
 10
-57.981976799680588
 20
28.901082891236928
 30
0.0
 11
-57.480494727145611
 21
29.190613700808768
 31
0.0
  0
LINE
  5
1D98
  8
0
 62
     0
 10
-60.044199792442292
 20
27.710457891236931
 30
0.0
 11
-59.356792128188388
 21
28.107332891236929
 31
0.0
  0
LINE
  5
1D99
  8
0
 62
     0
 10
-62.106422785203968
 20
26.519832891236941
 30
0.0
 11
-61.419015120950078
 21
26.916707891236939
 31
0.0
  0
LINE
  5
1D9A
  8
0
 62
     0
 10
-64.168645777965665
 20
25.329207891236951
 30
0.0
 11
-63.481238113711768
 21
25.726082891236938
 31
0.0
  0
LINE
  5
1D9B
  8
0
 62
     0
 10
-58.669384299680551
 20
30.091707606740862
 30
0.0
 11
-57.981976635426648
 21
30.488582606740849
 31
0.0
  0
LINE
  5
1D9C
  8
0
 62
     0
 10
-60.731607292442227
 20
28.901082606740861
 30
0.0
 11
-60.044199628188331
 21
29.297957606740859
 31
0.0
  0
LINE
  5
1D9D
  8
0
 62
     0
 10
-62.793830285203917
 20
27.710457606740871
 30
0.0
 11
-62.106422620950028
 21
28.107332606740869
 31
0.0
  0
LINE
  5
1D9E
  8
0
 62
     0
 10
-64.856053277965614
 20
26.519832606740881
 30
0.0
 11
-64.168645613711718
 21
26.916707606740871
 31
0.0
  0
LINE
  5
1D9F
  8
0
 62
     0
 10
-66.918276270727304
 20
25.32920760674088
 30
0.0
 11
-66.230868606473393
 21
25.726082606740881
 31
0.0
  0
LINE
  5
1DA0
  8
0
 62
     0
 10
-59.356791799680593
 20
31.282332322244741
 30
0.0
 11
-58.669384135426689
 21
31.679207322244739
 31
0.0
  0
LINE
  5
1DA1
  8
0
 62
     0
 10
-61.41901479244229
 20
30.091707322244741
 30
0.0
 11
-60.731607128188386
 21
30.488582322244739
 31
0.0
  0
LINE
  5
1DA2
  8
0
 62
     0
 10
-63.481237785203973
 20
28.901082322244751
 30
0.0
 11
-62.793830120950069
 21
29.297957322244748
 31
0.0
  0
LINE
  5
1DA3
  8
0
 62
     0
 10
-65.543460777965663
 20
27.710457322244761
 30
0.0
 11
-64.856053113711766
 21
28.107332322244758
 31
0.0
  0
LINE
  5
1DA4
  8
0
 62
     0
 10
-67.605683770727353
 20
26.51983232224476
 30
0.0
 11
-66.918276106473456
 21
26.916707322244761
 31
0.0
  0
LINE
  5
1DA5
  8
0
 62
     0
 10
-69.667906763489043
 20
25.32920732224477
 30
0.0
 11
-68.980499099235146
 21
25.726082322244771
 31
0.0
  0
LINE
  5
1DA6
  8
0
 62
     0
 10
-57.981976306918909
 20
33.66358203774864
 30
0.0
 11
-57.480494727145647
 21
33.953112562824373
 31
0.0
  0
LINE
  5
1DA7
  8
0
 62
     0
 10
-60.044199299680599
 20
32.472957037748628
 30
0.0
 11
-59.356791635426703
 21
32.869832037748637
 31
0.0
  0
LINE
  5
1DA8
  8
0
 62
     0
 10
-62.106422292442282
 20
31.282332037748638
 30
0.0
 11
-61.419014628188393
 21
31.67920703774864
 31
0.0
  0
LINE
  5
1DA9
  8
0
 62
     0
 10
-64.168645285203979
 20
30.091707037748652
 30
0.0
 11
-63.481237620950083
 21
30.48858203774865
 31
0.0
  0
LINE
  5
1DAA
  8
0
 62
     0
 10
-66.230868277965669
 20
28.901082037748651
 30
0.0
 11
-65.543460613711773
 21
29.297957037748649
 31
0.0
  0
LINE
  5
1DAB
  8
0
 62
     0
 10
-68.293091270727359
 20
27.710457037748661
 30
0.0
 11
-67.605683606473463
 21
28.107332037748659
 31
0.0
  0
LINE
  5
1DAC
  8
0
 62
     0
 10
-70.355314263489049
 20
26.519832037748671
 30
0.0
 11
-69.667906599235152
 21
26.916707037748669
 31
0.0
  0
LINE
  5
1DAD
  8
0
 62
     0
 10
-72.417537256250725
 20
25.32920703774867
 30
0.0
 11
-71.730129591996842
 21
25.726082037748672
 31
0.0
  0
LINE
  5
1DAE
  8
0
 62
     0
 10
-58.669383806918901
 20
34.854206753252527
 30
0.0
 11
-57.981976142664998
 21
35.251081753252528
 31
0.0
  0
LINE
  5
1DAF
  8
0
 62
     0
 10
-60.731606799680591
 20
33.663581753252529
 30
0.0
 11
-60.044199135426688
 21
34.060456753252531
 31
0.0
  0
LINE
  5
1DB0
  8
0
 62
     0
 10
-62.793829792442281
 20
32.472956753252532
 30
0.0
 11
-62.106422128188377
 21
32.869831753252541
 31
0.0
  0
LINE
  5
1DB1
  8
0
 62
     0
 10
-64.856052785203971
 20
31.282331753252539
 30
0.0
 11
-64.168645120950075
 21
31.67920675325254
 31
0.0
  0
LINE
  5
1DB2
  8
0
 62
     0
 10
-66.918275777965661
 20
30.091706753252542
 30
0.0
 11
-66.230868113711765
 21
30.488581753252539
 31
0.0
  0
LINE
  5
1DB3
  8
0
 62
     0
 10
-68.980498770727351
 20
28.901081753252551
 30
0.0
 11
-68.293091106473454
 21
29.297956753252549
 31
0.0
  0
LINE
  5
1DB4
  8
0
 62
     0
 10
-71.042721763489041
 20
27.710456753252561
 30
0.0
 11
-70.355314099235144
 21
28.107331753252549
 31
0.0
  0
LINE
  5
1DB5
  8
0
 62
     0
 10
-72.480494727145611
 20
26.880358145651869
 30
0.0
 11
-72.417537091996834
 21
26.916706753252559
 31
0.0
  0
LINE
  5
1DB6
  8
0
 62
     0
 10
-59.356791306918893
 20
36.044831468756449
 30
0.0
 11
-58.66938364266499
 21
36.44170646875645
 31
0.0
  0
LINE
  5
1DB7
  8
0
 62
     0
 10
-61.419014299680583
 20
34.854206468756452
 30
0.0
 11
-60.731606635426687
 21
35.251081468756453
 31
0.0
  0
LINE
  5
1DB8
  8
0
 62
     0
 10
-63.481237292442273
 20
33.663581468756462
 30
0.0
 11
-62.793829628188377
 21
34.060456468756463
 31
0.0
  0
LINE
  5
1DB9
  8
0
 62
     0
 10
-65.543460285203963
 20
32.472956468756458
 30
0.0
 11
-64.856052620950067
 21
32.869831468756459
 31
0.0
  0
LINE
  5
1DBA
  8
0
 62
     0
 10
-67.605683277965653
 20
31.28233146875646
 30
0.0
 11
-66.918275613711756
 21
31.679206468756458
 31
0.0
  0
LINE
  5
1DBB
  8
0
 62
     0
 10
-69.667906270727343
 20
30.09170646875647
 30
0.0
 11
-68.980498606473446
 21
30.488581468756468
 31
0.0
  0
LINE
  5
1DBC
  8
0
 62
     0
 10
-71.730129263489033
 20
28.90108146875647
 30
0.0
 11
-71.042721599235136
 21
29.297956468756471
 31
0.0
  0
LINE
  5
1DBD
  8
0
 62
     0
 10
-57.981975814157202
 20
38.42608118426034
 30
0.0
 11
-57.48049472714559
 21
38.715611424839999
 31
0.0
  0
LINE
  5
1DBE
  8
0
 62
     0
 10
-60.044198806918899
 20
37.235456184260343
 30
0.0
 11
-59.356791142665003
 21
37.632331184260337
 31
0.0
  0
LINE
  5
1DBF
  8
0
 62
     0
 10
-62.106421799680589
 20
36.044831184260339
 30
0.0
 11
-61.419014135426693
 21
36.44170618426034
 31
0.0
  0
LINE
  5
1DC0
  8
0
 62
     0
 10
-64.168644792442279
 20
34.854206184260342
 30
0.0
 11
-63.481237128188383
 21
35.25108118426035
 31
0.0
  0
LINE
  5
1DC1
  8
0
 62
     0
 10
-66.230867785203969
 20
33.663581184260352
 30
0.0
 11
-65.543460120950073
 21
34.060456184260353
 31
0.0
  0
LINE
  5
1DC2
  8
0
 62
     0
 10
-68.293090777965645
 20
32.472956184260347
 30
0.0
 11
-67.605683113711763
 21
32.869831184260349
 31
0.0
  0
LINE
  5
1DC3
  8
0
 62
     0
 10
-70.355313770727349
 20
31.28233118426035
 30
0.0
 11
-69.667906106473453
 21
31.679206184260352
 31
0.0
  0
LINE
  5
1DC4
  8
0
 62
     0
 10
-72.417536763489039
 20
30.09170618426036
 30
0.0
 11
-71.730129099235143
 21
30.488581184260362
 31
0.0
  0
LINE
  5
1DC5
  8
0
 62
     0
 10
-58.669383314157159
 20
39.616705899764277
 30
0.0
 11
-57.995656843412739
 21
40.005682059008748
 31
0.0
  0
LINE
  5
1DC6
  8
0
 62
     0
 10
-60.731606306918849
 20
38.426080899764287
 30
0.0
 11
-60.044198642664952
 21
38.822955899764288
 31
0.0
  0
LINE
  5
1DC7
  8
0
 62
     0
 10
-62.793829299680539
 20
37.23545589976429
 30
0.0
 11
-62.106421635426642
 21
37.632330899764291
 31
0.0
  0
LINE
  5
1DC8
  8
0
 62
     0
 10
-64.856052292442229
 20
36.044830899764293
 30
0.0
 11
-64.168644628188332
 21
36.441705899764287
 31
0.0
  0
LINE
  5
1DC9
  8
0
 62
     0
 10
-66.918275285203904
 20
34.854205899764303
 30
0.0
 11
-66.230867620950022
 21
35.251080899764297
 31
0.0
  0
LINE
  5
1DCA
  8
0
 62
     0
 10
-68.980498277965609
 20
33.663580899764298
 30
0.0
 11
-68.293090613711712
 21
34.0604558997643
 31
0.0
  0
LINE
  5
1DCB
  8
0
 62
     0
 10
-71.042721270727299
 20
32.472955899764301
 30
0.0
 11
-70.355313606473402
 21
32.869830899764303
 31
0.0
  0
LINE
  5
1DCC
  8
0
 62
     0
 10
-72.48049472714564
 20
31.64285700766747
 30
0.0
 11
-72.417536599235092
 21
31.679205899764298
 31
0.0
  0
LINE
  5
1DCD
  8
0
 62
     0
 10
-61.419013806918883
 20
39.61670561526816
 30
0.0
 11
-60.745286843412771
 21
40.005682059008713
 31
0.0
  0
LINE
  5
1DCE
  8
0
 62
     0
 10
-63.48123679968058
 20
38.426080615268162
 30
0.0
 11
-62.793829135426677
 21
38.822955615268171
 31
0.0
  0
LINE
  5
1DCF
  8
0
 62
     0
 10
-65.543459792442263
 20
37.235455615268172
 30
0.0
 11
-64.856052128188367
 21
37.632330615268167
 31
0.0
  0
LINE
  5
1DD0
  8
0
 62
     0
 10
-67.605682785203953
 20
36.044830615268168
 30
0.0
 11
-66.918275120950057
 21
36.44170561526817
 31
0.0
  0
LINE
  5
1DD1
  8
0
 62
     0
 10
-69.667905777965643
 20
34.854205615268171
 30
0.0
 11
-68.980498113711747
 21
35.251080615268172
 31
0.0
  0
LINE
  5
1DD2
  8
0
 62
     0
 10
-71.730128770727333
 20
33.663580615268167
 30
0.0
 11
-71.042721106473437
 21
34.060455615268182
 31
0.0
  0
LINE
  5
1DD3
  8
0
 62
     0
 10
-64.168644299680537
 20
39.616705330772092
 30
0.0
 11
-63.49491684341276
 21
40.005682059008727
 31
0.0
  0
LINE
  5
1DD4
  8
0
 62
     0
 10
-66.230867292442227
 20
38.426080330772102
 30
0.0
 11
-65.54345962818833
 21
38.822955330772103
 31
0.0
  0
LINE
  5
1DD5
  8
0
 62
     0
 10
-68.293090285203917
 20
37.235455330772098
 30
0.0
 11
-67.60568262095002
 21
37.632330330772099
 31
0.0
  0
LINE
  5
1DD6
  8
0
 62
     0
 10
-70.355313277965607
 20
36.044830330772101
 30
0.0
 11
-69.66790561371171
 21
36.441705330772102
 31
0.0
  0
LINE
  5
1DD7
  8
0
 62
     0
 10
-72.417536270727297
 20
34.854205330772103
 30
0.0
 11
-71.7301286064734
 21
35.251080330772112
 31
0.0
  0
LINE
  5
1DD8
  8
0
 62
     0
 10
-66.918274792442276
 20
39.616705046276003
 30
0.0
 11
-66.244546843412763
 21
40.005682059008748
 31
0.0
  0
LINE
  5
1DD9
  8
0
 62
     0
 10
-68.980497785203966
 20
38.426080046275999
 30
0.0
 11
-68.293090120950069
 21
38.822955046276
 31
0.0
  0
LINE
  5
1DDA
  8
0
 62
     0
 10
-71.042720777965656
 20
37.235455046276002
 30
0.0
 11
-70.355313113711759
 21
37.63233004627601
 31
0.0
  0
LINE
  5
1DDB
  8
0
 62
     0
 10
-72.48049472714564
 20
36.405355869683113
 30
0.0
 11
-72.417536106473449
 21
36.441705046276013
 31
0.0
  0
LINE
  5
1DDC
  8
0
 62
     0
 10
-69.667905285203943
 20
39.616704761779872
 30
0.0
 11
-68.99417684341276
 21
40.005682059008713
 31
0.0
  0
LINE
  5
1DDD
  8
0
 62
     0
 10
-71.730128277965633
 20
38.426079761779867
 30
0.0
 11
-71.042720613711737
 21
38.822954761779883
 31
0.0
  0
LINE
  5
1DDE
  8
0
 62
     0
 10
-72.417535777965654
 20
39.616704477283783
 30
0.0
 11
-71.74380684341277
 21
40.005682059008713
 31
0.0
  0
LINE
  5
1DDF
  8
0
 62
     0
 10
-71.730174104802842
 20
26.519803872635439
 30
0.0
 11
-71.730174104802842
 21
25.72605387263544
 31
0.0
  0
LINE
  5
1DE0
  8
0
 62
     0
 10
-71.730174104802842
 20
28.90105387263544
 30
0.0
 11
-71.730174104802842
 21
28.107303872635431
 31
0.0
  0
LINE
  5
1DE1
  8
0
 62
     0
 10
-71.730174104802842
 20
31.282303872635431
 30
0.0
 11
-71.730174104802842
 21
30.488553872635428
 31
0.0
  0
LINE
  5
1DE2
  8
0
 62
     0
 10
-71.730174104802842
 20
33.663553872635433
 30
0.0
 11
-71.730174104802842
 21
32.86980387263543
 31
0.0
  0
LINE
  5
1DE3
  8
0
 62
     0
 10
-71.730174104802842
 20
36.044803872635441
 30
0.0
 11
-71.730174104802842
 21
35.251053872635431
 31
0.0
  0
LINE
  5
1DE4
  8
0
 62
     0
 10
-71.730174104802842
 20
38.426053872635443
 30
0.0
 11
-71.730174104802842
 21
37.632303872635433
 31
0.0
  0
LINE
  5
1DE5
  8
0
 62
     0
 10
-70.35535910480283
 20
26.519803872635439
 30
0.0
 11
-70.35535910480283
 21
25.72605387263544
 31
0.0
  0
LINE
  5
1DE6
  8
0
 62
     0
 10
-70.35535910480283
 20
28.90105387263544
 30
0.0
 11
-70.35535910480283
 21
28.107303872635431
 31
0.0
  0
LINE
  5
1DE7
  8
0
 62
     0
 10
-70.35535910480283
 20
31.282303872635431
 30
0.0
 11
-70.35535910480283
 21
30.488553872635428
 31
0.0
  0
LINE
  5
1DE8
  8
0
 62
     0
 10
-70.35535910480283
 20
33.663553872635433
 30
0.0
 11
-70.35535910480283
 21
32.86980387263543
 31
0.0
  0
LINE
  5
1DE9
  8
0
 62
     0
 10
-70.35535910480283
 20
36.044803872635441
 30
0.0
 11
-70.35535910480283
 21
35.251053872635431
 31
0.0
  0
LINE
  5
1DEA
  8
0
 62
     0
 10
-70.35535910480283
 20
38.426053872635443
 30
0.0
 11
-70.35535910480283
 21
37.632303872635433
 31
0.0
  0
LINE
  5
1DEB
  8
0
 62
     0
 10
-68.980544104802846
 20
26.519803872635439
 30
0.0
 11
-68.980544104802846
 21
25.72605387263544
 31
0.0
  0
LINE
  5
1DEC
  8
0
 62
     0
 10
-68.980544104802846
 20
28.90105387263544
 30
0.0
 11
-68.980544104802846
 21
28.107303872635431
 31
0.0
  0
LINE
  5
1DED
  8
0
 62
     0
 10
-68.980544104802846
 20
31.282303872635431
 30
0.0
 11
-68.980544104802846
 21
30.488553872635428
 31
0.0
  0
LINE
  5
1DEE
  8
0
 62
     0
 10
-68.980544104802846
 20
33.663553872635433
 30
0.0
 11
-68.980544104802846
 21
32.86980387263543
 31
0.0
  0
LINE
  5
1DEF
  8
0
 62
     0
 10
-68.980544104802846
 20
36.044803872635441
 30
0.0
 11
-68.980544104802846
 21
35.251053872635431
 31
0.0
  0
LINE
  5
1DF0
  8
0
 62
     0
 10
-68.980544104802846
 20
38.426053872635443
 30
0.0
 11
-68.980544104802846
 21
37.632303872635433
 31
0.0
  0
LINE
  5
1DF1
  8
0
 62
     0
 10
-67.605729104802833
 20
26.519803872635439
 30
0.0
 11
-67.605729104802833
 21
25.72605387263544
 31
0.0
  0
LINE
  5
1DF2
  8
0
 62
     0
 10
-67.605729104802833
 20
28.90105387263544
 30
0.0
 11
-67.605729104802833
 21
28.107303872635431
 31
0.0
  0
LINE
  5
1DF3
  8
0
 62
     0
 10
-67.605729104802833
 20
31.282303872635431
 30
0.0
 11
-67.605729104802833
 21
30.488553872635428
 31
0.0
  0
LINE
  5
1DF4
  8
0
 62
     0
 10
-67.605729104802833
 20
33.663553872635433
 30
0.0
 11
-67.605729104802833
 21
32.86980387263543
 31
0.0
  0
LINE
  5
1DF5
  8
0
 62
     0
 10
-67.605729104802833
 20
36.044803872635441
 30
0.0
 11
-67.605729104802833
 21
35.251053872635431
 31
0.0
  0
LINE
  5
1DF6
  8
0
 62
     0
 10
-67.605729104802833
 20
38.426053872635443
 30
0.0
 11
-67.605729104802833
 21
37.632303872635433
 31
0.0
  0
LINE
  5
1DF7
  8
0
 62
     0
 10
-66.230914104802821
 20
26.519803872635439
 30
0.0
 11
-66.230914104802821
 21
25.72605387263544
 31
0.0
  0
LINE
  5
1DF8
  8
0
 62
     0
 10
-66.230914104802821
 20
28.90105387263544
 30
0.0
 11
-66.230914104802821
 21
28.107303872635431
 31
0.0
  0
LINE
  5
1DF9
  8
0
 62
     0
 10
-66.230914104802821
 20
31.282303872635431
 30
0.0
 11
-66.230914104802821
 21
30.488553872635428
 31
0.0
  0
LINE
  5
1DFA
  8
0
 62
     0
 10
-66.230914104802821
 20
33.663553872635433
 30
0.0
 11
-66.230914104802821
 21
32.86980387263543
 31
0.0
  0
LINE
  5
1DFB
  8
0
 62
     0
 10
-66.230914104802821
 20
36.044803872635441
 30
0.0
 11
-66.230914104802821
 21
35.251053872635431
 31
0.0
  0
LINE
  5
1DFC
  8
0
 62
     0
 10
-66.230914104802821
 20
38.426053872635443
 30
0.0
 11
-66.230914104802821
 21
37.632303872635433
 31
0.0
  0
LINE
  5
1DFD
  8
0
 62
     0
 10
-64.856099104802865
 20
26.519803872635439
 30
0.0
 11
-64.856099104802865
 21
25.72605387263544
 31
0.0
  0
LINE
  5
1DFE
  8
0
 62
     0
 10
-64.856099104802865
 20
28.90105387263544
 30
0.0
 11
-64.856099104802865
 21
28.107303872635431
 31
0.0
  0
LINE
  5
1DFF
  8
0
 62
     0
 10
-64.856099104802865
 20
31.282303872635431
 30
0.0
 11
-64.856099104802865
 21
30.488553872635428
 31
0.0
  0
LINE
  5
1E00
  8
0
 62
     0
 10
-64.856099104802865
 20
33.663553872635433
 30
0.0
 11
-64.856099104802865
 21
32.86980387263543
 31
0.0
  0
LINE
  5
1E01
  8
0
 62
     0
 10
-64.856099104802865
 20
36.044803872635441
 30
0.0
 11
-64.856099104802865
 21
35.251053872635431
 31
0.0
  0
LINE
  5
1E02
  8
0
 62
     0
 10
-64.856099104802865
 20
38.426053872635443
 30
0.0
 11
-64.856099104802865
 21
37.632303872635433
 31
0.0
  0
LINE
  5
1E03
  8
0
 62
     0
 10
-63.481284104802853
 20
26.519803872635439
 30
0.0
 11
-63.481284104802853
 21
25.72605387263544
 31
0.0
  0
LINE
  5
1E04
  8
0
 62
     0
 10
-63.481284104802853
 20
28.90105387263544
 30
0.0
 11
-63.481284104802853
 21
28.107303872635431
 31
0.0
  0
LINE
  5
1E05
  8
0
 62
     0
 10
-63.481284104802853
 20
31.282303872635431
 30
0.0
 11
-63.481284104802853
 21
30.488553872635428
 31
0.0
  0
LINE
  5
1E06
  8
0
 62
     0
 10
-63.481284104802853
 20
33.663553872635433
 30
0.0
 11
-63.481284104802853
 21
32.86980387263543
 31
0.0
  0
LINE
  5
1E07
  8
0
 62
     0
 10
-63.481284104802853
 20
36.044803872635441
 30
0.0
 11
-63.481284104802853
 21
35.251053872635431
 31
0.0
  0
LINE
  5
1E08
  8
0
 62
     0
 10
-63.481284104802853
 20
38.426053872635443
 30
0.0
 11
-63.481284104802853
 21
37.632303872635433
 31
0.0
  0
LINE
  5
1E09
  8
0
 62
     0
 10
-62.106469104802841
 20
26.519803872635439
 30
0.0
 11
-62.106469104802841
 21
25.72605387263544
 31
0.0
  0
LINE
  5
1E0A
  8
0
 62
     0
 10
-62.106469104802841
 20
28.90105387263544
 30
0.0
 11
-62.106469104802841
 21
28.107303872635431
 31
0.0
  0
LINE
  5
1E0B
  8
0
 62
     0
 10
-62.106469104802841
 20
31.282303872635431
 30
0.0
 11
-62.106469104802841
 21
30.488553872635428
 31
0.0
  0
LINE
  5
1E0C
  8
0
 62
     0
 10
-62.106469104802841
 20
33.663553872635433
 30
0.0
 11
-62.106469104802841
 21
32.86980387263543
 31
0.0
  0
LINE
  5
1E0D
  8
0
 62
     0
 10
-62.106469104802841
 20
36.044803872635441
 30
0.0
 11
-62.106469104802841
 21
35.251053872635431
 31
0.0
  0
LINE
  5
1E0E
  8
0
 62
     0
 10
-62.106469104802841
 20
38.426053872635443
 30
0.0
 11
-62.106469104802841
 21
37.632303872635433
 31
0.0
  0
LINE
  5
1E0F
  8
0
 62
     0
 10
-60.731654104802828
 20
26.519803872635439
 30
0.0
 11
-60.731654104802828
 21
25.72605387263544
 31
0.0
  0
LINE
  5
1E10
  8
0
 62
     0
 10
-60.731654104802828
 20
28.90105387263544
 30
0.0
 11
-60.731654104802828
 21
28.107303872635431
 31
0.0
  0
LINE
  5
1E11
  8
0
 62
     0
 10
-60.731654104802828
 20
31.282303872635431
 30
0.0
 11
-60.731654104802828
 21
30.488553872635428
 31
0.0
  0
LINE
  5
1E12
  8
0
 62
     0
 10
-60.731654104802828
 20
33.663553872635433
 30
0.0
 11
-60.731654104802828
 21
32.86980387263543
 31
0.0
  0
LINE
  5
1E13
  8
0
 62
     0
 10
-60.731654104802828
 20
36.044803872635441
 30
0.0
 11
-60.731654104802828
 21
35.251053872635431
 31
0.0
  0
LINE
  5
1E14
  8
0
 62
     0
 10
-60.731654104802828
 20
38.426053872635443
 30
0.0
 11
-60.731654104802828
 21
37.632303872635433
 31
0.0
  0
LINE
  5
1E15
  8
0
 62
     0
 10
-59.356839104802823
 20
26.519803872635439
 30
0.0
 11
-59.356839104802823
 21
25.72605387263544
 31
0.0
  0
LINE
  5
1E16
  8
0
 62
     0
 10
-59.356839104802823
 20
28.90105387263544
 30
0.0
 11
-59.356839104802823
 21
28.107303872635431
 31
0.0
  0
LINE
  5
1E17
  8
0
 62
     0
 10
-59.356839104802823
 20
31.282303872635431
 30
0.0
 11
-59.356839104802823
 21
30.488553872635428
 31
0.0
  0
LINE
  5
1E18
  8
0
 62
     0
 10
-59.356839104802823
 20
33.663553872635433
 30
0.0
 11
-59.356839104802823
 21
32.86980387263543
 31
0.0
  0
LINE
  5
1E19
  8
0
 62
     0
 10
-59.356839104802823
 20
36.044803872635441
 30
0.0
 11
-59.356839104802823
 21
35.251053872635431
 31
0.0
  0
LINE
  5
1E1A
  8
0
 62
     0
 10
-59.356839104802823
 20
38.426053872635443
 30
0.0
 11
-59.356839104802823
 21
37.632303872635433
 31
0.0
  0
LINE
  5
1E1B
  8
0
 62
     0
 10
-57.982024104802861
 20
26.519803872635439
 30
0.0
 11
-57.982024104802861
 21
25.72605387263544
 31
0.0
  0
LINE
  5
1E1C
  8
0
 62
     0
 10
-57.982024104802861
 20
28.90105387263544
 30
0.0
 11
-57.982024104802861
 21
28.107303872635431
 31
0.0
  0
LINE
  5
1E1D
  8
0
 62
     0
 10
-57.982024104802861
 20
31.282303872635431
 30
0.0
 11
-57.982024104802861
 21
30.488553872635428
 31
0.0
  0
LINE
  5
1E1E
  8
0
 62
     0
 10
-57.982024104802861
 20
33.663553872635433
 30
0.0
 11
-57.982024104802861
 21
32.86980387263543
 31
0.0
  0
LINE
  5
1E1F
  8
0
 62
     0
 10
-57.982024104802861
 20
36.044803872635441
 30
0.0
 11
-57.982024104802861
 21
35.251053872635431
 31
0.0
  0
LINE
  5
1E20
  8
0
 62
     0
 10
-57.982024104802861
 20
38.426053872635443
 30
0.0
 11
-57.982024104802861
 21
37.632303872635433
 31
0.0
  0
ENDBLK
  5
1E22
  8
0
  0
BLOCK
  8
0
  2
*X75
 70
     1
 10
0.0
 20
0.0
 30
0.0
  3
*X75
  1

  0
LINE
  5
22E3
  8
0
 62
     0
 10
-66.388750149734662
 20
22.926348626359491
 30
0.0
 11
-66.388750149734662
 21
19.123870539449811
 31
0.0
  0
LINE
  5
22E4
  8
0
 62
     0
 10
-65.277500149734664
 20
21.89327241559586
 30
0.0
 11
-65.277500149734664
 21
19.765451026086769
 31
0.0
  0
LINE
  5
22E5
  8
0
 62
     0
 10
-64.166250149734665
 20
22.265655060947239
 30
0.0
 11
-64.166250149734665
 21
20.025665812860382
 31
0.0
  0
LINE
  5
22E6
  8
0
 62
     0
 10
-63.05500014973466
 20
24.89690591464182
 30
0.0
 11
-63.05500014973466
 21
20.158713675901581
 31
0.0
  0
LINE
  5
22E7
  8
0
 62
     0
 10
-61.943750149734662
 20
24.9204055318583
 30
0.0
 11
-61.943750149734662
 21
22.524314825359049
 31
0.0
  0
LINE
  5
22E8
  8
0
 62
     0
 10
-60.832500149734663
 20
24.9204055318583
 30
0.0
 11
-60.832500149734663
 21
23.120405531858339
 31
0.0
  0
LINE
  5
22E9
  8
0
 62
     0
 10
-59.721250149734658
 20
24.92040553185829
 30
0.0
 11
-59.721250149734658
 21
23.120405531858339
 31
0.0
  0
LINE
  5
22EA
  8
0
 62
     0
 10
-58.61000014973466
 20
24.92040553185829
 30
0.0
 11
-58.61000014973466
 21
23.120405531858331
 31
0.0
  0
LINE
  5
22EB
  8
0
 62
     0
 10
-57.498750149734661
 20
24.92040553185829
 30
0.0
 11
-57.498750149734661
 21
23.120405531858321
 31
0.0
  0
LINE
  5
22EC
  8
0
 62
     0
 10
-56.387500149734663
 20
24.920405531858279
 30
0.0
 11
-56.387500149734663
 21
23.12040553185831
 31
0.0
  0
LINE
  5
22ED
  8
0
 62
     0
 10
-55.276250149734658
 20
24.920405531858279
 30
0.0
 11
-55.276250149734658
 21
23.12040553185831
 31
0.0
  0
LINE
  5
22EE
  8
0
 62
     0
 10
-54.165000149734666
 20
24.920405531858279
 30
0.0
 11
-54.165000149734666
 21
23.120405531858299
 31
0.0
  0
LINE
  5
22EF
  8
0
 62
     0
 10
-53.053750149734661
 20
24.920405531858268
 30
0.0
 11
-53.053750149734661
 21
23.120405531858289
 31
0.0
  0
LINE
  5
22F0
  8
0
 62
     0
 10
-51.942500149734663
 20
24.920405531858268
 30
0.0
 11
-51.942500149734663
 21
23.120405531858289
 31
0.0
  0
LINE
  5
22F1
  8
0
 62
     0
 10
-50.83125014973465
 20
24.920405531858261
 30
0.0
 11
-50.83125014973465
 21
23.120405531858289
 31
0.0
  0
LINE
  5
22F2
  8
0
 62
     0
 10
-49.720000149734659
 20
24.92040553185825
 30
0.0
 11
-49.720000149734659
 21
23.120405531858289
 31
0.0
  0
LINE
  5
22F3
  8
0
 62
     0
 10
-48.608750149734661
 20
24.92040553185825
 30
0.0
 11
-48.608750149734661
 21
23.120405531858289
 31
0.0
  0
LINE
  5
22F4
  8
0
 62
     0
 10
-47.497500149734663
 20
24.92040553185824
 30
0.0
 11
-47.497500149734663
 21
23.120405531858289
 31
0.0
  0
LINE
  5
22F5
  8
0
 62
     0
 10
-46.386250149734657
 20
24.92040553185824
 30
0.0
 11
-46.386250149734657
 21
23.120405531858289
 31
0.0
  0
LINE
  5
22F6
  8
0
 62
     0
 10
-45.275000149734659
 20
24.920405531858229
 30
0.0
 11
-45.275000149734659
 21
23.120405531858289
 31
0.0
  0
LINE
  5
22F7
  8
0
 62
     0
 10
-44.163750149734668
 20
24.920405531858218
 30
0.0
 11
-44.163750149734668
 21
23.120405531858289
 31
0.0
  0
LINE
  5
22F8
  8
0
 62
     0
 10
-43.052500149734662
 20
24.920405531858218
 30
0.0
 11
-43.052500149734662
 21
22.51401261376207
 31
0.0
  0
LINE
  5
22F9
  8
0
 62
     0
 10
-41.941250149734657
 20
24.89553942228088
 30
0.0
 11
-41.941250149734657
 21
20.1565688203316
 31
0.0
  0
LINE
  5
22FA
  8
0
 62
     0
 10
-40.830000149734673
 20
22.255352849350221
 30
0.0
 11
-40.830000149734673
 21
20.02566581286024
 31
0.0
  0
LINE
  5
22FB
  8
0
 62
     0
 10
-39.71875014973466
 20
21.895900192039829
 30
0.0
 11
-39.71875014973466
 21
19.763286136724389
 31
0.0
  0
LINE
  5
22FC
  8
0
 62
     0
 10
-38.607500149734662
 20
22.929648447825269
 30
0.0
 11
-38.607500149734662
 21
19.121705650087382
 31
0.0
  0
ENDBLK
  5
22FE
  8
0
  0
BLOCK
  8
0
  2
*X76
 70
     1
 10
0.0
 20
0.0
 30
0.0
  3
*X76
  1

  0
LINE
  5
2300
  8
0
 62
     0
 10
-63.373487880688742
 20
5.5562499999999986
 30
0.0
 11
-41.626512117149012
 21
5.5562499999999986
 31
0.0
  0
LINE
  5
2301
  8
0
 62
     0
 10
-63.777949803517039
 20
6.6674999999999978
 30
0.0
 11
-41.222050194320722
 21
6.6674999999999978
 31
0.0
  0
LINE
  5
2302
  8
0
 62
     0
 10
-42.945943816444178
 20
7.7787499999999978
 30
0.0
 11
-40.81756710564035
 21
7.7787499999999978
 31
0.0
  0
LINE
  5
2303
  8
0
 62
     0
 10
-64.182434157963854
 20
7.7787499999999978
 30
0.0
 11
-62.054056181393548
 21
7.7787499999999978
 31
0.0
  0
LINE
  5
2304
  8
0
 62
     0
 10
-39.631136872385092
 20
7.7787499999999978
 30
0.0
 11
-37.499999998918888
 21
7.7787499999999978
 31
0.0
  0
LINE
  5
2305
  8
0
 62
     0
 10
-67.499999998918895
 20
7.7787499999999978
 30
0.0
 11
-65.368863125452592
 21
7.7787499999999978
 31
0.0
  0
LINE
  5
2306
  8
0
 62
     0
 10
-42.541481893615853
 20
8.8899999999999988
 30
0.0
 11
-37.499999998918867
 21
8.8899999999999988
 31
0.0
  0
LINE
  5
2307
  8
0
 62
     0
 10
-67.499999998918895
 20
8.8899999999999988
 30
0.0
 11
-62.458518104221838
 21
8.8899999999999988
 31
0.0
  0
LINE
  5
2308
  8
0
 62
     0
 10
-40.242018994389092
 20
10.001250000000001
 30
0.0
 11
-37.499999998918859
 21
10.001250000000001
 31
0.0
  0
LINE
  5
2309
  8
0
 62
     0
 10
-67.499999998918895
 20
10.001250000000001
 30
0.0
 11
-64.757981003452329
 21
10.001250000000001
 31
0.0
  0
ENDBLK
  5
230B
  8
0
  0
BLOCK
  8
0
  2
*X77
 70
     1
 10
0.0
 20
0.0
 30
0.0
  3
*X77
  1

  0
LINE
  5
230D
  8
0
 62
     0
 10
-66.388750149734662
 20
22.926348626359491
 30
0.0
 11
-66.388750149734662
 21
19.123870539449811
 31
0.0
  0
LINE
  5
230E
  8
0
 62
     0
 10
-65.277500149734664
 20
21.89327241559586
 30
0.0
 11
-65.277500149734664
 21
19.765451026086769
 31
0.0
  0
LINE
  5
230F
  8
0
 62
     0
 10
-64.166250149734665
 20
22.265655060947239
 30
0.0
 11
-64.166250149734665
 21
20.025665812860382
 31
0.0
  0
LINE
  5
2310
  8
0
 62
     0
 10
-63.05500014973466
 20
24.89690591464182
 30
0.0
 11
-63.05500014973466
 21
20.158713675901581
 31
0.0
  0
LINE
  5
2311
  8
0
 62
     0
 10
-61.943750149734662
 20
24.9204055318583
 30
0.0
 11
-61.943750149734662
 21
22.524314825359049
 31
0.0
  0
LINE
  5
2312
  8
0
 62
     0
 10
-60.832500149734663
 20
24.9204055318583
 30
0.0
 11
-60.832500149734663
 21
23.120405531858339
 31
0.0
  0
LINE
  5
2313
  8
0
 62
     0
 10
-59.721250149734658
 20
24.92040553185829
 30
0.0
 11
-59.721250149734658
 21
23.120405531858339
 31
0.0
  0
LINE
  5
2314
  8
0
 62
     0
 10
-58.61000014973466
 20
24.92040553185829
 30
0.0
 11
-58.61000014973466
 21
23.120405531858331
 31
0.0
  0
LINE
  5
2315
  8
0
 62
     0
 10
-57.498750149734661
 20
24.92040553185829
 30
0.0
 11
-57.498750149734661
 21
23.120405531858321
 31
0.0
  0
LINE
  5
2316
  8
0
 62
     0
 10
-56.387500149734663
 20
24.920405531858279
 30
0.0
 11
-56.387500149734663
 21
23.12040553185831
 31
0.0
  0
LINE
  5
2317
  8
0
 62
     0
 10
-55.276250149734658
 20
24.920405531858279
 30
0.0
 11
-55.276250149734658
 21
23.12040553185831
 31
0.0
  0
LINE
  5
2318
  8
0
 62
     0
 10
-54.165000149734666
 20
24.920405531858279
 30
0.0
 11
-54.165000149734666
 21
23.120405531858299
 31
0.0
  0
LINE
  5
2319
  8
0
 62
     0
 10
-53.053750149734661
 20
24.920405531858268
 30
0.0
 11
-53.053750149734661
 21
23.120405531858289
 31
0.0
  0
LINE
  5
231A
  8
0
 62
     0
 10
-51.942500149734663
 20
24.920405531858268
 30
0.0
 11
-51.942500149734663
 21
23.120405531858289
 31
0.0
  0
LINE
  5
231B
  8
0
 62
     0
 10
-50.83125014973465
 20
24.920405531858261
 30
0.0
 11
-50.83125014973465
 21
23.120405531858289
 31
0.0
  0
LINE
  5
231C
  8
0
 62
     0
 10
-49.720000149734659
 20
24.92040553185825
 30
0.0
 11
-49.720000149734659
 21
23.120405531858289
 31
0.0
  0
LINE
  5
231D
  8
0
 62
     0
 10
-48.608750149734661
 20
24.92040553185825
 30
0.0
 11
-48.608750149734661
 21
23.120405531858289
 31
0.0
  0
LINE
  5
231E
  8
0
 62
     0
 10
-47.497500149734663
 20
24.92040553185824
 30
0.0
 11
-47.497500149734663
 21
23.120405531858289
 31
0.0
  0
LINE
  5
231F
  8
0
 62
     0
 10
-46.386250149734657
 20
24.92040553185824
 30
0.0
 11
-46.386250149734657
 21
23.120405531858289
 31
0.0
  0
LINE
  5
2320
  8
0
 62
     0
 10
-45.275000149734659
 20
24.920405531858229
 30
0.0
 11
-45.275000149734659
 21
23.120405531858289
 31
0.0
  0
LINE
  5
2321
  8
0
 62
     0
 10
-44.163750149734668
 20
24.920405531858218
 30
0.0
 11
-44.163750149734668
 21
23.120405531858289
 31
0.0
  0
LINE
  5
2322
  8
0
 62
     0
 10
-43.052500149734662
 20
24.920405531858218
 30
0.0
 11
-43.052500149734662
 21
22.51401261376207
 31
0.0
  0
LINE
  5
2323
  8
0
 62
     0
 10
-41.941250149734657
 20
24.89553942228088
 30
0.0
 11
-41.941250149734657
 21
20.1565688203316
 31
0.0
  0
LINE
  5
2324
  8
0
 62
     0
 10
-40.830000149734673
 20
22.255352849350221
 30
0.0
 11
-40.830000149734673
 21
20.02566581286024
 31
0.0
  0
LINE
  5
2325
  8
0
 62
     0
 10
-39.71875014973466
 20
21.895900192039829
 30
0.0
 11
-39.71875014973466
 21
19.763286136724389
 31
0.0
  0
LINE
  5
2326
  8
0
 62
     0
 10
-38.607500149734662
 20
22.929648447825269
 30
0.0
 11
-38.607500149734662
 21
19.121705650087382
 31
0.0
  0
ENDBLK
  5
2328
  8
0
  0
BLOCK
  8
0
  2
*X78
 70
     1
 10
0.0
 20
0.0
 30
0.0
  3
*X78
  1

  0
LINE
  5
232A
  8
0
 62
     0
 10
-63.373487880688742
 20
5.5562499999999986
 30
0.0
 11
-41.626512117149012
 21
5.5562499999999986
 31
0.0
  0
LINE
  5
232B
  8
0
 62
     0
 10
-63.777949803517039
 20
6.6674999999999978
 30
0.0
 11
-41.222050194320722
 21
6.6674999999999978
 31
0.0
  0
LINE
  5
232C
  8
0
 62
     0
 10
-42.945943816444178
 20
7.7787499999999978
 30
0.0
 11
-40.81756710564035
 21
7.7787499999999978
 31
0.0
  0
LINE
  5
232D
  8
0
 62
     0
 10
-64.182434157963854
 20
7.7787499999999978
 30
0.0
 11
-62.054056181393548
 21
7.7787499999999978
 31
0.0
  0
LINE
  5
232E
  8
0
 62
     0
 10
-39.631136872385092
 20
7.7787499999999978
 30
0.0
 11
-37.499999998918888
 21
7.7787499999999978
 31
0.0
  0
LINE
  5
232F
  8
0
 62
     0
 10
-67.499999998918895
 20
7.7787499999999978
 30
0.0
 11
-65.368863125452592
 21
7.7787499999999978
 31
0.0
  0
LINE
  5
2330
  8
0
 62
     0
 10
-42.541481893615853
 20
8.8899999999999988
 30
0.0
 11
-37.499999998918867
 21
8.8899999999999988
 31
0.0
  0
LINE
  5
2331
  8
0
 62
     0
 10
-67.499999998918895
 20
8.8899999999999988
 30
0.0
 11
-62.458518104221838
 21
8.8899999999999988
 31
0.0
  0
LINE
  5
2332
  8
0
 62
     0
 10
-40.242018994389092
 20
10.001250000000001
 30
0.0
 11
-37.499999998918859
 21
10.001250000000001
 31
0.0
  0
LINE
  5
2333
  8
0
 62
     0
 10
-67.499999998918895
 20
10.001250000000001
 30
0.0
 11
-64.757981003452329
 21
10.001250000000001
 31
0.0
  0
ENDBLK
  5
2335
  8
0
  0
ENDSEC
  0
SECTION
  2
ENTITIES
  0
INSERT
  5
7BD
  8
0
  2
*U73
 10
0.0
 20
0.0
 30
0.0
  0
LINE
  5
1042
  8
SAPA_GLAS
 10
-85.000000000480611
 20
-10.999999252920359
 30
0.0
 11
-81.900000000983027
 21
-10.999999252920359
 31
0.0
  0
LINE
  5
1043
  8
SAPA_GLAS
 10
-81.900000000983027
 20
-10.999999252920359
 30
0.0
 11
-81.900000000983013
 21
-19.99999925292413
 31
0.0
  0
LINE
  5
1044
  8
SAPA_GLAS
 10
-81.900000000983013
 20
-19.99999925292413
 30
0.0
 11
-85.000000000480611
 21
-19.99999925292413
 31
0.0
  0
ARC
  5
1045
  8
SAPA_GLAS
 10
-81.927472822962287
 20
-44.384360577524433
 30
0.0
 40
8.2592372925440731
 50
68.496628198933692
 51
111.83969482901929
  0
LINE
  5
14AF
  8
SAPA_GLAS
 10
-83.396440251907066
 20
8.1554699308655785
 30
0.0
 11
-82.262870722021489
 21
11.00000074710824
 31
0.0
  0
LINE
  5
14B0
  8
SAPA_GLAS
 10
-83.396440251906995
 20
-8.1554684367079773
 30
0.0
 11
-82.653051271135723
 21
-10.999999252923359
 31
0.0
  0
ARC
  5
14B1
  8
SAPA_GLAS
 10
-152.61988178597809
 20
-4.6958537633277473
 30
0.0
 40
61.941521467203017
 50
354.15856411527068
 51
14.678676835375621
  0
ARC
  5
14B2
  8
SAPA_GLAS
 10
-31.577137293194198
 20
0.0000007470788574
 30
0.0
 40
52.457142857141569
 50
171.05599162060719
 51
188.9440083793944
  0
POLYLINE
  5
14B3
  8
SAPA_ANSLUTNING
 66
     1
 10
0.0
 20
0.0
 30
0.0
  0
VERTEX
  5
1D1A
  8
SAPA_ANSLUTNING
 10
18.112957719598601
 20
38.005685743633776
 30
0.0
  0
VERTEX
  5
1D1B
  8
SAPA_ANSLUTNING
 10
18.11295771959837
 20
27.005683901321291
 30
0.0
 42
-0.9999999999999998
  0
VERTEX
  5
1D1C
  8
SAPA_ANSLUTNING
 10
14.112957719598599
 20
27.005683901321291
 30
0.0
  0
VERTEX
  5
1D1D
  8
SAPA_ANSLUTNING
 10
14.112957719598599
 20
38.005683901321291
 30
0.0
 42
0.9999999999999998
  0
VERTEX
  5
1D1E
  8
SAPA_ANSLUTNING
 10
10.11295771960291
 20
38.005683901321241
 30
0.0
  0
VERTEX
  5
1D1F
  8
SAPA_ANSLUTNING
 10
10.11295771960269
 20
27.005682059008748
 30
0.0
 42
-0.9999999999999998
  0
VERTEX
  5
1D20
  8
SAPA_ANSLUTNING
 10
6.1129577196029166
 20
27.005682059008748
 30
0.0
  0
VERTEX
  5
1D21
  8
SAPA_ANSLUTNING
 10
6.1129577196029166
 20
38.005682059008748
 30
0.0
 42
0.9999999999999998
  0
VERTEX
  5
1D22
  8
SAPA_ANSLUTNING
 10
2.1129577196072371
 20
38.005682059008748
 30
0.0
  0
VERTEX
  5
1D23
  8
SAPA_ANSLUTNING
 10
2.112957719607464
 20
27.005682059008748
 30
0.0
 42
-0.9999999999999998
  0
VERTEX
  5
1D24
  8
SAPA_ANSLUTNING
 10
-1.887042280392762
 20
27.005682059008748
 30
0.0
  0
VERTEX
  5
1D25
  8
SAPA_ANSLUTNING
 10
-1.8870422803925351
 20
38.005682059008748
 30
0.0
 42
0.9999999999999998
  0
VERTEX
  5
1D26
  8
SAPA_ANSLUTNING
 10
-5.8870422803882141
 20
38.005682059008748
 30
0.0
  0
VERTEX
  5
1D27
  8
SAPA_ANSLUTNING
 10
-5.8870422803879867
 20
27.005682059008748
 30
0.0
 42
-0.9999999999999998
  0
VERTEX
  5
1D28
  8
SAPA_ANSLUTNING
 10
-9.8870422803882132
 20
27.005682059008748
 30
0.0
  0
VERTEX
  5
1D29
  8
SAPA_ANSLUTNING
 10
-9.8870422803879876
 20
38.005682059008748
 30
0.0
 42
0.9999999999999998
  0
VERTEX
  5
1D2A
  8
SAPA_ANSLUTNING
 10
-13.887042280383669
 20
38.005682059008748
 30
0.0
  0
VERTEX
  5
1D2B
  8
SAPA_ANSLUTNING
 10
-13.88704228038344
 20
27.005682059008748
 30
0.0
 42
-0.9999999999999998
  0
VERTEX
  5
1D2C
  8
SAPA_ANSLUTNING
 10
-17.887042280383671
 20
27.005682059008748
 30
0.0
  0
VERTEX
  5
1D2D
  8
SAPA_ANSLUTNING
 10
-17.88704228038344
 20
38.005682059008748
 30
0.0
 42
0.9999999999999998
  0
VERTEX
  5
1D2E
  8
SAPA_ANSLUTNING
 10
-21.88704228037912
 20
38.005682059008748
 30
0.0
  0
VERTEX
  5
1D2F
  8
SAPA_ANSLUTNING
 10
-21.88704228037912
 20
27.005682059008748
 30
0.0
 42
-0.9999999999999998
  0
VERTEX
  5
1D30
  8
SAPA_ANSLUTNING
 10
-25.887042280378889
 20
27.005682059008748
 30
0.0
  0
VERTEX
  5
1D31
  8
SAPA_ANSLUTNING
 10
-25.887042280374569
 20
38.005682059008748
 30
0.0
 42
0.9999999999999998
  0
VERTEX
  5
1D32
  8
SAPA_ANSLUTNING
 10
-29.887042280374342
 20
38.005682059008748
 30
0.0
  0
VERTEX
  5
1D33
  8
SAPA_ANSLUTNING
 10
-29.887042280374342
 20
27.005682059008748
 30
0.0
 42
-0.9999999999999998
  0
VERTEX
  5
1D34
  8
SAPA_ANSLUTNING
 10
-33.887042280374573
 20
27.005682059008748
 30
0.0
  0
VERTEX
  5
1D35
  8
SAPA_ANSLUTNING
 10
-33.887042280374352
 20
38.005682059008748
 30
0.0
 42
0.9999987492793
  0
VERTEX
  5
1D36
  8
SAPA_ANSLUTNING
 10
-37.887042280363659
 20
38.005687061894683
 30
0.0
  0
VERTEX
  5
1D37
  8
SAPA_ANSLUTNING
 10
-37.887042280363893
 20
27.00568521958219
 30
0.0
 42
-0.9999999999999998
  0
VERTEX
  5
1D38
  8
SAPA_ANSLUTNING
 10
-41.887042280363659
 20
27.00568521958219
 30
0.0
  0
VERTEX
  5
1D39
  8
SAPA_ANSLUTNING
 10
-41.887042280363659
 20
38.00568521958219
 30
0.0
 42
0.9999999999999998
  0
VERTEX
  5
1D3A
  8
SAPA_ANSLUTNING
 10
-45.887042280359339
 20
38.005685219582141
 30
0.0
  0
VERTEX
  5
1D3B
  8
SAPA_ANSLUTNING
 10
-45.887042280359573
 20
27.005683377269651
 30
0.0
 42
-0.9999999999999998
  0
VERTEX
  5
1D3C
  8
SAPA_ANSLUTNING
 10
-49.887042280359339
 20
27.005683377269651
 30
0.0
  0
VERTEX
  5
1D3D
  8
SAPA_ANSLUTNING
 10
-49.887042280359339
 20
38.005683377269648
 30
0.0
 42
0.9999999999999998
  0
VERTEX
  5
1D3E
  8
SAPA_ANSLUTNING
 10
-53.887042280355018
 20
38.005683377269648
 30
0.0
  0
VERTEX
  5
1D3F
  8
SAPA_ANSLUTNING
 10
-53.887042280354791
 20
27.005683377269651
 30
0.0
 42
-0.6947281567971685
  0
VERTEX
  5
1D40
  8
SAPA_ANSLUTNING
 10
-57.400009796202227
 20
25.697658417266481
 30
0.0
  0
SEQEND
  5
1D41
  8
SAPA_ANSLUTNING
  0
POLYLINE
  5
14B4
  8
SAPA_ANSLUTNING
 66
     1
 10
0.0
 20
0.0
 30
0.0
  0
VERTEX
  5
1D42
  8
SAPA_ANSLUTNING
 10
-72.480494727145583
 20
25.06783085752004
 30
0.0
  0
VERTEX
  5
1D43
  8
SAPA_ANSLUTNING
 10
-57.480494727145611
 20
25.11398893448499
 30
0.0
  0
VERTEX
  5
1D44
  8
SAPA_ANSLUTNING
 10
-57.480494727145611
 20
40.005682059008713
 30
0.0
  0
VERTEX
  5
1D45
  8
SAPA_ANSLUTNING
 10
-72.480494727145583
 20
40.005682059008713
 30
0.0
  0
VERTEX
  5
1D46
  8
SAPA_ANSLUTNING
 10
-72.480494727145583
 20
25.06783085752004
 30
0.0
  0
SEQEND
  5
1D47
  8
SAPA_ANSLUTNING
  0
INSERT
  5
14B5
  8
SAPA_ANSLUTNING
  2
*X14
 10
-632.61526454994703
 20
-611.73494057674793
 30
0.0
  0
ARC
  5
14B6
  8
SAPA_ANSLUTNING
 10
23.569103473349148
 20
32.887809662173701
 30
0.0
 40
8.6522224087403927
 50
294.26546463095372
 51
54.905237923328862
  0
INSERT
  5
14B7
  8
SAPA_ANSLUTNING
  2
*X13
 10
-632.61526454994703
 20
-611.73494057674793
 30
0.0
  0
ARC
  5
14B8
  8
SAPA_ANSLUTNING
 10
26.736591691074501
 20
32.887532225119102
 30
0.0
 40
8.6517977492931522
 50
125.0834086103729
 51
245.73630323658591
  0
ARC
  5
14B9
  8
SAPA_ANSLUTNING
 10
53.483870312700112
 20
33.0011080452242
 30
0.0
 40
12.40812266731845
 50
145.66314081641681
 51
220.15279281635929
  0
INSERT
  5
14BA
  8
SAPA_ANSLUTNING
  6
CONTINUOUS
  2
*X74
 10
0.0
 20
0.0
 30
0.0
1001
ACAD
1000
HATCH
1002
{
1070
    19
1000
HEX
1040
0.25
1040
-1.5707963267948959
1000
R14_HATCH_DATA
1000
14BA
1011
1.0
1021
0.0
1031
0.0
1021
0.0
1031
0.0
1011
0.0
1021
0.0
1031
0.0
1021
1.0
1031
0.0
1011
0.0
1021
0.0
1031
0.0
1021
0.0
1031
1.0
1040
0.0
1010
0.0
1020
0.0
1030
1.0
1000
HEX
1070
     0
1070
     0
1071
        1
1071
        7
1070
     0
1070
     1
1071
        4
1040
-72.48049472714564
1040
25.06783085752004
1040
-57.480494727145611
1040
25.11398893448499
1040
-57.480494727145611
1040
40.005682059008713
1040
-72.480494727145583
1040
40.005682059008713
1071
        0
1070
     0
1070
     1
1040
-1.5707963267948959
1040
0.25
1070
     0
1070
     3
1040
4.7123889803846888
1040
-326.07094910480282
1040
36.044803872635477
1040
1.374814999999999
1040
-0.0000000000000003
1070
     2
1040
0.79375
1040
-1.587499999999999
1040
0.5235987755982982
1040
-326.07094910480282
1040
36.044803872635477
1040
-0.6874074999999995
1040
1.1906247155039029
1070
     2
1040
0.7937499999999983
1040
-1.5874999999999959
1040
5.7595865315812871
1040
-326.07094910480282
1040
35.251053872635502
1040
0.6874075000000003
1040
1.190624715503902
1070
     2
1040
0.7937499999999998
1040
-1.587499999999999
1040
0.0491501688804417
1071
        1
1040
-62.653134327899942
1040
24.914516786621611
1040
0.0
1002
}
  0
LINE
  5
14BB
  8
SAPA_ANSLUTNING
 62
     3
 10
58.822858504106883
 20
40.000001120616432
 30
0.0
 11
-95.524445940289809
 21
40.00000112061646
 31
0.0
  0
LINE
  5
17D3
  8
SAPA_GLAS
 10
-82.842048968584166
 20
11.00000074710721
 30
0.0
 11
-82.427908995456747
 21
10.585860773979761
 31
0.0
1001
GRADIENTCOLOR1ACI
1070
     5
1001
GRADIENTCOLOR2ACI
1070
     2
1001
ACAD
1010
0.0
1020
0.0
1030
0.0
  0
LINE
  5
17D4
  8
SAPA_GLAS
 10
-83.964580983715962
 20
11.000000747105339
 30
0.0
 11
-82.747777268743235
 21
9.7831970321326267
 31
0.0
1001
GRADIENTCOLOR1ACI
1070
     5
1001
GRADIENTCOLOR2ACI
1070
     2
1001
ACAD
1010
0.0
1020
0.0
1030
0.0
  0
LINE
  5
17D5
  8
SAPA_GLAS
 10
-85.087112998847743
 20
11.000000747103471
 30
0.0
 11
-83.067645542029766
 21
8.9805332902854982
 31
0.0
1001
GRADIENTCOLOR1ACI
1070
     5
1001
GRADIENTCOLOR2ACI
1070
     2
1001
ACAD
1010
0.0
1020
0.0
1030
0.0
  0
LINE
  5
17D6
  8
SAPA_GLAS
 10
-86.209645013979525
 20
11.000000747101611
 30
0.0
 11
-83.387513815316268
 21
8.1778695484383661
 31
0.0
1001
GRADIENTCOLOR1ACI
1070
     5
1001
GRADIENTCOLOR2ACI
1070
     2
1001
ACAD
1010
0.0
1020
0.0
1030
0.0
  0
LINE
  5
17D7
  8
SAPA_GLAS
 10
-87.332177029111307
 20
11.00000074709974
 30
0.0
 11
-83.537127019605208
 21
7.2049507375936548
 31
0.0
1001
GRADIENTCOLOR1ACI
1070
     5
1001
GRADIENTCOLOR2ACI
1070
     2
1001
ACAD
1010
0.0
1020
0.0
1030
0.0
  0
LINE
  5
17D8
  8
SAPA_GLAS
 10
-88.454709044243074
 20
11.00000074709788
 30
0.0
 11
-83.665331754897565
 21
6.2106234577523622
 31
0.0
1001
GRADIENTCOLOR1ACI
1070
     5
1001
GRADIENTCOLOR2ACI
1070
     2
1001
ACAD
1010
0.0
1020
0.0
1030
0.0
  0
LINE
  5
17D9
  8
SAPA_GLAS
 10
-89.57724105937487
 20
11.00000074709601
 30
0.0
 11
-83.776030265416537
 21
5.1987899531377053
 31
0.0
1001
GRADIENTCOLOR1ACI
1070
     5
1001
GRADIENTCOLOR2ACI
1070
     2
1001
ACAD
1010
0.0
1020
0.0
1030
0.0
  0
LINE
  5
17DA
  8
SAPA_GLAS
 10
-90.699773074506652
 20
11.000000747094161
 30
0.0
 11
-83.868384332397767
 21
4.1686120049852704
 31
0.0
1001
GRADIENTCOLOR1ACI
1070
     5
1001
GRADIENTCOLOR2ACI
1070
     2
1001
ACAD
1010
0.0
1020
0.0
1030
0.0
  0
LINE
  5
17DB
  8
SAPA_GLAS
 10
-91.822305089638419
 20
11.00000074709228
 30
0.0
 11
-83.941463756407629
 21
3.119159413861488
 31
0.0
1001
GRADIENTCOLOR1ACI
1070
     5
1001
GRADIENTCOLOR2ACI
1070
     2
1001
ACAD
1010
0.0
1020
0.0
1030
0.0
  0
LINE
  5
17DC
  8
SAPA_GLAS
 10
-92.614420326426782
 20
10.669583968747
 30
0.0
 11
-83.994231998124235
 21
2.0493956404444651
 31
0.0
1001
GRADIENTCOLOR1ACI
1070
     5
1001
GRADIENTCOLOR2ACI
1070
     2
1001
ACAD
1010
0.0
1020
0.0
1030
0.0
  0
LINE
  5
17DD
  8
SAPA_GLAS
 10
-92.254118351641964
 20
9.1867499788285443
 30
0.0
 11
-84.025528754226556
 21
0.9581603814131227
 31
0.0
1001
GRADIENTCOLOR1ACI
1070
     5
1001
GRADIENTCOLOR2ACI
1070
     2
1001
ACAD
1010
0.0
1020
0.0
1030
0.0
  0
LINE
  5
17DE
  8
SAPA_GLAS
 10
-91.942049757504606
 20
7.7521493695575421
 30
0.0
 11
-84.034048627454453
 21
-0.1558517604926095
 31
0.0
1001
GRADIENTCOLOR1ACI
1070
     5
1001
GRADIENTCOLOR2ACI
1070
     2
1001
ACAD
1010
0.0
1020
0.0
1030
0.0
  0
LINE
  5
17DF
  8
SAPA_GLAS
 10
-91.673148035326335
 20
6.3607156322456291
 30
0.0
 11
-84.018314762168146
 21
-1.294117640912567
 31
0.0
1001
GRADIENTCOLOR1ACI
1070
     5
1001
GRADIENTCOLOR2ACI
1070
     2
1001
ACAD
1010
0.0
1020
0.0
1030
0.0
  0
LINE
  5
17E0
  8
SAPA_GLAS
 10
-91.44323557904471
 20
5.0082711608303461
 30
0.0
 11
-83.976645908907784
 21
-2.4583185093065651
 31
0.0
1001
GRADIENTCOLOR1ACI
1070
     5
1001
GRADIENTCOLOR2ACI
1070
     2
1001
ACAD
1010
0.0
1020
0.0
1030
0.0
  0
LINE
  5
17E1
  8
SAPA_GLAS
 10
-91.248818930154926
 20
3.691322496806932
 30
0.0
 11
-83.907114793307514
 21
-3.6503816400404778
 31
0.0
1001
GRADIENTCOLOR1ACI
1070
     5
1001
GRADIENTCOLOR2ACI
1070
     2
1001
ACAD
1010
0.0
1020
0.0
1030
0.0
  0
LINE
  5
17E2
  8
SAPA_GLAS
 10
-91.086941086551576
 20
2.4069126380699331
 30
0.0
 11
-83.80749480010445
 21
-4.8725336483771988
 31
0.0
1001
GRADIENTCOLOR1ACI
1070
     5
1001
GRADIENTCOLOR2ACI
1070
     2
1001
ACAD
1010
0.0
1020
0.0
1030
0.0
  0
LINE
  5
17E3
  8
SAPA_GLAS
 10
-90.955072545966132
 20
1.152512082350845
 30
0.0
 11
-83.675190684564555
 21
-6.1273697790507313
 31
0.0
1001
GRADIENTCOLOR1ACI
1070
     5
1001
GRADIENTCOLOR2ACI
1070
     2
1001
ACAD
1010
0.0
1020
0.0
1030
0.0
  0
LINE
  5
17E4
  8
SAPA_GLAS
 10
-90.851029334737206
 20
-0.0740631440117241
 30
0.0
 11
-83.507147026693204
 21
-7.4179454520557178
 31
0.0
1001
GRADIENTCOLOR1ACI
1070
     5
1001
GRADIENTCOLOR2ACI
1070
     2
1001
ACAD
1010
0.0
1020
0.0
1030
0.0
  0
LINE
  5
17E5
  8
SAPA_GLAS
 10
-90.772910268071016
 20
-1.2747142258115569
 30
0.0
 11
-83.221054820512649
 21
-8.8265696733699457
 31
0.0
1001
GRADIENTCOLOR1ACI
1070
     5
1001
GRADIENTCOLOR2ACI
1070
     2
1001
ACAD
1010
0.0
1020
0.0
1030
0.0
  0
LINE
  5
17E6
  8
SAPA_GLAS
 10
-90.719048192638141
 20
-2.451108316378082
 30
0.0
 11
-82.823900322640782
 21
-10.346256186375429
 31
0.0
1001
GRADIENTCOLOR1ACI
1070
     5
1001
GRADIENTCOLOR2ACI
1070
     2
1001
ACAD
1010
0.0
1020
0.0
1030
0.0
  0
LINE
  5
17E7
  8
SAPA_GLAS
 10
-90.687971577103383
 20
-3.6047169470464899
 30
0.0
 11
-83.292689271226536
 21
-10.999999252923351
 31
0.0
1001
GRADIENTCOLOR1ACI
1070
     5
1001
GRADIENTCOLOR2ACI
1070
     2
1001
ACAD
1010
0.0
1020
0.0
1030
0.0
  0
LINE
  5
17E8
  8
SAPA_GLAS
 10
-90.678373883322735
 20
-4.7368466559607958
 30
0.0
 11
-84.415221286360165
 21
-10.999999252923359
 31
0.0
1001
GRADIENTCOLOR1ACI
1070
     5
1001
GRADIENTCOLOR2ACI
1070
     2
1001
ACAD
1010
0.0
1020
0.0
1030
0.0
  0
LINE
  5
17E9
  8
SAPA_GLAS
 10
-90.68908887193362
 20
-5.8486636824835321
 30
0.0
 11
-85.537753301493808
 21
-10.999999252923351
 31
0.0
1001
GRADIENTCOLOR1ACI
1070
     5
1001
GRADIENTCOLOR2ACI
1070
     2
1001
ACAD
1010
0.0
1020
0.0
1030
0.0
  0
LINE
  5
17EA
  8
SAPA_GLAS
 10
-90.719070492946344
 20
-6.9412140766044521
 30
0.0
 11
-86.660285316627437
 21
-10.999999252923359
 31
0.0
1001
GRADIENTCOLOR1ACI
1070
     5
1001
GRADIENTCOLOR2ACI
1070
     2
1001
ACAD
1010
0.0
1020
0.0
1030
0.0
  0
LINE
  5
17EB
  8
SAPA_GLAS
 10
-90.767376360560888
 20
-8.0154402241235587
 30
0.0
 11
-87.782817331761095
 21
-10.999999252923351
 31
0.0
1001
GRADIENTCOLOR1ACI
1070
     5
1001
GRADIENTCOLOR2ACI
1070
     2
1001
ACAD
1010
0.0
1020
0.0
1030
0.0
  0
LINE
  5
17EC
  8
SAPA_GLAS
 10
-90.833154060031418
 20
-9.0721945397866701
 30
0.0
 11
-88.905349346894738
 21
-10.999999252923359
 31
0.0
1001
GRADIENTCOLOR1ACI
1070
     5
1001
GRADIENTCOLOR2ACI
1070
     2
1001
ACAD
1010
0.0
1020
0.0
1030
0.0
  0
LINE
  5
17ED
  8
SAPA_GLAS
 10
-90.915629714318158
 20
-10.112250900633571
 30
0.0
 11
-90.027881362028381
 21
-10.999999252923351
 31
0.0
1001
GRADIENTCOLOR1ACI
1070
     5
1001
GRADIENTCOLOR2ACI
1070
     2
1001
ACAD
1010
0.0
1020
0.0
1030
0.0
  0
LINE
  5
17EE
  8
SAPA_GLAS
 10
-92.612166510853527
 20
10.66077962851794
 30
0.0
 11
-92.272945392279965
 21
11.00000074709153
 31
0.0
1001
GRADIENTCOLOR1ACI
1070
     5
1001
GRADIENTCOLOR2ACI
1070
     2
1001
ACAD
1010
0.0
1020
0.0
1030
0.0
  0
LINE
  5
17EF
  8
SAPA_GLAS
 10
-92.389131438869313
 20
9.7612826853685206
 30
0.0
 11
-91.150413377144446
 21
11.00000074709339
 31
0.0
1001
GRADIENTCOLOR1ACI
1070
     5
1001
GRADIENTCOLOR2ACI
1070
     2
1001
ACAD
1010
0.0
1020
0.0
1030
0.0
  0
LINE
  5
17F0
  8
SAPA_GLAS
 10
-92.177702333036876
 20
8.8501797760673284
 30
0.0
 11
-90.027881362008941
 21
11.00000074709526
 31
0.0
1001
GRADIENTCOLOR1ACI
1070
     5
1001
GRADIENTCOLOR2ACI
1070
     2
1001
ACAD
1010
0.0
1020
0.0
1030
0.0
  0
LINE
  5
17F1
  8
SAPA_GLAS
 10
-91.978211701009073
 20
7.9271383929614814
 30
0.0
 11
-88.905349346873436
 21
11.00000074709712
 31
0.0
1001
GRADIENTCOLOR1ACI
1070
     5
1001
GRADIENTCOLOR2ACI
1070
     2
1001
ACAD
1010
0.0
1020
0.0
1030
0.0
  0
LINE
  5
17F2
  8
SAPA_GLAS
 10
-91.791016897874414
 20
6.9918011809625114
 30
0.0
 11
-87.782817331737917
 21
11.000000747098991
 31
0.0
1001
GRADIENTCOLOR1ACI
1070
     5
1001
GRADIENTCOLOR2ACI
1070
     2
1001
ACAD
1010
0.0
1020
0.0
1030
0.0
  0
LINE
  5
17F3
  8
SAPA_GLAS
 10
-91.616502587486522
 20
6.0437834762167517
 30
0.0
 11
-86.660285316602412
 21
11.000000747100851
 31
0.0
1001
GRADIENTCOLOR1ACI
1070
     5
1001
GRADIENTCOLOR2ACI
1070
     2
1001
ACAD
1010
0.0
1020
0.0
1030
0.0
  0
LINE
  5
17F4
  8
SAPA_GLAS
 10
-91.455083538134588
 20
5.0826705104350216
 30
0.0
 11
-85.537753301466907
 21
11.000000747102719
 31
0.0
1001
GRADIENTCOLOR1ACI
1070
     5
1001
GRADIENTCOLOR2ACI
1070
     2
1001
ACAD
1010
0.0
1020
0.0
1030
0.0
  0
LINE
  5
17F5
  8
SAPA_GLAS
 10
-91.307207809579126
 20
4.1080142238568618
 30
0.0
 11
-84.415221286331374
 21
11.000000747104581
 31
0.0
1001
GRADIENTCOLOR1ACI
1070
     5
1001
GRADIENTCOLOR2ACI
1070
     2
1001
ACAD
1010
0.0
1020
0.0
1030
0.0
  0
LINE
  5
17F6
  8
SAPA_GLAS
 10
-91.173360400389868
 20
3.1193296179124772
 30
0.0
 11
-83.292689271195883
 21
11.00000074710645
 31
0.0
1001
GRADIENTCOLOR1ACI
1070
     5
1001
GRADIENTCOLOR2ACI
1070
     2
1001
ACAD
1010
0.0
1020
0.0
1030
0.0
  0
LINE
  5
17F7
  8
SAPA_GLAS
 10
-91.054067439405955
 20
2.1160905637627181
 30
0.0
 11
-82.324296518654947
 21
10.84586148451374
 31
0.0
1001
GRADIENTCOLOR1ACI
1070
     5
1001
GRADIENTCOLOR2ACI
1070
     2
1001
ACAD
1010
0.0
1020
0.0
1030
0.0
  0
LINE
  5
17F8
  8
SAPA_GLAS
 10
-90.949901023858686
 20
1.0977249641763569
 30
0.0
 11
-83.068011820002184
 21
8.9796141680328674
 31
0.0
1001
GRADIENTCOLOR1ACI
1070
     5
1001
GRADIENTCOLOR2ACI
1070
     2
1001
ACAD
1010
0.0
1020
0.0
1030
0.0
  0
LINE
  5
17F9
  8
SAPA_GLAS
 10
-90.861484830420707
 20
0.0636091424806935
 30
0.0
 11
-83.507147026694099
 21
7.4179469462073007
 31
0.0
1001
GRADIENTCOLOR1ACI
1070
     5
1001
GRADIENTCOLOR2ACI
1070
     2
1001
ACAD
1010
0.0
1020
0.0
1030
0.0
  0
LINE
  5
17FA
  8
SAPA_GLAS
 10
-90.789500655744263
 20
-0.9869386979764983
 30
0.0
 11
-83.675190684565251
 21
6.127371273202491
 31
0.0
1001
GRADIENTCOLOR1ACI
1070
     5
1001
GRADIENTCOLOR2ACI
1070
     2
1001
ACAD
1010
0.0
1020
0.0
1030
0.0
  0
LINE
  5
17FB
  8
SAPA_GLAS
 10
-90.734696082068623
 20
-2.0546661394345231
 30
0.0
 11
-83.807494800104976
 21
4.8725351425291228
 31
0.0
1001
GRADIENTCOLOR1ACI
1070
     5
1001
GRADIENTCOLOR2ACI
1070
     2
1001
ACAD
1010
0.0
1020
0.0
1030
0.0
  0
LINE
  5
17FC
  8
SAPA_GLAS
 10
-90.697893514180279
 20
-3.1403955866798152
 30
0.0
 11
-83.907114793307926
 21
3.6503831341925439
 31
0.0
1001
GRADIENTCOLOR1ACI
1070
     5
1001
GRADIENTCOLOR2ACI
1070
     2
1001
ACAD
1010
0.0
1020
0.0
1030
0.0
  0
LINE
  5
17FD
  8
SAPA_GLAS
 10
-90.680000900526579
 20
-4.2450349881597509
 30
0.0
 11
-83.976645908908026
 21
2.45832000345878
 31
0.0
1001
GRADIENTCOLOR1ACI
1070
     5
1001
GRADIENTCOLOR2ACI
1070
     2
1001
ACAD
1010
0.0
1020
0.0
1030
0.0
  0
LINE
  5
17FE
  8
SAPA_GLAS
 10
-90.682024539460613
 20
-5.3695906422274362
 30
0.0
 11
-84.018314762168274
 21
1.2941191350649031
 31
0.0
1001
GRADIENTCOLOR1ACI
1070
     5
1001
GRADIENTCOLOR2ACI
1070
     2
1001
ACAD
1010
0.0
1020
0.0
1030
0.0
  0
LINE
  5
17FF
  8
SAPA_GLAS
 10
-90.70508448979021
 20
-6.5151826076906607
 30
0.0
 11
-84.034048627454453
 21
0.1558532546450735
 31
0.0
1001
GRADIENTCOLOR1ACI
1070
     5
1001
GRADIENTCOLOR2ACI
1070
     2
1001
ACAD
1010
0.0
1020
0.0
1030
0.0
  0
LINE
  5
1800
  8
SAPA_GLAS
 10
-90.750433265167075
 20
-7.6830633982011767
 30
0.0
 11
-84.025528754226443
 21
-0.9581588872605522
 31
0.0
1001
GRADIENTCOLOR1ACI
1070
     5
1001
GRADIENTCOLOR2ACI
1070
     2
1001
ACAD
1010
0.0
1020
0.0
1030
0.0
  0
LINE
  5
1801
  8
SAPA_GLAS
 10
-90.819478712302967
 20
-8.8746408604706843
 30
0.0
 11
-83.994231998124036
 21
-2.049394146291788
 31
0.0
1001
GRADIENTCOLOR1ACI
1070
     5
1001
GRADIENTCOLOR2ACI
1070
     2
1001
ACAD
1010
0.0
1020
0.0
1030
0.0
  0
LINE
  5
1802
  8
SAPA_GLAS
 10
-90.913812280422135
 20
-10.091506443723519
 30
0.0
 11
-83.941463756407316
 21
-3.1191579197087052
 31
0.0
1001
GRADIENTCOLOR1ACI
1070
     5
1001
GRADIENTCOLOR2ACI
1070
     2
1001
ACAD
1010
0.0
1020
0.0
1030
0.0
  0
LINE
  5
1803
  8
SAPA_GLAS
 10
-90.69977307448832
 20
-10.999999252923351
 30
0.0
 11
-83.868384332397355
 21
-4.1686105108323872
 31
0.0
1001
GRADIENTCOLOR1ACI
1070
     5
1001
GRADIENTCOLOR2ACI
1070
     2
1001
ACAD
1010
0.0
1020
0.0
1030
0.0
  0
LINE
  5
1804
  8
SAPA_GLAS
 10
-89.577241059354677
 20
-10.999999252923351
 30
0.0
 11
-83.776030265416054
 21
-5.1987884589847582
 31
0.0
1001
GRADIENTCOLOR1ACI
1070
     5
1001
GRADIENTCOLOR2ACI
1070
     2
1001
ACAD
1010
0.0
1020
0.0
1030
0.0
  0
LINE
  5
1805
  8
SAPA_GLAS
 10
-88.454709044221033
 20
-10.999999252923351
 30
0.0
 11
-83.665331754897011
 21
-6.2106219635993289
 31
0.0
1001
GRADIENTCOLOR1ACI
1070
     5
1001
GRADIENTCOLOR2ACI
1070
     2
1001
ACAD
1010
0.0
1020
0.0
1030
0.0
  0
LINE
  5
1806
  8
SAPA_GLAS
 10
-87.332177029087376
 20
-10.999999252923359
 30
0.0
 11
-83.537127019604597
 21
-7.2049492434405451
 31
0.0
1001
GRADIENTCOLOR1ACI
1070
     5
1001
GRADIENTCOLOR2ACI
1070
     2
1001
ACAD
1010
0.0
1020
0.0
1030
0.0
  0
LINE
  5
1807
  8
SAPA_GLAS
 10
-86.209645013953747
 20
-10.999999252923359
 30
0.0
 11
-83.389949737960848
 21
-8.1803039769304533
 31
0.0
1001
GRADIENTCOLOR1ACI
1070
     5
1001
GRADIENTCOLOR2ACI
1070
     2
1001
ACAD
1010
0.0
1020
0.0
1030
0.0
  0
LINE
  5
1808
  8
SAPA_GLAS
 10
-85.087112998820103
 20
-10.999999252923359
 30
0.0
 11
-83.157369864989846
 21
-9.070256119093095
 31
0.0
1001
GRADIENTCOLOR1ACI
1070
     5
1001
GRADIENTCOLOR2ACI
1070
     2
1001
ACAD
1010
0.0
1020
0.0
1030
0.0
  0
LINE
  5
1809
  8
SAPA_GLAS
 10
-83.964580983686446
 20
-10.999999252923351
 30
0.0
 11
-82.924789992018816
 21
-9.9602082612557226
 31
0.0
1001
GRADIENTCOLOR1ACI
1070
     5
1001
GRADIENTCOLOR2ACI
1070
     2
1001
ACAD
1010
0.0
1020
0.0
1030
0.0
  0
LINE
  5
180A
  8
SAPA_GLAS
 10
-82.842048968552803
 20
-10.999999252923351
 30
0.0
 11
-82.692210119047814
 21
-10.850160403418361
 31
0.0
1001
GRADIENTCOLOR1ACI
1070
     5
1001
GRADIENTCOLOR2ACI
1070
     2
1001
ACAD
1010
0.0
1020
0.0
1030
0.0
  0
LINE
  5
1810
  8
SAPA_GLAS
 10
-85.000000000480611
 20
-12.37333795965
 30
0.0
 11
-84.931249999999991
 21
-12.37333795965
 31
0.0
1001
GRADIENTCOLOR1ACI
1070
     5
1001
GRADIENTCOLOR2ACI
1070
     2
1001
ACAD
1010
0.0
1020
0.0
1030
0.0
  0
LINE
  5
1811
  8
SAPA_GLAS
 10
-83.343749999999986
 20
-12.37333795965
 30
0.0
 11
-82.549999999999983
 21
-12.37333795965
 31
0.0
1001
GRADIENTCOLOR1ACI
1070
     5
1001
GRADIENTCOLOR2ACI
1070
     2
1001
ACAD
1010
0.0
1020
0.0
1030
0.0
  0
LINE
  5
1812
  8
SAPA_GLAS
 10
-85.000000000480611
 20
-13.748153288499999
 30
0.0
 11
-84.931249999999991
 21
-13.748153288499999
 31
0.0
1001
GRADIENTCOLOR1ACI
1070
     5
1001
GRADIENTCOLOR2ACI
1070
     2
1001
ACAD
1010
0.0
1020
0.0
1030
0.0
  0
LINE
  5
1813
  8
SAPA_GLAS
 10
-83.343749999999986
 20
-13.748153288499999
 30
0.0
 11
-82.549999999999983
 21
-13.748153288499999
 31
0.0
1001
GRADIENTCOLOR1ACI
1070
     5
1001
GRADIENTCOLOR2ACI
1070
     2
1001
ACAD
1010
0.0
1020
0.0
1030
0.0
  0
LINE
  5
1814
  8
SAPA_GLAS
 10
-85.000000000480611
 20
-15.122968617350001
 30
0.0
 11
-84.931249999999991
 21
-15.122968617350001
 31
0.0
1001
GRADIENTCOLOR1ACI
1070
     5
1001
GRADIENTCOLOR2ACI
1070
     2
1001
ACAD
1010
0.0
1020
0.0
1030
0.0
  0
LINE
  5
1815
  8
SAPA_GLAS
 10
-83.343749999999986
 20
-15.122968617350001
 30
0.0
 11
-82.549999999999983
 21
-15.122968617350001
 31
0.0
1001
GRADIENTCOLOR1ACI
1070
     5
1001
GRADIENTCOLOR2ACI
1070
     2
1001
ACAD
1010
0.0
1020
0.0
1030
0.0
  0
LINE
  5
1816
  8
SAPA_GLAS
 10
-85.000000000480611
 20
-16.497783946199998
 30
0.0
 11
-84.931249999999991
 21
-16.497783946199998
 31
0.0
1001
GRADIENTCOLOR1ACI
1070
     5
1001
GRADIENTCOLOR2ACI
1070
     2
1001
ACAD
1010
0.0
1020
0.0
1030
0.0
  0
LINE
  5
1817
  8
SAPA_GLAS
 10
-83.343749999999986
 20
-16.497783946199998
 30
0.0
 11
-82.549999999999983
 21
-16.497783946199998
 31
0.0
1001
GRADIENTCOLOR1ACI
1070
     5
1001
GRADIENTCOLOR2ACI
1070
     2
1001
ACAD
1010
0.0
1020
0.0
1030
0.0
  0
LINE
  5
1818
  8
SAPA_GLAS
 10
-85.000000000480611
 20
-17.872599275049989
 30
0.0
 11
-84.931249999999991
 21
-17.872599275049989
 31
0.0
1001
GRADIENTCOLOR1ACI
1070
     5
1001
GRADIENTCOLOR2ACI
1070
     2
1001
ACAD
1010
0.0
1020
0.0
1030
0.0
  0
LINE
  5
1819
  8
SAPA_GLAS
 10
-83.343749999999986
 20
-17.872599275049989
 30
0.0
 11
-82.549999999999983
 21
-17.872599275049989
 31
0.0
1001
GRADIENTCOLOR1ACI
1070
     5
1001
GRADIENTCOLOR2ACI
1070
     2
1001
ACAD
1010
0.0
1020
0.0
1030
0.0
  0
LINE
  5
181A
  8
SAPA_GLAS
 10
-85.000000000480611
 20
-19.247414603900001
 30
0.0
 11
-84.931249999999991
 21
-19.247414603900001
 31
0.0
1001
GRADIENTCOLOR1ACI
1070
     5
1001
GRADIENTCOLOR2ACI
1070
     2
1001
ACAD
1010
0.0
1020
0.0
1030
0.0
  0
LINE
  5
181B
  8
SAPA_GLAS
 10
-83.343749999999986
 20
-19.247414603900001
 30
0.0
 11
-82.549999999999983
 21
-19.247414603900001
 31
0.0
1001
GRADIENTCOLOR1ACI
1070
     5
1001
GRADIENTCOLOR2ACI
1070
     2
1001
ACAD
1010
0.0
1020
0.0
1030
0.0
  0
LINE
  5
181C
  8
SAPA_GLAS
 10
-83.70299507124048
 20
-19.999999252924141
 30
0.0
 11
-83.740625017781426
 21
-19.934822273629131
 31
0.0
1001
GRADIENTCOLOR1ACI
1070
     5
1001
GRADIENTCOLOR2ACI
1070
     2
1001
ACAD
1010
0.0
1020
0.0
1030
0.0
  0
LINE
  5
181D
  8
SAPA_GLAS
 10
-84.534375017781429
 20
-18.560006945121341
 30
0.0
 11
-84.931250017781423
 21
-17.872599280867441
 31
0.0
1001
GRADIENTCOLOR1ACI
1070
     5
1001
GRADIENTCOLOR2ACI
1070
     2
1001
ACAD
1010
0.0
1020
0.0
1030
0.0
  0
LINE
  5
181E
  8
SAPA_GLAS
 10
-82.153125017485067
 20
-19.934822273458021
 30
0.0
 11
-82.550000017485061
 21
-19.247414609204132
 31
0.0
1001
GRADIENTCOLOR1ACI
1070
     5
1001
GRADIENTCOLOR2ACI
1070
     2
1001
ACAD
1010
0.0
1020
0.0
1030
0.0
  0
LINE
  5
181F
  8
SAPA_GLAS
 10
-83.343750017485064
 20
-17.872599280696331
 30
0.0
 11
-83.740625017485058
 21
-17.185191616442431
 31
0.0
1001
GRADIENTCOLOR1ACI
1070
     5
1001
GRADIENTCOLOR2ACI
1070
     2
1001
ACAD
1010
0.0
1020
0.0
1030
0.0
  0
LINE
  5
1820
  8
SAPA_GLAS
 10
-84.534375017485061
 20
-15.810376287934631
 30
0.0
 11
-84.931250017485056
 21
-15.122968623680739
 31
0.0
1001
GRADIENTCOLOR1ACI
1070
     5
1001
GRADIENTCOLOR2ACI
1070
     2
1001
ACAD
1010
0.0
1020
0.0
1030
0.0
  0
LINE
  5
1821
  8
SAPA_GLAS
 10
-82.153125017188685
 20
-17.185191616271322
 30
0.0
 11
-82.550000017188694
 21
-16.497783952017429
 31
0.0
1001
GRADIENTCOLOR1ACI
1070
     5
1001
GRADIENTCOLOR2ACI
1070
     2
1001
ACAD
1010
0.0
1020
0.0
1030
0.0
  0
LINE
  5
1822
  8
SAPA_GLAS
 10
-83.343750017188697
 20
-15.12296862350963
 30
0.0
 11
-83.740625017188691
 21
-14.43556095925573
 31
0.0
1001
GRADIENTCOLOR1ACI
1070
     5
1001
GRADIENTCOLOR2ACI
1070
     2
1001
ACAD
1010
0.0
1020
0.0
1030
0.0
  0
LINE
  5
1823
  8
SAPA_GLAS
 10
-84.534375017188694
 20
-13.060745630747929
 30
0.0
 11
-84.931250017188688
 21
-12.37333796649404
 31
0.0
1001
GRADIENTCOLOR1ACI
1070
     5
1001
GRADIENTCOLOR2ACI
1070
     2
1001
ACAD
1010
0.0
1020
0.0
1030
0.0
  0
LINE
  5
1824
  8
SAPA_GLAS
 10
-82.153125016892361
 20
-14.43556095908464
 30
0.0
 11
-82.550000016892355
 21
-13.74815329483074
 31
0.0
1001
GRADIENTCOLOR1ACI
1070
     5
1001
GRADIENTCOLOR2ACI
1070
     2
1001
ACAD
1010
0.0
1020
0.0
1030
0.0
  0
LINE
  5
1825
  8
SAPA_GLAS
 10
-83.343750016892358
 20
-12.373337966322939
 30
0.0
 11
-83.740625016892366
 21
-11.685930302069041
 31
0.0
1001
GRADIENTCOLOR1ACI
1070
     5
1001
GRADIENTCOLOR2ACI
1070
     2
1001
ACAD
1010
0.0
1020
0.0
1030
0.0
  0
LINE
  5
1826
  8
SAPA_GLAS
 10
-82.153125016595993
 20
-11.685930301897949
 30
0.0
 11
-82.549147492368718
 21
-10.999999252920359
 31
0.0
1001
GRADIENTCOLOR1ACI
1070
     5
1001
GRADIENTCOLOR2ACI
1070
     2
1001
ACAD
1010
0.0
1020
0.0
1030
0.0
  0
LINE
  5
1827
  8
SAPA_GLAS
 10
-84.931250014521467
 20
-13.748153276693969
 30
0.0
 11
-84.534375014521487
 21
-13.060745612440069
 31
0.0
1001
GRADIENTCOLOR1ACI
1070
     5
1001
GRADIENTCOLOR2ACI
1070
     2
1001
ACAD
1010
0.0
1020
0.0
1030
0.0
  0
LINE
  5
1828
  8
SAPA_GLAS
 10
-83.740625014521484
 20
-11.685930283932271
 30
0.0
 11
-83.344602549121234
 21
-10.999999252920359
 31
0.0
1001
GRADIENTCOLOR1ACI
1070
     5
1001
GRADIENTCOLOR2ACI
1070
     2
1001
ACAD
1010
0.0
1020
0.0
1030
0.0
  0
LINE
  5
1829
  8
SAPA_GLAS
 10
-84.931250014225114
 20
-16.497783933880658
 30
0.0
 11
-84.534375014225134
 21
-15.81037626962676
 31
0.0
1001
GRADIENTCOLOR1ACI
1070
     5
1001
GRADIENTCOLOR2ACI
1070
     2
1001
ACAD
1010
0.0
1020
0.0
1030
0.0
  0
LINE
  5
182A
  8
SAPA_GLAS
 10
-83.740625014225117
 20
-14.435560941118959
 30
0.0
 11
-83.343750014225137
 21
-13.748153276865059
 31
0.0
1001
GRADIENTCOLOR1ACI
1070
     5
1001
GRADIENTCOLOR2ACI
1070
     2
1001
ACAD
1010
0.0
1020
0.0
1030
0.0
  0
LINE
  5
182B
  8
SAPA_GLAS
 10
-82.550000014225134
 20
-12.373337948357269
 30
0.0
 11
-82.153125014225154
 21
-11.685930284103369
 31
0.0
1001
GRADIENTCOLOR1ACI
1070
     5
1001
GRADIENTCOLOR2ACI
1070
     2
1001
ACAD
1010
0.0
1020
0.0
1030
0.0
  0
LINE
  5
182C
  8
SAPA_GLAS
 10
-84.931250013928761
 20
-19.247414591067351
 30
0.0
 11
-84.534375013928766
 21
-18.560006926813461
 31
0.0
1001
GRADIENTCOLOR1ACI
1070
     5
1001
GRADIENTCOLOR2ACI
1070
     2
1001
ACAD
1010
0.0
1020
0.0
1030
0.0
  0
LINE
  5
182D
  8
SAPA_GLAS
 10
-83.740625013928764
 20
-17.185191598305661
 30
0.0
 11
-83.343750013928755
 21
-16.497783934051771
 31
0.0
1001
GRADIENTCOLOR1ACI
1070
     5
1001
GRADIENTCOLOR2ACI
1070
     2
1001
ACAD
1010
0.0
1020
0.0
1030
0.0
  0
LINE
  5
182E
  8
SAPA_GLAS
 10
-82.550000013928766
 20
-15.122968605543971
 30
0.0
 11
-82.153125013928786
 21
-14.435560941290071
 31
0.0
1001
GRADIENTCOLOR1ACI
1070
     5
1001
GRADIENTCOLOR2ACI
1070
     2
1001
ACAD
1010
0.0
1020
0.0
1030
0.0
  0
LINE
  5
182F
  8
SAPA_GLAS
 10
-83.74062501363241
 20
-19.93482225549236
 30
0.0
 11
-83.343750013632416
 21
-19.24741459123846
 31
0.0
1001
GRADIENTCOLOR1ACI
1070
     5
1001
GRADIENTCOLOR2ACI
1070
     2
1001
ACAD
1010
0.0
1020
0.0
1030
0.0
  0
LINE
  5
1830
  8
SAPA_GLAS
 10
-82.550000013632399
 20
-17.87259926273067
 30
0.0
 11
-82.153125013632405
 21
-17.18519159847677
 31
0.0
1001
GRADIENTCOLOR1ACI
1070
     5
1001
GRADIENTCOLOR2ACI
1070
     2
1001
ACAD
1010
0.0
1020
0.0
1030
0.0
  0
LINE
  5
1831
  8
SAPA_GLAS
 10
-82.190754970249486
 20
-19.99999925292413
 30
0.0
 11
-82.153125013336066
 21
-19.934822255663448
 31
0.0
1001
GRADIENTCOLOR1ACI
1070
     5
1001
GRADIENTCOLOR2ACI
1070
     2
1001
ACAD
1010
0.0
1020
0.0
1030
0.0
  0
LINE
  5
1832
  8
SAPA_GLAS
 10
-85.000000000480597
 20
-21.015675137862878
 30
0.0
 11
-83.984324115541853
 21
-19.99999925292413
 31
0.0
1001
GRADIENTCOLOR1ACI
1070
     5
1001
GRADIENTCOLOR2ACI
1070
     2
1001
ACAD
1010
0.0
1020
0.0
1030
0.0
  0
LINE
  5
1833
  8
SAPA_GLAS
 10
-85.000000000480597
 20
-22.138207152996522
 30
0.0
 11
-82.861792100408223
 21
-19.999999252924141
 31
0.0
1001
GRADIENTCOLOR1ACI
1070
     5
1001
GRADIENTCOLOR2ACI
1070
     2
1001
ACAD
1010
0.0
1020
0.0
1030
0.0
  0
LINE
  5
1834
  8
SAPA_GLAS
 10
-85.000000000480611
 20
-23.260739168130169
 30
0.0
 11
-81.715947820913584
 21
-19.976686988563149
 31
0.0
1001
GRADIENTCOLOR1ACI
1070
     5
1001
GRADIENTCOLOR2ACI
1070
     2
1001
ACAD
1010
0.0
1020
0.0
1030
0.0
  0
LINE
  5
1835
  8
SAPA_GLAS
 10
-85.000000000480597
 20
-24.383271183263808
 30
0.0
 11
-80.616728070140525
 21
-19.999999252923729
 31
0.0
1001
GRADIENTCOLOR1ACI
1070
     5
1001
GRADIENTCOLOR2ACI
1070
     2
1001
ACAD
1010
0.0
1020
0.0
1030
0.0
  0
LINE
  5
1836
  8
SAPA_GLAS
 10
-85.000000000480611
 20
-25.505803198397459
 30
0.0
 11
-79.678897280759088
 21
-20.184700478675939
 31
0.0
1001
GRADIENTCOLOR1ACI
1070
     5
1001
GRADIENTCOLOR2ACI
1070
     2
1001
ACAD
1010
0.0
1020
0.0
1030
0.0
  0
LINE
  5
1837
  8
SAPA_GLAS
 10
-85.000000000480597
 20
-26.628335213531098
 30
0.0
 11
-79.108595301437532
 21
-20.73693051448803
 31
0.0
1001
GRADIENTCOLOR1ACI
1070
     5
1001
GRADIENTCOLOR2ACI
1070
     2
1001
ACAD
1010
0.0
1020
0.0
1030
0.0
  0
LINE
  5
1838
  8
SAPA_GLAS
 10
-85.000000000480611
 20
-27.750867228664749
 30
0.0
 11
-78.900000001908367
 21
-21.650867230092508
 31
0.0
1001
GRADIENTCOLOR1ACI
1070
     5
1001
GRADIENTCOLOR2ACI
1070
     2
1001
ACAD
1010
0.0
1020
0.0
1030
0.0
  0
LINE
  5
1839
  8
SAPA_GLAS
 10
-85.000000000480611
 20
-28.873399243798399
 30
0.0
 11
-78.900000001839317
 21
-22.773399245157101
 31
0.0
1001
GRADIENTCOLOR1ACI
1070
     5
1001
GRADIENTCOLOR2ACI
1070
     2
1001
ACAD
1010
0.0
1020
0.0
1030
0.0
  0
LINE
  5
183A
  8
SAPA_GLAS
 10
-85.000000000480611
 20
-29.995931258932039
 30
0.0
 11
-78.900000001770266
 21
-23.895931260221701
 31
0.0
1001
GRADIENTCOLOR1ACI
1070
     5
1001
GRADIENTCOLOR2ACI
1070
     2
1001
ACAD
1010
0.0
1020
0.0
1030
0.0
  0
LINE
  5
183B
  8
SAPA_GLAS
 10
-85.000000000480611
 20
-31.118463274065679
 30
0.0
 11
-78.900000001701216
 21
-25.01846327528629
 31
0.0
1001
GRADIENTCOLOR1ACI
1070
     5
1001
GRADIENTCOLOR2ACI
1070
     2
1001
ACAD
1010
0.0
1020
0.0
1030
0.0
  0
LINE
  5
183C
  8
SAPA_GLAS
 10
-85.000000000480611
 20
-32.240995289199319
 30
0.0
 11
-78.900000001632151
 21
-26.14099529035088
 31
0.0
1001
GRADIENTCOLOR1ACI
1070
     5
1001
GRADIENTCOLOR2ACI
1070
     2
1001
ACAD
1010
0.0
1020
0.0
1030
0.0
  0
LINE
  5
183D
  8
SAPA_GLAS
 10
-85.000000000480611
 20
-33.363527304332969
 30
0.0
 11
-78.900000001563114
 21
-27.263527305415469
 31
0.0
1001
GRADIENTCOLOR1ACI
1070
     5
1001
GRADIENTCOLOR2ACI
1070
     2
1001
ACAD
1010
0.0
1020
0.0
1030
0.0
  0
LINE
  5
183E
  8
SAPA_GLAS
 10
-85.000000000480611
 20
-34.486059319466612
 30
0.0
 11
-78.90000000149405
 21
-28.386059320480062
 31
0.0
1001
GRADIENTCOLOR1ACI
1070
     5
1001
GRADIENTCOLOR2ACI
1070
     2
1001
ACAD
1010
0.0
1020
0.0
1030
0.0
  0
LINE
  5
183F
  8
SAPA_GLAS
 10
-85.000000000480597
 20
-35.608591334600249
 30
0.0
 11
-78.900000001424985
 21
-29.508591335544651
 31
0.0
1001
GRADIENTCOLOR1ACI
1070
     5
1001
GRADIENTCOLOR2ACI
1070
     2
1001
ACAD
1010
0.0
1020
0.0
1030
0.0
  0
LINE
  5
1840
  8
SAPA_GLAS
 10
-84.977998044584638
 20
-36.709121393837947
 30
0.0
 11
-78.900000001355949
 21
-30.631123350609251
 31
0.0
1001
GRADIENTCOLOR1ACI
1070
     5
1001
GRADIENTCOLOR2ACI
1070
     2
1001
ACAD
1010
0.0
1020
0.0
1030
0.0
  0
LINE
  5
1841
  8
SAPA_GLAS
 10
-83.404636846285683
 20
-36.258292210672622
 30
0.0
 11
-78.900000001286898
 21
-31.75365536567384
 31
0.0
1001
GRADIENTCOLOR1ACI
1070
     5
1001
GRADIENTCOLOR2ACI
1070
     2
1001
ACAD
1010
0.0
1020
0.0
1030
0.0
  0
LINE
  5
1842
  8
SAPA_GLAS
 10
-82.151988027012294
 20
-36.128175406532883
 30
0.0
 11
-78.900000001217833
 21
-32.876187380738429
 31
0.0
1001
GRADIENTCOLOR1ACI
1070
     5
1001
GRADIENTCOLOR2ACI
1070
     2
1001
ACAD
1010
0.0
1020
0.0
1030
0.0
  0
LINE
  5
1843
  8
SAPA_GLAS
 10
-81.070937979663995
 20
-36.16965737431822
 30
0.0
 11
-78.900000001148797
 21
-33.998719395803022
 31
0.0
1001
GRADIENTCOLOR1ACI
1070
     5
1001
GRADIENTCOLOR2ACI
1070
     2
1001
ACAD
1010
0.0
1020
0.0
1030
0.0
  0
LINE
  5
1844
  8
SAPA_GLAS
 10
-80.107000788080555
 20
-36.328252197868409
 30
0.0
 11
-78.900000001079746
 21
-35.121251410867607
 31
0.0
1001
GRADIENTCOLOR1ACI
1070
     5
1001
GRADIENTCOLOR2ACI
1070
     2
1001
ACAD
1010
0.0
1020
0.0
1030
0.0
  0
LINE
  5
1845
  8
SAPA_GLAS
 10
-79.233163976878984
 20
-36.576947401800481
 30
0.0
 11
-78.900000001010682
 21
-36.2437834259322
 31
0.0
1001
GRADIENTCOLOR1ACI
1070
     5
1001
GRADIENTCOLOR2ACI
1070
     2
1001
ACAD
1010
0.0
1020
0.0
1030
0.0
  0
LINE
  5
1846
  8
SAPA_GLAS
 10
-84.647564854711717
 20
-36.585892779721853
 30
0.0
 11
-85.000000000480625
 21
-36.233457633952938
 31
0.0
1001
GRADIENTCOLOR1ACI
1070
     5
1001
GRADIENTCOLOR2ACI
1070
     2
1001
ACAD
1010
0.0
1020
0.0
1030
0.0
  0
LINE
  5
1847
  8
SAPA_GLAS
 10
-83.776229576459485
 20
-36.334696042840427
 30
0.0
 11
-85.000000000480625
 21
-35.110925618819287
 31
0.0
1001
GRADIENTCOLOR1ACI
1070
     5
1001
GRADIENTCOLOR2ACI
1070
     2
1001
ACAD
1010
0.0
1020
0.0
1030
0.0
  0
LINE
  5
1848
  8
SAPA_GLAS
 10
-82.81540211069462
 20
-36.172991493471663
 30
0.0
 11
-85.000000000480625
 21
-33.988393603685651
 31
0.0
1001
GRADIENTCOLOR1ACI
1070
     5
1001
GRADIENTCOLOR2ACI
1070
     2
1001
ACAD
1010
0.0
1020
0.0
1030
0.0
  0
LINE
  5
1849
  8
SAPA_GLAS
 10
-81.738577938432712
 20
-36.127283650599921
 30
0.0
 11
-85.000000000480611
 21
-32.865861588552008
 31
0.0
1001
GRADIENTCOLOR1ACI
1070
     5
1001
GRADIENTCOLOR2ACI
1070
     2
1001
ACAD
1010
0.0
1020
0.0
1030
0.0
  0
LINE
  5
184A
  8
SAPA_GLAS
 10
-80.492613982662277
 20
-36.250715591236698
 30
0.0
 11
-85.000000000480611
 21
-31.743329573418372
 31
0.0
1001
GRADIENTCOLOR1ACI
1070
     5
1001
GRADIENTCOLOR2ACI
1070
     2
1001
ACAD
1010
0.0
1020
0.0
1030
0.0
  0
LINE
  5
184B
  8
SAPA_GLAS
 10
-78.934174807857119
 20
-36.686622750908207
 30
0.0
 11
-85.000000000480611
 21
-30.620797558284721
 31
0.0
1001
GRADIENTCOLOR1ACI
1070
     5
1001
GRADIENTCOLOR2ACI
1070
     2
1001
ACAD
1010
0.0
1020
0.0
1030
0.0
  0
LINE
  5
184C
  8
SAPA_GLAS
 10
-78.900000001050387
 20
-35.598265542581302
 30
0.0
 11
-85.000000000480611
 21
-29.498265543151081
 31
0.0
1001
GRADIENTCOLOR1ACI
1070
     5
1001
GRADIENTCOLOR2ACI
1070
     2
1001
ACAD
1010
0.0
1020
0.0
1030
0.0
  0
LINE
  5
184D
  8
SAPA_GLAS
 10
-78.900000001119452
 20
-34.475733527378601
 30
0.0
 11
-85.000000000480611
 21
-28.375733528017442
 31
0.0
1001
GRADIENTCOLOR1ACI
1070
     5
1001
GRADIENTCOLOR2ACI
1070
     2
1001
ACAD
1010
0.0
1020
0.0
1030
0.0
  0
LINE
  5
184E
  8
SAPA_GLAS
 10
-78.900000001188502
 20
-33.3532015121759
 30
0.0
 11
-85.000000000480611
 21
-27.253201512883791
 31
0.0
1001
GRADIENTCOLOR1ACI
1070
     5
1001
GRADIENTCOLOR2ACI
1070
     2
1001
ACAD
1010
0.0
1020
0.0
1030
0.0
  0
LINE
  5
184F
  8
SAPA_GLAS
 10
-78.900000001257553
 20
-32.230669496973213
 30
0.0
 11
-85.000000000480611
 21
-26.130669497750141
 31
0.0
1001
GRADIENTCOLOR1ACI
1070
     5
1001
GRADIENTCOLOR2ACI
1070
     2
1001
ACAD
1010
0.0
1020
0.0
1030
0.0
  0
LINE
  5
1850
  8
SAPA_GLAS
 10
-78.900000001326603
 20
-31.10813748177052
 30
0.0
 11
-85.000000000480611
 21
-25.008137482616501
 31
0.0
1001
GRADIENTCOLOR1ACI
1070
     5
1001
GRADIENTCOLOR2ACI
1070
     2
1001
ACAD
1010
0.0
1020
0.0
1030
0.0
  0
LINE
  5
1851
  8
SAPA_GLAS
 10
-78.900000001395654
 20
-29.985605466567819
 30
0.0
 11
-85.000000000480611
 21
-23.885605467482861
 31
0.0
1001
GRADIENTCOLOR1ACI
1070
     5
1001
GRADIENTCOLOR2ACI
1070
     2
1001
ACAD
1010
0.0
1020
0.0
1030
0.0
  0
LINE
  5
1852
  8
SAPA_GLAS
 10
-78.900000001464704
 20
-28.863073451365111
 30
0.0
 11
-85.000000000480611
 21
-22.763073452349211
 31
0.0
1001
GRADIENTCOLOR1ACI
1070
     5
1001
GRADIENTCOLOR2ACI
1070
     2
1001
ACAD
1010
0.0
1020
0.0
1030
0.0
  0
LINE
  5
1853
  8
SAPA_GLAS
 10
-78.900000001533769
 20
-27.74054143616242
 30
0.0
 11
-85.000000000480611
 21
-21.640541437215571
 31
0.0
1001
GRADIENTCOLOR1ACI
1070
     5
1001
GRADIENTCOLOR2ACI
1070
     2
1001
ACAD
1010
0.0
1020
0.0
1030
0.0
  0
LINE
  5
1854
  8
SAPA_GLAS
 10
-78.90000000160282
 20
-26.618009420959719
 30
0.0
 11
-85.000000000480611
 21
-20.518009422081921
 31
0.0
1001
GRADIENTCOLOR1ACI
1070
     5
1001
GRADIENTCOLOR2ACI
1070
     2
1001
ACAD
1010
0.0
1020
0.0
1030
0.0
  0
LINE
  5
1855
  8
SAPA_GLAS
 10
-78.90000000167187
 20
-25.495477405757018
 30
0.0
 11
-84.395478154504758
 21
-19.99999925292413
 31
0.0
1001
GRADIENTCOLOR1ACI
1070
     5
1001
GRADIENTCOLOR2ACI
1070
     2
1001
ACAD
1010
0.0
1020
0.0
1030
0.0
  0
LINE
  5
1856
  8
SAPA_GLAS
 10
-78.900000001740921
 20
-24.372945390554332
 30
0.0
 11
-83.272946139371115
 21
-19.99999925292413
 31
0.0
1001
GRADIENTCOLOR1ACI
1070
     5
1001
GRADIENTCOLOR2ACI
1070
     2
1001
ACAD
1010
0.0
1020
0.0
1030
0.0
  0
LINE
  5
1857
  8
SAPA_GLAS
 10
-78.900000001809971
 20
-23.250413375351641
 30
0.0
 11
-82.150414124237471
 21
-19.99999925292413
 31
0.0
1001
GRADIENTCOLOR1ACI
1070
     5
1001
GRADIENTCOLOR2ACI
1070
     2
1001
ACAD
1010
0.0
1020
0.0
1030
0.0
  0
LINE
  5
1858
  8
SAPA_GLAS
 10
-78.900000001879022
 20
-22.127881360148951
 30
0.0
 11
-81.027882109104226
 21
-19.999999252923729
 31
0.0
1001
GRADIENTCOLOR1ACI
1070
     5
1001
GRADIENTCOLOR2ACI
1070
     2
1001
ACAD
1010
0.0
1020
0.0
1030
0.0
  0
LINE
  5
1859
  8
SAPA_GLAS
 10
-79.041644666699426
 20
-20.8637046801949
 30
0.0
 11
-79.763705429188803
 21
-20.141643917705512
 31
0.0
1001
GRADIENTCOLOR1ACI
1070
     5
1001
GRADIENTCOLOR2ACI
1070
     2
1001
ACAD
1010
0.0
1020
0.0
1030
0.0
  0
LINE
  5
185A
  8
SAPA_GLAS
 10
-50.910857607580233
 20
-54.271209635306512
 30
0.0
 11
-50.910857607580233
 21
-12.999999252920359
 31
0.0
  0
LINE
  5
185B
  8
SAPA_GLAS
 10
-50.910857607580233
 20
-12.999999252920359
 30
0.0
 11
-42.910857607580219
 21
-12.999999252920359
 31
0.0
  0
LINE
  5
185C
  8
SAPA_GLAS
 10
-42.910857607580219
 20
-12.999999252920359
 30
0.0
 11
-42.910857607580219
 21
-54.271209635306512
 31
0.0
  0
LINE
  5
1888
  8
SAPA_GLAS
 10
-91.000000000480597
 20
-52.271209635306512
 30
0.0
 11
-91.000000000480597
 21
-10.999999252920359
 31
0.0
  0
LINE
  5
1889
  8
SAPA_GLAS
 10
-91.000000000480597
 20
-10.999999252920359
 30
0.0
 11
-85.000000000480611
 21
-10.999999252920359
 31
0.0
  0
LINE
  5
188A
  8
SAPA_GLAS
 10
-85.000000000480611
 20
-10.999999252920359
 30
0.0
 11
-85.000000000480611
 21
-52.271209635306512
 31
0.0
  0
POLYLINE
  5
1B56
  8
SAPA_PROFIL
  6
CONTINUOUS
 62
     7
 66
     1
 10
0.0
 20
0.0
 30
0.0
 70
     1
  0
VERTEX
  5
208A
  8
SAPA_PROFIL
  6
CONTINUOUS
 62
     7
 10
-74.000000000957144
 20
16.500000747074431
 30
0.0
  0
VERTEX
  5
208B
  8
SAPA_PROFIL
  6
CONTINUOUS
 62
     7
 10
-77.000000000003354
 20
16.500000747074431
 30
0.0
 42
0.4142135623732074
  0
VERTEX
  5
208C
  8
SAPA_PROFIL
  6
CONTINUOUS
 62
     7
 10
-77.500000000003368
 20
16.000000747074228
 30
0.0
  0
VERTEX
  5
208D
  8
SAPA_PROFIL
  6
CONTINUOUS
 62
     7
 10
-77.499999999999545
 20
7.4000007470741407
 30
0.0
 42
-0.4142135623730951
  0
VERTEX
  5
208E
  8
SAPA_PROFIL
  6
CONTINUOUS
 62
     7
 10
-77.999999999999545
 20
6.9000007470741407
 30
0.0
  0
VERTEX
  5
208F
  8
SAPA_PROFIL
  6
CONTINUOUS
 62
     7
 10
-80.300000000000196
 20
6.9000007470741407
 30
0.0
 42
0.4142135623730951
  0
VERTEX
  5
2090
  8
SAPA_PROFIL
  6
CONTINUOUS
 62
     7
 10
-81.300000000000225
 20
5.9000007470741407
 30
0.0
  0
VERTEX
  5
2091
  8
SAPA_PROFIL
  6
CONTINUOUS
 62
     7
 10
-81.300000000000225
 20
5.0873704888987383
 30
0.0
 42
0.2216946626429368
  0
VERTEX
  5
2092
  8
SAPA_PROFIL
  6
CONTINUOUS
 62
     7
 10
-81.192836282906171
 20
4.8575571559630459
 30
0.0
  0
VERTEX
  5
2093
  8
SAPA_PROFIL
  6
CONTINUOUS
 62
     7
 10
-80.492836282905628
 20
4.2701874141384941
 30
0.0
 42
0.6370702608061857
  0
VERTEX
  5
2094
  8
SAPA_PROFIL
  6
CONTINUOUS
 62
     7
 10
-80.000000000000014
 20
4.5000007470744343
 30
0.0
  0
VERTEX
  5
2095
  8
SAPA_PROFIL
  6
CONTINUOUS
 62
     7
 10
-80.000000000000014
 20
5.3000007470746304
 30
0.0
 42
-0.4142135623730951
  0
VERTEX
  5
2096
  8
SAPA_PROFIL
  6
CONTINUOUS
 62
     7
 10
-79.699999999999804
 20
5.6000007470748256
 30
0.0
  0
VERTEX
  5
2097
  8
SAPA_PROFIL
  6
CONTINUOUS
 62
     7
 10
-75.299999999999272
 20
5.600000747073886
 30
0.0
 42
-0.4142135623730504
  0
VERTEX
  5
2098
  8
SAPA_PROFIL
  6
CONTINUOUS
 62
     7
 10
-74.999999999999545
 20
5.3000007470737334
 30
0.0
  0
VERTEX
  5
2099
  8
SAPA_PROFIL
  6
CONTINUOUS
 62
     7
 10
-74.999999999999559
 20
-5.2999992529257121
 30
0.0
 42
-0.4142135623730878
  0
VERTEX
  5
209A
  8
SAPA_PROFIL
  6
CONTINUOUS
 62
     7
 10
-75.299999999999258
 20
-5.599999252925886
 30
0.0
  0
VERTEX
  5
209B
  8
SAPA_PROFIL
  6
CONTINUOUS
 62
     7
 10
-79.699999999999804
 20
-5.5999992529258149
 30
0.0
 42
-0.4142135623735842
  0
VERTEX
  5
209C
  8
SAPA_PROFIL
  6
CONTINUOUS
 62
     7
 10
-79.999999999999517
 20
-5.2999992529266136
 30
0.0
  0
VERTEX
  5
209D
  8
SAPA_PROFIL
  6
CONTINUOUS
 62
     7
 10
-80.000000000000014
 20
-4.4999992529246269
 30
0.0
 42
0.6370702608069853
  0
VERTEX
  5
209E
  8
SAPA_PROFIL
  6
CONTINUOUS
 62
     7
 10
-80.492836282905628
 20
-4.2701859199895402
 30
0.0
  0
VERTEX
  5
209F
  8
SAPA_PROFIL
  6
CONTINUOUS
 62
     7
 10
-81.192836282906171
 20
-4.8575556618141
 30
0.0
 42
0.2216946626431
  0
VERTEX
  5
20A0
  8
SAPA_PROFIL
  6
CONTINUOUS
 62
     7
 10
-81.300000000000225
 20
-5.0873689947499834
 30
0.0
  0
VERTEX
  5
20A1
  8
SAPA_PROFIL
  6
CONTINUOUS
 62
     7
 10
-81.299999999999713
 20
-5.8999992529269782
 30
0.0
 42
0.4142135623730951
  0
VERTEX
  5
20A2
  8
SAPA_PROFIL
  6
CONTINUOUS
 62
     7
 10
-80.299999999999713
 20
-6.8999992529269782
 30
0.0
  0
VERTEX
  5
20A3
  8
SAPA_PROFIL
  6
CONTINUOUS
 62
     7
 10
-72.799999999999969
 20
-6.8999992529260821
 30
0.0
 42
0.3178372451964626
  0
VERTEX
  5
20A4
  8
SAPA_PROFIL
  6
CONTINUOUS
 62
     7
 10
-72.517157287525123
 20
-6.6999992529253554
 30
0.0
 42
-0.3178372451966722
  0
VERTEX
  5
20A5
  8
SAPA_PROFIL
  6
CONTINUOUS
 62
     7
 10
-72.23431457505005
 20
-6.4999992529246269
 30
0.0
  0
VERTEX
  5
20A6
  8
SAPA_PROFIL
  6
CONTINUOUS
 62
     7
 10
-70.799999999999727
 20
-6.4999992529255328
 30
0.0
 42
0.4142135623726539
  0
VERTEX
  5
20A7
  8
SAPA_PROFIL
  6
CONTINUOUS
 62
     7
 10
-70.5
 20
-6.1999992529253509
 30
0.0
  0
VERTEX
  5
20A8
  8
SAPA_PROFIL
  6
CONTINUOUS
 62
     7
 10
-70.500000000000014
 20
-5.5999992529248033
 30
0.0
 42
0.4142135623730836
  0
VERTEX
  5
20A9
  8
SAPA_PROFIL
  6
CONTINUOUS
 62
     7
 10
-70.799999999999727
 20
-5.2999992529255371
 30
0.0
  0
VERTEX
  5
20AA
  8
SAPA_PROFIL
  6
CONTINUOUS
 62
     7
 10
-72.199999999999804
 20
-5.2999992529255273
 30
0.0
 42
-0.4142135623730951
  0
VERTEX
  5
20AB
  8
SAPA_PROFIL
  6
CONTINUOUS
 62
     7
 10
-72.499999999999986
 20
-4.9999992529253516
 30
0.0
  0
VERTEX
  5
20AC
  8
SAPA_PROFIL
  6
CONTINUOUS
 62
     7
 10
-72.499999999999986
 20
5.0000007470752283
 30
0.0
 42
-0.4142135623730743
  0
VERTEX
  5
20AD
  8
SAPA_PROFIL
  6
CONTINUOUS
 62
     7
 10
-72.199999999999804
 20
5.3000007470744359
 30
0.0
  0
VERTEX
  5
20AE
  8
SAPA_PROFIL
  6
CONTINUOUS
 62
     7
 10
-70.799999999999727
 20
5.3000007470753241
 30
0.0
 42
0.4142135623721762
  0
VERTEX
  5
20AF
  8
SAPA_PROFIL
  6
CONTINUOUS
 62
     7
 10
-70.499999999999957
 20
5.600000747074632
 30
0.0
  0
VERTEX
  5
20B0
  8
SAPA_PROFIL
  6
CONTINUOUS
 62
     7
 10
-70.499999999999545
 20
6.2000007470752454
 30
0.0
 42
0.4142135623730534
  0
VERTEX
  5
20B1
  8
SAPA_PROFIL
  6
CONTINUOUS
 62
     7
 10
-70.799999999999713
 20
6.5000007470744601
 30
0.0
  0
VERTEX
  5
20B2
  8
SAPA_PROFIL
  6
CONTINUOUS
 62
     7
 10
-72.234314575050433
 20
6.5000007470753491
 30
0.0
 42
-0.3178372451963242
  0
VERTEX
  5
20B3
  8
SAPA_PROFIL
  6
CONTINUOUS
 62
     7
 10
-72.517157287525123
 20
6.7000007470742933
 30
0.0
 42
0.3178372451964607
  0
VERTEX
  5
20B4
  8
SAPA_PROFIL
  6
CONTINUOUS
 62
     7
 10
-72.799999999999955
 20
6.9000007470750058
 30
0.0
  0
VERTEX
  5
20B5
  8
SAPA_PROFIL
  6
CONTINUOUS
 62
     7
 10
-74.500000000000043
 20
6.900000747075226
 30
0.0
 42
-0.4142135623730597
  0
VERTEX
  5
20B6
  8
SAPA_PROFIL
  6
CONTINUOUS
 62
     7
 10
-74.999999999999986
 20
7.400000747075226
 30
0.0
  0
VERTEX
  5
20B7
  8
SAPA_PROFIL
  6
CONTINUOUS
 62
     7
 10
-74.999999999999986
 20
12.40192453628244
 30
0.0
 42
-0.2679491923306345
  0
VERTEX
  5
20B8
  8
SAPA_PROFIL
  6
CONTINUOUS
 62
     7
 10
-74.750000000156874
 20
12.834937238071729
 30
0.0
 42
0.2679491923317589
  0
VERTEX
  5
20B9
  8
SAPA_PROFIL
  6
CONTINUOUS
 62
     7
 10
-73.500000000957129
 20
15.00000074707442
 30
0.0
  0
VERTEX
  5
20BA
  8
SAPA_PROFIL
  6
CONTINUOUS
 62
     7
 10
-73.500000000957925
 20
16.000000747074431
 30
0.0
 42
0.4142135623730951
  0
SEQEND
  5
20BB
  8
SAPA_PROFIL
  6
CONTINUOUS
 62
     7
  0
POLYLINE
  5
1B57
  8
SAPA_PROFIL
 62
     4
 66
     1
 10
0.0
 20
0.0
 30
0.0
 70
     1
  0
VERTEX
  5
20BC
  8
SAPA_PROFIL
 62
     4
 10
-64.462221528366854
 20
22.026757942111139
 30
0.0
 42
0.3137019356282051
  0
VERTEX
  5
20BD
  8
SAPA_PROFIL
 62
     4
 10
-64.181271744820549
 20
22.224383567644558
 30
0.0
  0
VERTEX
  5
20BE
  8
SAPA_PROFIL
 62
     4
 10
-63.295794031949349
 20
24.657213589188579
 30
0.0
 42
-0.3152987888779321
  0
VERTEX
  5
20BF
  8
SAPA_PROFIL
 62
     4
 10
-62.919916983632959
 20
24.920405531858311
 30
0.0
  0
VERTEX
  5
20C0
  8
SAPA_PROFIL
 62
     4
 10
-52.499999998918831
 20
24.920405531858268
 30
0.0
  0
VERTEX
  5
20C1
  8
SAPA_PROFIL
 62
     4
 10
-42.080083014200738
 20
24.920405531858218
 30
0.0
 42
-0.3152987888779395
  0
VERTEX
  5
20C2
  8
SAPA_PROFIL
 62
     4
 10
-41.70420596588837
 20
24.657213589188501
 30
0.0
  0
VERTEX
  5
20C3
  8
SAPA_PROFIL
 62
     4
 10
-40.818728253020197
 20
22.224383567652801
 30
0.0
 42
0.3138982169096283
  0
VERTEX
  5
20C4
  8
SAPA_PROFIL
 62
     4
 10
-40.537778469506009
 20
22.02675794211245
 30
0.0
 42
0.0157923906855865
  0
VERTEX
  5
20C5
  8
SAPA_PROFIL
 62
     4
 10
-40.186319937167163
 20
22.023354812472849
 30
0.0
  0
VERTEX
  5
20C6
  8
SAPA_PROFIL
 62
     4
 10
-39.946136872384869
 20
21.884685055366329
 30
0.0
 42
0.5773502691889272
  0
VERTEX
  5
20C7
  8
SAPA_PROFIL
 62
     4
 10
-39.631136872385163
 20
22.066550390161119
 30
0.0
  0
VERTEX
  5
20C8
  8
SAPA_PROFIL
 62
     4
 10
-39.631136872385042
 20
22.33366491837403
 30
0.0
  0
VERTEX
  5
20C9
  8
SAPA_PROFIL
 62
     4
 10
-39.29999999891885
 20
22.529886984158331
 30
0.0
  0
VERTEX
  5
20CA
  8
SAPA_PROFIL
 62
     4
 10
-38.316679860938329
 20
23.097531147655779
 30
0.0
 42
-0.1316524975869703
  0
VERTEX
  5
20CB
  8
SAPA_PROFIL
 62
     4
 10
-38.211679860939512
 20
23.125665812860341
 30
0.0
  0
VERTEX
  5
20CC
  8
SAPA_PROFIL
 62
     4
 10
-37.89999999891694
 20
23.125665812860451
 30
0.0
 42
-0.4142135623775584
  0
VERTEX
  5
20CD
  8
SAPA_PROFIL
 62
     4
 10
-37.499999998918902
 20
22.725665812860139
 30
0.0
  0
VERTEX
  5
20CE
  8
SAPA_PROFIL
 62
     4
 10
-37.499999998918838
 20
19.325665812860379
 30
0.0
 42
-0.4142135623773978
  0
VERTEX
  5
20CF
  8
SAPA_PROFIL
 62
     4
 10
-37.899999998918872
 20
18.925665812860409
 30
0.0
  0
VERTEX
  5
20D0
  8
SAPA_PROFIL
 62
     4
 10
-38.211679860942517
 20
18.925665812860409
 30
0.0
 42
-0.1316524975869708
  0
VERTEX
  5
20D1
  8
SAPA_PROFIL
 62
     4
 10
-38.316679860939473
 20
18.953800478065649
 30
0.0
  0
VERTEX
  5
20D2
  8
SAPA_PROFIL
 62
     4
 10
-39.29999999891885
 20
19.521520624427691
 30
0.0
  0
VERTEX
  5
20D3
  8
SAPA_PROFIL
 62
     4
 10
-39.894744110589727
 20
19.864896297399799
 30
0.0
 42
0.1316524975869772
  0
VERTEX
  5
20D4
  8
SAPA_PROFIL
 62
     4
 10
-40.494744110593103
 20
20.025665812860321
 30
0.0
  0
VERTEX
  5
20D5
  8
SAPA_PROFIL
 62
     4
 10
-41.446608443479533
 20
20.02566581286009
 30
0.0
 42
-0.3152987888780149
  0
VERTEX
  5
20D6
  8
SAPA_PROFIL
 62
     4
 10
-42.386301064251029
 20
20.683645669534481
 30
0.0
  0
VERTEX
  5
20D7
  8
SAPA_PROFIL
 62
     4
 10
-43.177415089160881
 20
22.85721358918817
 30
0.0
 42
0.3152987888779391
  0
VERTEX
  5
20D8
  8
SAPA_PROFIL
 62
     4
 10
-43.553292137475403
 20
23.120405531858289
 30
0.0
  0
VERTEX
  5
20D9
  8
SAPA_PROFIL
 62
     4
 10
-52.499999998918831
 20
23.120405531858289
 30
0.0
  0
VERTEX
  5
20DA
  8
SAPA_PROFIL
 62
     4
 10
-61.446707860362331
 20
23.120405531858349
 30
0.0
 42
0.3152987888779318
  0
VERTEX
  5
20DB
  8
SAPA_PROFIL
 62
     4
 10
-61.822584908675481
 20
22.857213589191929
 30
0.0
  0
VERTEX
  5
20DC
  8
SAPA_PROFIL
 62
     4
 10
-62.613698933586591
 20
20.683645669534709
 30
0.0
 42
-0.3152987888779361
  0
VERTEX
  5
20DD
  8
SAPA_PROFIL
 62
     4
 10
-63.55339155438719
 20
20.025665812860382
 30
0.0
  0
VERTEX
  5
20DE
  8
SAPA_PROFIL
 62
     4
 10
-64.505255887244687
 20
20.025665812860382
 30
0.0
 42
0.1316524975869766
  0
VERTEX
  5
20DF
  8
SAPA_PROFIL
 62
     4
 10
-65.105255887237888
 20
19.864896297405661
 30
0.0
  0
VERTEX
  5
20E0
  8
SAPA_PROFIL
 62
     4
 10
-65.692820321946385
 20
19.525665812860431
 30
0.0
  0
VERTEX
  5
20E1
  8
SAPA_PROFIL
 62
     4
 10
-66.683320136898317
 20
18.953800478065709
 30
0.0
 42
-0.1316524975869832
  0
VERTEX
  5
20E2
  8
SAPA_PROFIL
 62
     4
 10
-66.788320136901405
 20
18.925665812860469
 30
0.0
  0
VERTEX
  5
20E3
  8
SAPA_PROFIL
 62
     4
 10
-67.099999998918904
 20
18.925665812860409
 30
0.0
 42
-0.414213562371655
  0
VERTEX
  5
20E4
  8
SAPA_PROFIL
 62
     4
 10
-67.499999998918895
 20
19.325665812864369
 30
0.0
  0
VERTEX
  5
20E5
  8
SAPA_PROFIL
 62
     4
 10
-67.499999998918895
 20
22.72566581286042
 30
0.0
 42
-0.4142135623716633
  0
VERTEX
  5
20E6
  8
SAPA_PROFIL
 62
     4
 10
-67.099999998916871
 20
23.125665812860401
 30
0.0
  0
VERTEX
  5
20E7
  8
SAPA_PROFIL
 62
     4
 10
-66.788320136898221
 20
23.125665812860401
 30
0.0
 42
-0.1316524975869709
  0
VERTEX
  5
20E8
  8
SAPA_PROFIL
 62
     4
 10
-66.683320136897635
 20
23.09753114765482
 30
0.0
  0
VERTEX
  5
20E9
  8
SAPA_PROFIL
 62
     4
 10
-65.368863125452634
 20
22.333664918374041
 30
0.0
  0
VERTEX
  5
20EA
  8
SAPA_PROFIL
 62
     4
 10
-65.368863125452521
 20
22.066550390161119
 30
0.0
 42
0.5773502691889269
  0
VERTEX
  5
20EB
  8
SAPA_PROFIL
 62
     4
 10
-65.053863125452807
 20
21.884685055366329
 30
0.0
  0
VERTEX
  5
20EC
  8
SAPA_PROFIL
 62
     4
 10
-64.813680060670507
 20
22.023354812472849
 30
0.0
 42
0.015792390685586
  0
SEQEND
  5
20ED
  8
SAPA_PROFIL
 62
     4
  0
POLYLINE
  5
1B58
  8
SAPA_PROFIL
 66
     1
 10
0.0
 20
0.0
 30
0.0
 70
     1
  0
VERTEX
  5
20EE
  8
SAPA_PROFIL
 10
-37.499999998918859
 20
22.952059015141511
 30
0.0
 42
-0.2134217652834366
  0
VERTEX
  5
20EF
  8
SAPA_PROFIL
 10
-37.399999998918673
 20
23.175665812891609
 30
0.0
 42
0.7625858545243175
  0
VERTEX
  5
20F0
  8
SAPA_PROFIL
 10
-37.584579201116149
 20
23.505991893908622
 30
0.0
  0
VERTEX
  5
20F1
  8
SAPA_PROFIL
 10
-37.77596220110987
 20
23.447918256919529
 30
0.0
  0
VERTEX
  5
20F2
  8
SAPA_PROFIL
 10
-39.661805892970918
 20
22.363353809947789
 30
0.0
  0
VERTEX
  5
20F3
  8
SAPA_PROFIL
 10
-39.651244526743959
 20
22.041596081729541
 30
0.0
 42
-0.5773502691897529
  0
VERTEX
  5
20F4
  8
SAPA_PROFIL
 10
-39.945400826998792
 20
21.858642341619358
 30
0.0
  0
VERTEX
  5
20F5
  8
SAPA_PROFIL
 10
-40.230083110230467
 20
22.010776252728132
 30
0.0
 42
-0.2216946626430025
  0
VERTEX
  5
20F6
  8
SAPA_PROFIL
 10
-40.635892015385217
 20
22.551656084204922
 30
0.0
  0
VERTEX
  5
20F7
  8
SAPA_PROFIL
 10
-41.017338611512933
 20
24.364886554863169
 30
0.0
 42
-0.4769755326981438
  0
VERTEX
  5
20F8
  8
SAPA_PROFIL
 10
-40.715085787006473
 20
24.736543429809039
 30
0.0
  0
VERTEX
  5
20F9
  8
SAPA_PROFIL
 10
-39.211984706244458
 20
24.73645982192539
 30
0.0
  0
VERTEX
  5
20FA
  8
SAPA_PROFIL
 10
-39.197466296997362
 20
24.688614071926899
 30
0.0
 42
0.4142135623731001
  0
VERTEX
  5
20FB
  8
SAPA_PROFIL
 10
-38.82328134152155
 20
24.488650027419499
 30
0.0
  0
VERTEX
  5
20FC
  8
SAPA_PROFIL
 10
-37.500280500000279
 20
25.00000074707696
 30
0.0
  0
VERTEX
  5
20FD
  8
SAPA_PROFIL
 10
-35.800000000001788
 20
25.00000074707696
 30
0.0
 42
-0.4142135623730951
  0
VERTEX
  5
20FE
  8
SAPA_PROFIL
 10
-35.50000000000184
 20
24.700000747076778
 30
0.0
  0
VERTEX
  5
20FF
  8
SAPA_PROFIL
 10
-35.500000000001727
 20
21.7000007470761
 30
0.0
 42
0.4142135623730951
  0
VERTEX
  5
2100
  8
SAPA_PROFIL
 10
-35.200000000001772
 20
21.400000747076142
 30
0.0
  0
VERTEX
  5
2101
  8
SAPA_PROFIL
 10
-34.800000000001972
 20
21.400000747076142
 30
0.0
 42
-0.4142135623731506
  0
VERTEX
  5
2102
  8
SAPA_PROFIL
 10
-34.500000000001961
 20
21.100000747076191
 30
0.0
  0
VERTEX
  5
2103
  8
SAPA_PROFIL
 10
-34.500000000002068
 20
19.700000747076441
 30
0.0
 42
-0.4142135623731505
  0
VERTEX
  5
2104
  8
SAPA_PROFIL
 10
-34.800000000002079
 20
19.400000747076479
 30
0.0
  0
VERTEX
  5
2105
  8
SAPA_PROFIL
 10
-35.200000000001829
 20
19.400000747076479
 30
0.0
 42
0.4142135623731506
  0
VERTEX
  5
2106
  8
SAPA_PROFIL
 10
-35.50000000000184
 20
19.100000747076528
 30
0.0
  0
VERTEX
  5
2107
  8
SAPA_PROFIL
 10
-35.500000000001847
 20
10.900000747070109
 30
0.0
 42
0.4142135623731506
  0
VERTEX
  5
2108
  8
SAPA_PROFIL
 10
-35.200000000001843
 20
10.60000074707016
 30
0.0
  0
VERTEX
  5
2109
  8
SAPA_PROFIL
 10
-34.800000000002029
 20
10.6000007470701
 30
0.0
 42
-0.4142135623730951
  0
VERTEX
  5
210A
  8
SAPA_PROFIL
 10
-34.500000000002018
 20
10.300000747070211
 30
0.0
  0
VERTEX
  5
210B
  8
SAPA_PROFIL
 10
-34.500000000001847
 20
8.9000007470704574
 30
0.0
 42
-0.4142135623731505
  0
VERTEX
  5
210C
  8
SAPA_PROFIL
 10
-34.800000000001859
 20
8.6000007470705029
 30
0.0
  0
VERTEX
  5
210D
  8
SAPA_PROFIL
 10
-35.200000000001779
 20
8.600000747070446
 30
0.0
 42
0.4142135623730951
  0
VERTEX
  5
210E
  8
SAPA_PROFIL
 10
-35.500000000001791
 20
8.3000007470705484
 30
0.0
  0
VERTEX
  5
210F
  8
SAPA_PROFIL
 10
-35.500000000001911
 20
5.3000007470698094
 30
0.0
 42
-0.4142135623743715
  0
VERTEX
  5
2110
  8
SAPA_PROFIL
 10
-35.800000000001802
 20
5.0000007470696266
 30
0.0
  0
VERTEX
  5
2111
  8
SAPA_PROFIL
 10
-37.500280500035068
 20
5.0000007470696266
 30
0.0
  0
VERTEX
  5
2112
  8
SAPA_PROFIL
 10
-38.82328134152155
 20
5.5113514667135561
 30
0.0
 42
0.4142135623730744
  0
VERTEX
  5
2113
  8
SAPA_PROFIL
 10
-39.197466296997362
 20
5.3113874222061588
 30
0.0
  0
VERTEX
  5
2114
  8
SAPA_PROFIL
 10
-39.211984706244458
 20
5.2635416722076718
 30
0.0
  0
VERTEX
  5
2115
  8
SAPA_PROFIL
 10
-40.715085787006473
 20
5.263458064324019
 30
0.0
 42
-0.4769755326981443
  0
VERTEX
  5
2116
  8
SAPA_PROFIL
 10
-41.01733861151294
 20
5.63511493926989
 30
0.0
  0
VERTEX
  5
2117
  8
SAPA_PROFIL
 10
-40.635892015385281
 20
7.4483454099281436
 30
0.0
 42
-0.2216946626430325
  0
VERTEX
  5
2118
  8
SAPA_PROFIL
 10
-40.230083110230417
 20
7.9892252414049301
 30
0.0
  0
VERTEX
  5
2119
  8
SAPA_PROFIL
 10
-39.945400826998792
 20
8.1413591525136937
 30
0.0
 42
-0.5773502691897529
  0
VERTEX
  5
211A
  8
SAPA_PROFIL
 10
-39.651244526743973
 20
7.958405412403514
 30
0.0
  0
VERTEX
  5
211B
  8
SAPA_PROFIL
 10
-39.661805892970932
 20
7.6366476841852702
 30
0.0
  0
VERTEX
  5
211C
  8
SAPA_PROFIL
 10
-37.775962201109877
 20
6.5520832372135303
 30
0.0
  0
VERTEX
  5
211D
  8
SAPA_PROFIL
 10
-37.584579201116163
 20
6.4940096002245511
 30
0.0
 42
0.7625858545243173
  0
VERTEX
  5
211E
  8
SAPA_PROFIL
 10
-37.39999999891873
 20
6.8243356812414433
 30
0.0
 42
-0.2134217652834366
  0
VERTEX
  5
211F
  8
SAPA_PROFIL
 10
-37.499999998918867
 20
7.0479424789915512
 30
0.0
  0
VERTEX
  5
2120
  8
SAPA_PROFIL
 10
-37.499999998918859
 20
10.90072888356757
 30
0.0
 42
0.4142135623730951
  0
VERTEX
  5
2121
  8
SAPA_PROFIL
 10
-37.799999998918807
 20
11.20072888356753
 30
0.0
  0
VERTEX
  5
2122
  8
SAPA_PROFIL
 10
-38.09999999891923
 20
11.20072888356753
 30
0.0
  0
VERTEX
  5
2123
  8
SAPA_PROFIL
 10
-39.699999998918678
 20
10.276968452863899
 30
0.0
 42
-0.577350269189529
  0
VERTEX
  5
2124
  8
SAPA_PROFIL
 10
-39.999999998918859
 20
10.45017353362095
 30
0.0
  0
VERTEX
  5
2125
  8
SAPA_PROFIL
 10
-39.999999998918859
 20
19.54982796052564
 30
0.0
 42
-0.577350269189529
  0
VERTEX
  5
2126
  8
SAPA_PROFIL
 10
-39.699999998918678
 20
19.72303304128268
 30
0.0
  0
VERTEX
  5
2127
  8
SAPA_PROFIL
 10
-38.09999999891923
 20
18.79927261057906
 30
0.0
  0
VERTEX
  5
2128
  8
SAPA_PROFIL
 10
-37.799999998918807
 20
18.79927261057906
 30
0.0
 42
0.4142135623730951
  0
VERTEX
  5
2129
  8
SAPA_PROFIL
 10
-37.499999998918859
 20
19.09927261057901
 30
0.0
  0
SEQEND
  5
212A
  8
SAPA_PROFIL
  0
POLYLINE
  5
1B59
  8
SAPA_PROFIL
  6
CONTINUOUS
 62
     7
 66
     1
 10
0.0
 20
0.0
 30
0.0
 70
     1
  0
VERTEX
  5
212B
  8
SAPA_PROFIL
  6
CONTINUOUS
 62
     7
 10
-87.300003047092844
 20
23.000000747111731
 30
0.0
  0
VERTEX
  5
212C
  8
SAPA_PROFIL
  6
CONTINUOUS
 62
     7
 10
-87.300003047092844
 20
21.35000074711937
 30
0.0
 42
0.4142135623729003
  0
VERTEX
  5
212D
  8
SAPA_PROFIL
  6
CONTINUOUS
 62
     7
 10
-87.000003047092889
 20
21.050000747119189
 30
0.0
  0
VERTEX
  5
212E
  8
SAPA_PROFIL
  6
CONTINUOUS
 62
     7
 10
-85.400000001070865
 20
21.050000747119181
 30
0.0
 42
-0.1806877882261281
  0
VERTEX
  5
212F
  8
SAPA_PROFIL
  6
CONTINUOUS
 62
     7
 10
-83.400283406662723
 20
20.302962653201519
 30
0.0
 42
-0.9538213995949648
  0
VERTEX
  5
2130
  8
SAPA_PROFIL
  6
CONTINUOUS
 62
     7
 10
-84.328106923347434
 20
19.126475675976529
 30
0.0
  0
VERTEX
  5
2131
  8
SAPA_PROFIL
  6
CONTINUOUS
 62
     7
 10
-84.585303985957879
 20
19.05755993075493
 30
0.0
 42
-0.4142135623719595
  0
VERTEX
  5
2132
  8
SAPA_PROFIL
  6
CONTINUOUS
 62
     7
 10
-84.891481088747057
 20
19.23433136347014
 30
0.0
  0
VERTEX
  5
2133
  8
SAPA_PROFIL
  6
CONTINUOUS
 62
     7
 10
-84.958891075394575
 20
19.48590885857455
 30
0.0
 42
0.4299878773908156
  0
VERTEX
  5
2134
  8
SAPA_PROFIL
  6
CONTINUOUS
 62
     7
 10
-86.907390018256649
 20
18.360937495157518
 30
0.0
  0
VERTEX
  5
2135
  8
SAPA_PROFIL
  6
CONTINUOUS
 62
     7
 10
-86.723221125915671
 20
18.176768602816079
 30
0.0
 42
-0.4142135623718706
  0
VERTEX
  5
2136
  8
SAPA_PROFIL
  6
CONTINUOUS
 62
     7
 10
-86.723221125915714
 20
17.82322573738568
 30
0.0
  0
VERTEX
  5
2137
  8
SAPA_PROFIL
  6
CONTINUOUS
 62
     7
 10
-86.907388636179277
 20
17.639058227121009
 30
0.0
 42
0.429987877699598
  0
VERTEX
  5
2138
  8
SAPA_PROFIL
  6
CONTINUOUS
 62
     7
 10
-84.958885384142661
 20
16.51409432518906
 30
0.0
  0
VERTEX
  5
2139
  8
SAPA_PROFIL
  6
CONTINUOUS
 62
     7
 10
-84.891474890507965
 20
16.76567371239517
 30
0.0
 42
-0.4142135623733942
  0
VERTEX
  5
213A
  8
SAPA_PROFIL
  6
CONTINUOUS
 62
     7
 10
-84.585297787718744
 20
16.942445145110501
 30
0.0
  0
VERTEX
  5
213B
  8
SAPA_PROFIL
  6
CONTINUOUS
 62
     7
 10
-84.328101588455098
 20
16.87352963122261
 30
0.0
 42
-0.9538172250823233
  0
VERTEX
  5
213C
  8
SAPA_PROFIL
  6
CONTINUOUS
 62
     7
 10
-83.400283406534726
 20
15.69703884089097
 30
0.0
 42
-0.1806877881352354
  0
VERTEX
  5
213D
  8
SAPA_PROFIL
  6
CONTINUOUS
 62
     7
 10
-85.40000000107085
 20
14.950000747119731
 30
0.0
  0
VERTEX
  5
213E
  8
SAPA_PROFIL
  6
CONTINUOUS
 62
     7
 10
-87.300000003219836
 20
14.950000747119731
 30
0.0
 42
0.4142135623728949
  0
VERTEX
  5
213F
  8
SAPA_PROFIL
  6
CONTINUOUS
 62
     7
 10
-87.600000003220714
 20
14.650000747118639
 30
0.0
  0
VERTEX
  5
2140
  8
SAPA_PROFIL
  6
CONTINUOUS
 62
     7
 10
-87.600000003219805
 20
13.00000074712165
 30
0.0
 42
0.4142135623747599
  0
VERTEX
  5
2141
  8
SAPA_PROFIL
  6
CONTINUOUS
 62
     7
 10
-87.300000003218699
 20
12.70000074712155
 30
0.0
  0
VERTEX
  5
2142
  8
SAPA_PROFIL
  6
CONTINUOUS
 62
     7
 10
-82.599999998920126
 20
12.70000074713278
 30
0.0
 42
-0.414213562374087
  0
VERTEX
  5
2143
  8
SAPA_PROFIL
  6
CONTINUOUS
 62
     7
 10
-82.299999998920214
 20
12.4000007471326
 30
0.0
  0
VERTEX
  5
2144
  8
SAPA_PROFIL
  6
CONTINUOUS
 62
     7
 10
-82.299999998919077
 20
11.300000747101221
 30
0.0
 42
-0.4142135623632305
  0
VERTEX
  5
2145
  8
SAPA_PROFIL
  6
CONTINUOUS
 62
     7
 10
-82.599999998918165
 20
11.00000074710802
 30
0.0
  0
VERTEX
  5
2146
  8
SAPA_PROFIL
  6
CONTINUOUS
 62
     7
 10
-92.700000003219714
 20
11.000000747090811
 30
0.0
 42
-0.4142135623563092
  0
VERTEX
  5
2147
  8
SAPA_PROFIL
  6
CONTINUOUS
 62
     7
 10
-93.000000003220805
 20
11.300000747090991
 30
0.0
  0
VERTEX
  5
2148
  8
SAPA_PROFIL
  6
CONTINUOUS
 62
     7
 10
-93.000000003221714
 20
19.200000747089629
 30
0.0
 42
-0.414213562392466
  0
VERTEX
  5
2149
  8
SAPA_PROFIL
  6
CONTINUOUS
 62
     7
 10
-92.70000000322085
 20
19.500000747090809
 30
0.0
  0
VERTEX
  5
214A
  8
SAPA_PROFIL
  6
CONTINUOUS
 62
     7
 10
-91.600000003220714
 20
19.500000747111731
 30
0.0
 42
-0.4142135623952085
  0
VERTEX
  5
214B
  8
SAPA_PROFIL
  6
CONTINUOUS
 62
     7
 10
-91.300000003220745
 20
19.200000747089721
 30
0.0
  0
VERTEX
  5
214C
  8
SAPA_PROFIL
  6
CONTINUOUS
 62
     7
 10
-91.300000003219836
 20
13.700000747114281
 30
0.0
 42
0.9999999999999998
  0
VERTEX
  5
214D
  8
SAPA_PROFIL
  6
CONTINUOUS
 62
     7
 10
-89.30000000321985
 20
13.700000747114281
 30
0.0
  0
VERTEX
  5
214E
  8
SAPA_PROFIL
  6
CONTINUOUS
 62
     7
 10
-89.30000000321985
 20
15.60541111045044
 30
0.0
 42
-0.1539147210606419
  0
VERTEX
  5
214F
  8
SAPA_PROFIL
  6
CONTINUOUS
 62
     7
 10
-89.245745616505758
 20
15.777484041356759
 30
0.0
  0
VERTEX
  5
2150
  8
SAPA_PROFIL
  6
CONTINUOUS
 62
     7
 10
-88.354254389933772
 20
17.050665459614681
 30
0.0
 42
0.1539147210594121
  0
VERTEX
  5
2151
  8
SAPA_PROFIL
  6
CONTINUOUS
 62
     7
 10
-88.300000003220305
 20
17.222738390519261
 30
0.0
  0
VERTEX
  5
2152
  8
SAPA_PROFIL
  6
CONTINUOUS
 62
     7
 10
-88.300000003219864
 20
19.989342373599388
 30
0.0
 42
0.1872522264746358
  0
VERTEX
  5
2153
  8
SAPA_PROFIL
  6
CONTINUOUS
 62
     7
 10
-88.378547314063383
 20
20.191724948110309
 30
0.0
  0
VERTEX
  5
2154
  8
SAPA_PROFIL
  6
CONTINUOUS
 62
     7
 10
-89.221452692375919
 20
21.11405565362757
 30
0.0
 42
-0.1872522264746339
  0
VERTEX
  5
2155
  8
SAPA_PROFIL
  6
CONTINUOUS
 62
     7
 10
-89.30000000321985
 20
21.316438228137521
 30
0.0
  0
VERTEX
  5
2156
  8
SAPA_PROFIL
  6
CONTINUOUS
 62
     7
 10
-89.30000000321985
 20
24.70000074708981
 30
0.0
 42
-0.4142135623952092
  0
VERTEX
  5
2157
  8
SAPA_PROFIL
  6
CONTINUOUS
 62
     7
 10
-89.000000003219967
 20
25.000000747109571
 30
0.0
  0
VERTEX
  5
2158
  8
SAPA_PROFIL
  6
CONTINUOUS
 62
     7
 10
-86.08038780482218
 20
25.000000747109588
 30
0.0
 42
-0.131652497587394
  0
VERTEX
  5
2159
  8
SAPA_PROFIL
  6
CONTINUOUS
 62
     7
 10
-85.930387804822189
 20
24.959808368244911
 30
0.0
  0
VERTEX
  5
215A
  8
SAPA_PROFIL
  6
CONTINUOUS
 62
     7
 10
-85.550003047092858
 20
24.740193125974251
 30
0.0
 42
0.2679491924311264
  0
VERTEX
  5
215B
  8
SAPA_PROFIL
  6
CONTINUOUS
 62
     7
 10
-85.250003047092846
 20
24.740193125974258
 30
0.0
  0
VERTEX
  5
215C
  8
SAPA_PROFIL
  6
CONTINUOUS
 62
     7
 10
-84.869618289367963
 20
24.959808368242371
 30
0.0
 42
-0.1316524975876173
  0
VERTEX
  5
215D
  8
SAPA_PROFIL
  6
CONTINUOUS
 62
     7
 10
-84.719618289367716
 20
25.00000074710703
 30
0.0
  0
VERTEX
  5
215E
  8
SAPA_PROFIL
  6
CONTINUOUS
 62
     7
 10
-67.499719497750803
 20
25.000000747091701
 30
0.0
  0
VERTEX
  5
215F
  8
SAPA_PROFIL
  6
CONTINUOUS
 62
     7
 10
-66.176718656316211
 20
24.48865002746783
 30
0.0
 42
0.4142135623730732
  0
VERTEX
  5
2160
  8
SAPA_PROFIL
  6
CONTINUOUS
 62
     7
 10
-65.802533700840399
 20
24.68861407197522
 30
0.0
  0
VERTEX
  5
2161
  8
SAPA_PROFIL
  6
CONTINUOUS
 62
     7
 10
-65.788015291593297
 20
24.73645982197371
 30
0.0
  0
VERTEX
  5
2162
  8
SAPA_PROFIL
  6
CONTINUOUS
 62
     7
 10
-64.284914210831289
 20
24.73654342985736
 30
0.0
 42
-0.4769755326981473
  0
VERTEX
  5
2163
  8
SAPA_PROFIL
  6
CONTINUOUS
 62
     7
 10
-63.982661386324821
 20
24.3648865549115
 30
0.0
  0
VERTEX
  5
2164
  8
SAPA_PROFIL
  6
CONTINUOUS
 62
     7
 10
-64.364107982452481
 20
22.551656084253239
 30
0.0
 42
-0.2216946626430328
  0
VERTEX
  5
2165
  8
SAPA_PROFIL
  6
CONTINUOUS
 62
     7
 10
-64.769916887607323
 20
22.010776252776449
 30
0.0
  0
VERTEX
  5
2166
  8
SAPA_PROFIL
  6
CONTINUOUS
 62
     7
 10
-65.054599170838955
 20
21.858642341667689
 30
0.0
 42
-0.5773502691897292
  0
VERTEX
  5
2167
  8
SAPA_PROFIL
  6
CONTINUOUS
 62
     7
 10
-65.348755471093796
 20
22.041596081777872
 30
0.0
  0
VERTEX
  5
2168
  8
SAPA_PROFIL
  6
CONTINUOUS
 62
     7
 10
-65.33819410486683
 20
22.363353809996109
 30
0.0
  0
VERTEX
  5
2169
  8
SAPA_PROFIL
  6
CONTINUOUS
 62
     7
 10
-67.224037796727885
 20
23.447918256967849
 30
0.0
  0
VERTEX
  5
216A
  8
SAPA_PROFIL
  6
CONTINUOUS
 62
     7
 10
-67.415420796721605
 20
23.505991893956828
 30
0.0
 42
0.7625858545243111
  0
VERTEX
  5
216B
  8
SAPA_PROFIL
  6
CONTINUOUS
 62
     7
 10
-67.599999998919031
 20
23.17566581293994
 30
0.0
 42
-0.2134217652834384
  0
VERTEX
  5
216C
  8
SAPA_PROFIL
  6
CONTINUOUS
 62
     7
 10
-67.499999998918895
 20
22.952059015154219
 30
0.0
  0
VERTEX
  5
216D
  8
SAPA_PROFIL
  6
CONTINUOUS
 62
     7
 10
-67.499999998918895
 20
19.09927261057058
 30
0.0
 42
0.4142135623719642
  0
VERTEX
  5
216E
  8
SAPA_PROFIL
  6
CONTINUOUS
 62
     7
 10
-67.199999998918955
 20
18.799272610569489
 30
0.0
  0
VERTEX
  5
216F
  8
SAPA_PROFIL
  6
CONTINUOUS
 62
     7
 10
-66.899999998918759
 20
18.799272610570402
 30
0.0
  0
VERTEX
  5
2170
  8
SAPA_PROFIL
  6
CONTINUOUS
 62
     7
 10
-65.299999998918878
 20
19.72303304127492
 30
0.0
 42
-0.5773502691885648
  0
VERTEX
  5
2171
  8
SAPA_PROFIL
  6
CONTINUOUS
 62
     7
 10
-64.999999998918895
 20
19.549827960517199
 30
0.0
  0
VERTEX
  5
2172
  8
SAPA_PROFIL
  6
CONTINUOUS
 62
     7
 10
-64.999999998918895
 20
10.450173533698971
 30
0.0
 42
-0.5773502691885171
  0
VERTEX
  5
2173
  8
SAPA_PROFIL
  6
CONTINUOUS
 62
     7
 10
-65.299999998918835
 20
10.27696845294124
 30
0.0
  0
VERTEX
  5
2174
  8
SAPA_PROFIL
  6
CONTINUOUS
 62
     7
 10
-66.899999998918759
 20
11.20072888364578
 30
0.0
  0
VERTEX
  5
2175
  8
SAPA_PROFIL
  6
CONTINUOUS
 62
     7
 10
-67.199999998918955
 20
11.20072888364578
 30
0.0
 42
0.4142135623719644
  0
VERTEX
  5
2176
  8
SAPA_PROFIL
  6
CONTINUOUS
 62
     7
 10
-67.499999998917986
 20
10.90072888364559
 30
0.0
  0
VERTEX
  5
2177
  8
SAPA_PROFIL
  6
CONTINUOUS
 62
     7
 10
-67.499999998918895
 20
7.0479424790398753
 30
0.0
 42
-0.2134217652834359
  0
VERTEX
  5
2178
  8
SAPA_PROFIL
  6
CONTINUOUS
 62
     7
 10
-67.599999998919088
 20
6.8243356812897673
 30
0.0
 42
0.7625858545243172
  0
VERTEX
  5
2179
  8
SAPA_PROFIL
  6
CONTINUOUS
 62
     7
 10
-67.415420796721605
 20
6.4940096002727614
 30
0.0
  0
VERTEX
  5
217A
  8
SAPA_PROFIL
  6
CONTINUOUS
 62
     7
 10
-67.224037796727885
 20
6.5520832372618543
 30
0.0
  0
VERTEX
  5
217B
  8
SAPA_PROFIL
  6
CONTINUOUS
 62
     7
 10
-65.33819410486683
 20
7.6366476842335942
 30
0.0
  0
VERTEX
  5
217C
  8
SAPA_PROFIL
  6
CONTINUOUS
 62
     7
 10
-65.348755471093796
 20
7.958405412451838
 30
0.0
 42
-0.5773502691897293
  0
VERTEX
  5
217D
  8
SAPA_PROFIL
  6
CONTINUOUS
 62
     7
 10
-65.054599170838955
 20
8.1413591525620177
 30
0.0
  0
VERTEX
  5
217E
  8
SAPA_PROFIL
  6
CONTINUOUS
 62
     7
 10
-64.76991688760728
 20
7.9892252414532541
 30
0.0
 42
-0.2216946626430043
  0
VERTEX
  5
217F
  8
SAPA_PROFIL
  6
CONTINUOUS
 62
     7
 10
-64.364107982452538
 20
7.4483454099764677
 30
0.0
  0
VERTEX
  5
2180
  8
SAPA_PROFIL
  6
CONTINUOUS
 62
     7
 10
-63.982661386324821
 20
5.6351149393182096
 30
0.0
 42
-0.4769755326981317
  0
VERTEX
  5
2181
  8
SAPA_PROFIL
  6
CONTINUOUS
 62
     7
 10
-64.284914210831289
 20
5.263458064372343
 30
0.0
  0
VERTEX
  5
2182
  8
SAPA_PROFIL
  6
CONTINUOUS
 62
     7
 10
-65.788015291593297
 20
5.2635416722559958
 30
0.0
  0
VERTEX
  5
2183
  8
SAPA_PROFIL
  6
CONTINUOUS
 62
     7
 10
-65.802533700840399
 20
5.3113874222544828
 30
0.0
 42
0.4142135623730951
  0
VERTEX
  5
2184
  8
SAPA_PROFIL
  6
CONTINUOUS
 62
     7
 10
-66.176718656316211
 20
5.5113514667618801
 30
0.0
  0
VERTEX
  5
2185
  8
SAPA_PROFIL
  6
CONTINUOUS
 62
     7
 10
-67.499719497766961
 20
5.0000007471316792
 30
0.0
  0
VERTEX
  5
2186
  8
SAPA_PROFIL
  6
CONTINUOUS
 62
     7
 10
-69.699999998919864
 20
5.0000007471434449
 30
0.0
 42
-0.4142135623531162
  0
VERTEX
  5
2187
  8
SAPA_PROFIL
  6
CONTINUOUS
 62
     7
 10
-69.999999998919108
 20
5.3000007471231347
 30
0.0
  0
VERTEX
  5
2188
  8
SAPA_PROFIL
  6
CONTINUOUS
 62
     7
 10
-69.999999998919108
 20
10.00000074710743
 30
0.0
 42
0.4142135623737027
  0
VERTEX
  5
2189
  8
SAPA_PROFIL
  6
CONTINUOUS
 62
     7
 10
-70.999999998921183
 20
11.00000074710743
 30
0.0
  0
VERTEX
  5
218A
  8
SAPA_PROFIL
  6
CONTINUOUS
 62
     7
 10
-73.99999999891844
 20
11.000000747101209
 30
0.0
 42
-0.4142135623737057
  0
VERTEX
  5
218B
  8
SAPA_PROFIL
  6
CONTINUOUS
 62
     7
 10
-74.299999998919063
 20
11.300000747101221
 30
0.0
  0
VERTEX
  5
218C
  8
SAPA_PROFIL
  6
CONTINUOUS
 62
     7
 10
-74.299999998919063
 20
12.573439230879069
 30
0.0
 42
-0.1962615682814401
  0
VERTEX
  5
218D
  8
SAPA_PROFIL
  6
CONTINUOUS
 62
     7
 10
-74.214285713204774
 20
12.78339549454676
 30
0.0
 42
0.1962615682813938
  0
VERTEX
  5
218E
  8
SAPA_PROFIL
  6
CONTINUOUS
 62
     7
 10
-73.499999998919094
 20
14.53303102510597
 30
0.0
  0
VERTEX
  5
218F
  8
SAPA_PROFIL
  6
CONTINUOUS
 62
     7
 10
-73.499999998919094
 20
23.000000747111219
 30
0.0
 42
0.414213562373709
  0
VERTEX
  5
2190
  8
SAPA_PROFIL
  6
CONTINUOUS
 62
     7
 10
-73.799999998919063
 20
23.30000074711225
 30
0.0
  0
VERTEX
  5
2191
  8
SAPA_PROFIL
  6
CONTINUOUS
 62
     7
 10
-87.000003047092875
 20
23.300000747111909
 30
0.0
 42
0.4142135623728949
  0
SEQEND
  5
2192
  8
SAPA_PROFIL
  6
CONTINUOUS
 62
     7
  0
POLYLINE
  5
1B5A
  8
SAPA_PROFIL
 62
     4
 66
     1
 10
0.0
 20
0.0
 30
0.0
 70
     1
  0
VERTEX
  5
2193
  8
SAPA_PROFIL
 62
     4
 10
-64.462221528366854
 20
7.9732435520354521
 30
0.0
 42
-0.3137019356282051
  0
VERTEX
  5
2194
  8
SAPA_PROFIL
 62
     4
 10
-64.181271744820549
 20
7.7756179265020329
 30
0.0
  0
VERTEX
  5
2195
  8
SAPA_PROFIL
 62
     4
 10
-63.295794031949349
 20
5.342787904958012
 30
0.0
 42
0.3152987888779321
  0
VERTEX
  5
2196
  8
SAPA_PROFIL
 62
     4
 10
-62.919916983632959
 20
5.079595962288292
 30
0.0
  0
VERTEX
  5
2197
  8
SAPA_PROFIL
 62
     4
 10
-52.499999998918831
 20
5.0795959622883169
 30
0.0
  0
VERTEX
  5
2198
  8
SAPA_PROFIL
 62
     4
 10
-42.080083014200738
 20
5.079595962288372
 30
0.0
 42
0.3152987888779395
  0
VERTEX
  5
2199
  8
SAPA_PROFIL
 62
     4
 10
-41.70420596588837
 20
5.3427879049580929
 30
0.0
  0
VERTEX
  5
219A
  8
SAPA_PROFIL
 62
     4
 10
-40.818728253020197
 20
7.775617926493787
 30
0.0
 42
-0.3138982169096283
  0
VERTEX
  5
219B
  8
SAPA_PROFIL
 62
     4
 10
-40.537778469506009
 20
7.9732435520341411
 30
0.0
 42
-0.0157923906855865
  0
VERTEX
  5
219C
  8
SAPA_PROFIL
 62
     4
 10
-40.186319937167163
 20
7.9766466816737349
 30
0.0
  0
VERTEX
  5
219D
  8
SAPA_PROFIL
 62
     4
 10
-39.946136872384869
 20
8.1153164387802619
 30
0.0
 42
-0.5773502691889272
  0
VERTEX
  5
219E
  8
SAPA_PROFIL
 62
     4
 10
-39.631136872385163
 20
7.933451103985468
 30
0.0
  0
VERTEX
  5
219F
  8
SAPA_PROFIL
 62
     4
 10
-39.631136872385042
 20
7.6663365757725526
 30
0.0
  0
VERTEX
  5
21A0
  8
SAPA_PROFIL
 62
     4
 10
-39.29999999891885
 20
7.4701145099882549
 30
0.0
  0
VERTEX
  5
21A1
  8
SAPA_PROFIL
 62
     4
 10
-38.316679860938329
 20
6.9024703464908068
 30
0.0
 42
0.1316524975869703
  0
VERTEX
  5
21A2
  8
SAPA_PROFIL
 62
     4
 10
-38.211679860939512
 20
6.8743356812862464
 30
0.0
  0
VERTEX
  5
21A3
  8
SAPA_PROFIL
 62
     4
 10
-37.89999999891694
 20
6.8743356812861309
 30
0.0
 42
0.4142135623775584
  0
VERTEX
  5
21A4
  8
SAPA_PROFIL
 62
     4
 10
-37.499999998918902
 20
7.2743356812864501
 30
0.0
  0
VERTEX
  5
21A5
  8
SAPA_PROFIL
 62
     4
 10
-37.499999998918838
 20
10.6743356812862
 30
0.0
 42
0.4142135623773978
  0
VERTEX
  5
21A6
  8
SAPA_PROFIL
 62
     4
 10
-37.899999998918872
 20
11.074335681286181
 30
0.0
  0
VERTEX
  5
21A7
  8
SAPA_PROFIL
 62
     4
 10
-38.211679860942517
 20
11.074335681286181
 30
0.0
 42
0.1316524975869708
  0
VERTEX
  5
21A8
  8
SAPA_PROFIL
 62
     4
 10
-38.316679860939473
 20
11.04620101608093
 30
0.0
  0
VERTEX
  5
21A9
  8
SAPA_PROFIL
 62
     4
 10
-39.29999999891885
 20
10.478480869718901
 30
0.0
  0
VERTEX
  5
21AA
  8
SAPA_PROFIL
 62
     4
 10
-39.894744110589727
 20
10.13510519674678
 30
0.0
 42
-0.1316524975869772
  0
VERTEX
  5
21AB
  8
SAPA_PROFIL
 62
     4
 10
-40.494744110593103
 20
9.97433568128627
 30
0.0
  0
VERTEX
  5
21AC
  8
SAPA_PROFIL
 62
     4
 10
-41.446608443479533
 20
9.9743356812864974
 30
0.0
 42
0.3152987888780149
  0
VERTEX
  5
21AD
  8
SAPA_PROFIL
 62
     4
 10
-42.386301064251029
 20
9.3163558246121099
 30
0.0
  0
VERTEX
  5
21AE
  8
SAPA_PROFIL
 62
     4
 10
-43.177415089160881
 20
7.1427879049584169
 30
0.0
 42
-0.3152987888779391
  0
VERTEX
  5
21AF
  8
SAPA_PROFIL
 62
     4
 10
-43.553292137475403
 20
6.8795959622882981
 30
0.0
  0
VERTEX
  5
21B0
  8
SAPA_PROFIL
 62
     4
 10
-52.499999998918831
 20
6.8795959622882998
 30
0.0
  0
VERTEX
  5
21B1
  8
SAPA_PROFIL
 62
     4
 10
-61.446707860362331
 20
6.8795959622882448
 30
0.0
 42
-0.3152987888779318
  0
VERTEX
  5
21B2
  8
SAPA_PROFIL
 62
     4
 10
-61.822584908675481
 20
7.1427879049546688
 30
0.0
  0
VERTEX
  5
21B3
  8
SAPA_PROFIL
 62
     4
 10
-62.613698933586591
 20
9.316355824611886
 30
0.0
 42
0.3152987888779361
  0
VERTEX
  5
21B4
  8
SAPA_PROFIL
 62
     4
 10
-63.55339155438719
 20
9.9743356812862167
 30
0.0
  0
VERTEX
  5
21B5
  8
SAPA_PROFIL
 62
     4
 10
-64.505255887244687
 20
9.9743356812862167
 30
0.0
 42
-0.1316524975869766
  0
VERTEX
  5
21B6
  8
SAPA_PROFIL
 62
     4
 10
-65.105255887237888
 20
10.13510519674093
 30
0.0
  0
VERTEX
  5
21B7
  8
SAPA_PROFIL
 62
     4
 10
-65.692820321946385
 20
10.47433568128616
 30
0.0
  0
VERTEX
  5
21B8
  8
SAPA_PROFIL
 62
     4
 10
-66.683320136898317
 20
11.046201016080881
 30
0.0
 42
0.1316524975869832
  0
VERTEX
  5
21B9
  8
SAPA_PROFIL
 62
     4
 10
-66.788320136901405
 20
11.07433568128612
 30
0.0
  0
VERTEX
  5
21BA
  8
SAPA_PROFIL
 62
     4
 10
-67.099999998918904
 20
11.074335681286181
 30
0.0
 42
0.414213562371655
  0
VERTEX
  5
21BB
  8
SAPA_PROFIL
 62
     4
 10
-67.499999998918895
 20
10.674335681282219
 30
0.0
  0
VERTEX
  5
21BC
  8
SAPA_PROFIL
 62
     4
 10
-67.499999998918895
 20
7.274335681286173
 30
0.0
 42
0.4142135623716633
  0
VERTEX
  5
21BD
  8
SAPA_PROFIL
 62
     4
 10
-67.099999998916871
 20
6.8743356812861949
 30
0.0
  0
VERTEX
  5
21BE
  8
SAPA_PROFIL
 62
     4
 10
-66.788320136898221
 20
6.8743356812861949
 30
0.0
 42
0.1316524975869709
  0
VERTEX
  5
21BF
  8
SAPA_PROFIL
 62
     4
 10
-66.683320136897635
 20
6.9024703464917803
 30
0.0
  0
VERTEX
  5
21C0
  8
SAPA_PROFIL
 62
     4
 10
-65.368863125452634
 20
7.6663365757725588
 30
0.0
  0
VERTEX
  5
21C1
  8
SAPA_PROFIL
 62
     4
 10
-65.368863125452521
 20
7.9334511039854743
 30
0.0
 42
-0.5773502691889269
  0
VERTEX
  5
21C2
  8
SAPA_PROFIL
 62
     4
 10
-65.053863125452807
 20
8.1153164387802672
 30
0.0
  0
VERTEX
  5
21C3
  8
SAPA_PROFIL
 62
     4
 10
-64.813680060670507
 20
7.9766466816737429
 30
0.0
 42
-0.015792390685586
  0
SEQEND
  5
21C4
  8
SAPA_PROFIL
 62
     4
  0
ARC
  5
1B5B
  8
SAPA_PROFIL
 10
-33.900000000001661
 20
-12.28820975909372
 30
0.0
 40
0.2999999999998626
 50
178.44557377481129
 51
314.21533357922931
  0
LINE
  5
1B5C
  8
SAPA_PROFIL
 10
-31.430030478057859
 20
-10.303554057742931
 30
0.0
 11
-33.690792918440309
 21
-12.50322696078814
 31
0.0
  0
ARC
  5
1B5D
  8
SAPA_PROFIL
 10
-31.591879883392689
 20
-10.05095799682203
 30
0.0
 40
0.2999999999999829
 50
302.64947327816333
 51
0.0000000000111956
  0
LINE
  5
1B5E
  8
SAPA_PROFIL
 10
-31.29187988339271
 20
-9.4999988793856005
 30
0.0
 11
-31.29187988339271
 21
-10.05095799682198
 31
0.0
  0
ARC
  5
1B5F
  8
SAPA_PROFIL
 10
-31.591879883392551
 20
-9.4999988793857142
 30
0.0
 40
0.2999999999998408
 50
0.0000000000217126
 51
90.000000000021672
  0
LINE
  5
1B60
  8
SAPA_PROFIL
 10
-56.693485944234787
 20
-9.1999988793858734
 30
0.0
 11
-31.591879883392672
 21
-9.1999988793858734
 31
0.0
  0
ARC
  5
1B61
  8
SAPA_PROFIL
 10
-56.69348594423478
 20
-8.6999988793858591
 30
0.0
 40
0.5000000000000142
 50
180.00000000000139
 51
269.99999999999841
  0
LINE
  5
1B62
  8
SAPA_PROFIL
 10
-57.193485944234787
 20
-6.999998879385827
 30
0.0
 11
-57.193485944234787
 21
-8.6999988793858734
 31
0.0
  0
ARC
  5
1B63
  8
SAPA_PROFIL
 10
-56.693485944234823
 20
-6.9999988793858039
 30
0.0
 40
0.4999999999999769
 50
89.999999999997556
 51
180.00000000000259
  0
LINE
  5
1B64
  8
SAPA_PROFIL
 10
-43.991879883392237
 20
-6.4999988793862817
 30
0.0
 11
-56.693485944234787
 21
-6.499998879385827
 31
0.0
  0
ARC
  5
1B65
  8
SAPA_PROFIL
 10
-43.991879883392237
 20
-6.1999988793863281
 30
0.0
 40
0.2999999999999545
 50
270.0
 51
0.0000000000434252
  0
LINE
  5
1B66
  8
SAPA_PROFIL
 10
-43.691879883392289
 20
-5.2999988793860089
 30
0.0
 11
-43.691879883392289
 21
-6.1999988793860998
 31
0.0
  0
ARC
  5
1B67
  8
SAPA_PROFIL
 10
-43.991879883392471
 20
-5.2999988793860089
 30
0.0
 40
0.3000000000001819
 50
0.0
 51
90.0
  0
LINE
  5
1B68
  8
SAPA_PROFIL
 10
-58.393485944235067
 20
-4.9999988793867374
 30
0.0
 11
-43.991879883392471
 21
-4.999998879385827
 31
0.0
  0
ARC
  5
1B69
  8
SAPA_PROFIL
 10
-58.393485944235067
 20
-5.2999988793864574
 30
0.0
 40
0.29999999999972
 50
89.999999999998636
 51
180.00000000000131
  0
LINE
  5
1B6A
  8
SAPA_PROFIL
 10
-58.69348594423434
 20
-14.39999887938524
 30
0.0
 11
-58.693485944234787
 21
-5.2999988793864636
 31
0.0
  0
ARC
  5
1B6B
  8
SAPA_PROFIL
 10
-71.454205507059271
 20
-14.549998879394771
 30
0.0
 40
12.76160114409887
 50
359.32652927037441
 51
0.6734707297123933
  0
ARC
  5
1B6C
  8
SAPA_PROFIL
 10
-48.309870737645731
 20
-14.84999887937718
 30
0.0
 40
10.38469858775357
 50
179.1723721459243
 51
180.8276278541625
  0
LINE
  5
1B6D
  8
SAPA_PROFIL
 10
-58.693485944233892
 20
-17.799998879384869
 30
0.0
 11
-58.693485944233892
 21
-14.99999887938514
 31
0.0
  0
LINE
  5
1B6E
  8
SAPA_PROFIL
 10
-58.228562524668519
 20
-18.38638289514569
 30
0.0
 11
-58.693485944233892
 21
-17.799998879384869
 31
0.0
  0
ARC
  5
1B6F
  8
SAPA_PROFIL
 10
-57.993485944233697
 20
-18.19999887938496
 30
0.0
 40
0.3000000000000398
 50
218.4096710633973
 51
359.99999999999858
  0
LINE
  5
1B70
  8
SAPA_PROFIL
 10
-57.693485944233878
 20
-16.499998879385139
 30
0.0
 11
-57.693485944233657
 21
-18.19999887938496
 31
0.0
  0
ARC
  5
1B71
  8
SAPA_PROFIL
 10
-57.393485944233703
 20
-16.499998879385139
 30
0.0
 40
0.3000000000001819
 50
90.0
 51
180.0
  0
LINE
  5
1B72
  8
SAPA_PROFIL
 10
-53.193485944233878
 20
-16.19999887938496
 30
0.0
 11
-57.393485944233703
 21
-16.19999887938496
 31
0.0
  0
ARC
  5
1B73
  8
SAPA_PROFIL
 10
-53.193485944234112
 20
-16.499998879384918
 30
0.0
 40
0.2999999999999545
 50
359.99999999995657
 51
89.999999999956557
  0
LINE
  5
1B74
  8
SAPA_PROFIL
 10
-52.89348594423393
 20
-22.999998879385149
 30
0.0
 11
-52.893485944234151
 21
-16.499998879385139
 31
0.0
  0
ARC
  5
1B75
  8
SAPA_PROFIL
 10
-53.193485944233657
 20
-22.999998879385149
 30
0.0
 40
0.2999999999997271
 50
269.99999999995657
 51
0.0
  0
LINE
  5
1B76
  8
SAPA_PROFIL
 10
-57.39348594423393
 20
-23.29999887938488
 30
0.0
 11
-53.193485944233878
 21
-23.29999887938488
 31
0.0
  0
ARC
  5
1B77
  8
SAPA_PROFIL
 10
-57.393485944233987
 20
-22.999998879385199
 30
0.0
 40
0.2999999999996703
 50
179.99999999998909
 51
270.0000000000108
  0
LINE
  5
1B78
  8
SAPA_PROFIL
 10
-57.693485944233878
 20
-21.799998879384869
 30
0.0
 11
-57.693485944233657
 21
-22.999998879385149
 31
0.0
  0
ARC
  5
1B79
  8
SAPA_PROFIL
 10
-57.993485944233818
 20
-21.79999887938488
 30
0.0
 40
0.2999999999999416
 50
0.000000000001357
 51
141.5903289365875
  0
LINE
  5
1B7A
  8
SAPA_PROFIL
 10
-58.693485944233892
 20
-22.199998879384971
 30
0.0
 11
-58.228562524668519
 21
-21.61361486362415
 31
0.0
  0
LINE
  5
1B7B
  8
SAPA_PROFIL
 10
-58.693485944233892
 20
-24.499998879385149
 30
0.0
 11
-58.693485944233892
 21
-22.199998879384971
 31
0.0
  0
ARC
  5
1B7C
  8
SAPA_PROFIL
 10
-58.39348594423393
 20
-24.499998879384918
 30
0.0
 40
0.2999999999999545
 50
180.0000000000434
 51
270.00000000004343
  0
LINE
  5
1B7D
  8
SAPA_PROFIL
 10
-51.193485944233892
 20
-24.799998879384869
 30
0.0
 11
-58.393485944233703
 21
-24.799998879384869
 31
0.0
  0
ARC
  5
1B7E
  8
SAPA_PROFIL
 10
-51.193485944233892
 20
-24.499998879384918
 30
0.0
 40
0.2999999999999545
 50
270.0
 51
0.0000000000434252
  0
LINE
  5
1B7F
  8
SAPA_PROFIL
 10
-50.89348594423393
 20
-22.69999887938496
 30
0.0
 11
-50.89348594423393
 21
-24.499998879384691
 31
0.0
  0
LINE
  5
1B80
  8
SAPA_PROFIL
 10
-51.093485944233748
 20
-22.69999887938496
 30
0.0
 11
-50.89348594423393
 21
-22.69999887938496
 31
0.0
  0
ARC
  5
1B81
  8
SAPA_PROFIL
 10
-51.093485944233983
 20
-22.39999887938524
 30
0.0
 40
0.2999999999997271
 50
180.0
 51
270.00000000004343
  0
LINE
  5
1B82
  8
SAPA_PROFIL
 10
-51.393485944233703
 20
-14.99999887938514
 30
0.0
 11
-51.393485944233703
 21
-22.39999887938524
 31
0.0
  0
ARC
  5
1B83
  8
SAPA_PROFIL
 10
-51.693485944233892
 20
-14.99999887938514
 30
0.0
 40
0.3000000000001819
 50
0.0
 51
90.0
  0
LINE
  5
1B84
  8
SAPA_PROFIL
 10
-56.69348594423434
 20
-14.69999887938496
 30
0.0
 11
-51.693485944233892
 21
-14.69999887938496
 31
0.0
  0
ARC
  5
1B85
  8
SAPA_PROFIL
 10
-56.693485944234318
 20
-14.19999887938495
 30
0.0
 40
0.5000000000000142
 50
180.00000000000139
 51
269.99999999999841
  0
LINE
  5
1B86
  8
SAPA_PROFIL
 10
-57.193485944234567
 20
-11.19999887938496
 30
0.0
 11
-57.19348594423434
 21
-14.19999887938496
 31
0.0
  0
ARC
  5
1B87
  8
SAPA_PROFIL
 10
-56.693485944234482
 20
-11.19999887938482
 30
0.0
 40
0.5000000000000853
 50
90.000000000009763
 51
180.0000000000162
  0
LINE
  5
1B88
  8
SAPA_PROFIL
 10
-34.500000000001542
 20
-10.69999887938587
 30
0.0
 11
-56.693485944234567
 21
-10.69999887938474
 31
0.0
  0
ARC
  5
1B89
  8
SAPA_PROFIL
 10
-34.500000000001549
 20
-10.99999887938584
 30
0.0
 40
0.2999999999999687
 50
0.0000000000020356
 51
89.999999999997286
  0
LINE
  5
1B8A
  8
SAPA_PROFIL
 10
-34.20000000000158
 20
-12.28820975909383
 30
0.0
 11
-34.20000000000158
 21
-10.99999887938583
 31
0.0
  0
ARC
  5
1B8B
  8
SAPA_PROFIL
  6
CONTINUOUS
 62
     7
 10
-74.000000000957129
 20
-15.999999252920951
 30
0.0
 40
0.4999999999996021
 50
270.00000000004388
 51
0.0000000000445787
  0
LINE
  5
1B8C
  8
SAPA_PROFIL
  6
CONTINUOUS
 62
     7
 10
-73.500000000956732
 20
-14.999999252920549
 30
0.0
 11
-73.500000000957527
 21
-15.99999925292056
 31
0.0
  0
ARC
  5
1B8D
  8
SAPA_PROFIL
  6
CONTINUOUS
 62
     7
 10
-76.000000000962487
 20
-14.999999252920251
 30
0.0
 40
2.5000000000057541
 50
359.99999999999312
 51
59.999999978746033
  0
ARC
  5
1B8E
  8
SAPA_PROFIL
  6
CONTINUOUS
 62
     7
 10
-74.500000000004775
 20
-12.40192304211922
 30
0.0
 40
0.4999999999948131
 50
180.0000000010715
 51
239.99999997958389
  0
LINE
  5
1B8F
  8
SAPA_PROFIL
  6
CONTINUOUS
 62
     7
 10
-74.999999999999588
 20
-7.3999992529213561
 30
0.0
 11
-74.999999999999588
 21
-12.401923042128571
 31
0.0
  0
ARC
  5
1B90
  8
SAPA_PROFIL
  6
CONTINUOUS
 62
     7
 10
-74.499999999999588
 20
-7.399999252921357
 30
0.0
 40
0.5000000000000018
 50
90.000000000006494
 51
179.9999999999998
  0
LINE
  5
1B91
  8
SAPA_PROFIL
  6
CONTINUOUS
 62
     7
 10
-72.799999999999557
 20
-6.8999992529211349
 30
0.0
 11
-74.499999999999645
 21
-6.8999992529213561
 31
0.0
  0
ARC
  5
1B92
  8
SAPA_PROFIL
  6
CONTINUOUS
 62
     7
 10
-72.799999999999585
 20
-6.5999992529211511
 30
0.0
 40
0.2999999999999841
 50
270.0000000000054
 51
340.52877936565602
  0
ARC
  5
1B93
  8
SAPA_PROFIL
  6
CONTINUOUS
 62
     7
 10
-72.234314575051116
 20
-6.7999992529205819
 30
0.0
 40
0.2999999999991045
 50
89.999999999793715
 51
160.52877936541611
  0
LINE
  5
1B94
  8
SAPA_PROFIL
  6
CONTINUOUS
 62
     7
 10
-70.799999999999315
 20
-6.4999992529205901
 30
0.0
 11
-72.234314575050036
 21
-6.4999992529214783
 31
0.0
  0
ARC
  5
1B95
  8
SAPA_PROFIL
  6
CONTINUOUS
 62
     7
 10
-70.799999999998875
 20
-6.1999992529208772
 30
0.0
 40
0.2999999999997271
 50
269.99999999991587
 51
359.99999999990501
  0
LINE
  5
1B96
  8
SAPA_PROFIL
  6
CONTINUOUS
 62
     7
 10
-70.499999999999559
 20
-5.5999992529207621
 30
0.0
 11
-70.499999999999147
 21
-6.1999992529213737
 31
0.0
  0
ARC
  5
1B97
  8
SAPA_PROFIL
  6
CONTINUOUS
 62
     7
 10
-70.799999999999557
 20
-5.5999992529214628
 30
0.0
 40
0.3000000000000096
 50
0.0000000001340074
 51
89.999999999956557
  0
LINE
  5
1B98
  8
SAPA_PROFIL
  6
CONTINUOUS
 62
     7
 10
-72.199999999999406
 20
-5.2999992529205651
 30
0.0
 11
-70.799999999999329
 21
-5.2999992529214541
 31
0.0
  0
ARC
  5
1B99
  8
SAPA_PROFIL
  6
CONTINUOUS
 62
     7
 10
-72.199999999999875
 20
-4.9999992529208601
 30
0.0
 40
0.2999999999997129
 50
180.00000000009501
 51
270.00000000008959
  0
LINE
  5
1B9A
  8
SAPA_PROFIL
  6
CONTINUOUS
 62
     7
 10
-72.499999999999588
 20
5.0000007470792234
 30
0.0
 11
-72.499999999999588
 21
-4.9999992529213566
 31
0.0
  0
ARC
  5
1B9B
  8
SAPA_PROFIL
  6
CONTINUOUS
 62
     7
 10
-72.199999999999406
 20
5.0000007470792189
 30
0.0
 40
0.3000000000001783
 50
90.0
 51
179.99999999999929
  0
LINE
  5
1B9C
  8
SAPA_PROFIL
  6
CONTINUOUS
 62
     7
 10
-70.799999999999315
 20
5.3000007470794053
 30
0.0
 11
-72.199999999999406
 21
5.3000007470793982
 31
0.0
  0
ARC
  5
1B9D
  8
SAPA_PROFIL
  6
CONTINUOUS
 62
     7
 10
-70.799999999999102
 20
5.6000007470788997
 30
0.0
 40
0.2999999999994998
 50
269.9999999999593
 51
359.99999999995612
  0
LINE
  5
1B9E
  8
SAPA_PROFIL
  6
CONTINUOUS
 62
     7
 10
-70.499999999999574
 20
6.2000007470792191
 30
0.0
 11
-70.499999999999602
 21
5.6000007470786697
 31
0.0
  0
ARC
  5
1B9F
  8
SAPA_PROFIL
  6
CONTINUOUS
 62
     7
 10
-70.799999999999784
 20
6.2000007470792129
 30
0.0
 40
0.3000000000001872
 50
0.0000000000010178
 51
89.999999999913143
  0
LINE
  5
1BA0
  8
SAPA_PROFIL
  6
CONTINUOUS
 62
     7
 10
-72.234314575049638
 20
6.5000007470784977
 30
0.0
 11
-70.799999999999329
 21
6.500000747079401
 31
0.0
  0
ARC
  5
1BA1
  8
SAPA_PROFIL
  6
CONTINUOUS
 62
     7
 10
-72.234314575049837
 20
6.8000007470784967
 30
0.0
 40
0.2999999999999978
 50
199.47122063434321
 51
270.00000000003803
  0
ARC
  5
1BA2
  8
SAPA_PROFIL
  6
CONTINUOUS
 62
     7
 10
-72.799999999999585
 20
6.6000007470799531
 30
0.0
 40
0.2999999999999998
 50
19.471220634343389
 51
89.999999999994586
  0
LINE
  5
1BA3
  8
SAPA_PROFIL
  6
CONTINUOUS
 62
     7
 10
-80.299999999999315
 20
6.9000007470808518
 30
0.0
 11
-72.799999999999557
 21
6.9000007470799529
 31
0.0
  0
ARC
  5
1BA4
  8
SAPA_PROFIL
  6
CONTINUOUS
 62
     7
 10
-80.299999999999315
 20
5.9000007470808518
 30
0.0
 40
1.0
 50
90.0
 51
180.0
  0
LINE
  5
1BA5
  8
SAPA_PROFIL
  6
CONTINUOUS
 62
     7
 10
-81.299999999999812
 20
5.0873704889038569
 30
0.0
 11
-81.299999999999315
 21
5.9000007470808518
 31
0.0
  0
ARC
  5
1BA6
  8
SAPA_PROFIL
  6
CONTINUOUS
 62
     7
 10
-80.999999999999801
 20
5.0873704889036722
 30
0.0
 40
0.30000000000001
 50
179.9999999999645
 51
229.99999999999901
  0
LINE
  5
1BA7
  8
SAPA_PROFIL
  6
CONTINUOUS
 62
     7
 10
-80.492836282905216
 20
4.2701874141434137
 30
0.0
 11
-81.192836282905773
 21
4.8575571559679744
 31
0.0
  0
ARC
  5
1BA8
  8
SAPA_PROFIL
  6
CONTINUOUS
 62
     7
 10
-80.299999999999386
 20
4.5000007470789374
 30
0.0
 40
0.2999999999997698
 50
229.99999999999829
 51
359.99999999991689
  0
LINE
  5
1BA9
  8
SAPA_PROFIL
  6
CONTINUOUS
 62
     7
 10
-79.999999999999105
 20
5.300000747080488
 30
0.0
 11
-79.999999999999616
 21
4.5000007470785022
 31
0.0
  0
ARC
  5
1BAA
  8
SAPA_PROFIL
  6
CONTINUOUS
 62
     7
 10
-79.699999999999903
 20
5.3000007470804897
 30
0.0
 40
0.2999999999991996
 50
89.999999999905015
 51
180.00000000000031
  0
LINE
  5
1BAB
  8
SAPA_PROFIL
  6
CONTINUOUS
 62
     7
 10
-75.29999999999886
 20
5.6000007470797613
 30
0.0
 11
-79.699999999999406
 21
5.6000007470796902
 31
0.0
  0
ARC
  5
1BAC
  8
SAPA_PROFIL
  6
CONTINUOUS
 62
     7
 10
-75.299999999999102
 20
5.3000007470798129
 30
0.0
 40
0.2999999999999545
 50
359.99999999995657
 51
89.999999999953857
  0
LINE
  5
1BAD
  8
SAPA_PROFIL
  6
CONTINUOUS
 62
     7
 10
-74.999999999999133
 20
-5.2999992529198616
 30
0.0
 11
-74.999999999999133
 21
5.3000007470795856
 31
0.0
  0
ARC
  5
1BAE
  8
SAPA_PROFIL
  6
CONTINUOUS
 62
     7
 10
-75.299999999999116
 20
-5.2999992529200588
 30
0.0
 40
0.2999999999999563
 50
270.00000000004877
 51
0.0000000000376578
  0
LINE
  5
1BAF
  8
SAPA_PROFIL
  6
CONTINUOUS
 62
     7
 10
-79.699999999999406
 20
-5.5999992529209521
 30
0.0
 11
-75.29999999999886
 21
-5.5999992529200151
 31
0.0
  0
ARC
  5
1BB0
  8
SAPA_PROFIL
  6
CONTINUOUS
 62
     7
 10
-79.69999999999942
 20
-5.299999252920756
 30
0.0
 40
0.3000000000001819
 50
180.0
 51
270.00000000000267
  0
LINE
  5
1BB1
  8
SAPA_PROFIL
  6
CONTINUOUS
 62
     7
 10
-79.999999999999602
 20
-4.499999252920559
 30
0.0
 11
-79.999999999999602
 21
-5.299999252920756
 31
0.0
  0
ARC
  5
1BB2
  8
SAPA_PROFIL
  6
CONTINUOUS
 62
     7
 10
-80.299999999999741
 20
-4.4999992529209161
 30
0.0
 40
0.3000000000001586
 50
0.0000000000681911
 51
129.9999999998567
  0
LINE
  5
1BB3
  8
SAPA_PROFIL
  6
CONTINUOUS
 62
     7
 10
-81.192836282905773
 20
-4.8575556618091724
 30
0.0
 11
-80.492836282905216
 21
-4.2701859199846188
 31
0.0
  0
ARC
  5
1BB4
  8
SAPA_PROFIL
  6
CONTINUOUS
 62
     7
 10
-80.999999999999815
 20
-5.0873689947448666
 30
0.0
 40
0.2999999999999971
 50
129.9999999999992
 51
179.99999999999929
  0
LINE
  5
1BB5
  8
SAPA_PROFIL
  6
CONTINUOUS
 62
     7
 10
-81.299999999999812
 20
-5.8999992529202672
 30
0.0
 11
-81.299999999999812
 21
-5.087368994744863
 31
0.0
  0
ARC
  5
1BB6
  8
SAPA_PROFIL
  6
CONTINUOUS
 62
     7
 10
-80.299999999999812
 20
-5.8999992529202672
 30
0.0
 40
1.0
 50
180.0
 51
270.0
  0
LINE
  5
1BB7
  8
SAPA_PROFIL
  6
CONTINUOUS
 62
     7
 10
-77.999999999999147
 20
-6.8999992529202672
 30
0.0
 11
-80.299999999999812
 21
-6.8999992529202672
 31
0.0
  0
ARC
  5
1BB8
  8
SAPA_PROFIL
  6
CONTINUOUS
 62
     7
 10
-77.999999999999147
 20
-7.3999992529202672
 30
0.0
 40
0.5
 50
0.0
 51
90.0
  0
LINE
  5
1BB9
  8
SAPA_PROFIL
  6
CONTINUOUS
 62
     7
 10
-77.50000000000297
 20
-15.999999252920359
 30
0.0
 11
-77.499999999999133
 21
-7.3999992529202672
 31
0.0
  0
ARC
  5
1BBA
  8
SAPA_PROFIL
  6
CONTINUOUS
 62
     7
 10
-77.00000000000297
 20
-15.999999252920549
 30
0.0
 40
0.5000000000000036
 50
179.9999999999776
 51
270.0
  0
LINE
  5
1BBB
  8
SAPA_PROFIL
  6
CONTINUOUS
 62
     7
 10
-74.000000000956746
 20
-16.49999925292056
 30
0.0
 11
-77.00000000000297
 21
-16.49999925292056
 31
0.0
  0
LINE
  5
1BBC
  8
SAPA_PROFIL
 10
-70.999999999999886
 20
-24.099999252923869
 30
0.0
 11
-70.20000000095672
 21
-24.099999252923869
 31
0.0
  0
ARC
  5
1BBD
  8
SAPA_PROFIL
 10
-70.999999999999915
 20
-23.79999925292389
 30
0.0
 40
0.2999999999999829
 50
180.00000000000469
 51
270.0000000000054
  0
LINE
  5
1BBE
  8
SAPA_PROFIL
 10
-71.299999999999898
 20
-22.39999925292382
 30
0.0
 11
-71.299999999999898
 21
-23.799999252923911
 31
0.0
  0
ARC
  5
1BBF
  8
SAPA_PROFIL
 10
-71.600000000000023
 20
-22.39999925292388
 30
0.0
 40
0.3000000000001215
 50
0.0000000000108563
 51
89.999999999989143
  0
LINE
  5
1BC0
  8
SAPA_PROFIL
 10
-76.89999999999992
 20
-22.099999252923858
 30
0.0
 11
-71.599999999999966
 21
-22.099999252923752
 31
0.0
  0
ARC
  5
1BC1
  8
SAPA_PROFIL
 10
-76.89999999999992
 20
-22.39999925292382
 30
0.0
 40
0.2999999999999545
 50
90.0
 51
180.0
  0
LINE
  5
1BC2
  8
SAPA_PROFIL
 10
-77.199999999999875
 20
-33.199999252923767
 30
0.0
 11
-77.199999999999875
 21
-22.39999925292382
 31
0.0
  0
ARC
  5
1BC3
  8
SAPA_PROFIL
 10
-76.899999999999835
 20
-33.19999925292381
 30
0.0
 40
0.3000000000000398
 50
179.99999999999449
 51
269.9999999999838
  0
LINE
  5
1BC4
  8
SAPA_PROFIL
 10
-71.599999999999966
 20
-33.499999252923843
 30
0.0
 11
-76.89999999999992
 21
-33.499999252923843
 31
0.0
  0
ARC
  5
1BC5
  8
SAPA_PROFIL
 10
-71.600000000000023
 20
-33.199999252923718
 30
0.0
 40
0.300000000000125
 50
270.0000000000108
 51
359.99999999998909
  0
LINE
  5
1BC6
  8
SAPA_PROFIL
 10
-71.299999999999898
 20
-31.799999252923801
 30
0.0
 11
-71.299999999999898
 21
-33.199999252923767
 31
0.0
  0
ARC
  5
1BC7
  8
SAPA_PROFIL
 10
-70.999999999999915
 20
-31.799999252923829
 30
0.0
 40
0.2999999999999829
 50
89.999999999994586
 51
179.99999999999449
  0
LINE
  5
1BC8
  8
SAPA_PROFIL
 10
-70.20000000095672
 20
-31.49999925292385
 30
0.0
 11
-70.999999999999886
 21
-31.49999925292385
 31
0.0
  0
ARC
  5
1BC9
  8
SAPA_PROFIL
 10
-70.200000000956692
 20
-31.799999252923829
 30
0.0
 40
0.2999999999999829
 50
0.0000000000054281
 51
90.000000000005414
  0
LINE
  5
1BCA
  8
SAPA_PROFIL
 10
-69.900000000956709
 20
-33.199999252923888
 30
0.0
 11
-69.900000000956709
 21
-31.799999252923801
 31
0.0
  0
ARC
  5
1BCB
  8
SAPA_PROFIL
 10
-69.600000000956726
 20
-33.19999925292386
 30
0.0
 40
0.2999999999999829
 50
180.0000000000054
 51
270.0000000000054
  0
LINE
  5
1BCC
  8
SAPA_PROFIL
 10
-67.600000000956683
 20
-33.499999252923843
 30
0.0
 11
-69.600000000956697
 21
-33.499999252923843
 31
0.0
  0
ARC
  5
1BCD
  8
SAPA_PROFIL
 10
-67.600000000956669
 20
-33.19999925292386
 30
0.0
 40
0.2999999999999829
 50
269.9999999999946
 51
359.99999999999449
  0
LINE
  5
1BCE
  8
SAPA_PROFIL
 10
-67.300000000956686
 20
-22.39999925292371
 30
0.0
 11
-67.300000000956686
 21
-33.199999252923888
 31
0.0
  0
ARC
  5
1BCF
  8
SAPA_PROFIL
 10
-67.600000000956669
 20
-22.399999252923742
 30
0.0
 40
0.2999999999999829
 50
0.0000000000054281
 51
90.000000000005414
  0
LINE
  5
1BD0
  8
SAPA_PROFIL
 10
-69.600000000956697
 20
-22.099999252923752
 30
0.0
 11
-67.600000000956683
 21
-22.099999252923752
 31
0.0
  0
ARC
  5
1BD1
  8
SAPA_PROFIL
 10
-69.600000000956726
 20
-22.399999252923742
 30
0.0
 40
0.2999999999999829
 50
89.999999999994586
 51
179.99999999999389
  0
LINE
  5
1BD2
  8
SAPA_PROFIL
 10
-69.900000000956709
 20
-23.799999252923911
 30
0.0
 11
-69.900000000956709
 21
-22.39999925292371
 31
0.0
  0
ARC
  5
1BD3
  8
SAPA_PROFIL
 10
-70.200000000956692
 20
-23.799999252923879
 30
0.0
 40
0.2999999999999865
 50
269.9999999999946
 51
359.99999999999392
  0
ARC
  5
1BD4
  8
SAPA_PROFIL
  6
CONTINUOUS
 62
     7
 10
-80.199999999999136
 20
-18.306255368510332
 30
0.0
 40
0.2999999999995566
 50
180.00000000009021
 51
266.41667826716917
  0
LINE
  5
1BD5
  8
SAPA_PROFIL
  6
CONTINUOUS
 62
     7
 10
-80.499999999998579
 20
-11.299999252923801
 30
0.0
 11
-80.499999999998693
 21
-18.306255368510801
 31
0.0
  0
ARC
  5
1BD6
  8
SAPA_PROFIL
  6
CONTINUOUS
 62
     7
 10
-80.799999999998647
 20
-11.299999252923801
 30
0.0
 40
0.3000000000000682
 50
0.0
 51
90.0
  0
LINE
  5
1BD7
  8
SAPA_PROFIL
  6
CONTINUOUS
 62
     7
 10
-81.600000000982675
 20
-10.999999252923731
 30
0.0
 11
-80.799999999998647
 21
-10.999999252923731
 31
0.0
  0
ARC
  5
1BD8
  8
SAPA_PROFIL
  6
CONTINUOUS
 62
     7
 10
-81.600000000982646
 20
-11.29999925292377
 30
0.0
 40
0.3000000000000398
 50
90.000000000005414
 51
180.0000000000054
  0
LINE
  5
1BD9
  8
SAPA_PROFIL
  6
CONTINUOUS
 62
     7
 10
-81.900000000982644
 20
-19.699999252923771
 30
0.0
 11
-81.900000000982686
 21
-11.299999252923801
 31
0.0
  0
ARC
  5
1BDA
  8
SAPA_PROFIL
  6
CONTINUOUS
 62
     7
 10
-81.600000000982675
 20
-19.699999252923771
 30
0.0
 40
0.2999999999999545
 50
180.0
 51
270.0
  0
LINE
  5
1BDB
  8
SAPA_PROFIL
  6
CONTINUOUS
 62
     7
 10
-80.400000001917647
 20
-19.999999252923729
 30
0.0
 11
-81.600000000982675
 21
-19.999999252923729
 31
0.0
  0
ARC
  5
1BDC
  8
SAPA_PROFIL
  6
CONTINUOUS
 62
     7
 10
-80.400000001917647
 20
-21.499999252923729
 30
0.0
 40
1.5
 50
0.0000000032829431
 51
90.0
  0
LINE
  5
1BDD
  8
SAPA_PROFIL
  6
CONTINUOUS
 62
     7
 10
-78.900000000982629
 20
-36.699999252949809
 30
0.0
 11
-78.900000001917647
 21
-21.499999252837782
 31
0.0
  0
ARC
  5
1BDE
  8
SAPA_PROFIL
  6
CONTINUOUS
 62
     7
 10
-78.600000000982675
 20
-36.699999252923782
 30
0.0
 40
0.2999999999999545
 50
180.00000000497221
 51
270.0
  0
LINE
  5
1BDF
  8
SAPA_PROFIL
  6
CONTINUOUS
 62
     7
 10
-77.499999999999659
 20
-36.999999252923729
 30
0.0
 11
-78.600000000982675
 21
-36.999999252923729
 31
0.0
  0
ARC
  5
1BE0
  8
SAPA_PROFIL
  6
CONTINUOUS
 62
     7
 10
-77.499999999999631
 20
-36.699999252923753
 30
0.0
 40
0.2999999999999829
 50
269.9999999999946
 51
359.99999999999449
  0
LINE
  5
1BE1
  8
SAPA_PROFIL
  6
CONTINUOUS
 62
     7
 10
-77.199999999999648
 20
-35.199999252923782
 30
0.0
 11
-77.199999999999648
 21
-36.699999252923782
 31
0.0
  0
ARC
  5
1BE2
  8
SAPA_PROFIL
  6
CONTINUOUS
 62
     7
 10
-76.899999999999636
 20
-35.199999252923718
 30
0.0
 40
0.3000000000000114
 50
90.000000000010829
 51
180.0000000000108
  0
LINE
  5
1BE3
  8
SAPA_PROFIL
  6
CONTINUOUS
 62
     7
 10
-66.200000000956663
 20
-34.899999252923713
 30
0.0
 11
-76.899999999999693
 21
-34.899999252923713
 31
0.0
  0
ARC
  5
1BE4
  8
SAPA_PROFIL
  6
CONTINUOUS
 62
     7
 10
-66.200000000956635
 20
-34.599999252923723
 30
0.0
 40
0.2999999999999829
 50
269.9999999999946
 51
359.99999999999449
  0
LINE
  5
1BE5
  8
SAPA_PROFIL
  6
CONTINUOUS
 62
     7
 10
-65.900000000956652
 20
-11.299999252923801
 30
0.0
 11
-65.900000000956652
 21
-34.599999252923752
 31
0.0
  0
ARC
  5
1BE6
  8
SAPA_PROFIL
  6
CONTINUOUS
 62
     7
 10
-66.20000000095618
 20
-11.299999252923261
 30
0.0
 40
0.29999999999953
 50
359.99999999989723
 51
90.000000000092243
  0
LINE
  5
1BE7
  8
SAPA_PROFIL
  6
CONTINUOUS
 62
     7
 10
-73.199999999998681
 20
-10.999999252923731
 30
0.0
 11
-66.200000000956663
 21
-10.999999252923731
 31
0.0
  0
ARC
  5
1BE8
  8
SAPA_PROFIL
  6
CONTINUOUS
 62
     7
 10
-73.199999999998653
 20
-11.29999925292377
 30
0.0
 40
0.3000000000000398
 50
90.000000000005414
 51
180.0000000000054
  0
LINE
  5
1BE9
  8
SAPA_PROFIL
  6
CONTINUOUS
 62
     7
 10
-73.499999999998693
 20
-20.299999252923801
 30
0.0
 11
-73.499999999998693
 21
-11.299999252923801
 31
0.0
  0
ARC
  5
1BEA
  8
SAPA_PROFIL
  6
CONTINUOUS
 62
     7
 10
-73.79999999999967
 20
-20.299999252923811
 30
0.0
 40
0.3000000000009741
 50
270.00000000019543
 51
0.0000000000006785
  0
LINE
  5
1BEB
  8
SAPA_PROFIL
  6
CONTINUOUS
 62
     7
 10
-74.919615242269344
 20
-20.599999252923752
 30
0.0
 11
-73.799999999998633
 21
-20.599999252924778
 31
0.0
  0
ARC
  5
1BEC
  8
SAPA_PROFIL
  6
CONTINUOUS
 62
     7
 10
-74.91961524226943
 20
-20.899999252923688
 30
0.0
 40
0.2999999999999325
 50
89.999999999983714
 51
119.9999999999836
  0
LINE
  5
1BED
  8
SAPA_PROFIL
  6
CONTINUOUS
 62
     7
 10
-75.449999999998681
 20
-20.859806874059089
 30
0.0
 11
-75.069615242269322
 21
-20.640191631788369
 31
0.0
  0
ARC
  5
1BEE
  8
SAPA_PROFIL
  6
CONTINUOUS
 62
     7
 10
-75.599999999998658
 20
-20.599999252923791
 30
0.0
 40
0.2999999999999598
 50
240.00000000000051
 51
299.99999999999937
  0
LINE
  5
1BEF
  8
SAPA_PROFIL
  6
CONTINUOUS
 62
     7
 10
-76.130384757727995
 20
-20.640191631788369
 30
0.0
 11
-75.749999999998636
 21
-20.859806874059089
 31
0.0
  0
ARC
  5
1BF0
  8
SAPA_PROFIL
  6
CONTINUOUS
 62
     7
 10
-76.280384757727887
 20
-20.899999252923681
 30
0.0
 40
0.2999999999999261
 50
60.000000000015703
 51
90.000000000016271
  0
LINE
  5
1BF1
  8
SAPA_PROFIL
  6
CONTINUOUS
 62
     7
 10
-77.433520607080652
 20
-20.599999252923752
 30
0.0
 11
-76.280384757727973
 21
-20.599999252923752
 31
0.0
  0
ARC
  5
1BF2
  8
SAPA_PROFIL
  6
CONTINUOUS
 62
     7
 10
-77.433520607080638
 20
-20.299999252923811
 30
0.0
 40
0.2999999999999472
 50
202.02431283703541
 51
269.99999999999733
  0
ARC
  5
1BF3
  8
SAPA_PROFIL
  6
CONTINUOUS
 62
     7
 10
-80.400000001918286
 20
-21.49999925292326
 30
0.0
 40
2.899999999999296
 50
22.024312837037431
 51
86.416678267089438
  0
POLYLINE
  5
1BF4
  8
SAPA_PROFIL
 66
     1
 10
0.0
 20
0.0
 30
0.0
 70
     1
  0
VERTEX
  5
21C5
  8
SAPA_PROFIL
 10
24.29999999999675
 20
-28.69999887938582
 30
0.0
  0
VERTEX
  5
21C6
  8
SAPA_PROFIL
 10
31.19999999999661
 20
-28.69999887938582
 30
0.0
  0
VERTEX
  5
21C7
  8
SAPA_PROFIL
 10
31.499999999996682
 20
-28.399998879385858
 30
0.0
  0
VERTEX
  5
21C8
  8
SAPA_PROFIL
 10
31.79999999999675
 20
-28.69999887938582
 30
0.0
  0
VERTEX
  5
21C9
  8
SAPA_PROFIL
 10
41.499999999996668
 20
-28.699998879385809
 30
0.0
 42
-0.4142135623730951
  0
VERTEX
  5
21CA
  8
SAPA_PROFIL
 10
42.499999999996668
 20
-29.699998879385809
 30
0.0
  0
VERTEX
  5
21CB
  8
SAPA_PROFIL
 10
42.499999999996668
 20
-42.499998879385771
 30
0.0
  0
VERTEX
  5
21CC
  8
SAPA_PROFIL
 10
41.59999999999669
 20
-42.499998879385771
 30
0.0
 42
0.4142135623730951
  0
VERTEX
  5
21CD
  8
SAPA_PROFIL
 10
40.999999999996668
 20
-43.09999887938568
 30
0.0
  0
VERTEX
  5
21CE
  8
SAPA_PROFIL
 10
40.999999999996668
 20
-44.699998879385809
 30
0.0
 42
0.4142135623730951
  0
VERTEX
  5
21CF
  8
SAPA_PROFIL
 10
41.299999999996743
 20
-44.999998879385771
 30
0.0
  0
VERTEX
  5
21D0
  8
SAPA_PROFIL
 10
43.699999999996599
 20
-44.999998879385771
 30
0.0
 42
0.4142135623730951
  0
VERTEX
  5
21D1
  8
SAPA_PROFIL
 10
43.999999999996668
 20
-44.699998879385809
 30
0.0
  0
VERTEX
  5
21D2
  8
SAPA_PROFIL
 10
43.999999999996668
 20
-24.999998879385771
 30
0.0
  0
VERTEX
  5
21D3
  8
SAPA_PROFIL
 10
41.499999999996668
 20
-24.999998879385771
 30
0.0
  0
VERTEX
  5
21D4
  8
SAPA_PROFIL
 10
41.499999999996668
 20
-26.69999887938582
 30
0.0
 42
-0.4142135623730951
  0
VERTEX
  5
21D5
  8
SAPA_PROFIL
 10
40.999999999996668
 20
-27.199998879385809
 30
0.0
  0
VERTEX
  5
21D6
  8
SAPA_PROFIL
 10
20.999999999996671
 20
-27.19999887938582
 30
0.0
 42
-0.4142135623730951
  0
VERTEX
  5
21D7
  8
SAPA_PROFIL
 10
20.499999999996682
 20
-26.69999887938582
 30
0.0
  0
VERTEX
  5
21D8
  8
SAPA_PROFIL
 10
20.499999999996682
 20
-24.999998879385771
 30
0.0
  0
VERTEX
  5
21D9
  8
SAPA_PROFIL
 10
18.999999999996671
 20
-24.999998879385771
 30
0.0
  0
VERTEX
  5
21DA
  8
SAPA_PROFIL
 10
18.999999999996671
 20
-28.19999887938582
 30
0.0
 42
0.4142135623730951
  0
VERTEX
  5
21DB
  8
SAPA_PROFIL
 10
19.499999999996671
 20
-28.69999887938582
 30
0.0
  0
VERTEX
  5
21DC
  8
SAPA_PROFIL
 10
23.69999999999672
 20
-28.69999887938582
 30
0.0
  0
VERTEX
  5
21DD
  8
SAPA_PROFIL
 10
23.999999999996682
 20
-28.399998879385858
 30
0.0
  0
SEQEND
  5
21DE
  8
SAPA_PROFIL
  0
POLYLINE
  5
1BF5
  8
SAPA_PROFIL
 66
     1
 10
0.0
 20
0.0
 30
0.0
 70
     1
  0
VERTEX
  5
21DF
  8
SAPA_PROFIL
 10
-25.000000000002888
 20
22.600001120614021
 30
0.0
 42
-0.767326987974136
  0
VERTEX
  5
21E0
  8
SAPA_PROFIL
 10
-24.849999999999731
 20
22.040193499480552
 30
0.0
 42
0.2679491924279902
  0
VERTEX
  5
21E1
  8
SAPA_PROFIL
 10
-25.000000000002441
 20
21.780385878357031
 30
0.0
  0
VERTEX
  5
21E2
  8
SAPA_PROFIL
 10
-25.000000000001808
 20
18.800001120613778
 30
0.0
 42
0.4142135623730395
  0
VERTEX
  5
21E3
  8
SAPA_PROFIL
 10
-23.500000000001751
 20
17.300001120614059
 30
0.0
  0
VERTEX
  5
21E4
  8
SAPA_PROFIL
 10
-22.400000000002361
 20
17.300001120614059
 30
0.0
 42
0.4142135623730951
  0
VERTEX
  5
21E5
  8
SAPA_PROFIL
 10
-22.1000000000024
 20
17.60000112061379
 30
0.0
  0
VERTEX
  5
21E6
  8
SAPA_PROFIL
 10
-22.1000000000024
 20
18.10000112061379
 30
0.0
 42
0.4142135623730948
  0
VERTEX
  5
21E7
  8
SAPA_PROFIL
 10
-22.400000000002361
 20
18.400001120613972
 30
0.0
  0
VERTEX
  5
21E8
  8
SAPA_PROFIL
 10
-22.736626924636528
 20
18.400001120613972
 30
0.0
 42
-0.5643553431119927
  0
VERTEX
  5
21E9
  8
SAPA_PROFIL
 10
-20.87439504323947
 20
22.724396163848262
 30
0.0
  0
VERTEX
  5
21EA
  8
SAPA_PROFIL
 10
-20.50000000000249
 20
22.35000112061606
 30
0.0
  0
VERTEX
  5
21EB
  8
SAPA_PROFIL
 10
-20.12560495676961
 20
22.724396163849171
 30
0.0
 42
-0.564355343112654
  0
VERTEX
  5
21EC
  8
SAPA_PROFIL
 10
-18.263373075367092
 20
18.400001120613972
 30
0.0
  0
VERTEX
  5
21ED
  8
SAPA_PROFIL
 10
-18.60000000000263
 20
18.400001120613972
 30
0.0
 42
0.4142135623729843
  0
VERTEX
  5
21EE
  8
SAPA_PROFIL
 10
-18.900000000002699
 20
18.100001120614241
 30
0.0
  0
VERTEX
  5
21EF
  8
SAPA_PROFIL
 10
-18.900000000002581
 20
17.60000112061379
 30
0.0
 42
0.4142135623730951
  0
VERTEX
  5
21F0
  8
SAPA_PROFIL
 10
-18.60000000000263
 20
17.300001120614059
 30
0.0
  0
VERTEX
  5
21F1
  8
SAPA_PROFIL
 10
-16.300000000002669
 20
17.300001120614059
 30
0.0
 42
0.4142135623732062
  0
VERTEX
  5
21F2
  8
SAPA_PROFIL
 10
-16.00000000000238
 20
17.60000112061379
 30
0.0
  0
VERTEX
  5
21F3
  8
SAPA_PROFIL
 10
-16.00000000000249
 20
22.000001120613941
 30
0.0
 42
-0.4142135623731117
  0
VERTEX
  5
21F4
  8
SAPA_PROFIL
 10
-15.00000000000249
 20
23.000001120614051
 30
0.0
  0
VERTEX
  5
21F5
  8
SAPA_PROFIL
 10
19.99999999999557
 20
23.000001120614272
 30
0.0
 42
-0.7673269879789009
  0
VERTEX
  5
21F6
  8
SAPA_PROFIL
 10
20.24999999999574
 20
22.066988418722119
 30
0.0
 42
0.2679491924311131
  0
VERTEX
  5
21F7
  8
SAPA_PROFIL
 10
19.999999999995861
 20
21.633975716829848
 30
0.0
  0
VERTEX
  5
21F8
  8
SAPA_PROFIL
 10
19.99999999999665
 20
18.800001120613999
 30
0.0
 42
0.4142135623730395
  0
VERTEX
  5
21F9
  8
SAPA_PROFIL
 10
21.49999999999671
 20
17.300001120614279
 30
0.0
  0
VERTEX
  5
21FA
  8
SAPA_PROFIL
 10
22.599999999996111
 20
17.300001120614279
 30
0.0
 42
0.4142135623730951
  0
VERTEX
  5
21FB
  8
SAPA_PROFIL
 10
22.899999999996059
 20
17.60000112061401
 30
0.0
  0
VERTEX
  5
21FC
  8
SAPA_PROFIL
 10
22.899999999996059
 20
18.10000112061401
 30
0.0
 42
0.4142135623730948
  0
VERTEX
  5
21FD
  8
SAPA_PROFIL
 10
22.599999999996111
 20
18.400001120614188
 30
0.0
  0
VERTEX
  5
21FE
  8
SAPA_PROFIL
 10
22.26337307536193
 20
18.400001120614188
 30
0.0
 42
-0.5643553431119927
  0
VERTEX
  5
21FF
  8
SAPA_PROFIL
 10
24.125604956758998
 20
22.724396163848478
 30
0.0
  0
VERTEX
  5
2200
  8
SAPA_PROFIL
 10
24.499999999995971
 20
22.35000112061628
 30
0.0
  0
VERTEX
  5
2201
  8
SAPA_PROFIL
 10
24.874395043228851
 20
22.724396163849391
 30
0.0
 42
-0.564355343112654
  0
VERTEX
  5
2202
  8
SAPA_PROFIL
 10
26.736626924631381
 20
18.400001120614188
 30
0.0
  0
VERTEX
  5
2203
  8
SAPA_PROFIL
 10
26.399999999995838
 20
18.400001120614188
 30
0.0
 42
0.4142135623729843
  0
VERTEX
  5
2204
  8
SAPA_PROFIL
 10
26.09999999999577
 20
18.100001120614461
 30
0.0
  0
VERTEX
  5
2205
  8
SAPA_PROFIL
 10
26.09999999999588
 20
17.60000112061401
 30
0.0
 42
0.4142135623730951
  0
VERTEX
  5
2206
  8
SAPA_PROFIL
 10
26.399999999995838
 20
17.300001120614279
 30
0.0
  0
VERTEX
  5
2207
  8
SAPA_PROFIL
 10
28.699999999995789
 20
17.300001120614279
 30
0.0
 42
0.4142135623732062
  0
VERTEX
  5
2208
  8
SAPA_PROFIL
 10
28.999999999996088
 20
17.60000112061401
 30
0.0
  0
VERTEX
  5
2209
  8
SAPA_PROFIL
 10
28.999999999995971
 20
22.000001120614161
 30
0.0
 42
-0.4142135623730951
  0
VERTEX
  5
220A
  8
SAPA_PROFIL
 10
29.999999999995971
 20
23.000001120614161
 30
0.0
  0
VERTEX
  5
220B
  8
SAPA_PROFIL
 10
34.699999999996358
 20
23.000001120614321
 30
0.0
 42
-0.4142135623730984
  0
VERTEX
  5
220C
  8
SAPA_PROFIL
 10
34.999999999996369
 20
22.70000112061431
 30
0.0
  0
VERTEX
  5
220D
  8
SAPA_PROFIL
 10
34.999999999996369
 20
21.400001120614299
 30
0.0
 42
0.4142135623730951
  0
VERTEX
  5
220E
  8
SAPA_PROFIL
 10
35.29999999999638
 20
21.100001120614291
 30
0.0
  0
VERTEX
  5
220F
  8
SAPA_PROFIL
 10
35.875735931284403
 20
21.100001120614291
 30
0.0
 42
0.198912367379637
  0
VERTEX
  5
2210
  8
SAPA_PROFIL
 10
36.087867965640392
 20
21.18786908625831
 30
0.0
  0
VERTEX
  5
2211
  8
SAPA_PROFIL
 10
37.812132034352153
 20
22.912133154970189
 30
0.0
 42
-0.1989123673796579
  0
VERTEX
  5
2212
  8
SAPA_PROFIL
 10
38.024264068708142
 20
23.000001120614211
 30
0.0
  0
VERTEX
  5
2213
  8
SAPA_PROFIL
 10
41.499999999996483
 20
23.000001120614272
 30
0.0
 42
-0.4142135623730951
  0
VERTEX
  5
2214
  8
SAPA_PROFIL
 10
42.499999999996483
 20
22.000001120614261
 30
0.0
  0
VERTEX
  5
2215
  8
SAPA_PROFIL
 10
42.499999999996469
 20
-21.999998879385618
 30
0.0
 42
-0.4142135623730951
  0
VERTEX
  5
2216
  8
SAPA_PROFIL
 10
41.499999999996461
 20
-22.999998879385618
 30
0.0
  0
VERTEX
  5
2217
  8
SAPA_PROFIL
 10
38.024264068708071
 20
-22.999998879385569
 30
0.0
 42
-0.1989123673796579
  0
VERTEX
  5
2218
  8
SAPA_PROFIL
 10
37.812132034352082
 20
-22.912130913741539
 30
0.0
  0
VERTEX
  5
2219
  8
SAPA_PROFIL
 10
36.087867965640427
 20
-21.187866845029721
 30
0.0
 42
0.198912367379658
  0
VERTEX
  5
221A
  8
SAPA_PROFIL
 10
35.875735931284453
 20
-21.099998879385691
 30
0.0
  0
VERTEX
  5
221B
  8
SAPA_PROFIL
 10
35.299999999996373
 20
-21.099998879385691
 30
0.0
 42
0.4142135623730951
  0
VERTEX
  5
221C
  8
SAPA_PROFIL
 10
34.999999999996362
 20
-21.399998879385709
 30
0.0
  0
VERTEX
  5
221D
  8
SAPA_PROFIL
 10
34.999999999996362
 20
-22.6999988793856
 30
0.0
 42
-0.4142135623730984
  0
VERTEX
  5
221E
  8
SAPA_PROFIL
 10
34.699999999996351
 20
-22.999998879385611
 30
0.0
  0
VERTEX
  5
221F
  8
SAPA_PROFIL
 10
29.999999999995961
 20
-22.999998879385501
 30
0.0
 42
-0.4142135623730951
  0
VERTEX
  5
2220
  8
SAPA_PROFIL
 10
28.999999999995961
 20
-21.999998879385501
 30
0.0
  0
VERTEX
  5
2221
  8
SAPA_PROFIL
 10
28.999999999996071
 20
-17.59999887938535
 30
0.0
 42
0.4142135623732062
  0
VERTEX
  5
2222
  8
SAPA_PROFIL
 10
28.699999999995779
 20
-17.299998879385619
 30
0.0
  0
VERTEX
  5
2223
  8
SAPA_PROFIL
 10
26.399999999995821
 20
-17.299998879385619
 30
0.0
 42
0.4142135623730951
  0
VERTEX
  5
2224
  8
SAPA_PROFIL
 10
26.09999999999587
 20
-17.59999887938535
 30
0.0
  0
VERTEX
  5
2225
  8
SAPA_PROFIL
 10
26.099999999995749
 20
-18.099998879385801
 30
0.0
 42
0.414213562372984
  0
VERTEX
  5
2226
  8
SAPA_PROFIL
 10
26.399999999995821
 20
-18.399998879385532
 30
0.0
  0
VERTEX
  5
2227
  8
SAPA_PROFIL
 10
26.736626924631359
 20
-18.399998879385532
 30
0.0
 42
-0.5643553431126542
  0
VERTEX
  5
2228
  8
SAPA_PROFIL
 10
24.874395043228841
 20
-22.724393922620731
 30
0.0
  0
VERTEX
  5
2229
  8
SAPA_PROFIL
 10
24.499999999995961
 20
-22.349998879387631
 30
0.0
  0
VERTEX
  5
222A
  8
SAPA_PROFIL
 10
24.125604956758991
 20
-22.724393922619829
 30
0.0
 42
-0.5643553431119927
  0
VERTEX
  5
222B
  8
SAPA_PROFIL
 10
22.263373075361919
 20
-18.399998879385532
 30
0.0
  0
VERTEX
  5
222C
  8
SAPA_PROFIL
 10
22.59999999999609
 20
-18.399998879385532
 30
0.0
 42
0.414213562373095
  0
VERTEX
  5
222D
  8
SAPA_PROFIL
 10
22.899999999996052
 20
-18.09999887938535
 30
0.0
  0
VERTEX
  5
222E
  8
SAPA_PROFIL
 10
22.899999999996052
 20
-17.59999887938535
 30
0.0
 42
0.4142135623730953
  0
VERTEX
  5
222F
  8
SAPA_PROFIL
 10
22.59999999999609
 20
-17.299998879385619
 30
0.0
  0
VERTEX
  5
2230
  8
SAPA_PROFIL
 10
21.499999999996689
 20
-17.299998879385399
 30
0.0
 42
0.4142135623730508
  0
VERTEX
  5
2231
  8
SAPA_PROFIL
 10
19.999999999996639
 20
-18.799998879385111
 30
0.0
  0
VERTEX
  5
2232
  8
SAPA_PROFIL
 10
19.9999999999959
 20
-21.633973475600971
 30
0.0
 42
0.2679491924311283
  0
VERTEX
  5
2233
  8
SAPA_PROFIL
 10
20.24999999999573
 20
-22.066986177493231
 30
0.0
 42
-0.7673269879788167
  0
VERTEX
  5
2234
  8
SAPA_PROFIL
 10
19.999999999995559
 20
-22.999998879385391
 30
0.0
  0
VERTEX
  5
2235
  8
SAPA_PROFIL
 10
-15.000000000002499
 20
-22.999998879385149
 30
0.0
 42
-0.4142135623730951
  0
VERTEX
  5
2236
  8
SAPA_PROFIL
 10
-16.000000000002501
 20
-21.999998879385149
 30
0.0
  0
VERTEX
  5
2237
  8
SAPA_PROFIL
 10
-16.000000000002391
 20
-17.599998879385002
 30
0.0
 42
0.4142135623732062
  0
VERTEX
  5
2238
  8
SAPA_PROFIL
 10
-16.300000000002679
 20
-17.299998879385281
 30
0.0
  0
VERTEX
  5
2239
  8
SAPA_PROFIL
 10
-18.600000000002641
 20
-17.299998879385281
 30
0.0
 42
0.4142135623730951
  0
VERTEX
  5
223A
  8
SAPA_PROFIL
 10
-18.900000000002589
 20
-17.599998879385002
 30
0.0
  0
VERTEX
  5
223B
  8
SAPA_PROFIL
 10
-18.900000000002699
 20
-18.09999887938546
 30
0.0
 42
0.414213562372984
  0
VERTEX
  5
223C
  8
SAPA_PROFIL
 10
-18.600000000002641
 20
-18.399998879385191
 30
0.0
  0
VERTEX
  5
223D
  8
SAPA_PROFIL
 10
-18.263373075367099
 20
-18.399998879385191
 30
0.0
 42
-0.5643553431126542
  0
VERTEX
  5
223E
  8
SAPA_PROFIL
 10
-20.125604956769621
 20
-22.72439392262039
 30
0.0
  0
VERTEX
  5
223F
  8
SAPA_PROFIL
 10
-20.500000000002501
 20
-22.349998879387279
 30
0.0
  0
VERTEX
  5
2240
  8
SAPA_PROFIL
 10
-20.87439504323947
 20
-22.72439392261948
 30
0.0
 42
-0.5643553431119927
  0
VERTEX
  5
2241
  8
SAPA_PROFIL
 10
-22.736626924636539
 20
-18.399998879385191
 30
0.0
  0
VERTEX
  5
2242
  8
SAPA_PROFIL
 10
-22.400000000002361
 20
-18.399998879385191
 30
0.0
 42
0.414213562373095
  0
VERTEX
  5
2243
  8
SAPA_PROFIL
 10
-22.10000000000241
 20
-18.099998879385002
 30
0.0
  0
VERTEX
  5
2244
  8
SAPA_PROFIL
 10
-22.10000000000241
 20
-17.599998879385002
 30
0.0
 42
0.4142135623730951
  0
VERTEX
  5
2245
  8
SAPA_PROFIL
 10
-22.400000000002361
 20
-17.299998879385161
 30
0.0
  0
VERTEX
  5
2246
  8
SAPA_PROFIL
 10
-23.500000000001759
 20
-17.299998879385161
 30
0.0
 42
0.4142135623730508
  0
VERTEX
  5
2247
  8
SAPA_PROFIL
 10
-25.000000000001819
 20
-18.79999887938488
 30
0.0
  0
VERTEX
  5
2248
  8
SAPA_PROFIL
 10
-25.000000000002451
 20
-21.780383637128129
 30
0.0
 42
0.2679491924279903
  0
VERTEX
  5
2249
  8
SAPA_PROFIL
 10
-24.849999999999739
 20
-22.040191258251649
 30
0.0
 42
-0.767326987974136
  0
VERTEX
  5
224A
  8
SAPA_PROFIL
 10
-25.000000000002899
 20
-22.599998879385168
 30
0.0
  0
VERTEX
  5
224B
  8
SAPA_PROFIL
 10
-27.000000000001819
 20
-22.599998879385119
 30
0.0
 42
-0.4142135623730951
  0
VERTEX
  5
224C
  8
SAPA_PROFIL
 10
-28.000000000001819
 20
-21.599998879385119
 30
0.0
  0
VERTEX
  5
224D
  8
SAPA_PROFIL
 10
-28.000000000001808
 20
21.600001120614021
 30
0.0
 42
-0.4142135623731284
  0
VERTEX
  5
224E
  8
SAPA_PROFIL
 10
-27.000000000001808
 20
22.600001120614131
 30
0.0
  0
SEQEND
  5
224F
  8
SAPA_PROFIL
  0
POLYLINE
  5
1BF6
  8
SAPA_PROFIL
 66
     1
 10
0.0
 20
0.0
 30
0.0
 70
     1
  0
VERTEX
  5
2250
  8
SAPA_PROFIL
 10
-30.999999999011781
 20
-2.6999988793860501
 30
0.0
  0
VERTEX
  5
2251
  8
SAPA_PROFIL
 10
-31.249999999011781
 20
-2.6999988793860501
 30
0.0
  0
VERTEX
  5
2252
  8
SAPA_PROFIL
 10
-31.24999999901183
 20
-2.349998879386141
 30
0.0
 42
0.5450207774094042
  0
VERTEX
  5
2253
  8
SAPA_PROFIL
 10
-31.67376540333731
 20
-2.0767185751341302
 30
0.0
  0
VERTEX
  5
2254
  8
SAPA_PROFIL
 10
-33.049999999011959
 20
-2.6999988793860501
 30
0.0
  0
VERTEX
  5
2255
  8
SAPA_PROFIL
 10
-33.04999999901208
 20
-2.349998879386141
 30
0.0
 42
0.5450207774090177
  0
VERTEX
  5
2256
  8
SAPA_PROFIL
 10
-33.473765403337161
 20
-2.076718575134016
 30
0.0
  0
VERTEX
  5
2257
  8
SAPA_PROFIL
 10
-34.849999999011906
 20
-2.6999988793860501
 30
0.0
  0
VERTEX
  5
2258
  8
SAPA_PROFIL
 10
-34.84999999901197
 20
-2.349998879386141
 30
0.0
 42
0.5450207774094042
  0
VERTEX
  5
2259
  8
SAPA_PROFIL
 10
-35.27376540333745
 20
-2.0767185751341302
 30
0.0
  0
VERTEX
  5
225A
  8
SAPA_PROFIL
 10
-36.649999999011868
 20
-2.6999988793860501
 30
0.0
  0
VERTEX
  5
225B
  8
SAPA_PROFIL
 10
-36.649999999011868
 20
-2.349998879386141
 30
0.0
 42
0.545020777409516
  0
VERTEX
  5
225C
  8
SAPA_PROFIL
 10
-37.073765403337518
 20
-2.0767185751341302
 30
0.0
  0
VERTEX
  5
225D
  8
SAPA_PROFIL
 10
-38.44999999901205
 20
-2.6999988793860501
 30
0.0
  0
VERTEX
  5
225E
  8
SAPA_PROFIL
 10
-38.44999999901205
 20
-2.349998879386141
 30
0.0
 42
0.545020777409516
  0
VERTEX
  5
225F
  8
SAPA_PROFIL
 10
-38.8737654033377
 20
-2.0767185751341302
 30
0.0
  0
VERTEX
  5
2260
  8
SAPA_PROFIL
 10
-40.249999999012232
 20
-2.6999988793860501
 30
0.0
  0
VERTEX
  5
2261
  8
SAPA_PROFIL
 10
-40.249999999012232
 20
-2.349998879386141
 30
0.0
 42
0.5450207774090177
  0
VERTEX
  5
2262
  8
SAPA_PROFIL
 10
-40.67376540333742
 20
-2.076718575134016
 30
0.0
  0
VERTEX
  5
2263
  8
SAPA_PROFIL
 10
-41.449999999012043
 20
-2.4282660049714759
 30
0.0
  0
VERTEX
  5
2264
  8
SAPA_PROFIL
 10
-41.449999999012107
 20
1.00067153689508
 30
0.0
  0
VERTEX
  5
2265
  8
SAPA_PROFIL
 10
-41.449999999012107
 20
2.7000011206140431
 30
0.0
  0
VERTEX
  5
2266
  8
SAPA_PROFIL
 10
-41.149999999012088
 20
2.7000011206140431
 30
0.0
  0
VERTEX
  5
2267
  8
SAPA_PROFIL
 10
-39.773765403337791
 20
2.0767208163616671
 30
0.0
 42
0.5450207774093642
  0
VERTEX
  5
2268
  8
SAPA_PROFIL
 10
-39.349999999012368
 20
2.3500011206139071
 30
0.0
  0
VERTEX
  5
2269
  8
SAPA_PROFIL
 10
-39.349999999012141
 20
2.7000011206140431
 30
0.0
  0
VERTEX
  5
226A
  8
SAPA_PROFIL
 10
-37.973765403337609
 20
2.076720816361838
 30
0.0
 42
0.5450207774088696
  0
VERTEX
  5
226B
  8
SAPA_PROFIL
 10
-37.549999999012421
 20
2.3500011206139071
 30
0.0
  0
VERTEX
  5
226C
  8
SAPA_PROFIL
 10
-37.549999999012194
 20
2.7000011206140431
 30
0.0
  0
VERTEX
  5
226D
  8
SAPA_PROFIL
 10
-36.173765403337647
 20
2.076720816361838
 30
0.0
 42
0.5450207774094402
  0
VERTEX
  5
226E
  8
SAPA_PROFIL
 10
-35.749999999012353
 20
2.3500011206139071
 30
0.0
  0
VERTEX
  5
226F
  8
SAPA_PROFIL
 10
-35.749999999012232
 20
2.7000011206140431
 30
0.0
  0
VERTEX
  5
2270
  8
SAPA_PROFIL
 10
-34.373765403337927
 20
2.0767208163616671
 30
0.0
 42
0.5450207774093642
  0
VERTEX
  5
2271
  8
SAPA_PROFIL
 10
-33.949999999012512
 20
2.3500011206139071
 30
0.0
  0
VERTEX
  5
2272
  8
SAPA_PROFIL
 10
-33.949999999012277
 20
2.7000011206140431
 30
0.0
  0
VERTEX
  5
2273
  8
SAPA_PROFIL
 10
-32.573765403337752
 20
2.076720816361838
 30
0.0
 42
0.5450207774088696
  0
VERTEX
  5
2274
  8
SAPA_PROFIL
 10
-32.149999999012607
 20
2.3500011206139071
 30
0.0
  0
VERTEX
  5
2275
  8
SAPA_PROFIL
 10
-32.149999999011868
 20
2.7000011206140431
 30
0.0
  0
VERTEX
  5
2276
  8
SAPA_PROFIL
 10
-30.999999999011781
 20
2.7000011206140391
 30
0.0
 42
-0.4142135623730951
  0
VERTEX
  5
2277
  8
SAPA_PROFIL
 10
-29.999999999011781
 20
1.7000011206140391
 30
0.0
  0
VERTEX
  5
2278
  8
SAPA_PROFIL
 10
-29.999999999011781
 20
-1.6999988793860501
 30
0.0
 42
-0.4142135623730951
  0
SEQEND
  5
2279
  8
SAPA_PROFIL
  0
POLYLINE
  5
1BF7
  8
SAPA_PROFIL
 66
     1
 10
0.0
 20
0.0
 30
0.0
 70
     1
  0
VERTEX
  5
227A
  8
SAPA_PROFIL
 10
-30.000000000001759
 20
16.700001120614889
 30
0.0
  0
VERTEX
  5
227B
  8
SAPA_PROFIL
 10
-30.000000000001759
 20
23.200001120614552
 30
0.0
 42
0.4142135623732062
  0
VERTEX
  5
227C
  8
SAPA_PROFIL
 10
-30.30000000000182
 20
23.50000112061451
 30
0.0
  0
VERTEX
  5
227D
  8
SAPA_PROFIL
 10
-34.20000000000158
 20
23.50000112061451
 30
0.0
 42
0.4142135623730951
  0
VERTEX
  5
227E
  8
SAPA_PROFIL
 10
-34.500000000001528
 20
23.200001120614552
 30
0.0
  0
VERTEX
  5
227F
  8
SAPA_PROFIL
 10
-34.500000000001648
 20
22.00000112061468
 30
0.0
 42
-0.7105995015650612
  0
VERTEX
  5
2280
  8
SAPA_PROFIL
 10
-35.03507658043651
 20
21.81361710485384
 30
0.0
  0
VERTEX
  5
2281
  8
SAPA_PROFIL
 10
-35.283588601450958
 20
22.12705254543356
 30
0.0
 42
-0.169180745212488
  0
VERTEX
  5
2282
  8
SAPA_PROFIL
 10
-35.500000000001762
 20
22.748332597969458
 30
0.0
  0
VERTEX
  5
2283
  8
SAPA_PROFIL
 10
-35.500000000001641
 20
24.700001120614729
 30
0.0
 42
-0.4142135623730951
  0
VERTEX
  5
2284
  8
SAPA_PROFIL
 10
-35.200000000001687
 20
25.00000112061468
 30
0.0
  0
VERTEX
  5
2285
  8
SAPA_PROFIL
 10
43.999999999996419
 20
25.000001120614321
 30
0.0
 42
-0.4142135623730951
  0
VERTEX
  5
2286
  8
SAPA_PROFIL
 10
44.499999999996433
 20
24.500001120614321
 30
0.0
  0
VERTEX
  5
2287
  8
SAPA_PROFIL
 10
44.499999999996412
 20
-24.499998879385679
 30
0.0
 42
-0.4142135623730951
  0
VERTEX
  5
2288
  8
SAPA_PROFIL
 10
43.999999999996412
 20
-24.999998879385679
 30
0.0
  0
VERTEX
  5
2289
  8
SAPA_PROFIL
 10
-35.200000000001808
 20
-24.999998879385782
 30
0.0
 42
-0.4142135623730951
  0
VERTEX
  5
228A
  8
SAPA_PROFIL
 10
-35.500000000001769
 20
-24.699998879385831
 30
0.0
  0
VERTEX
  5
228B
  8
SAPA_PROFIL
 10
-35.500000000001769
 20
-22.74833035674073
 30
0.0
 42
-0.1691807452125303
  0
VERTEX
  5
228C
  8
SAPA_PROFIL
 10
-35.283588601450852
 20
-22.127050304204719
 30
0.0
  0
VERTEX
  5
228D
  8
SAPA_PROFIL
 10
-35.035076580436403
 20
-21.813614863625059
 30
0.0
 42
-0.7105995015650845
  0
VERTEX
  5
228E
  8
SAPA_PROFIL
 10
-34.500000000001762
 20
-21.999998879385782
 30
0.0
  0
VERTEX
  5
228F
  8
SAPA_PROFIL
 10
-34.500000000001762
 20
-23.19999887938571
 30
0.0
 42
0.4142135623732061
  0
VERTEX
  5
2290
  8
SAPA_PROFIL
 10
-34.200000000001701
 20
-23.499998879385672
 30
0.0
  0
VERTEX
  5
2291
  8
SAPA_PROFIL
 10
-30.300000000001951
 20
-23.499998879385672
 30
0.0
 42
0.4142135623732061
  0
VERTEX
  5
2292
  8
SAPA_PROFIL
 10
-30.000000000001879
 20
-23.19999887938571
 30
0.0
  0
VERTEX
  5
2293
  8
SAPA_PROFIL
 10
-30.000000000001769
 20
-16.69999887938576
 30
0.0
 42
0.4142135623730951
  0
VERTEX
  5
2294
  8
SAPA_PROFIL
 10
-30.500000000001769
 20
-16.19999887938577
 30
0.0
  0
VERTEX
  5
2295
  8
SAPA_PROFIL
 10
-34.20000000000158
 20
-16.19999887938565
 30
0.0
 42
0.4142135623733172
  0
VERTEX
  5
2296
  8
SAPA_PROFIL
 10
-34.500000000001762
 20
-16.499998879385831
 30
0.0
  0
VERTEX
  5
2297
  8
SAPA_PROFIL
 10
-34.500000000001542
 20
-18.399998879385748
 30
0.0
 42
-0.7105995015650612
  0
VERTEX
  5
2298
  8
SAPA_PROFIL
 10
-35.035076580436403
 20
-18.586382895146588
 30
0.0
  0
VERTEX
  5
2299
  8
SAPA_PROFIL
 10
-35.283588601450852
 20
-18.272947454567039
 30
0.0
 42
-0.1691807452125303
  0
VERTEX
  5
229A
  8
SAPA_PROFIL
 10
-35.500000000001769
 20
-17.65166740203103
 30
0.0
  0
VERTEX
  5
229B
  8
SAPA_PROFIL
 10
-35.500000000001769
 20
-11.299998879385731
 30
0.0
 42
-0.4142135623728731
  0
VERTEX
  5
229C
  8
SAPA_PROFIL
 10
-35.200000000001808
 20
-10.99999887938578
 30
0.0
  0
VERTEX
  5
229D
  8
SAPA_PROFIL
 10
-34.500000000001542
 20
-10.999998879386
 30
0.0
 42
-0.4142135623730951
  0
VERTEX
  5
229E
  8
SAPA_PROFIL
 10
-34.20000000000158
 20
-11.29999887938596
 30
0.0
  0
VERTEX
  5
229F
  8
SAPA_PROFIL
 10
-34.20000000000158
 20
-14.199998879385539
 30
0.0
 42
0.4142135623730951
  0
VERTEX
  5
22A0
  8
SAPA_PROFIL
 10
-33.70000000000158
 20
-14.699998879385539
 30
0.0
  0
VERTEX
  5
22A1
  8
SAPA_PROFIL
 10
-30.500000000001769
 20
-14.69999887938576
 30
0.0
 42
0.4142135623731617
  0
VERTEX
  5
22A2
  8
SAPA_PROFIL
 10
-30.000000000001759
 20
-14.19999887938576
 30
0.0
  0
VERTEX
  5
22A3
  8
SAPA_PROFIL
 10
-30.00000000000199
 20
-5.9999988793863457
 30
0.0
 42
0.4142135623730951
  0
VERTEX
  5
22A4
  8
SAPA_PROFIL
 10
-31.00000000000199
 20
-4.9999988793863457
 30
0.0
  0
VERTEX
  5
22A5
  8
SAPA_PROFIL
 10
-52.199999999011879
 20
-4.9999988793861121
 30
0.0
 42
-0.4142135623730951
  0
VERTEX
  5
22A6
  8
SAPA_PROFIL
 10
-52.499999999011891
 20
-4.6999988793860998
 30
0.0
  0
VERTEX
  5
22A7
  8
SAPA_PROFIL
 10
-52.499999999011827
 20
-3.0750094090993789
 30
0.0
  0
VERTEX
  5
22A8
  8
SAPA_PROFIL
 10
-51.535790539647849
 20
-2.214474030315102
 30
0.0
 42
-0.6264792893017398
  0
VERTEX
  5
22A9
  8
SAPA_PROFIL
 10
-51.049999999012421
 20
-2.45001993881317
 30
0.0
  0
VERTEX
  5
22AA
  8
SAPA_PROFIL
 10
-51.049999999012179
 20
-2.6999988793860998
 30
0.0
  0
VERTEX
  5
22AB
  8
SAPA_PROFIL
 10
-49.673765403337882
 20
-2.1767185751339748
 30
0.0
 42
-0.5450207774090681
  0
VERTEX
  5
22AC
  8
SAPA_PROFIL
 10
-49.249999999012353
 20
-2.4499988793860998
 30
0.0
  0
VERTEX
  5
22AD
  8
SAPA_PROFIL
 10
-49.249999999012232
 20
-2.699998879386043
 30
0.0
  0
VERTEX
  5
22AE
  8
SAPA_PROFIL
 10
-47.87376540333792
 20
-2.1767185751340881
 30
0.0
 42
-0.545020777409516
  0
VERTEX
  5
22AF
  8
SAPA_PROFIL
 10
-47.44999999901227
 20
-2.4499988793860998
 30
0.0
  0
VERTEX
  5
22B0
  8
SAPA_PROFIL
 10
-47.44999999901227
 20
-2.699998879386043
 30
0.0
  0
VERTEX
  5
22B1
  8
SAPA_PROFIL
 10
-46.073765403337617
 20
-2.1767185751339748
 30
0.0
 42
-0.5450207774091295
  0
VERTEX
  5
22B2
  8
SAPA_PROFIL
 10
-45.64999999901238
 20
-2.4499988793860998
 30
0.0
  0
VERTEX
  5
22B3
  8
SAPA_PROFIL
 10
-45.649999999012323
 20
-2.699998879386043
 30
0.0
  0
VERTEX
  5
22B4
  8
SAPA_PROFIL
 10
-44.273765403337791
 20
-2.1767185751340881
 30
0.0
 42
-0.545020777409516
  0
VERTEX
  5
22B5
  8
SAPA_PROFIL
 10
-43.849999999012127
 20
-2.4499988793860998
 30
0.0
  0
VERTEX
  5
22B6
  8
SAPA_PROFIL
 10
-43.849999999012127
 20
-2.699998879386043
 30
0.0
  0
VERTEX
  5
22B7
  8
SAPA_PROFIL
 10
-43.182570825615642
 20
-2.4460457272157892
 30
0.0
 42
0.3492695052203141
  0
VERTEX
  5
22B8
  8
SAPA_PROFIL
 10
-42.949999999012221
 20
-2.1537217518476259
 30
0.0
  0
VERTEX
  5
22B9
  8
SAPA_PROFIL
 10
-42.949999999012221
 20
-1.2649099434531761
 30
0.0
 42
-0.3475404855924057
  0
VERTEX
  5
22BA
  8
SAPA_PROFIL
 10
-42.71923076824293
 20
-0.973007390206817
 30
0.0
 42
0.7905694150422074
  0
VERTEX
  5
22BB
  8
SAPA_PROFIL
 10
-42.719230768243101
 20
0.9730096314361809
 30
0.0
 42
-0.3475404855923888
  0
VERTEX
  5
22BC
  8
SAPA_PROFIL
 10
-42.949999999012221
 20
1.2649121846833919
 30
0.0
  0
VERTEX
  5
22BD
  8
SAPA_PROFIL
 10
-42.9499999990121
 20
1.876720816361906
 30
0.0
 42
0.4142135623730951
  0
VERTEX
  5
22BE
  8
SAPA_PROFIL
 10
-43.249999999012111
 20
2.1767208163619181
 30
0.0
  0
VERTEX
  5
22BF
  8
SAPA_PROFIL
 10
-43.3737654033377
 20
2.1767208163618612
 30
0.0
  0
VERTEX
  5
22C0
  8
SAPA_PROFIL
 10
-44.749999999012232
 20
2.7000011206140431
 30
0.0
  0
VERTEX
  5
22C1
  8
SAPA_PROFIL
 10
-44.749999999012452
 20
2.4500011206138721
 30
0.0
 42
-0.5450207774088696
  0
VERTEX
  5
22C2
  8
SAPA_PROFIL
 10
-45.173765403337647
 20
2.1767208163618039
 30
0.0
  0
VERTEX
  5
22C3
  8
SAPA_PROFIL
 10
-46.549999999012179
 20
2.7000011206140431
 30
0.0
  0
VERTEX
  5
22C4
  8
SAPA_PROFIL
 10
-46.549999999012407
 20
2.4500011206138721
 30
0.0
 42
-0.5450207774091855
  0
VERTEX
  5
22C5
  8
SAPA_PROFIL
 10
-46.973765403337772
 20
2.1767208163617471
 30
0.0
  0
VERTEX
  5
22C6
  8
SAPA_PROFIL
 10
-48.349999999012141
 20
2.7000011206140431
 30
0.0
  0
VERTEX
  5
22C7
  8
SAPA_PROFIL
 10
-48.349999999012141
 20
2.4500011206138721
 30
0.0
 42
-0.5450207774093374
  0
VERTEX
  5
22C8
  8
SAPA_PROFIL
 10
-48.773765403337741
 20
2.176720816361974
 30
0.0
  0
VERTEX
  5
22C9
  8
SAPA_PROFIL
 10
-50.149999999012323
 20
2.7000011206140431
 30
0.0
  0
VERTEX
  5
22CA
  8
SAPA_PROFIL
 10
-50.149999999011918
 20
2.1499800611868478
 30
0.0
  0
VERTEX
  5
22CB
  8
SAPA_PROFIL
 10
-51.347075010161461
 20
2.149980061186795
 30
0.0
 42
-0.1681572645226206
  0
VERTEX
  5
22CC
  8
SAPA_PROFIL
 10
-51.532521788160693
 20
2.2141634109483439
 30
0.0
  0
VERTEX
  5
22CD
  8
SAPA_PROFIL
 10
-52.49999999901177
 20
3.074990590900597
 30
0.0
  0
VERTEX
  5
22CE
  8
SAPA_PROFIL
 10
-52.499999999011827
 20
4.7000011206165482
 30
0.0
 42
-0.4142135623730951
  0
VERTEX
  5
22CF
  8
SAPA_PROFIL
 10
-52.199999999011823
 20
5.0000011206165587
 30
0.0
  0
VERTEX
  5
22D0
  8
SAPA_PROFIL
 10
-31.000000000001869
 20
5.000001120616381
 30
0.0
 42
0.4142135623730951
  0
VERTEX
  5
22D1
  8
SAPA_PROFIL
 10
-30.000000000001869
 20
6.000001120616381
 30
0.0
  0
VERTEX
  5
22D2
  8
SAPA_PROFIL
 10
-30.000000000001759
 20
14.200001120614781
 30
0.0
 42
0.4142135623730951
  0
VERTEX
  5
22D3
  8
SAPA_PROFIL
 10
-30.500000000001759
 20
14.700001120614781
 30
0.0
  0
VERTEX
  5
22D4
  8
SAPA_PROFIL
 10
-33.700000000001808
 20
14.700001120614781
 30
0.0
 42
0.4142135623730951
  0
VERTEX
  5
22D5
  8
SAPA_PROFIL
 10
-34.200000000001808
 20
14.200001120614781
 30
0.0
  0
VERTEX
  5
22D6
  8
SAPA_PROFIL
 10
-34.20000000000158
 20
11.30000112061486
 30
0.0
 42
-0.4142135623730951
  0
VERTEX
  5
22D7
  8
SAPA_PROFIL
 10
-34.500000000001542
 20
11.000001120614909
 30
0.0
  0
VERTEX
  5
22D8
  8
SAPA_PROFIL
 10
-35.200000000001701
 20
11.00000112061479
 30
0.0
 42
-0.4142135623730951
  0
VERTEX
  5
22D9
  8
SAPA_PROFIL
 10
-35.500000000001769
 20
11.300001120614629
 30
0.0
  0
VERTEX
  5
22DA
  8
SAPA_PROFIL
 10
-35.500000000001648
 20
17.651669643259929
 30
0.0
 42
-0.1691807452124953
  0
VERTEX
  5
22DB
  8
SAPA_PROFIL
 10
-35.283588601450788
 20
18.27294969579582
 30
0.0
  0
VERTEX
  5
22DC
  8
SAPA_PROFIL
 10
-35.035076580436403
 20
18.58638513637549
 30
0.0
 42
-0.7105995015650612
  0
VERTEX
  5
22DD
  8
SAPA_PROFIL
 10
-34.500000000001542
 20
18.40000112061465
 30
0.0
  0
VERTEX
  5
22DE
  8
SAPA_PROFIL
 10
-34.500000000001762
 20
16.500001120614851
 30
0.0
 42
0.4142135623732061
  0
VERTEX
  5
22DF
  8
SAPA_PROFIL
 10
-34.20000000000158
 20
16.200001120614779
 30
0.0
  0
VERTEX
  5
22E0
  8
SAPA_PROFIL
 10
-30.500000000001759
 20
16.200001120614889
 30
0.0
 42
0.4142135623730951
  0
SEQEND
  5
22E1
  8
SAPA_PROFIL
  0
LINE
  5
1BF8
  8
SAPA_PROFIL
 62
     0
 10
41.387268607697308
 20
-26.6963726790271
 30
0.0
 11
40.903121456642559
 21
-27.18051983008186
 31
0.0
  0
LINE
  5
1BF9
  8
SAPA_PROFIL
 62
     0
 10
41.306491262576628
 20
-25.00938307118145
 30
0.0
 11
39.135354503676183
 21
-27.18051983008186
 31
0.0
  0
LINE
  5
1BFA
  8
SAPA_PROFIL
 62
     0
 10
39.538724309610252
 20
-25.00938307118145
 30
0.0
 11
37.3675875507098
 21
-27.18051983008186
 31
0.0
  0
LINE
  5
1BFB
  8
SAPA_PROFIL
 62
     0
 10
37.770957356643862
 20
-25.00938307118145
 30
0.0
 11
35.599820597743467
 21
-27.18051983008186
 31
0.0
  0
LINE
  5
1BFC
  8
SAPA_PROFIL
 62
     0
 10
36.003190403677479
 20
-25.00938307118145
 30
0.0
 11
33.832053644777091
 21
-27.18051983008186
 31
0.0
  0
LINE
  5
1BFD
  8
SAPA_PROFIL
 62
     0
 10
27.164355638845681
 20
-25.00938307118145
 30
0.0
 11
26.43054871305003
 21
-25.74318999697709
 31
0.0
  0
LINE
  5
1BFE
  8
SAPA_PROFIL
 62
     0
 10
28.932122591812011
 20
-25.00938307118145
 30
0.0
 11
26.760985832911619
 21
-27.18051983008186
 31
0.0
  0
LINE
  5
1BFF
  8
SAPA_PROFIL
 62
     0
 10
30.69988954477839
 20
-25.00938307118145
 30
0.0
 11
28.528752785878002
 21
-27.18051983008186
 31
0.0
  0
LINE
  5
1C00
  8
SAPA_PROFIL
 62
     0
 10
32.46765649774477
 20
-25.00938307118145
 30
0.0
 11
30.296519738844321
 21
-27.18051983008186
 31
0.0
  0
LINE
  5
1C01
  8
SAPA_PROFIL
 62
     0
 10
34.235423450711153
 20
-25.00938307118145
 30
0.0
 11
32.064286691810707
 21
-27.18051983008186
 31
0.0
  0
LINE
  5
1C02
  8
SAPA_PROFIL
 62
     0
 10
40.158205981169537
 20
-25.00938307118145
 30
0.0
 11
41.387268607697308
 21
-26.23844569770927
 31
0.0
  0
LINE
  5
1C03
  8
SAPA_PROFIL
 62
     0
 10
38.390439028203161
 20
-25.00938307118145
 30
0.0
 11
40.561575787103607
 21
-27.18051983008186
 31
0.0
  0
LINE
  5
1C04
  8
SAPA_PROFIL
 62
     0
 10
36.622672075236778
 20
-25.00938307118145
 30
0.0
 11
38.793808834137216
 21
-27.18051983008186
 31
0.0
  0
LINE
  5
1C05
  8
SAPA_PROFIL
 62
     0
 10
34.854905122270452
 20
-25.00938307118145
 30
0.0
 11
37.02604188117084
 21
-27.18051983008186
 31
0.0
  0
LINE
  5
1C06
  8
SAPA_PROFIL
 62
     0
 10
33.087138169304069
 20
-25.00938307118145
 30
0.0
 11
35.258274928204457
 21
-27.18051983008186
 31
0.0
  0
LINE
  5
1C07
  8
SAPA_PROFIL
 62
     0
 10
26.43054871305003
 20
-25.423861426792911
 30
0.0
 11
28.187207116338978
 21
-27.18051983008186
 31
0.0
  0
LINE
  5
1C08
  8
SAPA_PROFIL
 62
     0
 10
27.78383731040498
 20
-25.00938307118145
 30
0.0
 11
29.954974069305369
 21
-27.18051983008186
 31
0.0
  0
LINE
  5
1C09
  8
SAPA_PROFIL
 62
     0
 10
29.551604263371299
 20
-25.00938307118145
 30
0.0
 11
31.722741022271752
 21
-27.18051983008186
 31
0.0
  0
LINE
  5
1C0A
  8
SAPA_PROFIL
 62
     0
 10
31.319371216337689
 20
-25.00938307118145
 30
0.0
 11
33.490507975238131
 21
-27.18051983008186
 31
0.0
  0
LINE
  5
1C0B
  8
SAPA_PROFIL
 62
     0
 10
42.368339987301852
 20
-41.10121907446424
 30
0.0
 11
41.100466111176949
 21
-42.369092950589192
 31
0.0
  0
LINE
  5
1C0C
  8
SAPA_PROFIL
 62
     0
 10
42.368339987301852
 20
-39.333452121497857
 30
0.0
 11
41.017410448430489
 21
-40.684381660369212
 31
0.0
  0
LINE
  5
1C0D
  8
SAPA_PROFIL
 62
     0
 10
42.368339987301852
 20
-37.56568516853153
 30
0.0
 11
41.017410448430489
 21
-38.916614707402879
 31
0.0
  0
LINE
  5
1C0E
  8
SAPA_PROFIL
 62
     0
 10
42.368339987301852
 20
-35.797918215565147
 30
0.0
 11
41.017410448430489
 21
-37.148847754436503
 31
0.0
  0
LINE
  5
1C0F
  8
SAPA_PROFIL
 62
     0
 10
41.814302157073598
 20
-29.280888233927961
 30
0.0
 11
41.017410448430489
 21
-30.077779942571031
 31
0.0
  0
LINE
  5
1C10
  8
SAPA_PROFIL
 62
     0
 10
42.368339987301852
 20
-30.49461735666603
 30
0.0
 11
41.017410448430489
 21
-31.845546895537382
 31
0.0
  0
LINE
  5
1C11
  8
SAPA_PROFIL
 62
     0
 10
42.368339987301852
 20
-32.262384309632409
 30
0.0
 11
41.017410448430489
 21
-33.613313848503772
 31
0.0
  0
LINE
  5
1C12
  8
SAPA_PROFIL
 62
     0
 10
42.368339987301852
 20
-34.030151262598771
 30
0.0
 11
41.017410448430489
 21
-35.381080801470119
 31
0.0
  0
LINE
  5
1C13
  8
SAPA_PROFIL
 62
     0
 10
41.017410448430489
 20
-29.812842895377489
 30
0.0
 11
42.368339987301852
 21
-31.163772434248809
 31
0.0
  0
LINE
  5
1C14
  8
SAPA_PROFIL
 62
     0
 10
41.017410448430489
 20
-31.58060984834384
 30
0.0
 11
42.368339987301852
 21
-32.931539387215203
 31
0.0
  0
LINE
  5
1C15
  8
SAPA_PROFIL
 62
     0
 10
41.017410448430489
 20
-33.348376801310224
 30
0.0
 11
42.368339987301852
 21
-34.69930634018155
 31
0.0
  0
LINE
  5
1C16
  8
SAPA_PROFIL
 62
     0
 10
41.017410448430489
 20
-42.187211566142047
 30
0.0
 11
41.199291832877627
 21
-42.369092950589192
 31
0.0
  0
LINE
  5
1C17
  8
SAPA_PROFIL
 62
     0
 10
41.017410448430489
 20
-40.419444613175671
 30
0.0
 11
42.368339987301852
 21
-41.770374152047019
 31
0.0
  0
LINE
  5
1C18
  8
SAPA_PROFIL
 62
     0
 10
41.017410448430489
 20
-38.651677660209351
 30
0.0
 11
42.368339987301852
 21
-40.002607199080643
 31
0.0
  0
LINE
  5
1C19
  8
SAPA_PROFIL
 62
     0
 10
41.017410448430489
 20
-36.883910707242961
 30
0.0
 11
42.368339987301852
 21
-38.234840246114317
 31
0.0
  0
LINE
  5
1C1A
  8
SAPA_PROFIL
 62
     0
 10
41.017410448430489
 20
-35.116143754276578
 30
0.0
 11
42.368339987301852
 21
-36.467073293147926
 31
0.0
  0
LINE
  5
1C1B
  8
SAPA_PROFIL
 10
31.199999999996411
 20
-28.699998879385831
 30
0.0
 11
31.199999999996411
 21
-60.957150622588458
 31
0.0
  0
LINE
  5
1C1C
  8
SAPA_PROFIL
 10
30.441791374795908
 20
-28.757630554712499
 30
0.0
 11
30.441791374795859
 21
-60.957150622588458
 31
0.0
  0
LINE
  5
1C1D
  8
SAPA_PROFIL
 10
29.74179137479587
 20
-28.757630554712499
 30
0.0
 11
29.74179137479581
 21
-60.957150622588458
 31
0.0
  0
LINE
  5
1C1E
  8
SAPA_PROFIL
 10
40.97543824846673
 20
-28.822691503769551
 30
0.0
 11
40.97543824846678
 21
-60.957150622588479
 31
0.0
  0
INSERT
  5
1C8E
  8
SAPA_ISOLATOR
  6
CONTINUOUS
  2
*X77
 10
0.0
 20
0.0
 30
0.0
1001
ACAD
1000
HATCH
1002
{
1070
    19
1000
ANSI31
1040
0.35
1040
3.926990816987241
1000
R14_HATCH_DATA
1000
1C8E
1011
1.0
1021
0.0
1031
0.0
1021
0.0
1031
0.0
1011
0.0
1021
0.0
1031
0.0
1021
1.0
1031
0.0
1011
0.0
1021
0.0
1031
0.0
1021
0.0
1031
1.0
1040
0.0
1010
0.0
1020
0.0
1030
1.0
1000
ANSI31
1070
     0
1070
     0
1071
        1
1071
        1
1071
       49
1070
     2
1040
-64.463742496360354
1040
22.327435801266638
1040
0.3006817060114675
1040
-1.5657379063807291
1040
-0.3498199254894492
1070
     1
1070
     1
1040
-64.181271744820549
1040
22.224383567644558
1040
-63.295794031949349
1040
24.657213589188579
1070
     2
1040
-62.919916983633222
1040
24.520405531855769
1040
0.400000000002539
1040
3.490658503993135
1040
4.7123889803853398
1070
     0
1070
     1
1040
-62.919916983632959
1040
24.920405531858311
1040
-52.499999998918831
1040
24.920405531858268
1070
     1
1040
-52.499999998918831
1040
24.920405531858268
1040
-42.080083014200738
1040
24.920405531858211
1070
     2
1040
-42.080083014202494
1040
24.520405531858561
1040
0.3999999999996488
1040
4.7123889803890684
1040
5.9341194567812998
1070
     0
1070
     1
1040
-41.70420596588837
1040
24.657213589188501
1040
-40.818728253020197
1040
22.224383567652801
1070
     2
1040
-40.53636568087277
1040
22.327282010596541
1040
0.3005273892841634
1040
3.4910552070390422
1040
4.7076879318700922
1070
     1
1070
     2
1040
-40.308189705934488
1040
27.587401017121469
1040
5.5653807064749881
1040
4.6711242502471872
1040
4.7342885622872561
1070
     1
1070
     1
1040
-40.186319937167163
1040
22.023354812472849
1040
-39.946136872384869
1040
21.884685055366329
1070
     2
1040
-39.841136872385157
1040
22.066550390161229
1040
0.2100000000000017
1040
4.188790204787975
1040
6.2831853071790738
1070
     1
1070
     1
1040
-39.631136872385163
1040
22.066550390161119
1040
-39.631136872385042
1040
22.33366491837403
1070
     1
1040
-39.631136872385042
1040
22.33366491837403
1040
-39.29999999891885
1040
22.529886984158331
1070
     1
1040
-39.29999999891885
1040
22.529886984158331
1040
-38.316679860938329
1040
23.097531147655779
1070
     2
1040
-38.211679860940073
1040
22.91566581286223
1040
0.209999999998109
1040
4.1887902047907026
1040
4.7123889803873293
1070
     0
1070
     1
1040
-38.211679860939512
1040
23.125665812860341
1040
-37.89999999891694
1040
23.125665812860451
1070
     2
1040
-37.899999998915028
1040
22.725665812864321
1040
0.3999999999961332
1040
4.7123889803799113
1040
6.2831853071900472
1070
     0
1070
     1
1040
-37.499999998918902
1040
22.725665812860139
1040
-37.499999998918838
1040
19.325665812860379
1070
     2
1040
-37.899999998915902
1040
19.325665812857469
1040
0.3999999999970676
1040
6.2831853071723121
1040
7.8539816339818991
1070
     0
1070
     1
1040
-37.899999998918872
1040
18.925665812860409
1040
-38.211679860942517
1040
18.925665812860409
1070
     2
1040
-38.211679860940869
1040
19.135665812855361
1040
0.2099999999949489
1040
1.57079632680278
1040
2.0943951023994072
1070
     0
1070
     1
1040
-38.316679860939473
1040
18.953800478065649
1040
-39.29999999891885
1040
19.521520624427691
1070
     1
1040
-39.29999999891885
1040
19.521520624427691
1040
-39.894744110589727
1040
19.864896297399799
1070
     2
1040
-40.494744110595832
1040
18.825665812849401
1040
1.2000000000109059
1040
1.047197551195963
1040
1.5707963267926159
1070
     1
1070
     1
1040
-40.494744110593103
1040
20.025665812860321
1040
-41.446608443479533
1040
20.02566581286009
1070
     2
1040
-41.446608443470517
1040
21.025665812852338
1040
0.9999999999922533
1040
1.570796326803906
1040
2.7925268031964121
1070
     0
1070
     1
1040
-42.386301064251029
1040
20.683645669534481
1040
-43.177415089160881
1040
22.85721358918817
1070
     2
1040
-43.553292137476362
1040
22.720405531856901
1040
0.4000000000013905
1040
0.3490658504002764
1040
1.5707963267925069
1070
     1
1070
     1
1040
-43.553292137475403
1040
23.120405531858289
1040
-52.499999998918831
1040
23.120405531858289
1070
     1
1040
-52.499999998918831
1040
23.120405531858289
1040
-61.446707860362331
1040
23.120405531858349
1070
     2
1040
-61.446707860363318
1040
22.720405531859772
1040
0.3999999999985775
1040
1.570796326792411
1040
2.7925268031846149
1070
     1
1070
     1
1040
-61.822584908675481
1040
22.857213589191929
1040
-62.613698933586591
1040
20.683645669534709
1070
     2
1040
-63.553391554381747
1040
21.025665812873591
1040
1.000000000013211
1040
6.632251157587703
1040
7.853981633979922
1070
     0
1070
     1
1040
-63.55339155438719
1040
20.025665812860382
1040
-64.505255887244687
1040
20.025665812860382
1070
     2
1040
-64.505255887247685
1040
18.82566581287135
1040
1.1999999999890261
1040
1.570796326792401
1040
2.094395102389051
1070
     1
1070
     1
1040
-65.105255887237888
1040
19.864896297405661
1040
-65.692820321946385
1040
19.525665812860431
1070
     1
1040
-65.692820321946385
1040
19.525665812860431
1040
-66.683320136898317
1040
18.953800478065709
1070
     2
1040
-66.788320136899983
1040
19.135665812866851
1040
0.2100000000063851
1040
7.3303828583845627
1040
7.8539816339812401
1070
     0
1070
     1
1040
-66.788320136901405
1040
18.925665812860469
1040
-67.099999998918904
1040
18.925665812860409
1070
     2
1040
-67.099999998915948
1040
19.32566581286336
1040
0.40000000000295
1040
1.5707963268023291
1040
3.141592653592308
1070
     0
1070
     1
1040
-67.499999998918895
1040
19.325665812864369
1040
-67.499999998918895
1040
22.72566581286042
1070
     2
1040
-67.099999998916914
1040
22.72566581285842
1040
0.4000000000019782
1040
3.1415926535947949
1040
4.7123889803848034
1070
     0
1070
     1
1040
-67.099999998916871
1040
23.125665812860401
1040
-66.788320136898221
1040
23.125665812860401
1070
     2
1040
-66.78832013689869
1040
22.915665812858489
1040
0.2100000000019078
1040
4.7123889803869421
1040
5.2359877559835688
1070
     0
1070
     1
1040
-66.683320136897635
1040
23.09753114765482
1040
-65.368863125452634
1040
22.333664918374041
1070
     1
1040
-65.368863125452634
1040
22.333664918374041
1040
-65.368863125452521
1040
22.066550390161119
1070
     2
1040
-65.158863125452513
1040
22.066550390161229
1040
0.2100000000000017
1040
3.1415926535902998
1040
5.235987755981399
1070
     1
1070
     1
1040
-65.053863125452807
1040
21.884685055366329
1040
-64.813680060670507
1040
22.023354812472849
1070
     2
1040
-64.691810291900111
1040
27.58740101656397
1040
5.5653807059176952
1040
4.6904893984793761
1040
4.7536537105194441
1070
     1
1071
        0
1070
     0
1070
     1
1040
3.926990816987241
1040
0.35
1070
     0
1070
     1
1040
4.7123889803846888
1040
-67.50000014973466
1040
24.920405724878488
1040
1.111249999999999
1040
-0.0000000000000005
1070
     0
1071
        1
1040
-67.50000014973466
1040
24.920405724878488
1040
0.0
1002
}
  0
INSERT
  5
1C8F
  8
SAPA_ISOLATOR
  6
CONTINUOUS
  2
*X78
 10
0.0
 20
0.0
 30
0.0
1001
ACAD
1000
HATCH
1002
{
1070
    19
1000
ANSI31
1040
0.35
1040
5.4977871437821371
1000
R14_HATCH_DATA
1000
1C8F
1011
1.0
1021
0.0
1031
0.0
1021
0.0
1031
0.0
1011
0.0
1021
0.0
1031
0.0
1021
1.0
1031
0.0
1011
0.0
1021
0.0
1031
0.0
1021
0.0
1031
1.0
1040
0.0
1010
0.0
1020
0.0
1030
1.0
1000
ANSI31
1070
     0
1070
     0
1071
        1
1071
        1
1071
       49
1070
     2
1040
-64.463742496360354
1040
7.672565692879961
1040
0.3006817060114675
1040
-1.565737906380728
1040
-0.3498199254894487
1070
     0
1070
     1
1040
-64.181271744820549
1040
7.7756179265020329
1040
-63.295794031949349
1040
5.342787904958012
1070
     2
1040
-62.919916983633222
1040
5.4795959622908299
1040
0.400000000002539
1040
3.490658503993135
1040
4.7123889803853389
1070
     1
1070
     1
1040
-62.919916983632959
1040
5.079595962288292
1040
-52.499999998918831
1040
5.0795959622883169
1070
     1
1040
-52.499999998918831
1040
5.0795959622883169
1040
-42.080083014200738
1040
5.079595962288372
1070
     2
1040
-42.080083014202494
1040
5.4795959622880233
1040
0.3999999999996488
1040
4.7123889803890684
1040
5.9341194567812998
1070
     1
1070
     1
1040
-41.70420596588837
1040
5.3427879049580929
1040
-40.818728253020197
1040
7.775617926493787
1070
     2
1040
-40.53636568087277
1040
7.6727194835500461
1040
0.3005273892841634
1040
3.4910552070390422
1040
4.7076879318700922
1070
     0
1070
     2
1040
-40.308189705934488
1040
2.412600477025121
1040
5.5653807064749881
1040
4.6711242502471872
1040
4.7342885622872561
1070
     0
1070
     1
1040
-40.186319937167163
1040
7.9766466816737349
1040
-39.946136872384862
1040
8.1153164387802601
1070
     2
1040
-39.841136872385157
1040
7.9334511039853588
1040
0.2100000000000017
1040
4.188790204787975
1040
6.2831853071790738
1070
     0
1070
     1
1040
-39.631136872385163
1040
7.933451103985468
1040
-39.631136872385042
1040
7.6663365757725543
1070
     1
1040
-39.631136872385042
1040
7.6663365757725526
1040
-39.29999999891885
1040
7.4701145099882549
1070
     1
1040
-39.29999999891885
1040
7.4701145099882549
1040
-38.316679860938329
1040
6.9024703464908068
1070
     2
1040
-38.211679860940073
1040
7.0843356812843519
1040
0.209999999998109
1040
4.1887902047907017
1040
4.7123889803873276
1070
     1
1070
     1
1040
-38.211679860939512
1040
6.8743356812862464
1040
-37.89999999891694
1040
6.8743356812861327
1070
     2
1040
-37.899999998915028
1040
7.274335681282265
1040
0.3999999999961332
1040
4.7123889803799113
1040
6.2831853071900472
1070
     1
1070
     1
1040
-37.499999998918902
1040
7.2743356812864501
1040
-37.499999998918838
1040
10.6743356812862
1070
     2
1040
-37.899999998915902
1040
10.67433568128911
1040
0.3999999999970676
1040
6.2831853071723121
1040
7.8539816339818991
1070
     1
1070
     1
1040
-37.899999998918872
1040
11.074335681286181
1040
-38.211679860942517
1040
11.074335681286181
1070
     2
1040
-38.211679860940869
1040
10.86433568129123
1040
0.2099999999949489
1040
1.5707963268027789
1040
2.0943951023994072
1070
     1
1070
     1
1040
-38.316679860939473
1040
11.04620101608093
1040
-39.29999999891885
1040
10.478480869718901
1070
     1
1040
-39.29999999891885
1040
10.478480869718901
1040
-39.894744110589727
1040
10.13510519674678
1070
     2
1040
-40.494744110595832
1040
11.174335681297171
1040
1.2000000000109059
1040
1.0471975511959639
1040
1.570796326792617
1070
     0
1070
     1
1040
-40.494744110593103
1040
9.97433568128627
1040
-41.446608443479533
1040
9.9743356812864992
1070
     2
1040
-41.446608443470517
1040
8.9743356812942459
1040
0.9999999999922533
1040
1.570796326803906
1040
2.7925268031964121
1070
     1
1070
     1
1040
-42.386301064251029
1040
9.3163558246121099
1040
-43.177415089160881
1040
7.1427879049584178
1070
     2
1040
-43.553292137476362
1040
7.2795959622896902
1040
0.4000000000013905
1040
0.3490658504002768
1040
1.5707963267925069
1070
     0
1070
     1
1040
-43.553292137475403
1040
6.8795959622882981
1040
-52.499999998918831
1040
6.8795959622882981
1070
     1
1040
-52.499999998918831
1040
6.8795959622882998
1040
-61.446707860362331
1040
6.8795959622882448
1070
     2
1040
-61.446707860363318
1040
7.2795959622868232
1040
0.3999999999985775
1040
1.5707963267924121
1040
2.7925268031846149
1070
     0
1070
     1
1040
-61.822584908675481
1040
7.1427879049546688
1040
-62.613698933586591
1040
9.316355824611886
1070
     2
1040
-63.553391554381747
1040
8.9743356812730077
1040
1.000000000013211
1040
6.632251157587703
1040
7.853981633979922
1070
     1
1070
     1
1040
-63.55339155438719
1040
9.9743356812862167
1040
-64.505255887244687
1040
9.9743356812862167
1070
     2
1040
-64.505255887247685
1040
11.17433568127524
1040
1.1999999999890261
1040
1.570796326792401
1040
2.0943951023890519
1070
     0
1070
     1
1040
-65.105255887237888
1040
10.13510519674093
1040
-65.692820321946385
1040
10.47433568128616
1070
     1
1040
-65.692820321946385
1040
10.47433568128616
1040
-66.683320136898317
1040
11.046201016080881
1070
     2
1040
-66.788320136899983
1040
10.864335681279741
1040
0.2100000000063851
1040
7.3303828583845627
1040
7.8539816339812401
1070
     1
1070
     1
1040
-66.788320136901405
1040
11.07433568128612
1040
-67.099999998918904
1040
11.074335681286181
1070
     2
1040
-67.099999998915948
1040
10.67433568128323
1040
0.40000000000295
1040
1.5707963268023279
1040
3.141592653592308
1070
     1
1070
     1
1040
-67.499999998918895
1040
10.674335681282219
1040
-67.499999998918895
1040
7.274335681286173
1070
     2
1040
-67.099999998916914
1040
7.2743356812881732
1040
0.4000000000019782
1040
3.1415926535947949
1040
4.7123889803848034
1070
     1
1070
     1
1040
-67.099999998916871
1040
6.8743356812861949
1040
-66.788320136898221
1040
6.8743356812861949
1070
     2
1040
-66.78832013689869
1040
7.0843356812881044
1040
0.2100000000019078
1040
4.7123889803869412
1040
5.2359877559835688
1070
     1
1070
     1
1040
-66.683320136897635
1040
6.9024703464917803
1040
-65.368863125452634
1040
7.6663365757725588
1070
     1
1040
-65.368863125452634
1040
7.6663365757725588
1040
-65.368863125452521
1040
7.9334511039854743
1070
     2
1040
-65.158863125452513
1040
7.9334511039853668
1040
0.2100000000000017
1040
3.1415926535902998
1040
5.235987755981399
1070
     0
1070
     1
1040
-65.053863125452807
1040
8.1153164387802672
1040
-64.813680060670507
1040
7.9766466816737429
1070
     2
1040
-64.691810291900111
1040
2.4126004775826231
1040
5.5653807059176952
1040
4.6904893984793761
1040
4.7536537105194441
1070
     0
1071
        0
1070
     0
1070
     1
1040
5.4977871437821371
1040
0.35
1070
     0
1070
     1
1040
0.0
1040
0.0
1040
0.0
1040
0.0000000000000003
1040
1.111249999999999
1070
     0
1071
        1
1040
-67.50000014973466
1040
5.0795957692681082
1040
0.0
1002
}
  0
LINE
  5
1C90
  8
SAPA_ISOLATOR
 10
-70.199999999012263
 20
-3.7999988793823141
 30
0.0
 11
-63.099999999012311
 21
-3.7999988793833381
 31
0.0
  0
ARC
  5
1C91
  8
SAPA_ISOLATOR
 10
-70.199999999012263
 20
-3.2999988793823141
 30
0.0
 40
0.5
 50
180.0
 51
270.0
  0
LINE
  5
1C92
  8
SAPA_ISOLATOR
 10
-70.699999999012263
 20
3.3000011206175941
 30
0.0
 11
-70.699999999012263
 21
-3.2999988793823141
 31
0.0
  0
ARC
  5
1C93
  8
SAPA_ISOLATOR
 10
-70.199999999012263
 20
3.3000011206175941
 30
0.0
 40
0.5
 50
90.0
 51
180.0
  0
LINE
  5
1C94
  8
SAPA_ISOLATOR
 10
-63.099999999012141
 20
3.80000112061657
 30
0.0
 11
-70.199999999012263
 21
3.8000011206175941
 31
0.0
  0
ARC
  5
1C95
  8
SAPA_ISOLATOR
 10
-63.099999999012198
 20
3.300001120616562
 30
0.0
 40
0.5000000000000071
 50
0.0000000000010178
 51
89.999999999992653
  0
LINE
  5
1C96
  8
SAPA_ISOLATOR
 10
-62.599999999012248
 20
-3.2999988793833381
 30
0.0
 11
-62.599999999012198
 21
3.30000112061657
 31
0.0
  0
ARC
  5
1C97
  8
SAPA_ISOLATOR
 10
-63.099999999012248
 20
-3.299998879383347
 30
0.0
 40
0.4999999999999912
 50
269.99999999999272
 51
0.0000000000010178
  0
LINE
  5
1C98
  8
SAPA_ISOLATOR
 10
-80.299999999010353
 20
-6.7999988793829402
 30
0.0
 11
-71.499999999010186
 21
-6.7999988793823141
 31
0.0
  0
ARC
  5
1C99
  8
SAPA_ISOLATOR
 10
-80.299999999010595
 20
-5.7999988793829402
 30
0.0
 40
1.0
 50
180.0
 51
270.00000000001302
  0
LINE
  5
1C9A
  8
SAPA_ISOLATOR
 10
-81.299999999010595
 20
-5.0873708760346403
 30
0.0
 11
-81.299999999010595
 21
-5.7999988793829402
 31
0.0
  0
ARC
  5
1C9B
  8
SAPA_ISOLATOR
 10
-80.999999999010853
 20
-5.0873708760348624
 30
0.0
 40
0.2999999999997271
 50
129.99999999994
 51
179.99999999995759
  0
LINE
  5
1C9C
  8
SAPA_ISOLATOR
 10
-80.492055318909195
 20
-4.2695324955034826
 30
0.0
 11
-81.192836281916414
 21
-4.8575575430991762
 31
0.0
  0
ARC
  5
1C9D
  8
SAPA_ISOLATOR
 10
-80.299999999010126
 20
-4.4999988793822991
 30
0.0
 40
0.2999999999994998
 50
359.99999999995572
 51
129.80557109227129
  0
LINE
  5
1C9E
  8
SAPA_ISOLATOR
 10
-79.999999999010186
 20
-5.2999988793824846
 30
0.0
 11
-79.99999999901064
 21
-4.4999988793825301
 31
0.0
  0
ARC
  5
1C9F
  8
SAPA_ISOLATOR
 10
-79.699999999010572
 20
-5.2999988793826009
 30
0.0
 40
0.2999999999996108
 50
179.99999999997769
 51
270.0000000000652
  0
LINE
  5
1CA0
  8
SAPA_ISOLATOR
 10
-72.49999999901064
 20
-5.5999988793820421
 30
0.0
 11
-79.699999999010231
 21
-5.5999988793822117
 31
0.0
  0
ARC
  5
1CA1
  8
SAPA_ISOLATOR
 10
-72.500136214317024
 20
-5.299670026541321
 30
0.0
 40
0.3003288837312077
 50
270.02598671939739
 51
89.974013280559248
  0
LINE
  5
1CA2
  8
SAPA_ISOLATOR
 10
-72.499999999010356
 20
-0.8660242831672348
 30
0.0
 11
-72.499999999010413
 21
-4.9993411737005991
 31
0.0
  0
LINE
  5
1CA3
  8
SAPA_ISOLATOR
 10
-71.999999999010242
 20
0.0000011206174122
 30
0.0
 11
-72.499999999010356
 21
-0.8660242831672348
 31
0.0
  0
LINE
  5
1CA4
  8
SAPA_ISOLATOR
 10
-72.499999999010129
 20
0.8660265244017182
 30
0.0
 11
-71.999999999010242
 21
0.0000011206174122
 31
0.0
  0
LINE
  5
1CA5
  8
SAPA_ISOLATOR
 10
-72.499999999010413
 20
4.9993434149358791
 30
0.0
 11
-72.499999999010129
 21
0.8660265244017182
 31
0.0
  0
ARC
  5
1CA6
  8
SAPA_ISOLATOR
 10
-72.500136214317251
 20
5.2996722677768267
 30
0.0
 40
0.3003288837314351
 50
270.02598671948408
 51
89.974013280559276
  0
LINE
  5
1CA7
  8
SAPA_ISOLATOR
 10
-79.699999999010231
 20
5.6000011206176046
 30
0.0
 11
-72.49999999901064
 21
5.6000011206177751
 31
0.0
  0
ARC
  5
1CA8
  8
SAPA_ISOLATOR
 10
-79.699999999010458
 20
5.3000011206176501
 30
0.0
 40
0.2999999999999545
 50
89.999999999956557
 51
179.99999999995649
  0
LINE
  5
1CA9
  8
SAPA_ISOLATOR
 10
-79.99999999901064
 20
4.5000011206170143
 30
0.0
 11
-79.999999999010413
 21
5.3000011206178783
 31
0.0
  0
ARC
  5
1CAA
  8
SAPA_ISOLATOR
 10
-80.299999999010581
 20
4.500001120616111
 30
0.0
 40
0.2999999999999353
 50
230.194428907906
 51
0.0000000001723437
  0
LINE
  5
1CAB
  8
SAPA_ISOLATOR
 10
-81.192836281916414
 20
4.8575597843318397
 30
0.0
 11
-80.492055318909195
 21
4.2695347367363752
 31
0.0
  0
ARC
  5
1CAC
  8
SAPA_ISOLATOR
 10
-80.999999999010683
 20
5.087373117267612
 30
0.0
 40
0.2999999999999119
 50
180.0000000000154
 51
230.00000000004351
  0
LINE
  5
1CAD
  8
SAPA_ISOLATOR
 10
-81.299999999010595
 20
5.8000011206178783
 30
0.0
 11
-81.299999999010595
 21
5.0873731172675321
 31
0.0
  0
ARC
  5
1CAE
  8
SAPA_ISOLATOR
 10
-80.299999999010623
 20
5.800001120617849
 30
0.0
 40
0.9999999999999715
 50
89.999999999998366
 51
179.99999999999841
  0
LINE
  5
1CAF
  8
SAPA_ISOLATOR
 10
-71.49999999901064
 20
6.8000011206175373
 30
0.0
 11
-80.299999999010595
 21
6.8000011206178206
 31
0.0
  0
ARC
  5
1CB0
  8
SAPA_ISOLATOR
 10
-71.499999999010271
 20
6.3000011206173383
 30
0.0
 40
0.500000000000199
 50
0.000000000029312
 51
90.000000000042334
  0
LINE
  5
1CB1
  8
SAPA_ISOLATOR
 10
-70.999999999010072
 20
5.5000011206201398
 30
0.0
 11
-70.999999999010072
 21
6.3000011206175941
 31
0.0
  0
ARC
  5
1CB2
  8
SAPA_ISOLATOR
 10
-70.499999999010072
 20
5.5000011206201398
 30
0.0
 40
0.5
 50
180.0
 51
270.0
  0
LINE
  5
1CB3
  8
SAPA_ISOLATOR
 10
-52.999999999012118
 20
5.0000011206149111
 30
0.0
 11
-70.499999999010072
 21
5.0000011206201398
 31
0.0
  0
ARC
  5
1CB4
  8
SAPA_ISOLATOR
 10
-52.999999999012118
 20
4.5000011206149111
 30
0.0
 40
0.5
 50
0.0
 51
90.0
  0
LINE
  5
1CB5
  8
SAPA_ISOLATOR
 10
-52.499999999012118
 20
3.100000747076705
 30
0.0
 11
-52.499999999012118
 21
4.5000011206149111
 31
0.0
  0
LINE
  5
1CB6
  8
SAPA_ISOLATOR
 10
-51.700000372551642
 20
2.3000011206164568
 30
0.0
 11
-52.499999999012118
 21
3.100000747076705
 31
0.0
  0
LINE
  5
1CB7
  8
SAPA_ISOLATOR
 10
-47.241781050848033
 20
2.3000011206164568
 30
0.0
 11
-51.700000372551642
 21
2.3000011206164568
 31
0.0
  0
ARC
  5
1CB8
  8
SAPA_ISOLATOR
 10
-49.34489007291738
 20
-4.1158122390764342
 30
0.0
 40
6.751720419650332
 50
49.67177301070501
 51
71.850812661457397
  0
ARC
  5
1CB9
  8
SAPA_ISOLATOR
 10
-45.856423573463161
 20
0.000000747077016
 30
0.0
 40
1.356423574450988
 50
310.5048287284784
 51
49.495171271515268
  0
ARC
  5
1CBA
  8
SAPA_ISOLATOR
 10
-49.344890072919682
 20
4.1158137332247264
 30
0.0
 40
6.7517204196474427
 50
288.14920769151331
 51
310.32822698934012
  0
LINE
  5
1CBB
  8
SAPA_ISOLATOR
 10
-51.699999625472692
 20
-2.2999988793834509
 30
0.0
 11
-47.241778771785391
 21
-2.2999988793852699
 31
0.0
  0
LINE
  5
1CBC
  8
SAPA_ISOLATOR
 10
-52.499999999012118
 20
-3.0999992529228839
 30
0.0
 11
-51.699999625472692
 21
-2.2999988793834509
 31
0.0
  0
LINE
  5
1CBD
  8
SAPA_ISOLATOR
 10
-52.499999999012118
 20
-4.4999988793846342
 30
0.0
 11
-52.499999999012118
 21
-3.0999992529228839
 31
0.0
  0
ARC
  5
1CBE
  8
SAPA_ISOLATOR
 10
-52.999999999012118
 20
-4.4999988793846342
 30
0.0
 40
0.5
 50
270.0
 51
0.0
  0
LINE
  5
1CBF
  8
SAPA_ISOLATOR
 10
-70.499999999010072
 20
-4.9999988793848607
 30
0.0
 11
-52.999999999012118
 21
-4.9999988793846342
 31
0.0
  0
ARC
  5
1CC0
  8
SAPA_ISOLATOR
 10
-70.499999999010072
 20
-5.4999988793848607
 30
0.0
 40
0.5
 50
90.0
 51
180.0
  0
LINE
  5
1CC1
  8
SAPA_ISOLATOR
 10
-70.999999999010072
 20
-6.2999988793823141
 30
0.0
 11
-70.999999999010072
 21
-5.4999988793848607
 31
0.0
  0
ARC
  5
1CC2
  8
SAPA_ISOLATOR
 10
-71.4999999990101
 20
-6.2999988793822856
 30
0.0
 40
0.5000000000000285
 50
269.99999999999022
 51
359.99999999999682
  0
ARC
  5
1CC3
  8
SAPA_ISOLATOR
 10
-53.999999999011891
 20
-3.4999988793848611
 30
0.0
 40
0.2999999999999545
 50
269.99999999995657
 51
0.0
  0
LINE
  5
1CC4
  8
SAPA_ISOLATOR
 10
-61.099999999012248
 20
-3.7999988793836792
 30
0.0
 11
-53.999999999012111
 21
-3.7999988793848161
 31
0.0
  0
ARC
  5
1CC5
  8
SAPA_ISOLATOR
 10
-61.099999999012176
 20
-3.2999988793836659
 30
0.0
 40
0.5000000000000142
 50
180.00000000000139
 51
269.99999999999193
  0
LINE
  5
1CC6
  8
SAPA_ISOLATOR
 10
-61.599999999012141
 20
3.3000011206161162
 30
0.0
 11
-61.599999999012198
 21
-3.2999988793836792
 31
0.0
  0
ARC
  5
1CC7
  8
SAPA_ISOLATOR
 10
-61.099999999012148
 20
3.300001120616125
 30
0.0
 40
0.4999999999999912
 50
89.999999999992653
 51
180.00000000000099
  0
LINE
  5
1CC8
  8
SAPA_ISOLATOR
 10
-53.999999999012111
 20
3.8000011206150921
 30
0.0
 11
-61.099999999012091
 21
3.8000011206161162
 31
0.0
  0
ARC
  5
1CC9
  8
SAPA_ISOLATOR
 10
-53.999999999012232
 20
3.5000011206150239
 30
0.0
 40
0.3000000000000682
 50
0.0000000000217126
 51
89.999999999978314
  0
LINE
  5
1CCA
  8
SAPA_ISOLATOR
 10
-53.699999999012157
 20
2.6029444722290691
 30
0.0
 11
-53.699999999012157
 21
3.500001120615138
 31
0.0
  0
LINE
  5
1CCB
  8
SAPA_ISOLATOR
 10
-52.197056647399052
 20
1.1000011206164111
 30
0.0
 11
-53.699999999012157
 21
2.6029444722290691
 31
0.0
  0
LINE
  5
1CCC
  8
SAPA_ISOLATOR
 10
-46.47813808668689
 20
1.1000011206164111
 30
0.0
 11
-52.197056647399052
 21
1.1000011206164111
 31
0.0
  0
ARC
  5
1CCD
  8
SAPA_ISOLATOR
 10
-49.345115413884407
 20
-4.1161774129354516
 30
0.0
 40
5.9521489807087189
 50
49.696130432240388
 51
61.205407827215559
  0
ARC
  5
1CCE
  8
SAPA_ISOLATOR
 10
-45.856423573463474
 20
0.0000007470767329
 30
0.0
 40
0.5564235744509308
 50
310.50482872852359
 51
49.495171271568822
  0
ARC
  5
1CCF
  8
SAPA_ISOLATOR
 10
-49.34511541454237
 20
4.1161789079962308
 30
0.0
 40
5.9521489818262543
 50
298.79460710439741
 51
310.303869566949
  0
LINE
  5
1CD0
  8
SAPA_ISOLATOR
 10
-52.197055900320549
 20
-1.0999988793836331
 30
0.0
 11
-46.478136727440237
 21
-1.0999988793838611
 31
0.0
  0
LINE
  5
1CD1
  8
SAPA_ISOLATOR
 10
-53.699999999011929
 20
-2.6029429780750202
 30
0.0
 11
-52.197055900320549
 21
-1.0999988793836331
 31
0.0
  0
LINE
  5
1CD2
  8
SAPA_ISOLATOR
 10
-53.699999999011929
 20
-3.4999988793848611
 30
0.0
 11
-53.699999999011929
 21
-2.6029429780750202
 31
0.0
  0
POLYLINE
  5
1CE1
  8
SAPA_FOGBAND
 66
     1
 10
0.0
 20
0.0
 30
0.0
 70
     1
  0
VERTEX
  5
23B1
  8
SAPA_FOGBAND
 10
-80.740583234060807
 20
4.1895221783292254
 30
0.0
  0
VERTEX
  5
23B2
  8
SAPA_FOGBAND
 10
-80.517286458802715
 20
4.1895221783292111
 30
0.0
 42
0.3500011104185251
  0
VERTEX
  5
23B3
  8
SAPA_FOGBAND
 10
-79.737289624367861
 20
4.8117444005514454
 30
0.0
 42
-0.3500011104185275
  0
VERTEX
  5
23B4
  8
SAPA_FOGBAND
 10
-78.762293581324286
 20
5.5895221783292151
 30
0.0
  0
VERTEX
  5
23B5
  8
SAPA_FOGBAND
 10
-78.437289624367835
 20
5.5895221783292151
 30
0.0
 42
-0.4142135623730992
  0
VERTEX
  5
23B6
  8
SAPA_FOGBAND
 10
-77.43728962436785
 20
4.5895221783292151
 30
0.0
  0
VERTEX
  5
23B7
  8
SAPA_FOGBAND
 10
-77.43728962436785
 20
-4.6104778216708029
 30
0.0
 42
-0.4142135623730909
  0
VERTEX
  5
23B8
  8
SAPA_FOGBAND
 10
-78.437289624367835
 20
-5.6104778216707887
 30
0.0
  0
VERTEX
  5
23B9
  8
SAPA_FOGBAND
 10
-78.762293581324286
 20
-5.610477821670802
 30
0.0
 42
-0.3500011104185275
  0
VERTEX
  5
23BA
  8
SAPA_FOGBAND
 10
-79.737289624367833
 20
-4.8327000438930314
 30
0.0
 42
0.3500011104185328
  0
VERTEX
  5
23BB
  8
SAPA_FOGBAND
 10
-80.517286458802715
 20
-4.2104778216707821
 30
0.0
  0
VERTEX
  5
23BC
  8
SAPA_FOGBAND
 10
-80.740583234060807
 20
-4.2104778216707821
 30
0.0
 42
0.380963100045198
  0
VERTEX
  5
23BD
  8
SAPA_FOGBAND
 10
-81.237289624367861
 20
-4.6531824306856358
 30
0.0
 42
0.0458039546811979
  0
VERTEX
  5
23BE
  8
SAPA_FOGBAND
 10
-81.313936755455245
 20
-7.9422859903202019
 30
0.0
 42
-0.9570085662280619
  0
VERTEX
  5
23BF
  8
SAPA_FOGBAND
 10
-83.299449725939098
 20
-8.1659470054575696
 30
0.0
 42
-0.0782100801382191
  0
VERTEX
  5
23C0
  8
SAPA_FOGBAND
 10
-83.299449725939127
 20
8.1449913621159862
 30
0.0
 42
-0.9570085662280891
  0
VERTEX
  5
23C1
  8
SAPA_FOGBAND
 10
-81.313936755455245
 20
7.9213303469785901
 30
0.0
 42
0.0458039546811975
  0
VERTEX
  5
23C2
  8
SAPA_FOGBAND
 10
-81.237289624367861
 20
4.6322267873440772
 30
0.0
 42
0.380963100045198
  0
SEQEND
  5
23C3
  8
SAPA_FOGBAND
  0
CIRCLE
  5
1CE2
  8
SAPA_FOGBAND
 10
-36.800000000001774
 20
-23.106096061955181
 30
0.0
 40
0.2549509756796394
  0
POLYLINE
  5
1CE3
  8
SAPA_FOGBAND
 66
     1
 10
0.0
 20
0.0
 30
0.0
 70
     1
  0
VERTEX
  5
23C4
  8
SAPA_FOGBAND
 10
-35.500000000001769
 20
-20.756096061955208
 30
0.0
 42
0.4142135623730951
  0
VERTEX
  5
23C5
  8
SAPA_FOGBAND
 10
-35.300000000001774
 20
-20.956096061955201
 30
0.0
  0
VERTEX
  5
23C6
  8
SAPA_FOGBAND
 10
-33.500000000001762
 20
-20.956096061955201
 30
0.0
 42
0.9999999999999998
  0
VERTEX
  5
23C7
  8
SAPA_FOGBAND
 10
-33.500000000001762
 20
-19.656096061955179
 30
0.0
  0
VERTEX
  5
23C8
  8
SAPA_FOGBAND
 10
-35.300000000001774
 20
-19.656096061955179
 30
0.0
 42
0.4142135623730951
  0
VERTEX
  5
23C9
  8
SAPA_FOGBAND
 10
-35.500000000001769
 20
-19.856096061955171
 30
0.0
  0
VERTEX
  5
23CA
  8
SAPA_FOGBAND
 10
-35.500000000001769
 20
-20.606096061955181
 30
0.0
  0
SEQEND
  5
23CB
  8
SAPA_FOGBAND
  0
POLYLINE
  5
1CE4
  8
SAPA_FOGBAND
 66
     1
 10
0.0
 20
0.0
 30
0.0
 70
     1
  0
VERTEX
  5
23CC
  8
SAPA_FOGBAND
 10
-35.500000000001769
 20
-16.35250622346895
 30
0.0
 42
-0.267949192431121
  0
VERTEX
  5
23CD
  8
SAPA_FOGBAND
 10
-35.400000000001739
 20
-16.179301142712081
 30
0.0
 42
0.7673269879789569
  0
VERTEX
  5
23CE
  8
SAPA_FOGBAND
 10
-35.500000000001769
 20
-15.80609606195522
 30
0.0
  0
VERTEX
  5
23CF
  8
SAPA_FOGBAND
 10
-42.782887030406009
 20
-15.80609606195522
 30
0.0
 42
0.4602937089574736
  0
VERTEX
  5
23D0
  8
SAPA_FOGBAND
 10
-42.980497721843051
 20
-16.036918369295581
 30
0.0
  0
VERTEX
  5
23D1
  8
SAPA_FOGBAND
 10
-42.387406737847577
 20
-18.496254500822271
 30
0.0
 42
-0.6910703998708235
  0
VERTEX
  5
23D2
  8
SAPA_FOGBAND
 10
-42.712834204139313
 20
-18.680904218157551
 30
0.0
  0
VERTEX
  5
23D3
  8
SAPA_FOGBAND
 10
-43.008274837719739
 20
-15.98270349541481
 30
0.0
 42
0.928378177954751
  0
VERTEX
  5
23D4
  8
SAPA_FOGBAND
 10
-43.423753435875142
 20
-16.413280542949011
 30
0.0
  0
VERTEX
  5
23D5
  8
SAPA_FOGBAND
 10
-43.228542559027183
 20
-19.558519812236518
 30
0.0
 42
-0.6076316918600427
  0
VERTEX
  5
23D6
  8
SAPA_FOGBAND
 10
-43.323096729694377
 20
-19.807434185699329
 30
0.0
 42
0.38070580105552
  0
VERTEX
  5
23D7
  8
SAPA_FOGBAND
 10
-43.500000000001712
 20
-20.006096061955208
 30
0.0
  0
VERTEX
  5
23D8
  8
SAPA_FOGBAND
 10
-43.500000000001712
 20
-20.30609606195522
 30
0.0
  0
VERTEX
  5
23D9
  8
SAPA_FOGBAND
 10
-43.500000000001712
 20
-20.606096061955171
 30
0.0
 42
0.3807058010555201
  0
VERTEX
  5
23DA
  8
SAPA_FOGBAND
 10
-43.323096729694321
 20
-20.80475793821098
 30
0.0
 42
-0.6076316918600374
  0
VERTEX
  5
23DB
  8
SAPA_FOGBAND
 10
-43.228542559027183
 20
-21.05367231167385
 30
0.0
  0
VERTEX
  5
23DC
  8
SAPA_FOGBAND
 10
-43.423753435875021
 20
-24.307287228382521
 30
0.0
 42
0.9283781779547513
  0
VERTEX
  5
23DD
  8
SAPA_FOGBAND
 10
-43.008274837719561
 20
-24.737864275916721
 30
0.0
  0
VERTEX
  5
23DE
  8
SAPA_FOGBAND
 10
-42.709922924871421
 20
-21.901350052440211
 30
0.0
 42
-0.6910703998708235
  0
VERTEX
  5
23DF
  8
SAPA_FOGBAND
 10
-42.384495458579693
 20
-22.085999769775491
 30
0.0
  0
VERTEX
  5
23E0
  8
SAPA_FOGBAND
 10
-42.980497721843051
 20
-24.575273754614798
 30
0.0
 42
0.4602937089574736
  0
VERTEX
  5
23E1
  8
SAPA_FOGBAND
 10
-42.782887030406009
 20
-24.80609606195522
 30
0.0
  0
VERTEX
  5
23E2
  8
SAPA_FOGBAND
 10
-35.500000000001769
 20
-24.80609606195522
 30
0.0
 42
0.7673269879789572
  0
VERTEX
  5
23E3
  8
SAPA_FOGBAND
 10
-35.400000000001739
 20
-24.432890981198302
 30
0.0
 42
-0.267949192431121
  0
VERTEX
  5
23E4
  8
SAPA_FOGBAND
 10
-35.500000000001769
 20
-24.259685900441429
 30
0.0
  0
VERTEX
  5
23E5
  8
SAPA_FOGBAND
 10
-35.500000000001769
 20
-22.05609606195522
 30
0.0
 42
-0.4142135623730946
  0
VERTEX
  5
23E6
  8
SAPA_FOGBAND
 10
-35.400000000001739
 20
-21.956096061955201
 30
0.0
  0
VERTEX
  5
23E7
  8
SAPA_FOGBAND
 10
-34.400000000001739
 20
-21.956096061955201
 30
0.0
  0
VERTEX
  5
23E8
  8
SAPA_FOGBAND
 10
-34.291388579560873
 20
-22.314151308181032
 30
0.0
 42
0.4364998583843341
  0
VERTEX
  5
23E9
  8
SAPA_FOGBAND
 10
-34.027676570640949
 20
-22.44256139805147
 30
0.0
  0
VERTEX
  5
23EA
  8
SAPA_FOGBAND
 10
-32.638382853197591
 20
-21.903702604569862
 30
0.0
 42
0.3095538907669666
  0
VERTEX
  5
23EB
  8
SAPA_FOGBAND
 10
-32.000000000001762
 20
-20.971375924088608
 30
0.0
  0
VERTEX
  5
23EC
  8
SAPA_FOGBAND
 10
-32.000000000001762
 20
-19.640816199821771
 30
0.0
 42
0.3095538907669666
  0
VERTEX
  5
23ED
  8
SAPA_FOGBAND
 10
-32.638382853197591
 20
-18.708489519340521
 30
0.0
  0
VERTEX
  5
23EE
  8
SAPA_FOGBAND
 10
-34.027676570640949
 20
-18.169630725858969
 30
0.0
 42
0.4364998583843343
  0
VERTEX
  5
23EF
  8
SAPA_FOGBAND
 10
-34.291388579560873
 20
-18.298040815729411
 30
0.0
  0
VERTEX
  5
23F0
  8
SAPA_FOGBAND
 10
-34.400000000001739
 20
-18.656096061955179
 30
0.0
  0
VERTEX
  5
23F1
  8
SAPA_FOGBAND
 10
-35.400000000001739
 20
-18.656096061955179
 30
0.0
 42
-0.4142135623730946
  0
VERTEX
  5
23F2
  8
SAPA_FOGBAND
 10
-35.500000000001769
 20
-18.55609606195522
 30
0.0
  0
SEQEND
  5
23F3
  8
SAPA_FOGBAND
  0
POLYLINE
  5
1CE5
  8
SAPA_FOGBAND
 66
     1
 10
0.0
 20
0.0
 30
0.0
 70
     1
  0
VERTEX
  5
23F4
  8
SAPA_FOGBAND
 10
-37.800000000001774
 20
-18.482228504476971
 30
0.0
 42
0.3042268896177264
  0
VERTEX
  5
23F5
  8
SAPA_FOGBAND
 10
-37.986088961918078
 20
-18.2046960281743
 30
0.0
 42
0.2901372376591382
  0
VERTEX
  5
23F6
  8
SAPA_FOGBAND
 10
-40.213945402555062
 20
-18.25498132239251
 30
0.0
 42
0.1927175523564936
  0
VERTEX
  5
23F7
  8
SAPA_FOGBAND
 10
-40.368941574663609
 20
-18.415281302379601
 30
0.0
 42
0.1963728951991371
  0
VERTEX
  5
23F8
  8
SAPA_FOGBAND
 10
-40.368941574663609
 20
-22.196910821530778
 30
0.0
 42
0.1927175523564951
  0
VERTEX
  5
23F9
  8
SAPA_FOGBAND
 10
-40.213945402555062
 20
-22.357210801517869
 30
0.0
 42
0.2901372376591384
  0
VERTEX
  5
23FA
  8
SAPA_FOGBAND
 10
-37.986088961918078
 20
-22.407496095736139
 30
0.0
 42
0.3042268896177278
  0
VERTEX
  5
23FB
  8
SAPA_FOGBAND
 10
-37.800000000001774
 20
-22.129963619433411
 30
0.0
  0
SEQEND
  5
23FC
  8
SAPA_FOGBAND
  0
POLYLINE
  5
1CE6
  8
SAPA_FOGBAND
 66
     1
 10
0.0
 20
0.0
 30
0.0
 70
     1
  0
VERTEX
  5
23FD
  8
SAPA_FOGBAND
 10
-64.360800493659568
 20
-8.6651504791234562
 30
0.0
  0
VERTEX
  5
23FE
  8
SAPA_FOGBAND
 10
-64.852752833549417
 20
-11.666477641691939
 30
0.0
 42
0.4464785874932524
  0
VERTEX
  5
23FF
  8
SAPA_FOGBAND
 10
-63.858675528443662
 20
-12.7751528986437
 30
0.0
  0
VERTEX
  5
2400
  8
SAPA_FOGBAND
 10
-62.313435434750787
 20
-12.7751528986437
 30
0.0
 42
0.622676997742357
  0
VERTEX
  5
2401
  8
SAPA_FOGBAND
 10
-61.52155370658739
 20
-11.16447841202991
 30
0.0
  0
VERTEX
  5
2402
  8
SAPA_FOGBAND
 10
-62.44077696863998
 20
-8.1631512494605136
 30
0.0
 42
0.232531183213058
  0
VERTEX
  5
2403
  8
SAPA_FOGBAND
 10
-63.232658696803817
 20
-7.773825736073392
 30
0.0
  0
VERTEX
  5
2404
  8
SAPA_FOGBAND
 10
-63.36672318855382
 20
-7.7738257360743024
 30
0.0
 42
0.3826682380870913
  0
SEQEND
  5
2405
  8
SAPA_FOGBAND
  0
POLYLINE
  5
1CE7
  8
SAPA_FOGBAND
 66
     1
 10
0.0
 20
0.0
 30
0.0
 70
     1
  0
VERTEX
  5
2406
  8
SAPA_FOGBAND
 10
-57.296201445460618
 20
-21.762136135415869
 30
0.0
 42
0.4740571810231764
  0
VERTEX
  5
2407
  8
SAPA_FOGBAND
 10
-57.013918859822311
 20
-21.8894299977792
 30
0.0
  0
VERTEX
  5
2408
  8
SAPA_FOGBAND
 10
-55.567712723061973
 20
-21.269329495021349
 30
0.0
 42
0.2846003776496257
  0
VERTEX
  5
2409
  8
SAPA_FOGBAND
 10
-55.290456274014119
 20
-20.821685316560451
 30
0.0
  0
VERTEX
  5
240A
  8
SAPA_FOGBAND
 10
-55.290456274014119
 20
-19.19905933623069
 30
0.0
 42
0.2846003776496159
  0
VERTEX
  5
240B
  8
SAPA_FOGBAND
 10
-55.567712723062421
 20
-18.751415157769781
 30
0.0
  0
VERTEX
  5
240C
  8
SAPA_FOGBAND
 10
-57.013918859822311
 20
-18.131314655011931
 30
0.0
 42
0.4740571810232354
  0
VERTEX
  5
240D
  8
SAPA_FOGBAND
 10
-57.296201445460618
 20
-18.258608517374348
 30
0.0
  0
VERTEX
  5
240E
  8
SAPA_FOGBAND
 10
-57.363661354771018
 20
-18.510372326395569
 30
0.0
  0
VERTEX
  5
240F
  8
SAPA_FOGBAND
 10
-58.305086771653372
 20
-18.510372326395569
 30
0.0
 42
-0.4142135623730951
  0
VERTEX
  5
2410
  8
SAPA_FOGBAND
 10
-58.805086771653357
 20
-18.010372326395569
 30
0.0
  0
VERTEX
  5
2411
  8
SAPA_FOGBAND
 10
-58.80508677165291
 20
-14.98227277566094
 30
0.0
 42
0.1657205760184635
  0
VERTEX
  5
2412
  8
SAPA_FOGBAND
 10
-59.013205043489521
 20
-14.37159828904716
 30
0.0
  0
VERTEX
  5
2413
  8
SAPA_FOGBAND
 10
-62.407790128345383
 20
-5.0037078985706263
 30
0.0
 42
0.2325311832130358
  0
VERTEX
  5
2414
  8
SAPA_FOGBAND
 10
-62.803730992427532
 20
-4.8090451418766111
 30
0.0
  0
VERTEX
  5
2415
  8
SAPA_FOGBAND
 10
-64.034474548865106
 20
-4.8090451418766111
 30
0.0
 42
0.3826682380870913
  0
VERTEX
  5
2416
  8
SAPA_FOGBAND
 10
-65.028551853970853
 20
-5.7003698849266744
 30
0.0
  0
VERTEX
  5
2417
  8
SAPA_FOGBAND
 10
-65.805086771653365
 20
-11.30483864522286
 30
0.0
  0
VERTEX
  5
2418
  8
SAPA_FOGBAND
 10
-65.805086771653365
 20
-25.010372304445831
 30
0.0
 42
0.4257917699693507
  0
VERTEX
  5
2419
  8
SAPA_FOGBAND
 10
-65.49327940912282
 20
-25.31013985804476
 30
0.0
  0
VERTEX
  5
241A
  8
SAPA_FOGBAND
 10
-59.093279409122268
 20
-24.82230004337454
 30
0.0
 42
0.4027293761437475
  0
VERTEX
  5
241B
  8
SAPA_FOGBAND
 10
-58.80508677165291
 20
-24.522532489777419
 30
0.0
  0
VERTEX
  5
241C
  8
SAPA_FOGBAND
 10
-58.805086771653357
 20
-22.010372326395569
 30
0.0
 42
-0.4142135623730951
  0
VERTEX
  5
241D
  8
SAPA_FOGBAND
 10
-58.305086771653372
 20
-21.510372326395569
 30
0.0
  0
VERTEX
  5
241E
  8
SAPA_FOGBAND
 10
-57.363661354771018
 20
-21.510372326395569
 30
0.0
  0
SEQEND
  5
241F
  8
SAPA_FOGBAND
  0
POLYLINE
  5
1CE8
  8
SAPA_FOGBAND
 66
     1
 10
0.0
 20
0.0
 30
0.0
 70
     1
  0
VERTEX
  5
2420
  8
SAPA_FOGBAND
 10
-56.890456274014483
 20
-19.110372326395929
 30
0.0
  0
VERTEX
  5
2421
  8
SAPA_FOGBAND
 10
-57.490456274014392
 20
-19.110372326395929
 30
0.0
 42
0.9999999999999998
  0
VERTEX
  5
2422
  8
SAPA_FOGBAND
 10
-57.490456274014392
 20
-20.910372326395208
 30
0.0
  0
VERTEX
  5
2423
  8
SAPA_FOGBAND
 10
-56.890456274014483
 20
-20.910372326395208
 30
0.0
 42
0.9999999999999998
  0
SEQEND
  5
2424
  8
SAPA_FOGBAND
  0
POLYLINE
  5
1CE9
  8
SAPA_FOGBAND
 66
     1
 10
0.0
 20
0.0
 30
0.0
  0
VERTEX
  5
2425
  8
SAPA_FOGBAND
 10
-58.80508677165291
 20
-23.610372326395929
 30
0.0
  0
VERTEX
  5
2426
  8
SAPA_FOGBAND
 10
-59.105086771653092
 20
-23.610372326395929
 30
0.0
 42
-0.4142135623730951
  0
VERTEX
  5
2427
  8
SAPA_FOGBAND
 10
-59.605086771653092
 20
-23.110372326395929
 30
0.0
  0
VERTEX
  5
2428
  8
SAPA_FOGBAND
 10
-59.605086771653092
 20
-15.810372326394839
 30
0.0
 42
-0.4142135623730951
  0
VERTEX
  5
2429
  8
SAPA_FOGBAND
 10
-59.105086771653092
 20
-15.310372326394839
 30
0.0
  0
VERTEX
  5
242A
  8
SAPA_FOGBAND
 10
-58.80508677165291
 20
-15.310372326395751
 30
0.0
  0
SEQEND
  5
242B
  8
SAPA_FOGBAND
  0
POLYLINE
  5
1CEA
  8
SAPA_FOGBAND
 10
-62.826656685502826
 20
-22.073619460232784
 30
0.0
 66
     1
 70
     8
  0
VERTEX
  8
SAPA_FOGBAND
  5
242C
 10
-62.8267
 20
-22.0736
 30
0.000000
  70
    32
  0
VERTEX
  8
SAPA_FOGBAND
  5
242D
 10
-62.7660
 20
-22.0702
 30
0.000000
  70
    32
  0
VERTEX
  8
SAPA_FOGBAND
  5
242E
 10
-62.7055
 20
-22.0589
 30
0.000000
  70
    32
  0
VERTEX
  8
SAPA_FOGBAND
  5
242F
 10
-62.6451
 20
-22.0397
 30
0.000000
  70
    32
  0
VERTEX
  8
SAPA_FOGBAND
  5
2430
 10
-62.5851
 20
-22.0126
 30
0.000000
  70
    32
  0
VERTEX
  8
SAPA_FOGBAND
  5
2431
 10
-62.5256
 20
-21.9778
 30
0.000000
  70
    32
  0
VERTEX
  8
SAPA_FOGBAND
  5
2432
 10
-62.4668
 20
-21.9352
 30
0.000000
  70
    32
  0
VERTEX
  8
SAPA_FOGBAND
  5
2433
 10
-62.4087
 20
-21.8850
 30
0.000000
  70
    32
  0
VERTEX
  8
SAPA_FOGBAND
  5
2434
 10
-62.3516
 20
-21.8273
 30
0.000000
  70
    32
  0
VERTEX
  8
SAPA_FOGBAND
  5
2435
 10
-62.2955
 20
-21.7622
 30
0.000000
  70
    32
  0
VERTEX
  8
SAPA_FOGBAND
  5
2436
 10
-62.2406
 20
-21.6900
 30
0.000000
  70
    32
  0
VERTEX
  8
SAPA_FOGBAND
  5
2437
 10
-62.1871
 20
-21.6107
 30
0.000000
  70
    32
  0
VERTEX
  8
SAPA_FOGBAND
  5
2438
 10
-62.1350
 20
-21.5246
 30
0.000000
  70
    32
  0
VERTEX
  8
SAPA_FOGBAND
  5
2439
 10
-62.0846
 20
-21.4319
 30
0.000000
  70
    32
  0
VERTEX
  8
SAPA_FOGBAND
  5
243A
 10
-62.0358
 20
-21.3327
 30
0.000000
  70
    32
  0
VERTEX
  8
SAPA_FOGBAND
  5
243B
 10
-61.9888
 20
-21.2275
 30
0.000000
  70
    32
  0
VERTEX
  8
SAPA_FOGBAND
  5
243C
 10
-61.9438
 20
-21.1163
 30
0.000000
  70
    32
  0
VERTEX
  8
SAPA_FOGBAND
  5
243D
 10
-61.9009
 20
-20.9994
 30
0.000000
  70
    32
  0
VERTEX
  8
SAPA_FOGBAND
  5
243E
 10
-61.8601
 20
-20.8773
 30
0.000000
  70
    32
  0
VERTEX
  8
SAPA_FOGBAND
  5
243F
 10
-61.8215
 20
-20.7500
 30
0.000000
  70
    32
  0
VERTEX
  8
SAPA_FOGBAND
  5
2440
 10
-61.7853
 20
-20.6180
 30
0.000000
  70
    32
  0
VERTEX
  8
SAPA_FOGBAND
  5
2441
 10
-61.7515
 20
-20.4815
 30
0.000000
  70
    32
  0
VERTEX
  8
SAPA_FOGBAND
  5
2442
 10
-61.7202
 20
-20.3410
 30
0.000000
  70
    32
  0
VERTEX
  8
SAPA_FOGBAND
  5
2443
 10
-61.6915
 20
-20.1967
 30
0.000000
  70
    32
  0
VERTEX
  8
SAPA_FOGBAND
  5
2444
 10
-61.6655
 20
-20.0489
 30
0.000000
  70
    32
  0
VERTEX
  8
SAPA_FOGBAND
  5
2445
 10
-61.6422
 20
-19.8981
 30
0.000000
  70
    32
  0
VERTEX
  8
SAPA_FOGBAND
  5
2446
 10
-61.6216
 20
-19.7446
 30
0.000000
  70
    32
  0
VERTEX
  8
SAPA_FOGBAND
  5
2447
 10
-61.6039
 20
-19.5887
 30
0.000000
  70
    32
  0
VERTEX
  8
SAPA_FOGBAND
  5
2448
 10
-61.5891
 20
-19.4309
 30
0.000000
  70
    32
  0
VERTEX
  8
SAPA_FOGBAND
  5
2449
 10
-61.5771
 20
-19.2715
 30
0.000000
  70
    32
  0
VERTEX
  8
SAPA_FOGBAND
  5
244A
 10
-61.5681
 20
-19.1109
 30
0.000000
  70
    32
  0
VERTEX
  8
SAPA_FOGBAND
  5
244B
 10
-61.5620
 20
-18.9495
 30
0.000000
  70
    32
  0
VERTEX
  8
SAPA_FOGBAND
  5
244C
 10
-61.5589
 20
-18.7876
 30
0.000000
  70
    32
  0
VERTEX
  8
SAPA_FOGBAND
  5
244D
 10
-61.5588
 20
-18.6258
 30
0.000000
  70
    32
  0
VERTEX
  8
SAPA_FOGBAND
  5
244E
 10
-61.5616
 20
-18.4643
 30
0.000000
  70
    32
  0
VERTEX
  8
SAPA_FOGBAND
  5
244F
 10
-61.5675
 20
-18.3036
 30
0.000000
  70
    32
  0
VERTEX
  8
SAPA_FOGBAND
  5
2450
 10
-61.5762
 20
-18.1439
 30
0.000000
  70
    32
  0
VERTEX
  8
SAPA_FOGBAND
  5
2451
 10
-61.5879
 20
-17.9859
 30
0.000000
  70
    32
  0
VERTEX
  8
SAPA_FOGBAND
  5
2452
 10
-61.6026
 20
-17.8297
 30
0.000000
  70
    32
  0
VERTEX
  8
SAPA_FOGBAND
  5
2453
 10
-61.6200
 20
-17.6758
 30
0.000000
  70
    32
  0
VERTEX
  8
SAPA_FOGBAND
  5
2454
 10
-61.6404
 20
-17.5245
 30
0.000000
  70
    32
  0
VERTEX
  8
SAPA_FOGBAND
  5
2455
 10
-61.6634
 20
-17.3763
 30
0.000000
  70
    32
  0
VERTEX
  8
SAPA_FOGBAND
  5
2456
 10
-61.6893
 20
-17.2314
 30
0.000000
  70
    32
  0
VERTEX
  8
SAPA_FOGBAND
  5
2457
 10
-61.7177
 20
-17.0902
 30
0.000000
  70
    32
  0
VERTEX
  8
SAPA_FOGBAND
  5
2458
 10
-61.7488
 20
-16.9532
 30
0.000000
  70
    32
  0
VERTEX
  8
SAPA_FOGBAND
  5
2459
 10
-61.7824
 20
-16.8204
 30
0.000000
  70
    32
  0
VERTEX
  8
SAPA_FOGBAND
  5
245A
 10
-61.8184
 20
-16.6925
 30
0.000000
  70
    32
  0
VERTEX
  8
SAPA_FOGBAND
  5
245B
 10
-61.8568
 20
-16.5695
 30
0.000000
  70
    32
  0
VERTEX
  8
SAPA_FOGBAND
  5
245C
 10
-61.8974
 20
-16.4518
 30
0.000000
  70
    32
  0
VERTEX
  8
SAPA_FOGBAND
  5
245D
 10
-61.9402
 20
-16.3397
 30
0.000000
  70
    32
  0
VERTEX
  8
SAPA_FOGBAND
  5
245E
 10
-61.9850
 20
-16.2336
 30
0.000000
  70
    32
  0
VERTEX
  8
SAPA_FOGBAND
  5
245F
 10
-62.0318
 20
-16.1335
 30
0.000000
  70
    32
  0
VERTEX
  8
SAPA_FOGBAND
  5
2460
 10
-62.0805
 20
-16.0398
 30
0.000000
  70
    32
  0
VERTEX
  8
SAPA_FOGBAND
  5
2461
 10
-62.1308
 20
-15.9527
 30
0.000000
  70
    32
  0
VERTEX
  8
SAPA_FOGBAND
  5
2462
 10
-62.1827
 20
-15.8723
 30
0.000000
  70
    32
  0
VERTEX
  8
SAPA_FOGBAND
  5
2463
 10
-62.2362
 20
-15.7990
 30
0.000000
  70
    32
  0
VERTEX
  8
SAPA_FOGBAND
  5
2464
 10
-62.2909
 20
-15.7329
 30
0.000000
  70
    32
  0
VERTEX
  8
SAPA_FOGBAND
  5
2465
 10
-62.3469
 20
-15.6740
 30
0.000000
  70
    32
  0
VERTEX
  8
SAPA_FOGBAND
  5
2466
 10
-62.4039
 20
-15.6227
 30
0.000000
  70
    32
  0
VERTEX
  8
SAPA_FOGBAND
  5
2467
 10
-62.4619
 20
-15.5789
 30
0.000000
  70
    32
  0
VERTEX
  8
SAPA_FOGBAND
  5
2468
 10
-62.5207
 20
-15.5429
 30
0.000000
  70
    32
  0
VERTEX
  8
SAPA_FOGBAND
  5
2469
 10
-62.5802
 20
-15.5146
 30
0.000000
  70
    32
  0
VERTEX
  8
SAPA_FOGBAND
  5
246A
 10
-62.6401
 20
-15.4942
 30
0.000000
  70
    32
  0
VERTEX
  8
SAPA_FOGBAND
  5
246B
 10
-62.7004
 20
-15.4817
 30
0.000000
  70
    32
  0
VERTEX
  8
SAPA_FOGBAND
  5
246C
 10
-62.7610
 20
-15.4771
 30
0.000000
  70
    32
  0
VERTEX
  8
SAPA_FOGBAND
  5
246D
 10
-62.8216
 20
-15.4805
 30
0.000000
  70
    32
  0
VERTEX
  8
SAPA_FOGBAND
  5
246E
 10
-62.8822
 20
-15.4918
 30
0.000000
  70
    32
  0
VERTEX
  8
SAPA_FOGBAND
  5
246F
 10
-62.9426
 20
-15.5110
 30
0.000000
  70
    32
  0
VERTEX
  8
SAPA_FOGBAND
  5
2470
 10
-63.0025
 20
-15.5381
 30
0.000000
  70
    32
  0
VERTEX
  8
SAPA_FOGBAND
  5
2471
 10
-63.0620
 20
-15.5729
 30
0.000000
  70
    32
  0
VERTEX
  8
SAPA_FOGBAND
  5
2472
 10
-63.1209
 20
-15.6155
 30
0.000000
  70
    32
  0
VERTEX
  8
SAPA_FOGBAND
  5
2473
 10
-63.1789
 20
-15.6657
 30
0.000000
  70
    32
  0
VERTEX
  8
SAPA_FOGBAND
  5
2474
 10
-63.2361
 20
-15.7234
 30
0.000000
  70
    32
  0
VERTEX
  8
SAPA_FOGBAND
  5
2475
 10
-63.2921
 20
-15.7885
 30
0.000000
  70
    32
  0
VERTEX
  8
SAPA_FOGBAND
  5
2476
 10
-63.3470
 20
-15.8607
 30
0.000000
  70
    32
  0
VERTEX
  8
SAPA_FOGBAND
  5
2477
 10
-63.4005
 20
-15.9400
 30
0.000000
  70
    32
  0
VERTEX
  8
SAPA_FOGBAND
  5
2478
 10
-63.4526
 20
-16.0261
 30
0.000000
  70
    32
  0
VERTEX
  8
SAPA_FOGBAND
  5
2479
 10
-63.5031
 20
-16.1188
 30
0.000000
  70
    32
  0
VERTEX
  8
SAPA_FOGBAND
  5
247A
 10
-63.5519
 20
-16.2180
 30
0.000000
  70
    32
  0
VERTEX
  8
SAPA_FOGBAND
  5
247B
 10
-63.5988
 20
-16.3232
 30
0.000000
  70
    32
  0
VERTEX
  8
SAPA_FOGBAND
  5
247C
 10
-63.6438
 20
-16.4344
 30
0.000000
  70
    32
  0
VERTEX
  8
SAPA_FOGBAND
  5
247D
 10
-63.6868
 20
-16.5513
 30
0.000000
  70
    32
  0
VERTEX
  8
SAPA_FOGBAND
  5
247E
 10
-63.7276
 20
-16.6735
 30
0.000000
  70
    32
  0
VERTEX
  8
SAPA_FOGBAND
  5
247F
 10
-63.7662
 20
-16.8007
 30
0.000000
  70
    32
  0
VERTEX
  8
SAPA_FOGBAND
  5
2480
 10
-63.8024
 20
-16.9327
 30
0.000000
  70
    32
  0
VERTEX
  8
SAPA_FOGBAND
  5
2481
 10
-63.8362
 20
-17.0692
 30
0.000000
  70
    32
  0
VERTEX
  8
SAPA_FOGBAND
  5
2482
 10
-63.8674
 20
-17.2097
 30
0.000000
  70
    32
  0
VERTEX
  8
SAPA_FOGBAND
  5
2483
 10
-63.8961
 20
-17.3540
 30
0.000000
  70
    32
  0
VERTEX
  8
SAPA_FOGBAND
  5
2484
 10
-63.9222
 20
-17.5018
 30
0.000000
  70
    32
  0
VERTEX
  8
SAPA_FOGBAND
  5
2485
 10
-63.9455
 20
-17.6526
 30
0.000000
  70
    32
  0
VERTEX
  8
SAPA_FOGBAND
  5
2486
 10
-63.9660
 20
-17.8062
 30
0.000000
  70
    32
  0
VERTEX
  8
SAPA_FOGBAND
  5
2487
 10
-63.9838
 20
-17.9620
 30
0.000000
  70
    32
  0
VERTEX
  8
SAPA_FOGBAND
  5
2488
 10
-63.9986
 20
-18.1198
 30
0.000000
  70
    32
  0
VERTEX
  8
SAPA_FOGBAND
  5
2489
 10
-64.0106
 20
-18.2792
 30
0.000000
  70
    32
  0
VERTEX
  8
SAPA_FOGBAND
  5
248A
 10
-64.0196
 20
-18.4398
 30
0.000000
  70
    32
  0
VERTEX
  8
SAPA_FOGBAND
  5
248B
 10
-64.0256
 20
-18.6012
 30
0.000000
  70
    32
  0
VERTEX
  8
SAPA_FOGBAND
  5
248C
 10
-64.0287
 20
-18.7631
 30
0.000000
  70
    32
  0
VERTEX
  8
SAPA_FOGBAND
  5
248D
 10
-64.0289
 20
-18.9249
 30
0.000000
  70
    32
  0
VERTEX
  8
SAPA_FOGBAND
  5
248E
 10
-64.0260
 20
-19.0864
 30
0.000000
  70
    32
  0
VERTEX
  8
SAPA_FOGBAND
  5
248F
 10
-64.0202
 20
-19.2471
 30
0.000000
  70
    32
  0
VERTEX
  8
SAPA_FOGBAND
  5
2490
 10
-64.0114
 20
-19.4068
 30
0.000000
  70
    32
  0
VERTEX
  8
SAPA_FOGBAND
  5
2491
 10
-63.9997
 20
-19.5648
 30
0.000000
  70
    32
  0
VERTEX
  8
SAPA_FOGBAND
  5
2492
 10
-63.9851
 20
-19.7210
 30
0.000000
  70
    32
  0
VERTEX
  8
SAPA_FOGBAND
  5
2493
 10
-63.9676
 20
-19.8749
 30
0.000000
  70
    32
  0
VERTEX
  8
SAPA_FOGBAND
  5
2494
 10
-63.9473
 20
-20.0262
 30
0.000000
  70
    32
  0
VERTEX
  8
SAPA_FOGBAND
  5
2495
 10
-63.9242
 20
-20.1744
 30
0.000000
  70
    32
  0
VERTEX
  8
SAPA_FOGBAND
  5
2496
 10
-63.8984
 20
-20.3193
 30
0.000000
  70
    32
  0
VERTEX
  8
SAPA_FOGBAND
  5
2497
 10
-63.8699
 20
-20.4605
 30
0.000000
  70
    32
  0
VERTEX
  8
SAPA_FOGBAND
  5
2498
 10
-63.8389
 20
-20.5976
 30
0.000000
  70
    32
  0
VERTEX
  8
SAPA_FOGBAND
  5
2499
 10
-63.8053
 20
-20.7303
 30
0.000000
  70
    32
  0
VERTEX
  8
SAPA_FOGBAND
  5
249A
 10
-63.7693
 20
-20.8582
 30
0.000000
  70
    32
  0
VERTEX
  8
SAPA_FOGBAND
  5
249B
 10
-63.7309
 20
-20.9812
 30
0.000000
  70
    32
  0
VERTEX
  8
SAPA_FOGBAND
  5
249C
 10
-63.6903
 20
-21.0989
 30
0.000000
  70
    32
  0
VERTEX
  8
SAPA_FOGBAND
  5
249D
 10
-63.6475
 20
-21.2110
 30
0.000000
  70
    32
  0
VERTEX
  8
SAPA_FOGBAND
  5
249E
 10
-63.6026
 20
-21.3171
 30
0.000000
  70
    32
  0
VERTEX
  8
SAPA_FOGBAND
  5
249F
 10
-63.5558
 20
-21.4172
 30
0.000000
  70
    32
  0
VERTEX
  8
SAPA_FOGBAND
  5
24A0
 10
-63.5072
 20
-21.5109
 30
0.000000
  70
    32
  0
VERTEX
  8
SAPA_FOGBAND
  5
24A1
 10
-63.4569
 20
-21.5981
 30
0.000000
  70
    32
  0
VERTEX
  8
SAPA_FOGBAND
  5
24A2
 10
-63.4049
 20
-21.6784
 30
0.000000
  70
    32
  0
VERTEX
  8
SAPA_FOGBAND
  5
24A3
 10
-63.3515
 20
-21.7517
 30
0.000000
  70
    32
  0
VERTEX
  8
SAPA_FOGBAND
  5
24A4
 10
-63.2967
 20
-21.8178
 30
0.000000
  70
    32
  0
VERTEX
  8
SAPA_FOGBAND
  5
24A5
 10
-63.2408
 20
-21.8767
 30
0.000000
  70
    32
  0
VERTEX
  8
SAPA_FOGBAND
  5
24A6
 10
-63.1837
 20
-21.9280
 30
0.000000
  70
    32
  0
VERTEX
  8
SAPA_FOGBAND
  5
24A7
 10
-63.1257
 20
-21.9718
 30
0.000000
  70
    32
  0
VERTEX
  8
SAPA_FOGBAND
  5
24A8
 10
-63.0669
 20
-22.0078
 30
0.000000
  70
    32
  0
VERTEX
  8
SAPA_FOGBAND
  5
24A9
 10
-63.0075
 20
-22.0361
 30
0.000000
  70
    32
  0
VERTEX
  8
SAPA_FOGBAND
  5
24AA
 10
-62.9475
 20
-22.0565
 30
0.000000
  70
    32
  0
VERTEX
  8
SAPA_FOGBAND
  5
24AB
 10
-62.8872
 20
-22.0690
 30
0.000000
  70
    32
  0
VERTEX
  8
SAPA_FOGBAND
  5
24AC
 10
-62.8267
 20
-22.0736
 30
0.000000
  70
    32
  0
SEQEND
  8
SAPA_FOGBAND
  5
24AD
  0
VIEWPORT
  5
C4
 67
     1
  8
0
 10
209.49949014430729
 20
130.70624923706049
 30
0.0
 40
625.55625699991936
 41
256.8421457311839
 68
     1
 69
     1
1001
ACAD
1000
MVIEW
1002
{
1070
    16
1010
0.0
1020
0.0
1030
0.0
1010
0.0
1020
0.0
1030
1.0
1040
0.0
1040
256.8421457311839
1040
209.49949014430729
1040
130.70624923706049
1040
50.0
1040
0.0
1040
0.0
1070
     0
1070
     0
1070
     1
1070
     1
1070
     0
1070
     0
1070
     0
1070
     0
1040
0.0
1040
0.0
1040
0.0
1040
10.0
1040
10.0
1040
10.0
1040
10.0
1070
     0
1002
{
1002
}
1002
}
  0
ENDSEC
  0
EOF
