  0
SECTION
  2
HEADER
  9
$ACADVER
  1
AC1009
  9
$INSBASE
 10
0.0
 20
0.0
 30
0.0
  9
$EXTMIN
 10
-93.378873565215827
 20
-47.59777033107094
 30
0.0
  9
$EXTMAX
 10
49.450631429252319
 20
40.999999999999623
 30
0.0
  9
$LIMMIN
 10
0.0
 20
0.0
  9
$LIMMAX
 10
790.0
 20
790.0
  9
$ORTHOMODE
 70
     1
  9
$REGENMODE
 70
     1
  9
$FILLMODE
 70
     1
  9
$QTEXTMODE
 70
     0
  9
$MIRRTEXT
 70
     1
  9
$DRAGMODE
 70
     2
  9
$LTSCALE
 40
4.0
  9
$OSMODE
 70
   167
  9
$ATTMODE
 70
     1
  9
$TEXTSIZE
 40
3.5
  9
$TRACEWID
 40
0.05
  9
$TEXTSTYLE
  7
ISO
  9
$CLAYER
  8
0
  9
$CELTYPE
  6
BYLAYER
  9
$CECOLOR
 62
   256
  9
$DIMSCALE
 40
0.0
  9
$DIMASZ
 40
3.0
  9
$DIMEXO
 40
1.5
  9
$DIMDLI
 40
10.0
  9
$DIMRND
 40
0.0
  9
$DIMDLE
 40
0.0
  9
$DIMEXE
 40
1.5
  9
$DIMTP
 40
0.0
  9
$DIMTM
 40
0.0
  9
$DIMTXT
 40
3.0
  9
$DIMCEN
 40
-5.0
  9
$DIMTSZ
 40
0.0
  9
$DIMTOL
 70
     0
  9
$DIMLIM
 70
     0
  9
$DIMTIH
 70
     0
  9
$DIMTOH
 70
     0
  9
$DIMSE1
 70
     0
  9
$DIMSE2
 70
     0
  9
$DIMTAD
 70
     1
  9
$DIMZIN
 70
     8
  9
$DIMBLK
  1

  9
$DIMASO
 70
     1
  9
$DIMSHO
 70
     1
  9
$DIMPOST
  1

  9
$DIMAPOST
  1

  9
$DIMALT
 70
     0
  9
$DIMALTD
 70
     0
  9
$DIMALTF
 40
25.399999999999999
  9
$DIMLFAC
 40
-1.0
  9
$DIMTOFL
 70
     1
  9
$DIMTVP
 40
0.0
  9
$DIMTIX
 70
     0
  9
$DIMSOXD
 70
     0
  9
$DIMSAH
 70
     0
  9
$DIMBLK1
  1

  9
$DIMBLK2
  1

  9
$DIMSTYLE
  2
MASKIN
  9
$DIMCLRD
 70
   256
  9
$DIMCLRE
 70
   256
  9
$DIMCLRT
 70
     2
  9
$DIMTFAC
 40
1.0
  9
$DIMGAP
 40
1.0
  9
$LUNITS
 70
     2
  9
$LUPREC
 70
     8
  9
$SKETCHINC
 40
0.1
  9
$FILLETRAD
 40
0.0
  9
$AUNITS
 70
     0
  9
$AUPREC
 70
     8
  9
$MENU
  1
ACAD
  9
$ELEVATION
 40
0.0
  9
$PELEVATION
 40
0.0
  9
$THICKNESS
 40
0.0
  9
$LIMCHECK
 70
     0
  9
$BLIPMODE
 70
     0
  9
$CHAMFERA
 40
0.0
  9
$CHAMFERB
 40
0.0
  9
$SKPOLY
 70
     0
  9
$TDCREATE
 40
2456239.5759384958
  9
$TDUPDATE
 40
2456647.3797644102
  9
$TDINDWG
 40
0.0145887847
  9
$TDUSRTIMER
 40
0.0145887847
  9
$USRTIMER
 70
     1
  9
$ANGBASE
 50
0.0
  9
$ANGDIR
 70
     0
  9
$PDMODE
 70
     0
  9
$PDSIZE
 40
0.0
  9
$PLINEWID
 40
0.0
  9
$COORDS
 70
     1
  9
$SPLFRAME
 70
     0
  9
$SPLINETYPE
 70
     6
  9
$SPLINESEGS
 70
     8
  9
$ATTDIA
 70
     0
  9
$ATTREQ
 70
     1
  9
$HANDLING
 70
     1
  9
$HANDSEED
  5
1ACE
  9
$SURFTAB1
 70
     6
  9
$SURFTAB2
 70
     6
  9
$SURFTYPE
 70
     6
  9
$SURFU
 70
     6
  9
$SURFV
 70
     6
  9
$UCSNAME
  2

  9
$UCSORG
 10
0.0
 20
0.0
 30
0.0
  9
$UCSXDIR
 10
1.0
 20
0.0
 30
0.0
  9
$UCSYDIR
 10
0.0
 20
1.0
 30
0.0
  9
$PUCSNAME
  2

  9
$PUCSORG
 10
0.0
 20
0.0
 30
0.0
  9
$PUCSXDIR
 10
1.0
 20
0.0
 30
0.0
  9
$PUCSYDIR
 10
0.0
 20
1.0
 30
0.0
  9
$USERI1
 70
     0
  9
$USERI2
 70
     0
  9
$USERI3
 70
     0
  9
$USERI4
 70
     0
  9
$USERI5
 70
     0
  9
$USERR1
 40
0.0
  9
$USERR2
 40
0.0
  9
$USERR3
 40
0.0
  9
$USERR4
 40
0.0
  9
$USERR5
 40
0.0
  9
$WORLDVIEW
 70
     1
  9
$SHADEDGE
 70
     3
  9
$SHADEDIF
 70
    70
  9
$TILEMODE
 70
     1
  9
$MAXACTVP
 70
    16
  9
$PLIMCHECK
 70
     0
  9
$PEXTMIN
 10
1.0000000000000000E+020
 20
1.0000000000000000E+020
 30
1.0000000000000000E+020
  9
$PEXTMAX
 10
-1.0000000000000000E+020
 20
-1.0000000000000000E+020
 30
-1.0000000000000000E+020
  9
$PLIMMIN
 10
-5.069427490234375
 20
-5.8737497329711914
  9
$PLIMMAX
 10
291.89889526367187
 20
204.0995779037475
  9
$UNITMODE
 70
     0
  9
$VISRETAIN
 70
     1
  9
$PLINEGEN
 70
     0
  9
$PSLTSCALE
 70
     1
  0
ENDSEC
  0
SECTION
  2
TABLES
  0
TABLE
  2
VPORT
 70
     1
  0
VPORT
  2
*ACTIVE
 70
     0
 10
0.0
 20
0.0
 11
1.0
 21
1.0
 12
-3.6108775471055301
 22
28.656396771127831
 13
0.0
 23
0.0
 14
1.0
 24
1.0
 15
0.0
 25
0.0
 16
0.0
 26
0.0
 36
1.0
 17
0.0
 27
0.0
 37
0.0
 40
151.5061902951233
 41
2.112307692307692
 42
50.0
 43
0.0
 44
0.0
 50
0.0
 51
0.0
 71
     0
 72
   100
 73
     1
 74
     1
 75
     0
 76
     0
 77
     0
 78
     0
  0
ENDTAB
  0
TABLE
  2
LTYPE
 70
    37
  0
LTYPE
  2
CONTINUOUS
 70
     0
  3
Solid line
 72
    65
 73
     0
 40
0.0
  0
LTYPE
  2
BYGG-018516$0$NEWDOT
 70
     0
  3
____ . ____ . ____ . ____ . ____ . ____ . ____
 72
    65
 73
     4
 40
2.0
 49
1.0
 49
-0.5
 49
0.0
 49
-0.5
  0
LTYPE
  2
BYGG-018516$0$ZIGZAG
 70
     0
  3
Zig zag /\/\/\/\/\/\/\/\/\/\/\/\/\/\/\/\/\/\/\/\/\/\/\/
 72
    65
 73
     4
 40
20.32254
 49
0.00254
 49
-5.0800000000000001
 49
-10.16
 49
-5.0800000000000001
  0
LTYPE
  2
BYGG-018731$0$NEWDOT
 70
     0
  3
____ . ____ . ____ . ____ . ____ . ____ . ____
 72
    65
 73
     4
 40
2.0
 49
1.0
 49
-0.5
 49
0.0
 49
-0.5
  0
LTYPE
  2
BYGG-018731$0$DASHDOT
 70
     0
  3
__ . __ . __ . __ . __ . __ . __ . __ . __ . __
 72
    65
 73
     4
 40
1.0
 49
0.5
 49
-0.25
 49
0.0
 49
-0.25
  0
LTYPE
  2
BYGG-018731$0$DASHED
 70
     0
  3
__ __ __ __ __ __ __ __ __ __ __ __ __ __ __
 72
    65
 73
     2
 40
0.75
 49
0.5
 49
-0.25
  0
LTYPE
  2
BYGG-018731$0$PHANTOM
 70
     0
  3
Phantom ______  __  __  ______  __  __  ______
 72
    65
 73
     6
 40
63.5
 49
31.75
 49
-6.3499999999999988
 49
6.3499999999999988
 49
-6.3499999999999988
 49
6.3499999999999988
 49
-6.3499999999999988
  0
LTYPE
  2
BYGG-029261$0$NEWDOT
 70
     0
  3
____ . ____ . ____ . ____ . ____ . ____ . ____
 72
    65
 73
     4
 40
2.0
 49
1.0
 49
-0.5
 49
0.0
 49
-0.5
  0
LTYPE
  2
BYGG-029261$0$DASHDOT
 70
     0
  3
__ . __ . __ . __ . __ . __ . __ . __ . __ . __
 72
    65
 73
     4
 40
1.0
 49
0.5
 49
-0.25
 49
0.0
 49
-0.25
  0
LTYPE
  2
BYGG-029261$0$DASHED
 70
     0
  3
__ __ __ __ __ __ __ __ __ __ __ __ __ __ __
 72
    65
 73
     2
 40
0.75
 49
0.5
 49
-0.25
  0
LTYPE
  2
BYGG-029261$0$PHANTOM
 70
     0
  3
Phantom ______  __  __  ______  __  __  ______
 72
    65
 73
     6
 40
63.5
 49
31.75
 49
-6.3499999999999988
 49
6.3499999999999988
 49
-6.3499999999999988
 49
6.3499999999999988
 49
-6.3499999999999988
  0
LTYPE
  2
BYGG-019653$0$NEWDOT
 70
     0
  3
____ . ____ . ____ . ____ . ____ . ____ . ____
 72
    65
 73
     4
 40
2.0
 49
1.0
 49
-0.5
 49
0.0
 49
-0.5
  0
LTYPE
  2
BYGG-019653$0$DASHDOT
 70
     0
  3
__ . __ . __ . __ . __ . __ . __ . __ . __ . __
 72
    65
 73
     4
 40
1.0
 49
0.5
 49
-0.25
 49
0.0
 49
-0.25
  0
LTYPE
  2
BYGG-019653$0$DASHED
 70
     0
  3
__ __ __ __ __ __ __ __ __ __ __ __ __ __ __
 72
    65
 73
     2
 40
0.75
 49
0.5
 49
-0.25
  0
LTYPE
  2
BYGG-019653$0$PHANTOM
 70
     0
  3
Phantom ______  __  __  ______  __  __  ______
 72
    65
 73
     6
 40
63.5
 49
31.75
 49
-6.3499999999999988
 49
6.3499999999999988
 49
-6.3499999999999988
 49
6.3499999999999988
 49
-6.3499999999999988
  0
LTYPE
  2
BYGG-019652$0$NEWDOT
 70
     0
  3
____ . ____ . ____ . ____ . ____ . ____ . ____
 72
    65
 73
     4
 40
2.0
 49
1.0
 49
-0.5
 49
0.0
 49
-0.5
  0
LTYPE
  2
BYGG-019652$0$DASHDOT
 70
     0
  3
__ . __ . __ . __ . __ . __ . __ . __ . __ . __
 72
    65
 73
     4
 40
1.0
 49
0.5
 49
-0.25
 49
0.0
 49
-0.25
  0
LTYPE
  2
BYGG-019652$0$DASHED
 70
     0
  3
__ __ __ __ __ __ __ __ __ __ __ __ __ __ __
 72
    65
 73
     2
 40
0.75
 49
0.5
 49
-0.25
  0
LTYPE
  2
BYGG-019652$0$PHANTOM
 70
     0
  3
Phantom ______  __  __  ______  __  __  ______
 72
    65
 73
     6
 40
63.5
 49
31.75
 49
-6.3499999999999988
 49
6.3499999999999988
 49
-6.3499999999999988
 49
6.3499999999999988
 49
-6.3499999999999988
  0
LTYPE
  2
BYGG-022089$0$NEWDOT
 70
     0
  3
____ . ____ . ____ . ____ . ____ . ____ . ____
 72
    65
 73
     4
 40
2.0
 49
1.0
 49
-0.5
 49
0.0
 49
-0.5
  0
LTYPE
  2
BYGG-022089$0$DASHDOT
 70
     0
  3
__ . __ . __ . __ . __ . __ . __ . __ . __ . __
 72
    65
 73
     4
 40
1.0
 49
0.5
 49
-0.25
 49
0.0
 49
-0.25
  0
LTYPE
  2
BYGG-022089$0$DASHED
 70
     0
  3
__ __ __ __ __ __ __ __ __ __ __ __ __ __ __
 72
    65
 73
     2
 40
0.75
 49
0.5
 49
-0.25
  0
LTYPE
  2
BYGG-022089$0$PHANTOM
 70
     0
  3
Phantom ______  __  __  ______  __  __  ______
 72
    65
 73
     6
 40
63.5
 49
31.75
 49
-6.3499999999999988
 49
6.3499999999999988
 49
-6.3499999999999988
 49
6.3499999999999988
 49
-6.3499999999999988
  0
LTYPE
  2
BYGG-019716$0$NEWDOT
 70
     0
  3
____ . ____ . ____ . ____ . ____ . ____ . ____
 72
    65
 73
     4
 40
2.0
 49
1.0
 49
-0.5
 49
0.0
 49
-0.5
  0
LTYPE
  2
BYGG-019716$0$DASHDOT
 70
     0
  3
__ . __ . __ . __ . __ . __ . __ . __ . __ . __
 72
    65
 73
     4
 40
1.0
 49
0.5
 49
-0.25
 49
0.0
 49
-0.25
  0
LTYPE
  2
BYGG-019716$0$DASHED
 70
     0
  3
__ __ __ __ __ __ __ __ __ __ __ __ __ __ __
 72
    65
 73
     2
 40
0.75
 49
0.5
 49
-0.25
  0
LTYPE
  2
BYGG-019716$0$PHANTOM
 70
     0
  3
Phantom ______  __  __  ______  __  __  ______
 72
    65
 73
     6
 40
63.5
 49
31.75
 49
-6.3499999999999988
 49
6.3499999999999988
 49
-6.3499999999999988
 49
6.3499999999999988
 49
-6.3499999999999988
  0
LTYPE
  2
BYGG-019705$0$NEWDOT
 70
     0
  3
____ . ____ . ____ . ____ . ____ . ____ . ____
 72
    65
 73
     4
 40
2.0
 49
1.0
 49
-0.5
 49
0.0
 49
-0.5
  0
LTYPE
  2
BYGG-019705$0$DASHDOT
 70
     0
  3
__ . __ . __ . __ . __ . __ . __ . __ . __ . __
 72
    65
 73
     4
 40
1.0
 49
0.5
 49
-0.25
 49
0.0
 49
-0.25
  0
LTYPE
  2
BYGG-019705$0$DASHED
 70
     0
  3
__ __ __ __ __ __ __ __ __ __ __ __ __ __ __
 72
    65
 73
     2
 40
0.75
 49
0.5
 49
-0.25
  0
LTYPE
  2
BYGG-019705$0$PHANTOM
 70
     0
  3
Phantom ______  __  __  ______  __  __  ______
 72
    65
 73
     6
 40
63.5
 49
31.75
 49
-6.3499999999999988
 49
6.3499999999999988
 49
-6.3499999999999988
 49
6.3499999999999988
 49
-6.3499999999999988
  0
LTYPE
  2
BYGG-022089$0$PHANTOM2
 70
     0
  3
Phantom (.5x) ___ _ _ ___ _ _ ___ _ _ ___ _ _
 72
    65
 73
     6
 40
1.25
 49
0.625
 49
-0.125
 49
0.125
 49
-0.125
 49
0.125
 49
-0.125
  0
LTYPE
  2
BYGG-019716$0$PHANTOM2
 70
     0
  3
Phantom (.5x) ___ _ _ ___ _ _ ___ _ _ ___ _ _
 72
    65
 73
     6
 40
1.25
 49
0.625
 49
-0.125
 49
0.125
 49
-0.125
 49
0.125
 49
-0.125
  0
LTYPE
  2
BYGG-019653$0$DOT_CENTER
 70
     0
  3
Dot_Center
 72
    65
 73
     4
 40
14.0
 49
12.0
 49
-1.0
 49
0.0
 49
-1.0
  0
LTYPE
  2
BYGG-019653$0$DASH_CENTER
 70
     0
  3
Dash_Center
 72
    65
 73
     4
 40
14.0
 49
11.0
 49
-1.0
 49
1.0
 49
-1.0
  0
LTYPE
  2
BYGG-019652$0$DOT_CENTER
 70
     0
  3
Dot_Center
 72
    65
 73
     4
 40
14.0
 49
12.0
 49
-1.0
 49
0.0
 49
-1.0
  0
LTYPE
  2
BYGG-019652$0$DASH_CENTER
 70
     0
  3
Dash_Center
 72
    65
 73
     4
 40
14.0
 49
11.0
 49
-1.0
 49
1.0
 49
-1.0
  0
ENDTAB
  0
TABLE
  2
LAYER
 70
   199
  0
LAYER
  2
0
 70
     0
 62
     7
  6
CONTINUOUS
  0
LAYER
  2
SAPA_FYLLNING
 70
     0
 62
     4
  6
CONTINUOUS
  0
LAYER
  2
SAPA_ISOLATOR
 70
     0
 62
     4
  6
CONTINUOUS
  0
LAYER
  2
SAPA_GLAS
 70
     0
 62
     4
  6
CONTINUOUS
  0
LAYER
  2
SAPA_FOGBAND
 70
     0
 62
     2
  6
CONTINUOUS
  0
LAYER
  2
SAPA_PROFIL
 70
     0
 62
     7
  6
CONTINUOUS
  0
ENDTAB
  0
TABLE
  2
STYLE
 70
    25
  0
STYLE
  2
STANDARD
 70
     0
 40
0.0
 41
1.0
 50
0.0
 71
     0
 42
0.2
  3
txt
  4

  0
STYLE
  2
ISO
 70
     0
 40
0.0
 41
1.0
 50
0.0
 71
     0
 42
3.5
  3
txt
  4

  0
STYLE
  2

 70
     1
 40
0.0
 41
1.0
 50
0.0
 71
     0
 42
0.2
  3
ltypeshp.shx
  4

  0
STYLE
  2
BYGG-021665$0$STANDARD
 70
     0
 40
0.0
 41
1.0
 50
0.0
 71
     0
 42
0.2
  3
txt
  4

  0
STYLE
  2
BYGG-021665$0$ISO
 70
     0
 40
0.0
 41
1.0
 50
0.0
 71
     0
 42
3.5
  3
isocp3.shx
  4

  0
STYLE
  2
BYGG-018516$0$STANDARD
 70
     0
 40
0.0
 41
1.0
 50
0.0
 71
     0
 42
0.2
  3
txt
  4

  0
STYLE
  2
BYGG-018516$0$ISO
 70
     0
 40
0.0
 41
1.0
 50
0.0
 71
     0
 42
3.5
  3
isocp3.shx
  4

  0
STYLE
  2
BYGG-022089$0$STANDARD
 70
     0
 40
0.0
 41
1.0
 50
0.0
 71
     0
 42
0.2
  3
txt
  4

  0
STYLE
  2
BYGG-022089$0$ISO
 70
     0
 40
0.0
 41
1.0
 50
0.0
 71
     0
 42
3.5
  3
txt
  4

  0
STYLE
  2
BYGG-022089$0$ANNOTATIVE
 70
     0
 40
0.0
 41
1.0
 50
0.0
 71
     0
 42
0.2
  3
txt
  4

  0
STYLE
  2
BYGG-018731$0$STANDARD
 70
     0
 40
0.0
 41
1.0
 50
0.0
 71
     0
 42
0.2
  3
txt
  4

  0
STYLE
  2
BYGG-018731$0$ISO
 70
     0
 40
0.0
 41
1.0
 50
0.0
 71
     0
 42
3.5
  3
txt
  4

  0
STYLE
  2
BYGG-029261$0$STANDARD
 70
     0
 40
0.0
 41
1.0
 50
0.0
 71
     0
 42
0.2
  3
txt
  4

  0
STYLE
  2
BYGG-029261$0$ISO
 70
     0
 40
0.0
 41
1.0
 50
0.0
 71
     0
 42
3.5
  3
txt
  4

  0
STYLE
  2
BYGG-019716$0$STANDARD
 70
     0
 40
0.0
 41
1.0
 50
0.0
 71
     0
 42
0.2
  3
txt
  4

  0
STYLE
  2
BYGG-019716$0$ISO
 70
     0
 40
0.0
 41
1.0
 50
0.0
 71
     0
 42
3.5
  3
txt
  4

  0
STYLE
  2
BYGG-019716$0$ANNOTATIVE
 70
     0
 40
0.0
 41
1.0
 50
0.0
 71
     0
 42
0.2
  3
txt
  4

  0
STYLE
  2
BYGG-019653$0$STANDARD
 70
     0
 40
0.0
 41
1.0
 50
0.0
 71
     0
 42
0.2
  3
txt
  4

  0
STYLE
  2
BYGG-019653$0$ISO
 70
     0
 40
0.0
 41
1.0
 50
0.0
 71
     0
 42
3.5
  3
txt
  4

  0
STYLE
  2
BYGG-019653$0$CONVERTER_11
 70
     0
 40
0.0
 41
0.72
 50
0.0
 71
     0
 42
0.2
  3
txt.shx
  4

  0
STYLE
  2
BYGG-019652$0$STANDARD
 70
     0
 40
0.0
 41
1.0
 50
0.0
 71
     0
 42
0.2
  3
txt
  4

  0
STYLE
  2
BYGG-019652$0$ISO
 70
     0
 40
0.0
 41
1.0
 50
0.0
 71
     0
 42
3.5
  3
txt
  4

  0
STYLE
  2
BYGG-019652$0$CONVERTER_11
 70
     0
 40
0.0
 41
0.72
 50
0.0
 71
     0
 42
0.2
  3
txt.shx
  4

  0
STYLE
  2
BYGG-019705$0$STANDARD
 70
     0
 40
0.0
 41
1.0
 50
0.0
 71
     0
 42
0.2
  3
txt
  4

  0
STYLE
  2
BYGG-019705$0$ISO
 70
     0
 40
0.0
 41
1.0
 50
0.0
 71
     0
 42
3.5
  3
txt
  4

  0
ENDTAB
  0
TABLE
  2
VIEW
 70
     0
  0
ENDTAB
  0
TABLE
  2
UCS
 70
     0
  0
ENDTAB
  0
TABLE
  2
APPID
 70
    18
  0
APPID
  2
ACAD
 70
     0
  0
APPID
  2
ACAD_DSTYLE_DIMTEXT_FILL
 70
     0
  0
APPID
  2
ACAD_DSTYLE_DIMEXT_LENGTH
 70
     0
  0
APPID
  2
ACAD_DSTYLE_DIMEXT_ENABLED
 70
     0
  0
APPID
  2
ACAD_DSTYLE_DIM_LINETYPE
 70
     0
  0
APPID
  2
ACAD_DSTYLE_DIM_EXT1_LINETYPE
 70
     0
  0
APPID
  2
ACAD_DSTYLE_DIM_EXT2_LINETYPE
 70
     0
  0
APPID
  2
ACAD_DSTYLE_DIMJOGGED_JOGA
 70
     0
  0
APPID
  2
ACAD_DSTYLE_DIMARC_LENGTH_
 70
     0
  0
APPID
  2
ACAD_PSEXT
 70
     0
  0
APPID
  2
ACAD_MLEADERVER
 70
     0
  0
APPID
  2
ACAD_NAV_VCDISPLAY
 70
     0
  0
APPID
  2
ACADANNOTATIVE
 70
     0
  0
APPID
  2
ACAECLAYERSTANDARD
 70
     0
  0
APPID
  2
ACAD_EXEMPT_FROM_CAD_STANDARDS
 70
     0
  0
APPID
  2
GRADIENTCOLOR1ACI
 70
     0
  0
APPID
  2
GRADIENTCOLOR2ACI
 70
     0
  0
APPID
  2
ACCMTRANSPARENCY
 70
     0
  0
ENDTAB
  0
TABLE
  2
DIMSTYLE
 70
    56
  0
DIMSTYLE
  2
STANDARD
 70
     0
  3

  4

  5

  6

  7

 40
1.0
 41
0.18
 42
0.0625
 43
0.38
 44
0.18
 45
0.0
 46
0.0
 47
0.0
 48
0.0
140
0.18
141
0.09
142
0.0
143
25.399999999999999
144
1.0
145
0.0
146
1.0
147
0.09
 71
     0
 72
     0
 73
     1
 74
     1
 75
     0
 76
     0
 77
     0
 78
     0
170
     0
171
     2
172
     0
173
     0
174
     0
175
     0
176
     0
177
     0
178
     0
  0
DIMSTYLE
  2
MASKIN
 70
     0
  3

  4

  5

  6

  7

 40
0.0
 41
3.0
 42
1.5
 43
10.0
 44
1.5
 45
0.0
 46
0.0
 47
0.0
 48
0.0
140
3.0
141
-5.0
142
0.0
143
25.399999999999999
144
-1.0
145
0.0
146
1.0
147
1.0
 71
     0
 72
     0
 73
     0
 74
     0
 75
     0
 76
     0
 77
     1
 78
     8
170
     0
171
     0
172
     1
173
     0
174
     0
175
     0
176
   256
177
   256
178
     2
  0
DIMSTYLE
  2
BYGG-021665$0$MASKIN
 70
     0
  3

  4

  5

  6

  7

 40
0.0
 41
3.0
 42
1.5
 43
10.0
 44
1.5
 45
0.0
 46
0.0
 47
0.0
 48
0.0
140
3.0
141
-5.0
142
0.0
143
25.399999999999999
144
-1.0
145
0.0
146
1.0
147
1.0
 71
     0
 72
     0
 73
     0
 74
     0
 75
     0
 76
     0
 77
     1
 78
     8
170
     0
171
     0
172
     1
173
     0
174
     0
175
     0
176
   256
177
   256
178
   256
  0
DIMSTYLE
  2
BYGG-018516$0$STANDARD
 70
     0
  3

  4

  5

  6

  7

 40
1.0
 41
0.18
 42
0.0625
 43
0.38
 44
0.18
 45
0.0
 46
0.0
 47
0.0
 48
0.0
140
0.18
141
0.09
142
0.0
143
25.399999999999999
144
1.0
145
0.0
146
1.0
147
0.09
 71
     0
 72
     0
 73
     1
 74
     1
 75
     0
 76
     0
 77
     0
 78
     0
170
     0
171
     2
172
     0
173
     0
174
     0
175
     0
176
     0
177
     0
178
     0
  0
DIMSTYLE
  2
BYGG-018516$0$MASKIN
 70
     0
  3

  4

  5

  6

  7

 40
0.0
 41
3.0
 42
1.5
 43
10.0
 44
1.5
 45
0.0
 46
0.0
 47
0.0
 48
0.0
140
3.0
141
-5.0
142
0.0
143
25.399999999999999
144
-1.0
145
0.0
146
1.0
147
1.0
 71
     0
 72
     0
 73
     0
 74
     0
 75
     0
 76
     0
 77
     1
 78
     8
170
     0
171
     0
172
     1
173
     0
174
     0
175
     0
176
   256
177
   256
178
     2
  0
DIMSTYLE
  2
BYGG-022089$0$STANDARD
 70
     0
  3

  4

  5

  6

  7

 40
1.0
 41
0.18
 42
0.0625
 43
0.38
 44
0.18
 45
0.0
 46
0.0
 47
0.0
 48
0.0
140
0.18
141
0.09
142
0.0
143
25.399999999999999
144
1.0
145
0.0
146
1.0
147
0.09
 71
     0
 72
     0
 73
     1
 74
     1
 75
     0
 76
     0
 77
     0
 78
     0
170
     0
171
     2
172
     0
173
     0
174
     0
175
     0
176
     0
177
     0
178
     0
  0
DIMSTYLE
  2
BYGG-022089$0$MASKIN
 70
     0
  3

  4

  5

  6

  7

 40
0.0
 41
3.0
 42
1.5
 43
10.0
 44
1.5
 45
0.0
 46
0.0
 47
0.0
 48
0.0
140
3.0
141
-5.0
142
0.0
143
25.399999999999999
144
-1.0
145
0.0
146
1.0
147
1.0
 71
     0
 72
     0
 73
     0
 74
     0
 75
     0
 76
     0
 77
     1
 78
     8
170
     0
171
     0
172
     1
173
     0
174
     0
175
     0
176
   256
177
   256
178
     2
  0
DIMSTYLE
  2
BYGG-022089$0$ANNOTATIVE
 70
     0
  3

  4

  5

  6

  7

 40
1.0
 41
0.18
 42
0.0625
 43
0.38
 44
0.18
 45
0.0
 46
0.0
 47
0.0
 48
0.0
140
0.18
141
0.09
142
0.0
143
25.399999999999999
144
1.0
145
0.0
146
1.0
147
0.09
 71
     0
 72
     0
 73
     1
 74
     1
 75
     0
 76
     0
 77
     0
 78
     0
170
     0
171
     2
172
     0
173
     0
174
     0
175
     0
176
     0
177
     0
178
     0
  0
DIMSTYLE
  2
BYGG-018731$0$STANDARD
 70
     0
  3

  4

  5

  6

  7

 40
1.0
 41
0.18
 42
0.0625
 43
0.38
 44
0.18
 45
0.0
 46
0.0
 47
0.0
 48
0.0
140
0.18
141
0.09
142
0.0
143
25.399999999999999
144
1.0
145
0.0
146
1.0
147
0.09
 71
     0
 72
     0
 73
     1
 74
     1
 75
     0
 76
     0
 77
     0
 78
     0
170
     0
171
     2
172
     0
173
     0
174
     0
175
     0
176
     0
177
     0
178
     0
  0
DIMSTYLE
  2
BYGG-018731$0$MASKIN
 70
     0
  3

  4

  5

  6

  7

 40
0.0
 41
3.0
 42
1.5
 43
10.0
 44
1.5
 45
0.0
 46
0.0
 47
0.0
 48
0.0
140
3.0
141
-5.0
142
0.0
143
25.399999999999999
144
-1.0
145
0.0
146
1.0
147
1.0
 71
     0
 72
     0
 73
     0
 74
     0
 75
     0
 76
     0
 77
     1
 78
     8
170
     0
171
     0
172
     1
173
     0
174
     0
175
     0
176
   256
177
   256
178
     2
  0
DIMSTYLE
  2
BYGG-029261$0$STANDARD
 70
     0
  3

  4

  5

  6

  7

 40
1.0
 41
0.18
 42
0.0625
 43
0.38
 44
0.18
 45
0.0
 46
0.0
 47
0.0
 48
0.0
140
0.18
141
0.09
142
0.0
143
25.399999999999999
144
1.0
145
0.0
146
1.0
147
0.09
 71
     0
 72
     0
 73
     1
 74
     1
 75
     0
 76
     0
 77
     0
 78
     0
170
     0
171
     2
172
     0
173
     0
174
     0
175
     0
176
     0
177
     0
178
     0
  0
DIMSTYLE
  2
BYGG-029261$0$MASKIN
 70
     0
  3

  4

  5

  6

  7

 40
0.0
 41
3.0
 42
1.5
 43
10.0
 44
1.5
 45
0.0
 46
0.0
 47
0.0
 48
0.0
140
3.0
141
-5.0
142
0.0
143
25.399999999999999
144
-1.0
145
0.0
146
1.0
147
1.0
 71
     0
 72
     0
 73
     0
 74
     0
 75
     0
 76
     0
 77
     1
 78
     8
170
     0
171
     0
172
     1
173
     0
174
     0
175
     0
176
   256
177
   256
178
     2
  0
DIMSTYLE
  2
BYGG-029261$0$ISO-25
 70
     0
  3

  4

  5

  6

  7

 40
1.0
 41
2.5
 42
0.625
 43
3.75
 44
1.25
 45
0.0
 46
0.0
 47
0.0
 48
0.0
140
2.5
141
2.5
142
0.0
143
0.03937007874016
144
1.0
145
0.0
146
1.0
147
0.625
 71
     0
 72
     0
 73
     0
 74
     0
 75
     0
 76
     0
 77
     1
 78
     8
170
     0
171
     3
172
     1
173
     0
174
     0
175
     0
176
     0
177
     0
178
     0
  0
DIMSTYLE
  2
BYGG-019716$0$STANDARD
 70
     0
  3

  4

  5

  6

  7

 40
1.0
 41
0.18
 42
0.0625
 43
0.38
 44
0.18
 45
0.0
 46
0.0
 47
0.0
 48
0.0
140
0.18
141
0.09
142
0.0
143
25.399999999999999
144
1.0
145
0.0
146
1.0
147
0.09
 71
     0
 72
     0
 73
     1
 74
     1
 75
     0
 76
     0
 77
     0
 78
     0
170
     0
171
     2
172
     0
173
     0
174
     0
175
     0
176
     0
177
     0
178
     0
  0
DIMSTYLE
  2
BYGG-019716$0$MASKIN
 70
     0
  3

  4

  5

  6

  7

 40
0.0
 41
3.0
 42
1.5
 43
10.0
 44
1.5
 45
0.0
 46
0.0
 47
0.0
 48
0.0
140
3.0
141
-5.0
142
0.0
143
25.399999999999999
144
-1.0
145
0.0
146
1.0
147
1.0
 71
     0
 72
     0
 73
     0
 74
     0
 75
     0
 76
     0
 77
     1
 78
     8
170
     0
171
     0
172
     1
173
     0
174
     0
175
     0
176
   256
177
   256
178
     2
  0
DIMSTYLE
  2
BYGG-019716$0$ANNOTATIVE
 70
     0
  3

  4

  5

  6

  7

 40
1.0
 41
0.18
 42
0.0625
 43
0.38
 44
0.18
 45
0.0
 46
0.0
 47
0.0
 48
0.0
140
0.18
141
0.09
142
0.0
143
25.399999999999999
144
1.0
145
0.0
146
1.0
147
0.09
 71
     0
 72
     0
 73
     1
 74
     1
 75
     0
 76
     0
 77
     0
 78
     0
170
     0
171
     2
172
     0
173
     0
174
     0
175
     0
176
     0
177
     0
178
     0
  0
DIMSTYLE
  2
BYGG-019653$0$STANDARD
 70
     0
  3

  4

  5

  6

  7

 40
1.0
 41
0.18
 42
0.0625
 43
0.38
 44
0.18
 45
0.0
 46
0.0
 47
0.0
 48
0.0
140
0.18
141
0.09
142
0.0
143
25.399999999999999
144
1.0
145
0.0
146
1.0
147
0.09
 71
     0
 72
     0
 73
     1
 74
     1
 75
     0
 76
     0
 77
     0
 78
     0
170
     0
171
     2
172
     0
173
     0
174
     0
175
     0
176
     0
177
     0
178
     0
  0
DIMSTYLE
  2
BYGG-019653$0$MASKIN
 70
     0
  3

  4

  5

  6

  7

 40
0.0
 41
3.0
 42
1.5
 43
10.0
 44
1.5
 45
0.0
 46
0.0
 47
0.0
 48
0.0
140
3.0
141
-5.0
142
0.0
143
25.399999999999999
144
-1.0
145
0.0
146
1.0
147
1.0
 71
     0
 72
     0
 73
     0
 74
     0
 75
     0
 76
     0
 77
     1
 78
     8
170
     0
171
     0
172
     1
173
     0
174
     0
175
     0
176
   256
177
   256
178
     2
  0
DIMSTYLE
  2
BYGG-019653$0$ME10_DIM_10
 70
     0
  3

  4

  5

  6

  7

 40
1.0
 41
0.7
 42
0.0
 43
0.38
 44
0.4
 45
0.0
 46
0.0
 47
0.0
 48
0.0
140
0.7
141
0.09
142
0.0
143
25.399999999999999
144
1.0
145
0.0
146
1.0
147
0.4
 71
     0
 72
     0
 73
     0
 74
     0
 75
     0
 76
     0
 77
     1
 78
     8
170
     0
171
     2
172
     1
173
     1
174
     0
175
     0
176
     1
177
     1
178
     2
  0
DIMSTYLE
  2
BYGG-019653$0$ME10_DIM_11
 70
     0
  3

  4

  5

  6

  7

 40
1.0
 41
0.7
 42
0.0
 43
0.38
 44
0.4
 45
0.0
 46
0.0
 47
0.0
 48
0.0
140
0.7
141
0.09
142
0.0
143
25.399999999999999
144
1.0
145
0.0
146
1.0
147
0.4
 71
     0
 72
     0
 73
     0
 74
     0
 75
     0
 76
     0
 77
     1
 78
     8
170
     0
171
     2
172
     1
173
     1
174
     0
175
     0
176
     1
177
     1
178
     2
  0
DIMSTYLE
  2
BYGG-019653$0$ME10_DIM_12
 70
     0
  3
(<>)
  4

  5

  6

  7

 40
1.0
 41
0.7
 42
0.0
 43
0.38
 44
0.4
 45
0.0
 46
0.0
 47
0.0
 48
0.0
140
0.7
141
0.09
142
0.0
143
25.399999999999999
144
1.0
145
0.0
146
1.0
147
0.4
 71
     0
 72
     0
 73
     0
 74
     0
 75
     0
 76
     0
 77
     1
 78
     8
170
     0
171
     2
172
     1
173
     1
174
     0
175
     0
176
     1
177
     1
178
     2
  0
DIMSTYLE
  2
BYGG-019653$0$ME10_DIM_13
 70
     0
  3

  4

  5

  6

  7

 40
1.0
 41
0.7
 42
0.0
 43
0.38
 44
0.4
 45
0.0
 46
0.0
 47
0.0
 48
0.0
140
0.7
141
0.09
142
0.0
143
25.399999999999999
144
1.0
145
0.0
146
1.0
147
0.4
 71
     0
 72
     0
 73
     0
 74
     0
 75
     0
 76
     0
 77
     1
 78
     8
170
     0
171
     2
172
     1
173
     1
174
     0
175
     0
176
     1
177
     1
178
     2
  0
DIMSTYLE
  2
BYGG-019653$0$ME10_DIM_14
 70
     0
  3

  4

  5

  6

  7

 40
1.0
 41
0.7
 42
0.0
 43
0.38
 44
0.4
 45
0.0
 46
0.0
 47
0.0
 48
0.0
140
0.7
141
0.09
142
0.0
143
25.399999999999999
144
1.0
145
0.0
146
1.0
147
0.4
 71
     0
 72
     0
 73
     0
 74
     0
 75
     0
 76
     0
 77
     1
 78
     8
170
     0
171
     2
172
     1
173
     1
174
     0
175
     0
176
     1
177
     1
178
     2
  0
DIMSTYLE
  2
BYGG-019653$0$ME10_DIM_15
 70
     0
  3

  4

  5

  6

  7

 40
1.0
 41
0.7
 42
0.0
 43
0.38
 44
0.4
 45
0.0
 46
0.0
 47
0.0
 48
0.0
140
0.7
141
0.09
142
0.0
143
25.399999999999999
144
1.0
145
0.0
146
1.0
147
0.4
 71
     0
 72
     0
 73
     0
 74
     0
 75
     0
 76
     0
 77
     1
 78
     8
170
     0
171
     2
172
     1
173
     1
174
     0
175
     0
176
     1
177
     1
178
     2
  0
DIMSTYLE
  2
BYGG-019653$0$ME10_DIM_16
 70
     0
  3

  4

  5

  6

  7

 40
1.0
 41
0.7
 42
0.0
 43
0.38
 44
0.4
 45
0.0
 46
0.0
 47
0.3
 48
0.3
140
0.7
141
0.09
142
0.0
143
25.399999999999999
144
1.0
145
0.0
146
0.6
147
0.4
 71
     1
 72
     0
 73
     0
 74
     0
 75
     0
 76
     0
 77
     1
 78
     8
170
     0
171
     2
172
     1
173
     1
174
     0
175
     0
176
     1
177
     1
178
     2
  0
DIMSTYLE
  2
BYGG-019653$0$ME10_DIM_17
 70
     0
  3

  4

  5

  6

  7

 40
1.0
 41
0.7
 42
0.0
 43
0.38
 44
0.4
 45
0.0
 46
0.0
 47
0.0
 48
0.0
140
0.7
141
0.09
142
0.0
143
25.399999999999999
144
1.0
145
0.0
146
1.0
147
0.4
 71
     0
 72
     0
 73
     0
 74
     0
 75
     0
 76
     0
 77
     1
 78
     8
170
     0
171
     2
172
     1
173
     1
174
     0
175
     0
176
     1
177
     1
178
     2
  0
DIMSTYLE
  2
BYGG-019653$0$ME10_DIM_18
 70
     0
  3

  4

  5

  6

  7

 40
1.0
 41
0.7
 42
0.0
 43
0.38
 44
0.4
 45
0.0
 46
0.0
 47
0.3
 48
0.3
140
0.7
141
0.09
142
0.0
143
25.399999999999999
144
1.0
145
0.0
146
0.6
147
0.4
 71
     1
 72
     0
 73
     0
 74
     0
 75
     0
 76
     0
 77
     1
 78
     8
170
     0
171
     2
172
     1
173
     1
174
     0
175
     0
176
     1
177
     1
178
     2
  0
DIMSTYLE
  2
BYGG-019653$0$ME10_DIM_19
 70
     0
  3

  4

  5

  6

  7

 40
1.0
 41
0.7
 42
0.0
 43
0.38
 44
0.4
 45
0.0
 46
0.0
 47
0.0
 48
0.0
140
0.7
141
0.09
142
0.0
143
25.399999999999999
144
1.0
145
0.0
146
1.0
147
0.4
 71
     0
 72
     0
 73
     0
 74
     0
 75
     0
 76
     0
 77
     1
 78
     8
170
     0
171
     2
172
     1
173
     1
174
     0
175
     0
176
     1
177
     1
178
     2
  0
DIMSTYLE
  2
BYGG-019653$0$ME10_DIM_20
 70
     0
  3

  4

  5

  6

  7

 40
1.0
 41
0.7
 42
0.0
 43
0.38
 44
0.4
 45
0.0
 46
0.0
 47
0.0
 48
0.0
140
0.7
141
0.09
142
0.0
143
25.399999999999999
144
1.0
145
0.0
146
1.0
147
0.4
 71
     0
 72
     0
 73
     0
 74
     0
 75
     0
 76
     0
 77
     1
 78
     8
170
     0
171
     2
172
     1
173
     1
174
     0
175
     0
176
     1
177
     1
178
     2
  0
DIMSTYLE
  2
BYGG-019653$0$ME10_DIM_21
 70
     0
  3
(<>)
  4

  5

  6

  7

 40
1.0
 41
0.7
 42
0.0
 43
0.38
 44
0.4
 45
0.0
 46
0.0
 47
0.0
 48
0.0
140
0.7
141
0.09
142
0.0
143
25.399999999999999
144
1.0
145
0.0
146
1.0
147
0.4
 71
     0
 72
     0
 73
     0
 74
     0
 75
     0
 76
     0
 77
     1
 78
     8
170
     0
171
     2
172
     1
173
     1
174
     0
175
     0
176
     1
177
     1
178
     2
  0
DIMSTYLE
  2
BYGG-019653$0$ME10_DIM_22
 70
     0
  3

  4

  5

  6

  7

 40
1.0
 41
0.7
 42
0.0
 43
0.38
 44
0.4
 45
0.0
 46
0.0
 47
0.0
 48
0.0
140
0.7
141
0.09
142
0.0
143
25.399999999999999
144
1.0
145
0.0
146
1.0
147
0.4
 71
     0
 72
     0
 73
     0
 74
     0
 75
     0
 76
     0
 77
     1
 78
     8
170
     0
171
     2
172
     1
173
     1
174
     0
175
     0
176
     1
177
     1
178
     2
  0
DIMSTYLE
  2
BYGG-019653$0$ME10_DIM_23
 70
     0
  3

  4

  5

  6

  7

 40
1.0
 41
0.7
 42
0.0
 43
0.38
 44
0.4
 45
0.0
 46
0.0
 47
0.0
 48
0.0
140
0.7
141
0.09
142
0.0
143
25.399999999999999
144
1.0
145
0.0
146
1.0
147
0.4
 71
     0
 72
     0
 73
     0
 74
     0
 75
     0
 76
     0
 77
     1
 78
     8
170
     0
171
     2
172
     1
173
     1
174
     0
175
     0
176
     1
177
     1
178
     2
  0
DIMSTYLE
  2
BYGG-019652$0$STANDARD
 70
     0
  3

  4

  5

  6

  7

 40
1.0
 41
0.18
 42
0.0625
 43
0.38
 44
0.18
 45
0.0
 46
0.0
 47
0.0
 48
0.0
140
0.18
141
0.09
142
0.0
143
25.399999999999999
144
1.0
145
0.0
146
1.0
147
0.09
 71
     0
 72
     0
 73
     1
 74
     1
 75
     0
 76
     0
 77
     0
 78
     0
170
     0
171
     2
172
     0
173
     0
174
     0
175
     0
176
     0
177
     0
178
     0
  0
DIMSTYLE
  2
BYGG-019652$0$MASKIN
 70
     0
  3

  4

  5

  6

  7

 40
0.0
 41
3.0
 42
1.5
 43
10.0
 44
1.5
 45
0.0
 46
0.0
 47
0.0
 48
0.0
140
3.0
141
-5.0
142
0.0
143
25.399999999999999
144
-1.0
145
0.0
146
1.0
147
1.0
 71
     0
 72
     0
 73
     0
 74
     0
 75
     0
 76
     0
 77
     1
 78
     8
170
     0
171
     0
172
     1
173
     0
174
     0
175
     0
176
   256
177
   256
178
     2
  0
DIMSTYLE
  2
BYGG-019652$0$ME10_DIM_10
 70
     0
  3

  4

  5

  6

  7

 40
1.0
 41
0.35
 42
0.0
 43
0.38
 44
0.2
 45
0.0
 46
0.0
 47
0.0
 48
0.0
140
0.35
141
0.09
142
0.0
143
25.399999999999999
144
1.0
145
0.0
146
1.0
147
0.2
 71
     0
 72
     0
 73
     0
 74
     0
 75
     0
 76
     0
 77
     1
 78
     8
170
     0
171
     2
172
     1
173
     1
174
     0
175
     0
176
     1
177
     1
178
     2
  0
DIMSTYLE
  2
BYGG-019652$0$ME10_DIM_11
 70
     0
  3

  4

  5

  6

  7

 40
1.0
 41
0.35
 42
0.0
 43
0.38
 44
0.2
 45
0.0
 46
0.0
 47
0.0
 48
0.0
140
0.35
141
0.09
142
0.0
143
25.399999999999999
144
1.0
145
0.0
146
1.0
147
0.2
 71
     0
 72
     0
 73
     0
 74
     0
 75
     0
 76
     0
 77
     1
 78
     8
170
     0
171
     2
172
     1
173
     1
174
     0
175
     0
176
     1
177
     1
178
     2
  0
DIMSTYLE
  2
BYGG-019652$0$ME10_DIM_12
 70
     0
  3

  4

  5

  6

  7

 40
1.0
 41
0.35
 42
0.0
 43
0.38
 44
0.2
 45
0.0
 46
0.0
 47
0.0
 48
0.0
140
0.35
141
0.09
142
0.0
143
25.399999999999999
144
1.0
145
0.0
146
1.0
147
0.2
 71
     0
 72
     0
 73
     0
 74
     0
 75
     0
 76
     0
 77
     1
 78
     8
170
     0
171
     2
172
     1
173
     1
174
     0
175
     0
176
     1
177
     1
178
     2
  0
DIMSTYLE
  2
BYGG-019652$0$ME10_DIM_13
 70
     0
  3

  4

  5

  6

  7

 40
1.0
 41
0.35
 42
0.0
 43
0.38
 44
0.2
 45
0.0
 46
0.0
 47
0.0
 48
0.0
140
0.35
141
0.09
142
0.0
143
25.399999999999999
144
1.0
145
0.0
146
1.0
147
0.2
 71
     0
 72
     0
 73
     0
 74
     0
 75
     0
 76
     0
 77
     1
 78
     8
170
     0
171
     2
172
     1
173
     1
174
     0
175
     0
176
     1
177
     1
178
     2
  0
DIMSTYLE
  2
BYGG-019652$0$ME10_DIM_14
 70
     0
  3

  4

  5

  6

  7

 40
1.0
 41
0.35
 42
0.0
 43
0.38
 44
0.2
 45
0.0
 46
0.0
 47
0.0
 48
0.0
140
0.35
141
0.09
142
0.0
143
25.399999999999999
144
1.0
145
0.0
146
1.0
147
0.2
 71
     0
 72
     0
 73
     0
 74
     0
 75
     0
 76
     0
 77
     1
 78
     8
170
     0
171
     2
172
     1
173
     1
174
     0
175
     0
176
     1
177
     1
178
     2
  0
DIMSTYLE
  2
BYGG-019652$0$ME10_DIM_15
 70
     0
  3

  4

  5

  6

  7

 40
1.0
 41
0.35
 42
0.0
 43
0.38
 44
0.2
 45
0.0
 46
0.0
 47
0.0
 48
0.0
140
0.35
141
0.09
142
0.0
143
25.399999999999999
144
1.0
145
0.0
146
1.0
147
0.2
 71
     0
 72
     0
 73
     0
 74
     0
 75
     0
 76
     0
 77
     1
 78
     8
170
     0
171
     2
172
     1
173
     1
174
     0
175
     0
176
     1
177
     1
178
     2
  0
DIMSTYLE
  2
BYGG-019652$0$ME10_DIM_16
 70
     0
  3

  4

  5

  6

  7

 40
1.0
 41
0.35
 42
0.0
 43
0.38
 44
0.2
 45
0.0
 46
0.0
 47
0.0
 48
0.0
140
0.35
141
0.09
142
0.0
143
25.399999999999999
144
1.0
145
0.0
146
1.0
147
0.2
 71
     0
 72
     0
 73
     0
 74
     0
 75
     0
 76
     0
 77
     1
 78
     8
170
     0
171
     2
172
     1
173
     1
174
     0
175
     0
176
     1
177
     1
178
     2
  0
DIMSTYLE
  2
BYGG-019652$0$ME10_DIM_17
 70
     0
  3

  4

  5

  6

  7

 40
1.0
 41
0.7
 42
0.0
 43
0.38
 44
0.4
 45
0.0
 46
0.0
 47
0.0
 48
0.0
140
0.7
141
0.09
142
0.0
143
25.399999999999999
144
1.0
145
0.0
146
1.0
147
0.4
 71
     0
 72
     0
 73
     0
 74
     0
 75
     0
 76
     0
 77
     1
 78
     8
170
     0
171
     2
172
     1
173
     1
174
     0
175
     0
176
     1
177
     1
178
     2
  0
DIMSTYLE
  2
BYGG-019652$0$ME10_DIM_18
 70
     0
  3

  4

  5

  6

  7

 40
1.0
 41
0.7
 42
0.0
 43
0.38
 44
0.4
 45
0.0
 46
0.0
 47
0.0
 48
0.0
140
0.7
141
0.09
142
0.0
143
25.399999999999999
144
1.0
145
0.0
146
1.0
147
0.4
 71
     0
 72
     0
 73
     0
 74
     0
 75
     0
 76
     0
 77
     1
 78
     8
170
     0
171
     2
172
     1
173
     1
174
     0
175
     0
176
     1
177
     1
178
     2
  0
DIMSTYLE
  2
BYGG-019652$0$ME10_DIM_19
 70
     0
  3

  4

  5

  6

  7

 40
1.0
 41
0.7
 42
0.0
 43
0.38
 44
0.4
 45
0.0
 46
0.0
 47
0.0
 48
0.0
140
0.7
141
0.09
142
0.0
143
25.399999999999999
144
1.0
145
0.0
146
1.0
147
0.4
 71
     0
 72
     0
 73
     0
 74
     0
 75
     0
 76
     0
 77
     1
 78
     8
170
     0
171
     2
172
     1
173
     1
174
     0
175
     0
176
     1
177
     1
178
     2
  0
DIMSTYLE
  2
BYGG-019652$0$ME10_DIM_20
 70
     0
  3

  4

  5

  6

  7

 40
1.0
 41
0.7
 42
0.0
 43
0.38
 44
0.4
 45
0.0
 46
0.0
 47
0.0
 48
0.0
140
0.7
141
0.09
142
0.0
143
25.399999999999999
144
1.0
145
0.0
146
1.0
147
0.4
 71
     0
 72
     0
 73
     0
 74
     0
 75
     0
 76
     0
 77
     1
 78
     8
170
     0
171
     2
172
     1
173
     1
174
     0
175
     0
176
     1
177
     1
178
     2
  0
DIMSTYLE
  2
BYGG-019652$0$ME10_DIM_21
 70
     0
  3

  4

  5

  6

  7

 40
1.0
 41
0.7
 42
0.0
 43
0.38
 44
0.4
 45
0.0
 46
0.0
 47
0.0
 48
0.0
140
0.7
141
0.09
142
0.0
143
25.399999999999999
144
1.0
145
0.0
146
1.0
147
0.4
 71
     0
 72
     0
 73
     0
 74
     0
 75
     0
 76
     0
 77
     1
 78
     8
170
     0
171
     2
172
     1
173
     1
174
     0
175
     0
176
     1
177
     1
178
     2
  0
DIMSTYLE
  2
BYGG-019652$0$ME10_DIM_22
 70
     0
  3

  4

  5

  6

  7

 40
1.0
 41
0.7
 42
0.0
 43
0.38
 44
0.4
 45
0.0
 46
0.0
 47
0.0
 48
0.0
140
0.7
141
0.09
142
0.0
143
25.399999999999999
144
1.0
145
0.0
146
1.0
147
0.4
 71
     0
 72
     0
 73
     0
 74
     0
 75
     0
 76
     0
 77
     1
 78
     8
170
     0
171
     2
172
     1
173
     1
174
     0
175
     0
176
     1
177
     1
178
     2
  0
DIMSTYLE
  2
BYGG-019652$0$ME10_DIM_23
 70
     0
  3

  4

  5

  6

  7

 40
1.0
 41
0.7
 42
0.0
 43
0.38
 44
0.4
 45
0.0
 46
0.0
 47
0.0
 48
0.0
140
0.7
141
0.09
142
0.0
143
25.399999999999999
144
1.0
145
0.0
146
1.0
147
0.4
 71
     0
 72
     0
 73
     0
 74
     0
 75
     0
 76
     0
 77
     1
 78
     8
170
     0
171
     2
172
     1
173
     1
174
     0
175
     0
176
     1
177
     1
178
     2
  0
DIMSTYLE
  2
BYGG-019652$0$ME10_DIM_24
 70
     0
  3

  4

  5

  6

  7

 40
1.0
 41
0.7
 42
0.0
 43
0.38
 44
0.4
 45
0.0
 46
0.0
 47
0.0
 48
0.0
140
0.7
141
0.09
142
0.0
143
25.399999999999999
144
1.0
145
0.0
146
1.0
147
0.4
 71
     0
 72
     0
 73
     0
 74
     0
 75
     0
 76
     0
 77
     1
 78
     8
170
     0
171
     2
172
     1
173
     1
174
     0
175
     0
176
     1
177
     1
178
     2
  0
DIMSTYLE
  2
BYGG-019652$0$ME10_DIM_25
 70
     0
  3

  4

  5

  6

  7

 40
1.0
 41
0.7
 42
0.0
 43
0.38
 44
0.4
 45
0.0
 46
0.0
 47
0.0
 48
0.0
140
0.7
141
0.09
142
0.0
143
25.399999999999999
144
1.0
145
0.0
146
1.0
147
0.4
 71
     0
 72
     0
 73
     0
 74
     0
 75
     0
 76
     0
 77
     1
 78
     8
170
     0
171
     2
172
     1
173
     1
174
     0
175
     0
176
     1
177
     1
178
     2
  0
DIMSTYLE
  2
BYGG-019652$0$ME10_DIM_26
 70
     0
  3

  4

  5

  6

  7

 40
1.0
 41
0.7
 42
0.0
 43
0.38
 44
0.4
 45
0.0
 46
0.0
 47
0.0
 48
0.0
140
0.7
141
0.09
142
0.0
143
25.399999999999999
144
1.0
145
0.0
146
1.0
147
0.4
 71
     0
 72
     0
 73
     0
 74
     0
 75
     0
 76
     0
 77
     1
 78
     8
170
     0
171
     2
172
     1
173
     1
174
     0
175
     0
176
     1
177
     1
178
     2
  0
DIMSTYLE
  2
BYGG-019652$0$ME10_DIM_27
 70
     0
  3

  4

  5

  6

  7

 40
1.0
 41
0.7
 42
0.0
 43
0.38
 44
0.4
 45
0.0
 46
0.0
 47
0.0
 48
0.0
140
0.7
141
0.09
142
0.0
143
25.399999999999999
144
1.0
145
0.0
146
1.0
147
0.4
 71
     0
 72
     0
 73
     0
 74
     0
 75
     0
 76
     0
 77
     1
 78
     8
170
     0
171
     2
172
     1
173
     1
174
     0
175
     0
176
     1
177
     1
178
     2
  0
DIMSTYLE
  2
BYGG-019652$0$ME10_DIM_28
 70
     0
  3

  4

  5

  6

  7

 40
1.0
 41
0.7
 42
0.0
 43
0.38
 44
0.4
 45
0.0
 46
0.0
 47
0.0
 48
0.0
140
0.7
141
0.09
142
0.0
143
25.399999999999999
144
1.0
145
0.0
146
1.0
147
0.4
 71
     0
 72
     0
 73
     0
 74
     0
 75
     0
 76
     0
 77
     1
 78
     8
170
     0
171
     2
172
     1
173
     1
174
     0
175
     0
176
     1
177
     1
178
     2
  0
DIMSTYLE
  2
BYGG-019652$0$ME10_DIM_29
 70
     0
  3

  4

  5

  6

  7

 40
1.0
 41
0.7
 42
0.0
 43
0.38
 44
0.4
 45
0.0
 46
0.0
 47
0.0
 48
0.0
140
0.7
141
0.09
142
0.0
143
25.399999999999999
144
1.0
145
0.0
146
1.0
147
0.4
 71
     0
 72
     0
 73
     0
 74
     0
 75
     0
 76
     0
 77
     1
 78
     8
170
     0
171
     2
172
     1
173
     1
174
     0
175
     0
176
     1
177
     1
178
     2
  0
DIMSTYLE
  2
BYGG-019705$0$STANDARD
 70
     0
  3

  4

  5

  6

  7

 40
1.0
 41
0.18
 42
0.0625
 43
0.38
 44
0.18
 45
0.0
 46
0.0
 47
0.0
 48
0.0
140
0.18
141
0.09
142
0.0
143
25.399999999999999
144
1.0
145
0.0
146
1.0
147
0.09
 71
     0
 72
     0
 73
     1
 74
     1
 75
     0
 76
     0
 77
     0
 78
     0
170
     0
171
     2
172
     0
173
     0
174
     0
175
     0
176
     0
177
     0
178
     0
  0
DIMSTYLE
  2
BYGG-019705$0$MASKIN
 70
     0
  3

  4

  5

  6

  7

 40
0.0
 41
3.0
 42
1.5
 43
10.0
 44
1.5
 45
0.0
 46
0.0
 47
0.0
 48
0.0
140
3.0
141
-5.0
142
0.0
143
25.399999999999999
144
-1.0
145
0.0
146
1.0
147
1.0
 71
     0
 72
     0
 73
     0
 74
     0
 75
     0
 76
     0
 77
     1
 78
     8
170
     0
171
     0
172
     1
173
     0
174
     0
175
     0
176
   256
177
   256
178
     2
  0
ENDTAB
  0
ENDSEC
  0
SECTION
  2
BLOCKS
  0
BLOCK
  8
0
  2
$MODEL_SPACE
 70
     0
 10
0.0
 20
0.0
 30
0.0
  3
$MODEL_SPACE
  1

  0
ENDBLK
  5
37
  8
0
  0
BLOCK
 67
     1
  8
0
  2
$PAPER_SPACE
 70
     0
 10
0.0
 20
0.0
 30
0.0
  3
$PAPER_SPACE
  1

  0
ENDBLK
  5
35
 67
     1
  8
0
  0
BLOCK
  8
0
  2
*X52
 70
     1
 10
0.0
 20
0.0
 30
0.0
  3
*X52
  1

  0
LINE
  5
1532
  8
0
 62
     0
 10
-69.822305089622773
 20
10.999999999999609
 30
0.0
 11
-68.999999999999474
 21
11.82230508962291
 31
0.0
  0
LINE
  5
1533
  8
0
 62
     0
 10
-70.944837104756417
 20
10.99999999999962
 30
0.0
 11
-68.999999999999474
 21
12.94483710475656
 31
0.0
  0
LINE
  5
1534
  8
0
 62
     0
 10
-71.999999999999488
 20
11.06736911989019
 30
0.0
 11
-68.999999999999474
 21
14.0673691198902
 31
0.0
  0
LINE
  5
1535
  8
0
 62
     0
 10
-71.999999999999488
 20
12.189901135023829
 30
0.0
 11
-68.999999999999474
 21
15.18990113502384
 31
0.0
  0
LINE
  5
1536
  8
0
 62
     0
 10
-71.999999999999488
 20
13.31243315015748
 30
0.0
 11
-68.999999999999474
 21
16.312433150157482
 31
0.0
  0
LINE
  5
1537
  8
0
 62
     0
 10
-71.999999999999488
 20
14.43496516529112
 30
0.0
 11
-68.999999999999474
 21
17.434965165291128
 31
0.0
  0
LINE
  5
1538
  8
0
 62
     0
 10
-71.999999999999488
 20
15.557497180424759
 30
0.0
 11
-68.999999999999474
 21
18.557497180424772
 31
0.0
  0
LINE
  5
1539
  8
0
 62
     0
 10
-71.999999999999488
 20
16.680029195558401
 30
0.0
 11
-68.999999999999474
 21
19.680029195558411
 31
0.0
  0
LINE
  5
153A
  8
0
 62
     0
 10
-71.999999999999488
 20
17.802561210692051
 30
0.0
 11
-68.999999999999474
 21
20.802561210692058
 31
0.0
  0
LINE
  5
153B
  8
0
 62
     0
 10
-71.999999999999488
 20
18.925093225825691
 30
0.0
 11
-68.999999999999474
 21
21.925093225825702
 31
0.0
  0
LINE
  5
153C
  8
0
 62
     0
 10
-71.999999999999488
 20
20.047625240959341
 30
0.0
 11
-68.999999999999474
 21
23.047625240959349
 31
0.0
  0
LINE
  5
153D
  8
0
 62
     0
 10
-72.190755116731424
 20
20.979402139361049
 30
0.0
 11
-68.999999999999474
 21
24.170157256092988
 31
0.0
  0
LINE
  5
153E
  8
0
 62
     0
 10
-82.170157256092864
 20
10.999999999999609
 30
0.0
 11
-81.999999999999488
 21
11.17015725609299
 31
0.0
  0
LINE
  5
153F
  8
0
 62
     0
 10
-73.292689271226493
 20
20.999999999999631
 30
0.0
 11
-68.999999999999474
 21
25.292689271226639
 31
0.0
  0
LINE
  5
1540
  8
0
 62
     0
 10
-83.292689271226493
 20
10.99999999999962
 30
0.0
 11
-81.999999999999488
 21
12.29268927122664
 31
0.0
  0
LINE
  5
1541
  8
0
 62
     0
 10
-74.415221286360151
 20
20.99999999999962
 30
0.0
 11
-69.415221286360151
 21
25.99999999999962
 31
0.0
  0
LINE
  5
1542
  8
0
 62
     0
 10
-84.415221286360136
 20
10.99999999999962
 30
0.0
 11
-81.999999999999488
 21
13.41522128636028
 31
0.0
  0
LINE
  5
1543
  8
0
 62
     0
 10
-75.537753301493765
 20
20.99999999999962
 30
0.0
 11
-70.537753301493765
 21
25.99999999999962
 31
0.0
  0
LINE
  5
1544
  8
0
 62
     0
 10
-84.999999999999474
 20
11.53775330149392
 30
0.0
 11
-81.999999999999488
 21
14.537753301493931
 31
0.0
  0
LINE
  5
1545
  8
0
 62
     0
 10
-76.660285316627423
 20
20.99999999999962
 30
0.0
 11
-71.660285316627423
 21
25.99999999999962
 31
0.0
  0
LINE
  5
1546
  8
0
 62
     0
 10
-84.999999999999474
 20
12.66028531662756
 30
0.0
 11
-81.999999999999488
 21
15.66028531662757
 31
0.0
  0
LINE
  5
1547
  8
0
 62
     0
 10
-77.78281733176108
 20
20.99999999999962
 30
0.0
 11
-72.78281733176108
 21
25.99999999999962
 31
0.0
  0
LINE
  5
1548
  8
0
 62
     0
 10
-84.999999999999474
 20
13.78281733176121
 30
0.0
 11
-81.999999999999488
 21
16.782817331761208
 31
0.0
  0
LINE
  5
1549
  8
0
 62
     0
 10
-78.905349346894724
 20
20.99999999999962
 30
0.0
 11
-73.905349346894724
 21
25.99999999999962
 31
0.0
  0
LINE
  5
154A
  8
0
 62
     0
 10
-84.999999999999474
 20
14.90534934689485
 30
0.0
 11
-81.999999999999488
 21
17.905349346894859
 31
0.0
  0
LINE
  5
154B
  8
0
 62
     0
 10
-80.027881362028353
 20
20.99999999999962
 30
0.0
 11
-75.027881362028367
 21
25.999999999999609
 31
0.0
  0
LINE
  5
154C
  8
0
 62
     0
 10
-84.999999999999474
 20
16.027881362028499
 30
0.0
 11
-81.999999999999488
 21
19.027881362028499
 31
0.0
  0
LINE
  5
154D
  8
0
 62
     0
 10
-81.15041337716201
 20
20.99999999999962
 30
0.0
 11
-76.15041337716201
 21
25.999999999999609
 31
0.0
  0
LINE
  5
154E
  8
0
 62
     0
 10
-84.999999999999474
 20
17.150413377162138
 30
0.0
 11
-81.999999999999488
 21
20.150413377162149
 31
0.0
  0
LINE
  5
154F
  8
0
 62
     0
 10
-84.999999999999474
 20
18.272945392295789
 30
0.0
 11
-77.272945392295668
 21
25.999999999999609
 31
0.0
  0
LINE
  5
1550
  8
0
 62
     0
 10
-84.999999999999474
 20
19.395477407429428
 30
0.0
 11
-78.395477407429297
 21
25.99999999999962
 31
0.0
  0
LINE
  5
1551
  8
0
 62
     0
 10
-84.999999999999474
 20
20.518009422563079
 30
0.0
 11
-79.51800942256294
 21
25.999999999999609
 31
0.0
  0
LINE
  5
1552
  8
0
 62
     0
 10
-84.999999999999474
 20
21.640541437696719
 30
0.0
 11
-80.640541437696584
 21
25.999999999999609
 31
0.0
  0
LINE
  5
1553
  8
0
 62
     0
 10
-84.999999999999474
 20
22.763073452830358
 30
0.0
 11
-81.763073452830241
 21
25.99999999999962
 31
0.0
  0
LINE
  5
1554
  8
0
 62
     0
 10
-84.999999999999474
 20
23.885605467964009
 30
0.0
 11
-82.885605467963885
 21
25.999999999999609
 31
0.0
  0
LINE
  5
1555
  8
0
 62
     0
 10
-84.999999999999474
 20
25.008137483097659
 30
0.0
 11
-84.008137483097514
 21
25.99999999999962
 31
0.0
  0
LINE
  5
1556
  8
0
 62
     0
 10
-84.999999999999474
 20
12.03541901631265
 30
0.0
 11
-83.964580983686446
 21
10.99999999999962
 31
0.0
  0
LINE
  5
1557
  8
0
 62
     0
 10
-84.999999999999474
 20
13.15795103144629
 30
0.0
 11
-82.842048968552817
 21
10.999999999999609
 31
0.0
  0
LINE
  5
1558
  8
0
 62
     0
 10
-84.999999999999474
 20
14.28048304657994
 30
0.0
 11
-81.999999999999488
 21
11.28048304657993
 31
0.0
  0
LINE
  5
1559
  8
0
 62
     0
 10
-84.999999999999474
 20
15.40301506171358
 30
0.0
 11
-81.999999999999488
 21
12.403015061713569
 31
0.0
  0
LINE
  5
155A
  8
0
 62
     0
 10
-84.999999999999474
 20
16.525547076847221
 30
0.0
 11
-81.999999999999488
 21
13.52554707684722
 31
0.0
  0
LINE
  5
155B
  8
0
 62
     0
 10
-84.999999999999474
 20
17.648079091980868
 30
0.0
 11
-81.999999999999488
 21
14.64807909198087
 31
0.0
  0
LINE
  5
155C
  8
0
 62
     0
 10
-84.999999999999474
 20
18.770611107114512
 30
0.0
 11
-81.999999999999488
 21
15.770611107114499
 31
0.0
  0
LINE
  5
155D
  8
0
 62
     0
 10
-84.999999999999474
 20
19.893143122248151
 30
0.0
 11
-81.999999999999488
 21
16.893143122248151
 31
0.0
  0
LINE
  5
155E
  8
0
 62
     0
 10
-84.999999999999474
 20
21.015675137381798
 30
0.0
 11
-81.999999999999488
 21
18.015675137381798
 31
0.0
  0
LINE
  5
155F
  8
0
 62
     0
 10
-84.999999999999474
 20
22.138207152515449
 30
0.0
 11
-81.999999999999488
 21
19.138207152515442
 31
0.0
  0
LINE
  5
1560
  8
0
 62
     0
 10
-84.999999999999474
 20
23.260739167649099
 30
0.0
 11
-81.999999999999488
 21
20.260739167649088
 31
0.0
  0
LINE
  5
1561
  8
0
 62
     0
 10
-71.999999999999488
 20
11.38327118278273
 30
0.0
 11
-71.616728817216369
 21
10.999999999999609
 31
0.0
  0
LINE
  5
1562
  8
0
 62
     0
 10
-84.999999999999474
 20
24.383271182782732
 30
0.0
 11
-81.616728817216369
 21
20.99999999999962
 31
0.0
  0
LINE
  5
1563
  8
0
 62
     0
 10
-71.999999999999488
 20
12.50580319791637
 30
0.0
 11
-70.49419680208274
 21
10.99999999999962
 31
0.0
  0
LINE
  5
1564
  8
0
 62
     0
 10
-84.999999999999474
 20
25.505803197916389
 30
0.0
 11
-80.494196802082726
 21
20.99999999999962
 31
0.0
  0
LINE
  5
1565
  8
0
 62
     0
 10
-71.999999999999488
 20
13.62833521305002
 30
0.0
 11
-69.371664786949097
 21
10.99999999999962
 31
0.0
  0
LINE
  5
1566
  8
0
 62
     0
 10
-84.371664786949083
 20
25.999999999999609
 30
0.0
 11
-79.371664786949083
 21
20.999999999999609
 31
0.0
  0
LINE
  5
1567
  8
0
 62
     0
 10
-71.999999999999488
 20
14.75086722818366
 30
0.0
 11
-68.999999999999474
 21
11.750867228183649
 31
0.0
  0
LINE
  5
1568
  8
0
 62
     0
 10
-83.249132771815425
 20
25.999999999999609
 30
0.0
 11
-78.249132771815454
 21
20.99999999999962
 31
0.0
  0
LINE
  5
1569
  8
0
 62
     0
 10
-71.999999999999488
 20
15.8733992433173
 30
0.0
 11
-68.999999999999474
 21
12.8733992433173
 31
0.0
  0
LINE
  5
156A
  8
0
 62
     0
 10
-82.126600756681796
 20
25.99999999999962
 30
0.0
 11
-77.126600756681796
 21
20.99999999999962
 31
0.0
  0
LINE
  5
156B
  8
0
 62
     0
 10
-71.999999999999488
 20
16.995931258450948
 30
0.0
 11
-68.999999999999474
 21
13.99593125845095
 31
0.0
  0
LINE
  5
156C
  8
0
 62
     0
 10
-81.004068741548153
 20
25.99999999999962
 30
0.0
 11
-76.004068741548153
 21
20.99999999999962
 31
0.0
  0
LINE
  5
156D
  8
0
 62
     0
 10
-71.999999999999488
 20
18.118463273584592
 30
0.0
 11
-68.999999999999474
 21
15.11846327358459
 31
0.0
  0
LINE
  5
156E
  8
0
 62
     0
 10
-79.88153672641451
 20
25.999999999999609
 30
0.0
 11
-74.88153672641451
 21
20.999999999999609
 31
0.0
  0
LINE
  5
156F
  8
0
 62
     0
 10
-71.999999999999488
 20
19.240995288718231
 30
0.0
 11
-68.999999999999474
 21
16.240995288718231
 31
0.0
  0
LINE
  5
1570
  8
0
 62
     0
 10
-78.759004711280866
 20
25.999999999999609
 30
0.0
 11
-73.759004711280866
 21
20.99999999999962
 31
0.0
  0
LINE
  5
1571
  8
0
 62
     0
 10
-71.999999999999488
 20
20.363527303851878
 30
0.0
 11
-68.999999999999474
 21
17.363527303851878
 31
0.0
  0
LINE
  5
1572
  8
0
 62
     0
 10
-77.636472696147223
 20
25.99999999999962
 30
0.0
 11
-72.636472696147223
 21
20.99999999999962
 31
0.0
  0
LINE
  5
1573
  8
0
 62
     0
 10
-76.51394068101358
 20
25.99999999999962
 30
0.0
 11
-68.999999999999474
 21
18.486059318985522
 31
0.0
  0
LINE
  5
1574
  8
0
 62
     0
 10
-75.391408665879936
 20
25.999999999999609
 30
0.0
 11
-68.999999999999474
 21
19.608591334119161
 31
0.0
  0
LINE
  5
1575
  8
0
 62
     0
 10
-74.268876650746293
 20
25.99999999999962
 30
0.0
 11
-68.999999999999474
 21
20.731123349252819
 31
0.0
  0
LINE
  5
1576
  8
0
 62
     0
 10
-73.14634463561265
 20
25.99999999999962
 30
0.0
 11
-68.999999999999474
 21
21.853655364386459
 31
0.0
  0
LINE
  5
1577
  8
0
 62
     0
 10
-72.023812620478992
 20
25.99999999999962
 30
0.0
 11
-68.999999999999474
 21
22.976187379520098
 31
0.0
  0
LINE
  5
1578
  8
0
 62
     0
 10
-70.901280605345363
 20
25.99999999999962
 30
0.0
 11
-68.999999999999474
 21
24.098719394653749
 31
0.0
  0
LINE
  5
1579
  8
0
 62
     0
 10
-69.77874859021172
 20
25.99999999999962
 30
0.0
 11
-68.999999999999474
 21
25.221251409787389
 31
0.0
  0
ENDBLK
  5
157B
  8
0
  0
BLOCK
  8
0
  2
*X53
 70
     1
 10
0.0
 20
0.0
 30
0.0
  3
*X53
  1

  0
LINE
  5
1594
  8
0
 62
     0
 10
-68.999999999999474
 20
-11.82230508962288
 30
0.0
 11
-69.822305089622773
 21
-10.999999999999581
 31
0.0
  0
LINE
  5
1595
  8
0
 62
     0
 10
-68.999999999999474
 20
-12.94483710475652
 30
0.0
 11
-70.944837104756431
 21
-10.999999999999581
 31
0.0
  0
LINE
  5
1596
  8
0
 62
     0
 10
-68.999999999999474
 20
-14.06736911989017
 30
0.0
 11
-71.999999999999488
 21
-11.06736911989017
 31
0.0
  0
LINE
  5
1597
  8
0
 62
     0
 10
-68.999999999999474
 20
-15.18990113502382
 30
0.0
 11
-71.999999999999488
 21
-12.18990113502381
 31
0.0
  0
LINE
  5
1598
  8
0
 62
     0
 10
-68.999999999999474
 20
-16.31243315015746
 30
0.0
 11
-71.999999999999488
 21
-13.31243315015746
 31
0.0
  0
LINE
  5
1599
  8
0
 62
     0
 10
-68.999999999999474
 20
-17.4349651652911
 30
0.0
 11
-71.999999999999488
 21
-14.4349651652911
 31
0.0
  0
LINE
  5
159A
  8
0
 62
     0
 10
-68.999999999999474
 20
-18.55749718042474
 30
0.0
 11
-71.999999999999488
 21
-15.55749718042475
 31
0.0
  0
LINE
  5
159B
  8
0
 62
     0
 10
-68.999999999999474
 20
-19.68002919555839
 30
0.0
 11
-71.999999999999488
 21
-16.68002919555839
 31
0.0
  0
LINE
  5
159C
  8
0
 62
     0
 10
-68.999999999999474
 20
-20.80256121069203
 30
0.0
 11
-71.999999999999488
 21
-17.802561210692041
 31
0.0
  0
LINE
  5
159D
  8
0
 62
     0
 10
-68.999999999999474
 20
-21.92509322582568
 30
0.0
 11
-71.999999999999488
 21
-18.92509322582568
 31
0.0
  0
LINE
  5
159E
  8
0
 62
     0
 10
-68.999999999999474
 20
-23.04762524095932
 30
0.0
 11
-71.999999999999488
 21
-20.04762524095932
 31
0.0
  0
LINE
  5
159F
  8
0
 62
     0
 10
-81.999999999999488
 20
-11.17015725609297
 30
0.0
 11
-82.170157256092864
 21
-10.99999999999959
 31
0.0
  0
LINE
  5
15A0
  8
0
 62
     0
 10
-68.999999999999474
 20
-24.17015725609296
 30
0.0
 11
-72.190755116731424
 21
-20.979402139361021
 31
0.0
  0
LINE
  5
15A1
  8
0
 62
     0
 10
-81.999999999999488
 20
-12.29268927122661
 30
0.0
 11
-83.292689271226536
 21
-10.999999999999581
 31
0.0
  0
LINE
  5
15A2
  8
0
 62
     0
 10
-68.999999999999474
 20
-25.29268927122661
 30
0.0
 11
-73.292689271226521
 21
-20.999999999999581
 31
0.0
  0
LINE
  5
15A3
  8
0
 62
     0
 10
-81.999999999999488
 20
-13.41522128636025
 30
0.0
 11
-84.415221286360136
 21
-10.999999999999581
 31
0.0
  0
LINE
  5
15A4
  8
0
 62
     0
 10
-69.415221286360151
 20
-25.999999999999599
 30
0.0
 11
-74.415221286360165
 21
-20.999999999999581
 31
0.0
  0
LINE
  5
15A5
  8
0
 62
     0
 10
-81.999999999999488
 20
-14.53775330149389
 30
0.0
 11
-84.999999999999474
 21
-11.5377533014939
 31
0.0
  0
LINE
  5
15A6
  8
0
 62
     0
 10
-70.537753301493794
 20
-25.999999999999591
 30
0.0
 11
-75.537753301493808
 21
-20.999999999999581
 31
0.0
  0
LINE
  5
15A7
  8
0
 62
     0
 10
-81.999999999999488
 20
-15.66028531662754
 30
0.0
 11
-84.999999999999474
 21
-12.66028531662754
 31
0.0
  0
LINE
  5
15A8
  8
0
 62
     0
 10
-71.660285316627423
 20
-25.999999999999591
 30
0.0
 11
-76.660285316627451
 21
-20.999999999999581
 31
0.0
  0
LINE
  5
15A9
  8
0
 62
     0
 10
-81.999999999999488
 20
-16.782817331761191
 30
0.0
 11
-84.999999999999474
 21
-13.782817331761191
 31
0.0
  0
LINE
  5
15AA
  8
0
 62
     0
 10
-72.782817331761095
 20
-25.999999999999591
 30
0.0
 11
-77.782817331761095
 21
-20.999999999999581
 31
0.0
  0
LINE
  5
15AB
  8
0
 62
     0
 10
-81.999999999999488
 20
-17.90534934689482
 30
0.0
 11
-84.999999999999474
 21
-14.90534934689483
 31
0.0
  0
LINE
  5
15AC
  8
0
 62
     0
 10
-73.905349346894724
 20
-25.999999999999599
 30
0.0
 11
-78.905349346894724
 21
-20.999999999999591
 31
0.0
  0
LINE
  5
15AD
  8
0
 62
     0
 10
-81.999999999999488
 20
-19.02788136202847
 30
0.0
 11
-84.999999999999474
 21
-16.02788136202847
 31
0.0
  0
LINE
  5
15AE
  8
0
 62
     0
 10
-75.027881362028381
 20
-25.999999999999591
 30
0.0
 11
-80.027881362028381
 21
-20.999999999999591
 31
0.0
  0
LINE
  5
15AF
  8
0
 62
     0
 10
-81.999999999999488
 20
-20.15041337716211
 30
0.0
 11
-84.999999999999474
 21
-17.15041337716211
 31
0.0
  0
LINE
  5
15B0
  8
0
 62
     0
 10
-76.150413377162025
 20
-25.999999999999581
 30
0.0
 11
-81.15041337716201
 21
-20.999999999999591
 31
0.0
  0
LINE
  5
15B1
  8
0
 62
     0
 10
-77.272945392295668
 20
-25.999999999999591
 30
0.0
 11
-84.999999999999474
 21
-18.27294539229576
 31
0.0
  0
LINE
  5
15B2
  8
0
 62
     0
 10
-78.395477407429311
 20
-25.999999999999581
 30
0.0
 11
-84.999999999999474
 21
-19.3954774074294
 31
0.0
  0
LINE
  5
15B3
  8
0
 62
     0
 10
-79.518009422562955
 20
-25.999999999999591
 30
0.0
 11
-84.999999999999474
 21
-20.51800942256305
 31
0.0
  0
LINE
  5
15B4
  8
0
 62
     0
 10
-80.640541437696584
 20
-25.999999999999581
 30
0.0
 11
-84.999999999999474
 21
-21.640541437696701
 31
0.0
  0
LINE
  5
15B5
  8
0
 62
     0
 10
-81.763073452830241
 20
-25.999999999999591
 30
0.0
 11
-84.999999999999474
 21
-22.763073452830341
 31
0.0
  0
LINE
  5
15B6
  8
0
 62
     0
 10
-82.885605467963885
 20
-25.999999999999591
 30
0.0
 11
-84.999999999999474
 21
-23.885605467963991
 31
0.0
  0
LINE
  5
15B7
  8
0
 62
     0
 10
-84.008137483097528
 20
-25.999999999999591
 30
0.0
 11
-84.999999999999474
 21
-25.008137483097631
 31
0.0
  0
LINE
  5
15B8
  8
0
 62
     0
 10
-69.77874859021172
 20
-25.999999999999591
 30
0.0
 11
-68.999999999999474
 21
-25.221251409787349
 31
0.0
  0
LINE
  5
15B9
  8
0
 62
     0
 10
-70.901280605345363
 20
-25.999999999999591
 30
0.0
 11
-68.999999999999474
 21
-24.09871939465371
 31
0.0
  0
LINE
  5
15BA
  8
0
 62
     0
 10
-72.023812620479021
 20
-25.999999999999599
 30
0.0
 11
-68.999999999999474
 21
-22.976187379520059
 31
0.0
  0
LINE
  5
15BB
  8
0
 62
     0
 10
-73.14634463561265
 20
-25.999999999999591
 30
0.0
 11
-68.999999999999474
 21
-21.85365536438643
 31
0.0
  0
LINE
  5
15BC
  8
0
 62
     0
 10
-74.268876650746293
 20
-25.999999999999591
 30
0.0
 11
-68.999999999999474
 21
-20.73112334925278
 31
0.0
  0
LINE
  5
15BD
  8
0
 62
     0
 10
-75.391408665879936
 20
-25.999999999999591
 30
0.0
 11
-68.999999999999474
 21
-19.608591334119129
 31
0.0
  0
LINE
  5
15BE
  8
0
 62
     0
 10
-76.513940681013565
 20
-25.999999999999581
 30
0.0
 11
-68.999999999999474
 21
-18.48605931898549
 31
0.0
  0
LINE
  5
15BF
  8
0
 62
     0
 10
-71.999999999999488
 20
-20.36352730385185
 30
0.0
 11
-68.999999999999474
 21
-17.363527303851839
 31
0.0
  0
LINE
  5
15C0
  8
0
 62
     0
 10
-77.636472696147223
 20
-25.999999999999581
 30
0.0
 11
-72.636472696147223
 21
-20.999999999999599
 31
0.0
  0
LINE
  5
15C1
  8
0
 62
     0
 10
-71.999999999999488
 20
-19.240995288718199
 30
0.0
 11
-68.999999999999474
 21
-16.24099528871821
 31
0.0
  0
LINE
  5
15C2
  8
0
 62
     0
 10
-78.759004711280866
 20
-25.999999999999591
 30
0.0
 11
-73.759004711280866
 21
-20.999999999999591
 31
0.0
  0
LINE
  5
15C3
  8
0
 62
     0
 10
-71.999999999999488
 20
-18.11846327358456
 30
0.0
 11
-68.999999999999474
 21
-15.11846327358456
 31
0.0
  0
LINE
  5
15C4
  8
0
 62
     0
 10
-79.88153672641451
 20
-25.999999999999581
 30
0.0
 11
-74.88153672641451
 21
-20.999999999999591
 31
0.0
  0
LINE
  5
15C5
  8
0
 62
     0
 10
-71.999999999999488
 20
-16.995931258450909
 30
0.0
 11
-68.999999999999474
 21
-13.995931258450909
 31
0.0
  0
LINE
  5
15C6
  8
0
 62
     0
 10
-81.004068741548167
 20
-25.999999999999591
 30
0.0
 11
-76.004068741548153
 21
-20.999999999999591
 31
0.0
  0
LINE
  5
15C7
  8
0
 62
     0
 10
-71.999999999999488
 20
-15.873399243317269
 30
0.0
 11
-68.999999999999474
 21
-12.873399243317261
 31
0.0
  0
LINE
  5
15C8
  8
0
 62
     0
 10
-82.126600756681796
 20
-25.999999999999581
 30
0.0
 11
-77.12660075668181
 21
-20.999999999999599
 31
0.0
  0
LINE
  5
15C9
  8
0
 62
     0
 10
-71.999999999999488
 20
-14.75086722818363
 30
0.0
 11
-68.999999999999474
 21
-11.75086722818363
 31
0.0
  0
LINE
  5
15CA
  8
0
 62
     0
 10
-83.249132771815425
 20
-25.999999999999591
 30
0.0
 11
-78.249132771815425
 21
-20.999999999999591
 31
0.0
  0
LINE
  5
15CB
  8
0
 62
     0
 10
-71.999999999999488
 20
-13.628335213049979
 30
0.0
 11
-69.371664786949097
 21
-10.99999999999959
 31
0.0
  0
LINE
  5
15CC
  8
0
 62
     0
 10
-84.371664786949083
 20
-25.999999999999591
 30
0.0
 11
-79.371664786949083
 21
-20.999999999999591
 31
0.0
  0
LINE
  5
15CD
  8
0
 62
     0
 10
-71.999999999999488
 20
-12.50580319791634
 30
0.0
 11
-70.494196802082726
 21
-10.999999999999581
 31
0.0
  0
LINE
  5
15CE
  8
0
 62
     0
 10
-84.999999999999474
 20
-25.505803197916329
 30
0.0
 11
-80.494196802082726
 21
-20.999999999999581
 31
0.0
  0
LINE
  5
15CF
  8
0
 62
     0
 10
-71.999999999999488
 20
-11.383271182782689
 30
0.0
 11
-71.616728817216384
 21
-10.99999999999959
 31
0.0
  0
LINE
  5
15D0
  8
0
 62
     0
 10
-84.999999999999474
 20
-24.383271182782689
 30
0.0
 11
-81.616728817216384
 21
-20.999999999999591
 31
0.0
  0
LINE
  5
15D1
  8
0
 62
     0
 10
-84.999999999999474
 20
-23.260739167649039
 30
0.0
 11
-81.999999999999474
 21
-20.260739167649039
 31
0.0
  0
LINE
  5
15D2
  8
0
 62
     0
 10
-84.999999999999474
 20
-22.13820715251541
 30
0.0
 11
-81.999999999999474
 21
-19.138207152515399
 31
0.0
  0
LINE
  5
15D3
  8
0
 62
     0
 10
-84.999999999999474
 20
-21.01567513738177
 30
0.0
 11
-81.999999999999474
 21
-18.015675137381759
 31
0.0
  0
LINE
  5
15D4
  8
0
 62
     0
 10
-84.999999999999474
 20
-19.893143122248109
 30
0.0
 11
-81.999999999999488
 21
-16.893143122248109
 31
0.0
  0
LINE
  5
15D5
  8
0
 62
     0
 10
-84.999999999999474
 20
-18.770611107114469
 30
0.0
 11
-81.999999999999474
 21
-15.77061110711446
 31
0.0
  0
LINE
  5
15D6
  8
0
 62
     0
 10
-84.999999999999474
 20
-17.648079091980829
 30
0.0
 11
-81.999999999999488
 21
-14.64807909198082
 31
0.0
  0
LINE
  5
15D7
  8
0
 62
     0
 10
-84.999999999999474
 20
-16.525547076847189
 30
0.0
 11
-81.999999999999488
 21
-13.525547076847181
 31
0.0
  0
LINE
  5
15D8
  8
0
 62
     0
 10
-84.999999999999474
 20
-15.403015061713541
 30
0.0
 11
-81.999999999999488
 21
-12.403015061713541
 31
0.0
  0
LINE
  5
15D9
  8
0
 62
     0
 10
-84.999999999999474
 20
-14.28048304657989
 30
0.0
 11
-81.999999999999474
 21
-11.28048304657989
 31
0.0
  0
LINE
  5
15DA
  8
0
 62
     0
 10
-84.999999999999474
 20
-13.157951031446251
 30
0.0
 11
-82.842048968552817
 21
-10.99999999999959
 31
0.0
  0
LINE
  5
15DB
  8
0
 62
     0
 10
-84.999999999999474
 20
-12.035419016312609
 30
0.0
 11
-83.964580983686446
 21
-10.999999999999581
 31
0.0
  0
ENDBLK
  5
15DD
  8
0
  0
BLOCK
  8
0
  2
*X54
 70
     1
 10
0.0
 20
0.0
 30
0.0
  3
*X54
  1

  0
LINE
  5
15F6
  8
0
 62
     0
 10
-69.822305089622773
 20
10.999999999999609
 30
0.0
 11
-68.999999999999474
 21
11.82230508962291
 31
0.0
  0
LINE
  5
15F7
  8
0
 62
     0
 10
-70.944837104756417
 20
10.99999999999962
 30
0.0
 11
-68.999999999999474
 21
12.94483710475656
 31
0.0
  0
LINE
  5
15F8
  8
0
 62
     0
 10
-71.999999999999488
 20
11.06736911989019
 30
0.0
 11
-68.999999999999474
 21
14.0673691198902
 31
0.0
  0
LINE
  5
15F9
  8
0
 62
     0
 10
-71.999999999999488
 20
12.189901135023829
 30
0.0
 11
-68.999999999999474
 21
15.18990113502384
 31
0.0
  0
LINE
  5
15FA
  8
0
 62
     0
 10
-71.999999999999488
 20
13.31243315015748
 30
0.0
 11
-68.999999999999474
 21
16.312433150157482
 31
0.0
  0
LINE
  5
15FB
  8
0
 62
     0
 10
-71.999999999999488
 20
14.43496516529112
 30
0.0
 11
-68.999999999999474
 21
17.434965165291128
 31
0.0
  0
LINE
  5
15FC
  8
0
 62
     0
 10
-71.999999999999488
 20
15.557497180424759
 30
0.0
 11
-68.999999999999474
 21
18.557497180424772
 31
0.0
  0
LINE
  5
15FD
  8
0
 62
     0
 10
-71.999999999999488
 20
16.680029195558401
 30
0.0
 11
-68.999999999999474
 21
19.680029195558411
 31
0.0
  0
LINE
  5
15FE
  8
0
 62
     0
 10
-71.999999999999488
 20
17.802561210692051
 30
0.0
 11
-68.999999999999474
 21
20.802561210692058
 31
0.0
  0
LINE
  5
15FF
  8
0
 62
     0
 10
-71.999999999999488
 20
18.925093225825691
 30
0.0
 11
-68.999999999999474
 21
21.925093225825702
 31
0.0
  0
LINE
  5
1600
  8
0
 62
     0
 10
-71.999999999999488
 20
20.047625240959341
 30
0.0
 11
-68.999999999999474
 21
23.047625240959349
 31
0.0
  0
LINE
  5
1601
  8
0
 62
     0
 10
-72.190755116731424
 20
20.979402139361049
 30
0.0
 11
-68.999999999999474
 21
24.170157256092988
 31
0.0
  0
LINE
  5
1602
  8
0
 62
     0
 10
-82.170157256092864
 20
10.999999999999609
 30
0.0
 11
-81.999999999999488
 21
11.17015725609299
 31
0.0
  0
LINE
  5
1603
  8
0
 62
     0
 10
-73.292689271226493
 20
20.999999999999631
 30
0.0
 11
-68.999999999999474
 21
25.292689271226639
 31
0.0
  0
LINE
  5
1604
  8
0
 62
     0
 10
-83.292689271226493
 20
10.99999999999962
 30
0.0
 11
-81.999999999999488
 21
12.29268927122664
 31
0.0
  0
LINE
  5
1605
  8
0
 62
     0
 10
-74.415221286360151
 20
20.99999999999962
 30
0.0
 11
-69.415221286360151
 21
25.99999999999962
 31
0.0
  0
LINE
  5
1606
  8
0
 62
     0
 10
-84.415221286360136
 20
10.99999999999962
 30
0.0
 11
-81.999999999999488
 21
13.41522128636028
 31
0.0
  0
LINE
  5
1607
  8
0
 62
     0
 10
-75.537753301493765
 20
20.99999999999962
 30
0.0
 11
-70.537753301493765
 21
25.99999999999962
 31
0.0
  0
LINE
  5
1608
  8
0
 62
     0
 10
-84.999999999999474
 20
11.53775330149392
 30
0.0
 11
-81.999999999999488
 21
14.537753301493931
 31
0.0
  0
LINE
  5
1609
  8
0
 62
     0
 10
-76.660285316627423
 20
20.99999999999962
 30
0.0
 11
-71.660285316627423
 21
25.99999999999962
 31
0.0
  0
LINE
  5
160A
  8
0
 62
     0
 10
-84.999999999999474
 20
12.66028531662756
 30
0.0
 11
-81.999999999999488
 21
15.66028531662757
 31
0.0
  0
LINE
  5
160B
  8
0
 62
     0
 10
-77.78281733176108
 20
20.99999999999962
 30
0.0
 11
-72.78281733176108
 21
25.99999999999962
 31
0.0
  0
LINE
  5
160C
  8
0
 62
     0
 10
-84.999999999999474
 20
13.78281733176121
 30
0.0
 11
-81.999999999999488
 21
16.782817331761208
 31
0.0
  0
LINE
  5
160D
  8
0
 62
     0
 10
-78.905349346894724
 20
20.99999999999962
 30
0.0
 11
-73.905349346894724
 21
25.99999999999962
 31
0.0
  0
LINE
  5
160E
  8
0
 62
     0
 10
-84.999999999999474
 20
14.90534934689485
 30
0.0
 11
-81.999999999999488
 21
17.905349346894859
 31
0.0
  0
LINE
  5
160F
  8
0
 62
     0
 10
-80.027881362028353
 20
20.99999999999962
 30
0.0
 11
-75.027881362028367
 21
25.999999999999609
 31
0.0
  0
LINE
  5
1610
  8
0
 62
     0
 10
-84.999999999999474
 20
16.027881362028499
 30
0.0
 11
-81.999999999999488
 21
19.027881362028499
 31
0.0
  0
LINE
  5
1611
  8
0
 62
     0
 10
-81.15041337716201
 20
20.99999999999962
 30
0.0
 11
-76.15041337716201
 21
25.999999999999609
 31
0.0
  0
LINE
  5
1612
  8
0
 62
     0
 10
-84.999999999999474
 20
17.150413377162138
 30
0.0
 11
-81.999999999999488
 21
20.150413377162149
 31
0.0
  0
LINE
  5
1613
  8
0
 62
     0
 10
-84.999999999999474
 20
18.272945392295789
 30
0.0
 11
-77.272945392295668
 21
25.999999999999609
 31
0.0
  0
LINE
  5
1614
  8
0
 62
     0
 10
-84.999999999999474
 20
19.395477407429428
 30
0.0
 11
-78.395477407429297
 21
25.99999999999962
 31
0.0
  0
LINE
  5
1615
  8
0
 62
     0
 10
-84.999999999999474
 20
20.518009422563079
 30
0.0
 11
-79.51800942256294
 21
25.999999999999609
 31
0.0
  0
LINE
  5
1616
  8
0
 62
     0
 10
-84.999999999999474
 20
21.640541437696719
 30
0.0
 11
-80.640541437696584
 21
25.999999999999609
 31
0.0
  0
LINE
  5
1617
  8
0
 62
     0
 10
-84.999999999999474
 20
22.763073452830358
 30
0.0
 11
-81.763073452830241
 21
25.99999999999962
 31
0.0
  0
LINE
  5
1618
  8
0
 62
     0
 10
-84.999999999999474
 20
23.885605467964009
 30
0.0
 11
-82.885605467963885
 21
25.999999999999609
 31
0.0
  0
LINE
  5
1619
  8
0
 62
     0
 10
-84.999999999999474
 20
25.008137483097659
 30
0.0
 11
-84.008137483097514
 21
25.99999999999962
 31
0.0
  0
LINE
  5
161A
  8
0
 62
     0
 10
-84.999999999999474
 20
12.03541901631265
 30
0.0
 11
-83.964580983686446
 21
10.99999999999962
 31
0.0
  0
LINE
  5
161B
  8
0
 62
     0
 10
-84.999999999999474
 20
13.15795103144629
 30
0.0
 11
-82.842048968552817
 21
10.999999999999609
 31
0.0
  0
LINE
  5
161C
  8
0
 62
     0
 10
-84.999999999999474
 20
14.28048304657994
 30
0.0
 11
-81.999999999999488
 21
11.28048304657993
 31
0.0
  0
LINE
  5
161D
  8
0
 62
     0
 10
-84.999999999999474
 20
15.40301506171358
 30
0.0
 11
-81.999999999999488
 21
12.403015061713569
 31
0.0
  0
LINE
  5
161E
  8
0
 62
     0
 10
-84.999999999999474
 20
16.525547076847221
 30
0.0
 11
-81.999999999999488
 21
13.52554707684722
 31
0.0
  0
LINE
  5
161F
  8
0
 62
     0
 10
-84.999999999999474
 20
17.648079091980868
 30
0.0
 11
-81.999999999999488
 21
14.64807909198087
 31
0.0
  0
LINE
  5
1620
  8
0
 62
     0
 10
-84.999999999999474
 20
18.770611107114512
 30
0.0
 11
-81.999999999999488
 21
15.770611107114499
 31
0.0
  0
LINE
  5
1621
  8
0
 62
     0
 10
-84.999999999999474
 20
19.893143122248151
 30
0.0
 11
-81.999999999999488
 21
16.893143122248151
 31
0.0
  0
LINE
  5
1622
  8
0
 62
     0
 10
-84.999999999999474
 20
21.015675137381798
 30
0.0
 11
-81.999999999999488
 21
18.015675137381798
 31
0.0
  0
LINE
  5
1623
  8
0
 62
     0
 10
-84.999999999999474
 20
22.138207152515449
 30
0.0
 11
-81.999999999999488
 21
19.138207152515442
 31
0.0
  0
LINE
  5
1624
  8
0
 62
     0
 10
-84.999999999999474
 20
23.260739167649099
 30
0.0
 11
-81.999999999999488
 21
20.260739167649088
 31
0.0
  0
LINE
  5
1625
  8
0
 62
     0
 10
-71.999999999999488
 20
11.38327118278273
 30
0.0
 11
-71.616728817216369
 21
10.999999999999609
 31
0.0
  0
LINE
  5
1626
  8
0
 62
     0
 10
-84.999999999999474
 20
24.383271182782732
 30
0.0
 11
-81.616728817216369
 21
20.99999999999962
 31
0.0
  0
LINE
  5
1627
  8
0
 62
     0
 10
-71.999999999999488
 20
12.50580319791637
 30
0.0
 11
-70.49419680208274
 21
10.99999999999962
 31
0.0
  0
LINE
  5
1628
  8
0
 62
     0
 10
-84.999999999999474
 20
25.505803197916389
 30
0.0
 11
-80.494196802082726
 21
20.99999999999962
 31
0.0
  0
LINE
  5
1629
  8
0
 62
     0
 10
-71.999999999999488
 20
13.62833521305002
 30
0.0
 11
-69.371664786949097
 21
10.99999999999962
 31
0.0
  0
LINE
  5
162A
  8
0
 62
     0
 10
-84.371664786949083
 20
25.999999999999609
 30
0.0
 11
-79.371664786949083
 21
20.999999999999609
 31
0.0
  0
LINE
  5
162B
  8
0
 62
     0
 10
-71.999999999999488
 20
14.75086722818366
 30
0.0
 11
-68.999999999999474
 21
11.750867228183649
 31
0.0
  0
LINE
  5
162C
  8
0
 62
     0
 10
-83.249132771815425
 20
25.999999999999609
 30
0.0
 11
-78.249132771815454
 21
20.99999999999962
 31
0.0
  0
LINE
  5
162D
  8
0
 62
     0
 10
-71.999999999999488
 20
15.8733992433173
 30
0.0
 11
-68.999999999999474
 21
12.8733992433173
 31
0.0
  0
LINE
  5
162E
  8
0
 62
     0
 10
-82.126600756681796
 20
25.99999999999962
 30
0.0
 11
-77.126600756681796
 21
20.99999999999962
 31
0.0
  0
LINE
  5
162F
  8
0
 62
     0
 10
-71.999999999999488
 20
16.995931258450948
 30
0.0
 11
-68.999999999999474
 21
13.99593125845095
 31
0.0
  0
LINE
  5
1630
  8
0
 62
     0
 10
-81.004068741548153
 20
25.99999999999962
 30
0.0
 11
-76.004068741548153
 21
20.99999999999962
 31
0.0
  0
LINE
  5
1631
  8
0
 62
     0
 10
-71.999999999999488
 20
18.118463273584592
 30
0.0
 11
-68.999999999999474
 21
15.11846327358459
 31
0.0
  0
LINE
  5
1632
  8
0
 62
     0
 10
-79.88153672641451
 20
25.999999999999609
 30
0.0
 11
-74.88153672641451
 21
20.999999999999609
 31
0.0
  0
LINE
  5
1633
  8
0
 62
     0
 10
-71.999999999999488
 20
19.240995288718231
 30
0.0
 11
-68.999999999999474
 21
16.240995288718231
 31
0.0
  0
LINE
  5
1634
  8
0
 62
     0
 10
-78.759004711280866
 20
25.999999999999609
 30
0.0
 11
-73.759004711280866
 21
20.99999999999962
 31
0.0
  0
LINE
  5
1635
  8
0
 62
     0
 10
-71.999999999999488
 20
20.363527303851878
 30
0.0
 11
-68.999999999999474
 21
17.363527303851878
 31
0.0
  0
LINE
  5
1636
  8
0
 62
     0
 10
-77.636472696147223
 20
25.99999999999962
 30
0.0
 11
-72.636472696147223
 21
20.99999999999962
 31
0.0
  0
LINE
  5
1637
  8
0
 62
     0
 10
-76.51394068101358
 20
25.99999999999962
 30
0.0
 11
-68.999999999999474
 21
18.486059318985522
 31
0.0
  0
LINE
  5
1638
  8
0
 62
     0
 10
-75.391408665879936
 20
25.999999999999609
 30
0.0
 11
-68.999999999999474
 21
19.608591334119161
 31
0.0
  0
LINE
  5
1639
  8
0
 62
     0
 10
-74.268876650746293
 20
25.99999999999962
 30
0.0
 11
-68.999999999999474
 21
20.731123349252819
 31
0.0
  0
LINE
  5
163A
  8
0
 62
     0
 10
-73.14634463561265
 20
25.99999999999962
 30
0.0
 11
-68.999999999999474
 21
21.853655364386459
 31
0.0
  0
LINE
  5
163B
  8
0
 62
     0
 10
-72.023812620478992
 20
25.99999999999962
 30
0.0
 11
-68.999999999999474
 21
22.976187379520098
 31
0.0
  0
LINE
  5
163C
  8
0
 62
     0
 10
-70.901280605345363
 20
25.99999999999962
 30
0.0
 11
-68.999999999999474
 21
24.098719394653749
 31
0.0
  0
LINE
  5
163D
  8
0
 62
     0
 10
-69.77874859021172
 20
25.99999999999962
 30
0.0
 11
-68.999999999999474
 21
25.221251409787389
 31
0.0
  0
ENDBLK
  5
163F
  8
0
  0
BLOCK
  8
0
  2
*X55
 70
     1
 10
0.0
 20
0.0
 30
0.0
  3
*X55
  1

  0
LINE
  5
1658
  8
0
 62
     0
 10
-68.999999999999474
 20
-11.82230508962288
 30
0.0
 11
-69.822305089622773
 21
-10.999999999999581
 31
0.0
  0
LINE
  5
1659
  8
0
 62
     0
 10
-68.999999999999474
 20
-12.94483710475652
 30
0.0
 11
-70.944837104756431
 21
-10.999999999999581
 31
0.0
  0
LINE
  5
165A
  8
0
 62
     0
 10
-68.999999999999474
 20
-14.06736911989017
 30
0.0
 11
-71.999999999999488
 21
-11.06736911989017
 31
0.0
  0
LINE
  5
165B
  8
0
 62
     0
 10
-68.999999999999474
 20
-15.18990113502382
 30
0.0
 11
-71.999999999999488
 21
-12.18990113502381
 31
0.0
  0
LINE
  5
165C
  8
0
 62
     0
 10
-68.999999999999474
 20
-16.31243315015746
 30
0.0
 11
-71.999999999999488
 21
-13.31243315015746
 31
0.0
  0
LINE
  5
165D
  8
0
 62
     0
 10
-68.999999999999474
 20
-17.4349651652911
 30
0.0
 11
-71.999999999999488
 21
-14.4349651652911
 31
0.0
  0
LINE
  5
165E
  8
0
 62
     0
 10
-68.999999999999474
 20
-18.55749718042474
 30
0.0
 11
-71.999999999999488
 21
-15.55749718042475
 31
0.0
  0
LINE
  5
165F
  8
0
 62
     0
 10
-68.999999999999474
 20
-19.68002919555839
 30
0.0
 11
-71.999999999999488
 21
-16.68002919555839
 31
0.0
  0
LINE
  5
1660
  8
0
 62
     0
 10
-68.999999999999474
 20
-20.80256121069203
 30
0.0
 11
-71.999999999999488
 21
-17.802561210692041
 31
0.0
  0
LINE
  5
1661
  8
0
 62
     0
 10
-68.999999999999474
 20
-21.92509322582568
 30
0.0
 11
-71.999999999999488
 21
-18.92509322582568
 31
0.0
  0
LINE
  5
1662
  8
0
 62
     0
 10
-68.999999999999474
 20
-23.04762524095932
 30
0.0
 11
-71.999999999999488
 21
-20.04762524095932
 31
0.0
  0
LINE
  5
1663
  8
0
 62
     0
 10
-81.999999999999488
 20
-11.17015725609297
 30
0.0
 11
-82.170157256092864
 21
-10.99999999999959
 31
0.0
  0
LINE
  5
1664
  8
0
 62
     0
 10
-68.999999999999474
 20
-24.17015725609296
 30
0.0
 11
-72.190755116731424
 21
-20.979402139361021
 31
0.0
  0
LINE
  5
1665
  8
0
 62
     0
 10
-81.999999999999488
 20
-12.29268927122661
 30
0.0
 11
-83.292689271226536
 21
-10.999999999999581
 31
0.0
  0
LINE
  5
1666
  8
0
 62
     0
 10
-68.999999999999474
 20
-25.29268927122661
 30
0.0
 11
-73.292689271226521
 21
-20.999999999999581
 31
0.0
  0
LINE
  5
1667
  8
0
 62
     0
 10
-81.999999999999488
 20
-13.41522128636025
 30
0.0
 11
-84.415221286360136
 21
-10.999999999999581
 31
0.0
  0
LINE
  5
1668
  8
0
 62
     0
 10
-69.415221286360151
 20
-25.999999999999599
 30
0.0
 11
-74.415221286360165
 21
-20.999999999999581
 31
0.0
  0
LINE
  5
1669
  8
0
 62
     0
 10
-81.999999999999488
 20
-14.53775330149389
 30
0.0
 11
-84.999999999999474
 21
-11.5377533014939
 31
0.0
  0
LINE
  5
166A
  8
0
 62
     0
 10
-70.537753301493794
 20
-25.999999999999591
 30
0.0
 11
-75.537753301493808
 21
-20.999999999999581
 31
0.0
  0
LINE
  5
166B
  8
0
 62
     0
 10
-81.999999999999488
 20
-15.66028531662754
 30
0.0
 11
-84.999999999999474
 21
-12.66028531662754
 31
0.0
  0
LINE
  5
166C
  8
0
 62
     0
 10
-71.660285316627423
 20
-25.999999999999591
 30
0.0
 11
-76.660285316627451
 21
-20.999999999999581
 31
0.0
  0
LINE
  5
166D
  8
0
 62
     0
 10
-81.999999999999488
 20
-16.782817331761191
 30
0.0
 11
-84.999999999999474
 21
-13.782817331761191
 31
0.0
  0
LINE
  5
166E
  8
0
 62
     0
 10
-72.782817331761095
 20
-25.999999999999591
 30
0.0
 11
-77.782817331761095
 21
-20.999999999999581
 31
0.0
  0
LINE
  5
166F
  8
0
 62
     0
 10
-81.999999999999488
 20
-17.90534934689482
 30
0.0
 11
-84.999999999999474
 21
-14.90534934689483
 31
0.0
  0
LINE
  5
1670
  8
0
 62
     0
 10
-73.905349346894724
 20
-25.999999999999599
 30
0.0
 11
-78.905349346894724
 21
-20.999999999999591
 31
0.0
  0
LINE
  5
1671
  8
0
 62
     0
 10
-81.999999999999488
 20
-19.02788136202847
 30
0.0
 11
-84.999999999999474
 21
-16.02788136202847
 31
0.0
  0
LINE
  5
1672
  8
0
 62
     0
 10
-75.027881362028381
 20
-25.999999999999591
 30
0.0
 11
-80.027881362028381
 21
-20.999999999999591
 31
0.0
  0
LINE
  5
1673
  8
0
 62
     0
 10
-81.999999999999488
 20
-20.15041337716211
 30
0.0
 11
-84.999999999999474
 21
-17.15041337716211
 31
0.0
  0
LINE
  5
1674
  8
0
 62
     0
 10
-76.150413377162025
 20
-25.999999999999581
 30
0.0
 11
-81.15041337716201
 21
-20.999999999999591
 31
0.0
  0
LINE
  5
1675
  8
0
 62
     0
 10
-77.272945392295668
 20
-25.999999999999591
 30
0.0
 11
-84.999999999999474
 21
-18.27294539229576
 31
0.0
  0
LINE
  5
1676
  8
0
 62
     0
 10
-78.395477407429311
 20
-25.999999999999581
 30
0.0
 11
-84.999999999999474
 21
-19.3954774074294
 31
0.0
  0
LINE
  5
1677
  8
0
 62
     0
 10
-79.518009422562955
 20
-25.999999999999591
 30
0.0
 11
-84.999999999999474
 21
-20.51800942256305
 31
0.0
  0
LINE
  5
1678
  8
0
 62
     0
 10
-80.640541437696584
 20
-25.999999999999581
 30
0.0
 11
-84.999999999999474
 21
-21.640541437696701
 31
0.0
  0
LINE
  5
1679
  8
0
 62
     0
 10
-81.763073452830241
 20
-25.999999999999591
 30
0.0
 11
-84.999999999999474
 21
-22.763073452830341
 31
0.0
  0
LINE
  5
167A
  8
0
 62
     0
 10
-82.885605467963885
 20
-25.999999999999591
 30
0.0
 11
-84.999999999999474
 21
-23.885605467963991
 31
0.0
  0
LINE
  5
167B
  8
0
 62
     0
 10
-84.008137483097528
 20
-25.999999999999591
 30
0.0
 11
-84.999999999999474
 21
-25.008137483097631
 31
0.0
  0
LINE
  5
167C
  8
0
 62
     0
 10
-69.77874859021172
 20
-25.999999999999591
 30
0.0
 11
-68.999999999999474
 21
-25.221251409787349
 31
0.0
  0
LINE
  5
167D
  8
0
 62
     0
 10
-70.901280605345363
 20
-25.999999999999591
 30
0.0
 11
-68.999999999999474
 21
-24.09871939465371
 31
0.0
  0
LINE
  5
167E
  8
0
 62
     0
 10
-72.023812620479021
 20
-25.999999999999599
 30
0.0
 11
-68.999999999999474
 21
-22.976187379520059
 31
0.0
  0
LINE
  5
167F
  8
0
 62
     0
 10
-73.14634463561265
 20
-25.999999999999591
 30
0.0
 11
-68.999999999999474
 21
-21.85365536438643
 31
0.0
  0
LINE
  5
1680
  8
0
 62
     0
 10
-74.268876650746293
 20
-25.999999999999591
 30
0.0
 11
-68.999999999999474
 21
-20.73112334925278
 31
0.0
  0
LINE
  5
1681
  8
0
 62
     0
 10
-75.391408665879936
 20
-25.999999999999591
 30
0.0
 11
-68.999999999999474
 21
-19.608591334119129
 31
0.0
  0
LINE
  5
1682
  8
0
 62
     0
 10
-76.513940681013565
 20
-25.999999999999581
 30
0.0
 11
-68.999999999999474
 21
-18.48605931898549
 31
0.0
  0
LINE
  5
1683
  8
0
 62
     0
 10
-71.999999999999488
 20
-20.36352730385185
 30
0.0
 11
-68.999999999999474
 21
-17.363527303851839
 31
0.0
  0
LINE
  5
1684
  8
0
 62
     0
 10
-77.636472696147223
 20
-25.999999999999581
 30
0.0
 11
-72.636472696147223
 21
-20.999999999999599
 31
0.0
  0
LINE
  5
1685
  8
0
 62
     0
 10
-71.999999999999488
 20
-19.240995288718199
 30
0.0
 11
-68.999999999999474
 21
-16.24099528871821
 31
0.0
  0
LINE
  5
1686
  8
0
 62
     0
 10
-78.759004711280866
 20
-25.999999999999591
 30
0.0
 11
-73.759004711280866
 21
-20.999999999999591
 31
0.0
  0
LINE
  5
1687
  8
0
 62
     0
 10
-71.999999999999488
 20
-18.11846327358456
 30
0.0
 11
-68.999999999999474
 21
-15.11846327358456
 31
0.0
  0
LINE
  5
1688
  8
0
 62
     0
 10
-79.88153672641451
 20
-25.999999999999581
 30
0.0
 11
-74.88153672641451
 21
-20.999999999999591
 31
0.0
  0
LINE
  5
1689
  8
0
 62
     0
 10
-71.999999999999488
 20
-16.995931258450909
 30
0.0
 11
-68.999999999999474
 21
-13.995931258450909
 31
0.0
  0
LINE
  5
168A
  8
0
 62
     0
 10
-81.004068741548167
 20
-25.999999999999591
 30
0.0
 11
-76.004068741548153
 21
-20.999999999999591
 31
0.0
  0
LINE
  5
168B
  8
0
 62
     0
 10
-71.999999999999488
 20
-15.873399243317269
 30
0.0
 11
-68.999999999999474
 21
-12.873399243317261
 31
0.0
  0
LINE
  5
168C
  8
0
 62
     0
 10
-82.126600756681796
 20
-25.999999999999581
 30
0.0
 11
-77.12660075668181
 21
-20.999999999999599
 31
0.0
  0
LINE
  5
168D
  8
0
 62
     0
 10
-71.999999999999488
 20
-14.75086722818363
 30
0.0
 11
-68.999999999999474
 21
-11.75086722818363
 31
0.0
  0
LINE
  5
168E
  8
0
 62
     0
 10
-83.249132771815425
 20
-25.999999999999591
 30
0.0
 11
-78.249132771815425
 21
-20.999999999999591
 31
0.0
  0
LINE
  5
168F
  8
0
 62
     0
 10
-71.999999999999488
 20
-13.628335213049979
 30
0.0
 11
-69.371664786949097
 21
-10.99999999999959
 31
0.0
  0
LINE
  5
1690
  8
0
 62
     0
 10
-84.371664786949083
 20
-25.999999999999591
 30
0.0
 11
-79.371664786949083
 21
-20.999999999999591
 31
0.0
  0
LINE
  5
1691
  8
0
 62
     0
 10
-71.999999999999488
 20
-12.50580319791634
 30
0.0
 11
-70.494196802082726
 21
-10.999999999999581
 31
0.0
  0
LINE
  5
1692
  8
0
 62
     0
 10
-84.999999999999474
 20
-25.505803197916329
 30
0.0
 11
-80.494196802082726
 21
-20.999999999999581
 31
0.0
  0
LINE
  5
1693
  8
0
 62
     0
 10
-71.999999999999488
 20
-11.383271182782689
 30
0.0
 11
-71.616728817216384
 21
-10.99999999999959
 31
0.0
  0
LINE
  5
1694
  8
0
 62
     0
 10
-84.999999999999474
 20
-24.383271182782689
 30
0.0
 11
-81.616728817216384
 21
-20.999999999999591
 31
0.0
  0
LINE
  5
1695
  8
0
 62
     0
 10
-84.999999999999474
 20
-23.260739167649039
 30
0.0
 11
-81.999999999999474
 21
-20.260739167649039
 31
0.0
  0
LINE
  5
1696
  8
0
 62
     0
 10
-84.999999999999474
 20
-22.13820715251541
 30
0.0
 11
-81.999999999999474
 21
-19.138207152515399
 31
0.0
  0
LINE
  5
1697
  8
0
 62
     0
 10
-84.999999999999474
 20
-21.01567513738177
 30
0.0
 11
-81.999999999999474
 21
-18.015675137381759
 31
0.0
  0
LINE
  5
1698
  8
0
 62
     0
 10
-84.999999999999474
 20
-19.893143122248109
 30
0.0
 11
-81.999999999999488
 21
-16.893143122248109
 31
0.0
  0
LINE
  5
1699
  8
0
 62
     0
 10
-84.999999999999474
 20
-18.770611107114469
 30
0.0
 11
-81.999999999999474
 21
-15.77061110711446
 31
0.0
  0
LINE
  5
169A
  8
0
 62
     0
 10
-84.999999999999474
 20
-17.648079091980829
 30
0.0
 11
-81.999999999999488
 21
-14.64807909198082
 31
0.0
  0
LINE
  5
169B
  8
0
 62
     0
 10
-84.999999999999474
 20
-16.525547076847189
 30
0.0
 11
-81.999999999999488
 21
-13.525547076847181
 31
0.0
  0
LINE
  5
169C
  8
0
 62
     0
 10
-84.999999999999474
 20
-15.403015061713541
 30
0.0
 11
-81.999999999999488
 21
-12.403015061713541
 31
0.0
  0
LINE
  5
169D
  8
0
 62
     0
 10
-84.999999999999474
 20
-14.28048304657989
 30
0.0
 11
-81.999999999999474
 21
-11.28048304657989
 31
0.0
  0
LINE
  5
169E
  8
0
 62
     0
 10
-84.999999999999474
 20
-13.157951031446251
 30
0.0
 11
-82.842048968552817
 21
-10.99999999999959
 31
0.0
  0
LINE
  5
169F
  8
0
 62
     0
 10
-84.999999999999474
 20
-12.035419016312609
 30
0.0
 11
-83.964580983686446
 21
-10.999999999999581
 31
0.0
  0
ENDBLK
  5
16A1
  8
0
  0
BLOCK
  8
0
  2
*X56
 70
     1
 10
0.0
 20
0.0
 30
0.0
  3
*X56
  1

  0
LINE
  5
16A3
  8
0
 62
     0
 10
-82.842048968552845
 20
-10.99999999999959
 30
0.0
 11
-82.268604319907766
 21
-10.42655535135453
 31
0.0
  0
LINE
  5
16A4
  8
0
 62
     0
 10
-83.964580983686474
 20
-10.99999999999959
 30
0.0
 11
-82.626679633530287
 21
-9.6620986498434078
 31
0.0
  0
LINE
  5
16A5
  8
0
 62
     0
 10
-85.087112998820118
 20
-10.99999999999959
 30
0.0
 11
-82.984754947152808
 21
-8.8976419483322928
 31
0.0
  0
LINE
  5
16A6
  8
0
 62
     0
 10
-86.209645013953775
 20
-10.99999999999959
 30
0.0
 11
-83.336835093179346
 21
-8.1271900792251657
 31
0.0
  0
LINE
  5
16A7
  8
0
 62
     0
 10
-87.332177029087404
 20
-10.99999999999959
 30
0.0
 11
-83.480851431326869
 21
-7.1486744022390587
 31
0.0
  0
LINE
  5
16A8
  8
0
 62
     0
 10
-88.454709044221048
 20
-10.99999999999959
 30
0.0
 11
-83.608078425012849
 21
-6.1533693807913892
 31
0.0
  0
LINE
  5
16A9
  8
0
 62
     0
 10
-89.577241059354691
 20
-10.99999999999959
 30
0.0
 11
-83.717753624730634
 21
-5.140512565375551
 31
0.0
  0
LINE
  5
16AA
  8
0
 62
     0
 10
-90.699773074488348
 20
-10.99999999999959
 30
0.0
 11
-83.809033905067366
 21
-4.1092608305785978
 31
0.0
  0
LINE
  5
16AB
  8
0
 62
     0
 10
-90.878355234427843
 20
-10.05605014480544
 30
0.0
 11
-83.880983411262974
 21
-3.0586783216405702
 31
0.0
  0
LINE
  5
16AC
  8
0
 62
     0
 10
-90.732291822953016
 20
-8.7874547181969689
 30
0.0
 11
-83.932559043850006
 21
-1.987721939093972
 31
0.0
  0
LINE
  5
16AD
  8
0
 62
     0
 10
-90.608114084887717
 20
-7.5407449649980256
 30
0.0
 11
-83.962592836604827
 21
-0.8952237167151366
 31
0.0
  0
LINE
  5
16AE
  8
0
 62
     0
 10
-90.504634808258771
 20
-6.3147336732354509
 30
0.0
 11
-83.969770372940985
 21
0.2201307620823414
 31
0.0
  0
LINE
  5
16AF
  8
0
 62
     0
 10
-90.420783311129199
 20
-5.108350160972229
 30
0.0
 11
-83.952604092485416
 21
1.3598290576715391
 31
0.0
  0
LINE
  5
16B0
  8
0
 62
     0
 10
-90.355590029998993
 20
-3.9206248647083788
 30
0.0
 11
-83.909399923342647
 21
2.5255652419479651
 31
0.0
  0
LINE
  5
16B1
  8
0
 62
     0
 10
-90.30817364516696
 20
-2.7506764647426958
 30
0.0
 11
-83.838215074652993
 21
3.719282105771256
 31
0.0
  0
LINE
  5
16B2
  8
0
 62
     0
 10
-90.277730249891306
 20
-1.5977010543334129
 30
0.0
 11
-83.736803939670963
 21
4.9432252558869294
 31
0.0
  0
LINE
  5
16B3
  8
0
 62
     0
 10
-90.263524179726573
 20
-0.4609629690350232
 30
0.0
 11
-83.602547729772894
 21
6.2000134809186198
 31
0.0
  0
LINE
  5
16B4
  8
0
 62
     0
 10
-90.264880200789264
 20
0.6602130250359153
 30
0.0
 11
-83.432361411598677
 21
7.4927318142265094
 31
0.0
  0
LINE
  5
16B5
  8
0
 62
     0
 10
-90.281176818311295
 20
1.7664484226475421
 30
0.0
 11
-82.839167099414425
 21
9.2084581415444262
 31
0.0
  0
LINE
  5
16B6
  8
0
 62
     0
 10
-90.311840514887976
 20
2.8583167412045039
 30
0.0
 11
-82.170157256092864
 21
10.999999999999609
 31
0.0
  0
LINE
  5
16B7
  8
0
 62
     0
 10
-90.35634076504283
 20
3.9363485061832928
 30
0.0
 11
-83.292689271226493
 21
10.99999999999962
 31
0.0
  0
LINE
  5
16B8
  8
0
 62
     0
 10
-90.41418570179917
 20
5.0010355845606043
 30
0.0
 11
-84.415221286360136
 21
10.99999999999962
 31
0.0
  0
LINE
  5
16B9
  8
0
 62
     0
 10
-90.484918333837257
 20
6.0528349676561604
 30
0.0
 11
-85.537753301493765
 21
10.99999999999962
 31
0.0
  0
LINE
  5
16BA
  8
0
 62
     0
 10
-90.568113229971289
 20
7.092172086655764
 30
0.0
 11
-86.660285316627437
 21
10.99999999999962
 31
0.0
  0
LINE
  5
16BB
  8
0
 62
     0
 10
-90.663373602184535
 20
8.1194437295761688
 30
0.0
 11
-87.782817331761095
 21
10.999999999999609
 31
0.0
  0
LINE
  5
16BC
  8
0
 62
     0
 10
-90.770328730123055
 20
9.1350206167712713
 30
0.0
 11
-88.905349346894724
 21
10.999999999999609
 31
0.0
  0
LINE
  5
16BD
  8
0
 62
     0
 10
-90.888631679385782
 20
10.1392496826422
 30
0.0
 11
-90.027881362028381
 21
10.999999999999609
 31
0.0
  0
LINE
  5
16BE
  8
0
 62
     0
 10
-90.888631679385782
 20
-10.13924968264217
 30
0.0
 11
-90.027881362028353
 21
-10.999999999999581
 31
0.0
  0
LINE
  5
16BF
  8
0
 62
     0
 10
-90.770328730123055
 20
-9.1350206167712429
 30
0.0
 11
-88.905349346894724
 21
-10.999999999999581
 31
0.0
  0
LINE
  5
16C0
  8
0
 62
     0
 10
-90.663373602184535
 20
-8.1194437295761404
 30
0.0
 11
-87.78281733176108
 21
-10.99999999999959
 31
0.0
  0
LINE
  5
16C1
  8
0
 62
     0
 10
-90.568113229971289
 20
-7.0921720866557294
 30
0.0
 11
-86.660285316627437
 21
-10.999999999999581
 31
0.0
  0
LINE
  5
16C2
  8
0
 62
     0
 10
-90.484918333837243
 20
-6.0528349676561239
 30
0.0
 11
-85.537753301493794
 21
-10.99999999999959
 31
0.0
  0
LINE
  5
16C3
  8
0
 62
     0
 10
-90.41418570179917
 20
-5.0010355845605536
 30
0.0
 11
-84.415221286360136
 21
-10.999999999999581
 31
0.0
  0
LINE
  5
16C4
  8
0
 62
     0
 10
-90.35634076504283
 20
-3.9363485061832502
 30
0.0
 11
-83.292689271226507
 21
-10.99999999999959
 31
0.0
  0
LINE
  5
16C5
  8
0
 62
     0
 10
-90.311840514887976
 20
-2.8583167412044612
 30
0.0
 11
-82.170157256092864
 21
-10.999999999999581
 31
0.0
  0
LINE
  5
16C6
  8
0
 62
     0
 10
-90.281176818311309
 20
-1.7664484226474919
 30
0.0
 11
-82.839167099411526
 21
-9.2084581415472755
 31
0.0
  0
LINE
  5
16C7
  8
0
 62
     0
 10
-90.264880200789293
 20
-0.6602130250358657
 30
0.0
 11
-83.432361411598677
 21
-7.4927318142264587
 31
0.0
  0
LINE
  5
16C8
  8
0
 62
     0
 10
-90.263524179726573
 20
0.4609629690350872
 30
0.0
 11
-83.602547729772937
 21
-6.2000134809185781
 31
0.0
  0
LINE
  5
16C9
  8
0
 62
     0
 10
-90.27773024989132
 20
1.597701054333462
 30
0.0
 11
-83.736803939670963
 21
-4.9432252558868788
 31
0.0
  0
LINE
  5
16CA
  8
0
 62
     0
 10
-90.308173645166974
 20
2.7506764647427602
 30
0.0
 11
-83.838215074653021
 21
-3.7192821057711991
 31
0.0
  0
LINE
  5
16CB
  8
0
 62
     0
 10
-90.355590029999036
 20
3.9206248647084569
 30
0.0
 11
-83.909399923342647
 21
-2.5255652419479229
 31
0.0
  0
LINE
  5
16CC
  8
0
 62
     0
 10
-90.420783311129227
 20
5.1083501609723001
 30
0.0
 11
-83.952604092485444
 21
-1.35982905767149
 31
0.0
  0
LINE
  5
16CD
  8
0
 62
     0
 10
-90.504634808258814
 20
6.3147336732355219
 30
0.0
 11
-83.969770372940985
 21
-0.2201307620822916
 31
0.0
  0
LINE
  5
16CE
  8
0
 62
     0
 10
-90.608114084887745
 20
7.5407449649981109
 30
0.0
 11
-83.962592836604841
 21
0.8952237167151935
 31
0.0
  0
LINE
  5
16CF
  8
0
 62
     0
 10
-90.732291822953044
 20
8.7874547181970613
 30
0.0
 11
-83.93255904385002
 21
1.987721939094022
 31
0.0
  0
LINE
  5
16D0
  8
0
 62
     0
 10
-90.878355234427886
 20
10.05605014480553
 30
0.0
 11
-83.880983411262974
 21
3.0586783216406128
 31
0.0
  0
LINE
  5
16D1
  8
0
 62
     0
 10
-90.69977307448832
 20
10.999999999999609
 30
0.0
 11
-83.809033905067366
 21
4.1092608305786413
 31
0.0
  0
LINE
  5
16D2
  8
0
 62
     0
 10
-89.577241059354677
 20
10.999999999999609
 30
0.0
 11
-83.717753624730634
 21
5.1405125653755803
 31
0.0
  0
LINE
  5
16D3
  8
0
 62
     0
 10
-88.454709044221033
 20
10.99999999999962
 30
0.0
 11
-83.608078425012849
 21
6.1533693807914309
 31
0.0
  0
LINE
  5
16D4
  8
0
 62
     0
 10
-87.332177029087376
 20
10.999999999999609
 30
0.0
 11
-83.480851431326869
 21
7.1486744022390951
 31
0.0
  0
LINE
  5
16D5
  8
0
 62
     0
 10
-86.209645013953747
 20
10.999999999999609
 30
0.0
 11
-83.336835093179346
 21
8.1271900792252083
 31
0.0
  0
LINE
  5
16D6
  8
0
 62
     0
 10
-85.087112998820118
 20
10.99999999999962
 30
0.0
 11
-82.984754947154045
 21
8.8976419483335576
 31
0.0
  0
LINE
  5
16D7
  8
0
 62
     0
 10
-83.964580983686446
 20
10.99999999999962
 30
0.0
 11
-82.626679633531069
 21
9.6620986498442321
 31
0.0
  0
LINE
  5
16D8
  8
0
 62
     0
 10
-82.842048968552817
 20
10.999999999999609
 30
0.0
 11
-82.268604319908107
 21
10.426555351354899
 31
0.0
  0
ENDBLK
  5
16DA
  8
0
  0
BLOCK
  8
0
  2
*X57
 70
     1
 10
0.0
 20
0.0
 30
0.0
  3
*X57
  1

  0
LINE
  5
16DC
  8
0
 62
     0
 10
-82.842048968552845
 20
-10.99999999999959
 30
0.0
 11
-82.268604319907766
 21
-10.42655535135453
 31
0.0
  0
LINE
  5
16DD
  8
0
 62
     0
 10
-83.964580983686474
 20
-10.99999999999959
 30
0.0
 11
-82.626679633530287
 21
-9.6620986498434078
 31
0.0
  0
LINE
  5
16DE
  8
0
 62
     0
 10
-85.087112998820118
 20
-10.99999999999959
 30
0.0
 11
-82.984754947152808
 21
-8.8976419483322928
 31
0.0
  0
LINE
  5
16DF
  8
0
 62
     0
 10
-86.209645013953775
 20
-10.99999999999959
 30
0.0
 11
-83.336835093179346
 21
-8.1271900792251657
 31
0.0
  0
LINE
  5
16E0
  8
0
 62
     0
 10
-87.332177029087404
 20
-10.99999999999959
 30
0.0
 11
-83.480851431326869
 21
-7.1486744022390587
 31
0.0
  0
LINE
  5
16E1
  8
0
 62
     0
 10
-88.454709044221048
 20
-10.99999999999959
 30
0.0
 11
-83.608078425012849
 21
-6.1533693807913892
 31
0.0
  0
LINE
  5
16E2
  8
0
 62
     0
 10
-89.577241059354691
 20
-10.99999999999959
 30
0.0
 11
-83.717753624730634
 21
-5.140512565375551
 31
0.0
  0
LINE
  5
16E3
  8
0
 62
     0
 10
-90.699773074488348
 20
-10.99999999999959
 30
0.0
 11
-83.809033905067366
 21
-4.1092608305785978
 31
0.0
  0
LINE
  5
16E4
  8
0
 62
     0
 10
-90.878355234427843
 20
-10.05605014480544
 30
0.0
 11
-83.880983411262974
 21
-3.0586783216405702
 31
0.0
  0
LINE
  5
16E5
  8
0
 62
     0
 10
-90.732291822953016
 20
-8.7874547181969689
 30
0.0
 11
-83.932559043850006
 21
-1.987721939093972
 31
0.0
  0
LINE
  5
16E6
  8
0
 62
     0
 10
-90.608114084887717
 20
-7.5407449649980256
 30
0.0
 11
-83.962592836604827
 21
-0.8952237167151366
 31
0.0
  0
LINE
  5
16E7
  8
0
 62
     0
 10
-90.504634808258771
 20
-6.3147336732354509
 30
0.0
 11
-83.969770372940985
 21
0.2201307620823414
 31
0.0
  0
LINE
  5
16E8
  8
0
 62
     0
 10
-90.420783311129199
 20
-5.108350160972229
 30
0.0
 11
-83.952604092485416
 21
1.3598290576715391
 31
0.0
  0
LINE
  5
16E9
  8
0
 62
     0
 10
-90.355590029998993
 20
-3.9206248647083788
 30
0.0
 11
-83.909399923342647
 21
2.5255652419479651
 31
0.0
  0
LINE
  5
16EA
  8
0
 62
     0
 10
-90.30817364516696
 20
-2.7506764647426958
 30
0.0
 11
-83.838215074652993
 21
3.719282105771256
 31
0.0
  0
LINE
  5
16EB
  8
0
 62
     0
 10
-90.277730249891306
 20
-1.5977010543334129
 30
0.0
 11
-83.736803939670963
 21
4.9432252558869294
 31
0.0
  0
LINE
  5
16EC
  8
0
 62
     0
 10
-90.263524179726573
 20
-0.4609629690350232
 30
0.0
 11
-83.602547729772894
 21
6.2000134809186198
 31
0.0
  0
LINE
  5
16ED
  8
0
 62
     0
 10
-90.264880200789264
 20
0.6602130250359153
 30
0.0
 11
-83.432361411598677
 21
7.4927318142265094
 31
0.0
  0
LINE
  5
16EE
  8
0
 62
     0
 10
-90.281176818311295
 20
1.7664484226475421
 30
0.0
 11
-82.839167099414425
 21
9.2084581415444262
 31
0.0
  0
LINE
  5
16EF
  8
0
 62
     0
 10
-90.311840514887976
 20
2.8583167412045039
 30
0.0
 11
-82.170157256092864
 21
10.999999999999609
 31
0.0
  0
LINE
  5
16F0
  8
0
 62
     0
 10
-90.35634076504283
 20
3.9363485061832928
 30
0.0
 11
-83.292689271226493
 21
10.99999999999962
 31
0.0
  0
LINE
  5
16F1
  8
0
 62
     0
 10
-90.41418570179917
 20
5.0010355845606043
 30
0.0
 11
-84.415221286360136
 21
10.99999999999962
 31
0.0
  0
LINE
  5
16F2
  8
0
 62
     0
 10
-90.484918333837257
 20
6.0528349676561604
 30
0.0
 11
-85.537753301493765
 21
10.99999999999962
 31
0.0
  0
LINE
  5
16F3
  8
0
 62
     0
 10
-90.568113229971289
 20
7.092172086655764
 30
0.0
 11
-86.660285316627437
 21
10.99999999999962
 31
0.0
  0
LINE
  5
16F4
  8
0
 62
     0
 10
-90.663373602184535
 20
8.1194437295761688
 30
0.0
 11
-87.782817331761095
 21
10.999999999999609
 31
0.0
  0
LINE
  5
16F5
  8
0
 62
     0
 10
-90.770328730123055
 20
9.1350206167712713
 30
0.0
 11
-88.905349346894724
 21
10.999999999999609
 31
0.0
  0
LINE
  5
16F6
  8
0
 62
     0
 10
-90.888631679385782
 20
10.1392496826422
 30
0.0
 11
-90.027881362028381
 21
10.999999999999609
 31
0.0
  0
LINE
  5
16F7
  8
0
 62
     0
 10
-90.888631679385782
 20
-10.13924968264217
 30
0.0
 11
-90.027881362028353
 21
-10.999999999999581
 31
0.0
  0
LINE
  5
16F8
  8
0
 62
     0
 10
-90.770328730123055
 20
-9.1350206167712429
 30
0.0
 11
-88.905349346894724
 21
-10.999999999999581
 31
0.0
  0
LINE
  5
16F9
  8
0
 62
     0
 10
-90.663373602184535
 20
-8.1194437295761404
 30
0.0
 11
-87.78281733176108
 21
-10.99999999999959
 31
0.0
  0
LINE
  5
16FA
  8
0
 62
     0
 10
-90.568113229971289
 20
-7.0921720866557294
 30
0.0
 11
-86.660285316627437
 21
-10.999999999999581
 31
0.0
  0
LINE
  5
16FB
  8
0
 62
     0
 10
-90.484918333837243
 20
-6.0528349676561239
 30
0.0
 11
-85.537753301493794
 21
-10.99999999999959
 31
0.0
  0
LINE
  5
16FC
  8
0
 62
     0
 10
-90.41418570179917
 20
-5.0010355845605536
 30
0.0
 11
-84.415221286360136
 21
-10.999999999999581
 31
0.0
  0
LINE
  5
16FD
  8
0
 62
     0
 10
-90.35634076504283
 20
-3.9363485061832502
 30
0.0
 11
-83.292689271226507
 21
-10.99999999999959
 31
0.0
  0
LINE
  5
16FE
  8
0
 62
     0
 10
-90.311840514887976
 20
-2.8583167412044612
 30
0.0
 11
-82.170157256092864
 21
-10.999999999999581
 31
0.0
  0
LINE
  5
16FF
  8
0
 62
     0
 10
-90.281176818311309
 20
-1.7664484226474919
 30
0.0
 11
-82.839167099411526
 21
-9.2084581415472755
 31
0.0
  0
LINE
  5
1700
  8
0
 62
     0
 10
-90.264880200789293
 20
-0.6602130250358657
 30
0.0
 11
-83.432361411598677
 21
-7.4927318142264587
 31
0.0
  0
LINE
  5
1701
  8
0
 62
     0
 10
-90.263524179726573
 20
0.4609629690350872
 30
0.0
 11
-83.602547729772937
 21
-6.2000134809185781
 31
0.0
  0
LINE
  5
1702
  8
0
 62
     0
 10
-90.27773024989132
 20
1.597701054333462
 30
0.0
 11
-83.736803939670963
 21
-4.9432252558868788
 31
0.0
  0
LINE
  5
1703
  8
0
 62
     0
 10
-90.308173645166974
 20
2.7506764647427602
 30
0.0
 11
-83.838215074653021
 21
-3.7192821057711991
 31
0.0
  0
LINE
  5
1704
  8
0
 62
     0
 10
-90.355590029999036
 20
3.9206248647084569
 30
0.0
 11
-83.909399923342647
 21
-2.5255652419479229
 31
0.0
  0
LINE
  5
1705
  8
0
 62
     0
 10
-90.420783311129227
 20
5.1083501609723001
 30
0.0
 11
-83.952604092485444
 21
-1.35982905767149
 31
0.0
  0
LINE
  5
1706
  8
0
 62
     0
 10
-90.504634808258814
 20
6.3147336732355219
 30
0.0
 11
-83.969770372940985
 21
-0.2201307620822916
 31
0.0
  0
LINE
  5
1707
  8
0
 62
     0
 10
-90.608114084887745
 20
7.5407449649981109
 30
0.0
 11
-83.962592836604841
 21
0.8952237167151935
 31
0.0
  0
LINE
  5
1708
  8
0
 62
     0
 10
-90.732291822953044
 20
8.7874547181970613
 30
0.0
 11
-83.93255904385002
 21
1.987721939094022
 31
0.0
  0
LINE
  5
1709
  8
0
 62
     0
 10
-90.878355234427886
 20
10.05605014480553
 30
0.0
 11
-83.880983411262974
 21
3.0586783216406128
 31
0.0
  0
LINE
  5
170A
  8
0
 62
     0
 10
-90.69977307448832
 20
10.999999999999609
 30
0.0
 11
-83.809033905067366
 21
4.1092608305786413
 31
0.0
  0
LINE
  5
170B
  8
0
 62
     0
 10
-89.577241059354677
 20
10.999999999999609
 30
0.0
 11
-83.717753624730634
 21
5.1405125653755803
 31
0.0
  0
LINE
  5
170C
  8
0
 62
     0
 10
-88.454709044221033
 20
10.99999999999962
 30
0.0
 11
-83.608078425012849
 21
6.1533693807914309
 31
0.0
  0
LINE
  5
170D
  8
0
 62
     0
 10
-87.332177029087376
 20
10.999999999999609
 30
0.0
 11
-83.480851431326869
 21
7.1486744022390951
 31
0.0
  0
LINE
  5
170E
  8
0
 62
     0
 10
-86.209645013953747
 20
10.999999999999609
 30
0.0
 11
-83.336835093179346
 21
8.1271900792252083
 31
0.0
  0
LINE
  5
170F
  8
0
 62
     0
 10
-85.087112998820118
 20
10.99999999999962
 30
0.0
 11
-82.984754947154045
 21
8.8976419483335576
 31
0.0
  0
LINE
  5
1710
  8
0
 62
     0
 10
-83.964580983686446
 20
10.99999999999962
 30
0.0
 11
-82.626679633531069
 21
9.6620986498442321
 31
0.0
  0
LINE
  5
1711
  8
0
 62
     0
 10
-82.842048968552817
 20
10.999999999999609
 30
0.0
 11
-82.268604319908107
 21
10.426555351354899
 31
0.0
  0
ENDBLK
  5
1713
  8
0
  0
BLOCK
  8
0
  2
*X58
 70
     1
 10
0.0
 20
0.0
 30
0.0
  3
*X58
  1

  0
LINE
  5
17A1
  8
0
 62
     0
 10
-36.706147989029731
 20
-23.42580223497048
 30
0.0
 11
-34.643475774863688
 21
-21.36313002080443
 31
0.0
  0
LINE
  5
17A2
  8
0
 62
     0
 10
-37.890567614686361
 20
-23.48768984549346
 30
0.0
 11
-35.096345030720627
 21
-20.69346726152774
 31
0.0
  0
LINE
  5
17A3
  8
0
 62
     0
 10
-38.842667329095732
 20
-23.31725754476922
 30
0.0
 11
-35.781534197824797
 21
-20.256124413498281
 31
0.0
  0
LINE
  5
17A4
  8
0
 62
     0
 10
-39.626003146760262
 20
-22.978061347300109
 30
0.0
 11
-36.635487261673838
 21
-19.987545462213689
 31
0.0
  0
LINE
  5
17A5
  8
0
 62
     0
 10
-40.226655032776307
 20
-22.45618121818255
 30
0.0
 11
-37.672124257171333
 21
-19.901650442577559
 31
0.0
  0
LINE
  5
17A6
  8
0
 62
     0
 10
-40.49567800981729
 20
-21.60267218008984
 30
0.0
 11
-39.040390161644027
 21
-20.14738433191657
 31
0.0
  0
LINE
  5
17A7
  8
0
 62
     0
 10
-34.630667912575291
 20
-21.968526629521989
 30
0.0
 11
-36.605656804935848
 21
-19.993537737161429
 31
0.0
  0
LINE
  5
17A8
  8
0
 62
     0
 10
-35.054277990456292
 20
-22.66744856677462
 30
0.0
 11
-37.814270122581661
 21
-19.907456434649252
 31
0.0
  0
LINE
  5
17A9
  8
0
 62
     0
 10
-35.726133410029441
 20
-23.118125162335101
 30
0.0
 11
-38.779703584521712
 21
-20.064554987842769
 31
0.0
  0
LINE
  5
17AA
  8
0
 62
     0
 10
-36.568165280667927
 20
-23.39862530683035
 30
0.0
 11
-39.574960595396647
 21
-20.391829992101631
 31
0.0
  0
LINE
  5
17AB
  8
0
 62
     0
 10
-37.58952118183629
 20
-23.49980142079562
 30
0.0
 11
-40.190893575741541
 21
-20.898429026890369
 31
0.0
  0
LINE
  5
17AC
  8
0
 62
     0
 10
-38.917768446594103
 20
-23.29408617117144
 30
0.0
 11
-40.499935192496977
 21
-21.711919425268551
 31
0.0
  0
ENDBLK
  5
17AE
  8
0
  0
BLOCK
  8
0
  2
*X59
 70
     1
 10
0.0
 20
0.0
 30
0.0
  3
*X59
  1

  0
LINE
  5
17B0
  8
0
 62
     0
 10
-40.422504033822307
 20
22.109570128551731
 30
0.0
 11
-38.267489994908857
 21
19.954556089638281
 31
0.0
  0
LINE
  5
17B1
  8
0
 62
     0
 10
-39.942633318595171
 20
22.75223142845822
 30
0.0
 11
-37.110071828622452
 21
19.919669938485491
 31
0.0
  0
LINE
  5
17B2
  8
0
 62
     0
 10
-39.241699388857747
 20
23.173829513854439
 30
0.0
 11
-36.173716876846321
 21
20.105847001842999
 31
0.0
  0
LINE
  5
17B3
  8
0
 62
     0
 10
-38.373265649925507
 20
23.427927790055818
 30
0.0
 11
-35.404861734265012
 21
20.45952387439532
 31
0.0
  0
LINE
  5
17B4
  8
0
 62
     0
 10
-37.31742766470007
 20
23.49462181996401
 30
0.0
 11
-34.823410837976908
 21
21.000604993240849
 31
0.0
  0
LINE
  5
17B5
  8
0
 62
     0
 10
-35.89181603394492
 20
23.191542204342479
 30
0.0
 11
-34.61333100838273
 21
21.913057178780289
 31
0.0
  0
LINE
  5
17B6
  8
0
 62
     0
 10
-36.624848162348087
 20
19.989658054542701
 30
0.0
 11
-34.63431398219609
 21
21.980192234694702
 31
0.0
  0
LINE
  5
17B7
  8
0
 62
     0
 10
-37.828754144530308
 20
19.908284087494049
 30
0.0
 11
-35.062127082003542
 21
22.674911150020868
 31
0.0
  0
LINE
  5
17B8
  8
0
 62
     0
 10
-38.791649497959327
 20
20.06792074919872
 30
0.0
 11
-35.73652061008778
 21
23.12304963707021
 31
0.0
  0
LINE
  5
17B9
  8
0
 62
     0
 10
-39.58466098064082
 20
20.39744128165086
 30
0.0
 11
-36.580798008919537
 21
23.401304253372128
 31
0.0
  0
LINE
  5
17BA
  8
0
 62
     0
 10
-40.197750230948543
 20
20.906884046476758
 30
0.0
 11
-37.604997640125077
 21
23.499636637300171
 31
0.0
  0
LINE
  5
17BB
  8
0
 62
     0
 10
-40.499654870843422
 20
21.727511421715569
 30
0.0
 11
-38.940381881743463
 21
23.286784410815471
 31
0.0
  0
ENDBLK
  5
17BD
  8
0
  0
BLOCK
  8
0
  2
*X60
 70
     1
 10
0.0
 20
0.0
 30
0.0
  3
*X60
  1

  0
LINE
  5
1834
  8
0
 62
     0
 10
-36.706147989029731
 20
-23.42580223497048
 30
0.0
 11
-34.643475774863688
 21
-21.36313002080443
 31
0.0
  0
LINE
  5
1835
  8
0
 62
     0
 10
-37.890567614686361
 20
-23.48768984549346
 30
0.0
 11
-35.096345030720627
 21
-20.69346726152774
 31
0.0
  0
LINE
  5
1836
  8
0
 62
     0
 10
-38.842667329095732
 20
-23.31725754476922
 30
0.0
 11
-35.781534197824797
 21
-20.256124413498281
 31
0.0
  0
LINE
  5
1837
  8
0
 62
     0
 10
-39.626003146760262
 20
-22.978061347300109
 30
0.0
 11
-36.635487261673838
 21
-19.987545462213689
 31
0.0
  0
LINE
  5
1838
  8
0
 62
     0
 10
-40.226655032776307
 20
-22.45618121818255
 30
0.0
 11
-37.672124257171333
 21
-19.901650442577559
 31
0.0
  0
LINE
  5
1839
  8
0
 62
     0
 10
-40.49567800981729
 20
-21.60267218008984
 30
0.0
 11
-39.040390161644027
 21
-20.14738433191657
 31
0.0
  0
LINE
  5
183A
  8
0
 62
     0
 10
-34.630667912575291
 20
-21.968526629521989
 30
0.0
 11
-36.605656804935848
 21
-19.993537737161429
 31
0.0
  0
LINE
  5
183B
  8
0
 62
     0
 10
-35.054277990456292
 20
-22.66744856677462
 30
0.0
 11
-37.814270122581661
 21
-19.907456434649252
 31
0.0
  0
LINE
  5
183C
  8
0
 62
     0
 10
-35.726133410029441
 20
-23.118125162335101
 30
0.0
 11
-38.779703584521712
 21
-20.064554987842769
 31
0.0
  0
LINE
  5
183D
  8
0
 62
     0
 10
-36.568165280667927
 20
-23.39862530683035
 30
0.0
 11
-39.574960595396647
 21
-20.391829992101631
 31
0.0
  0
LINE
  5
183E
  8
0
 62
     0
 10
-37.58952118183629
 20
-23.49980142079562
 30
0.0
 11
-40.190893575741541
 21
-20.898429026890369
 31
0.0
  0
LINE
  5
183F
  8
0
 62
     0
 10
-38.917768446594103
 20
-23.29408617117144
 30
0.0
 11
-40.499935192496977
 21
-21.711919425268551
 31
0.0
  0
ENDBLK
  5
1841
  8
0
  0
BLOCK
  8
0
  2
*X61
 70
     1
 10
0.0
 20
0.0
 30
0.0
  3
*X61
  1

  0
LINE
  5
1843
  8
0
 62
     0
 10
-40.422504033822307
 20
22.109570128551731
 30
0.0
 11
-38.267489994908857
 21
19.954556089638281
 31
0.0
  0
LINE
  5
1844
  8
0
 62
     0
 10
-39.942633318595171
 20
22.75223142845822
 30
0.0
 11
-37.110071828622452
 21
19.919669938485491
 31
0.0
  0
LINE
  5
1845
  8
0
 62
     0
 10
-39.241699388857747
 20
23.173829513854439
 30
0.0
 11
-36.173716876846321
 21
20.105847001842999
 31
0.0
  0
LINE
  5
1846
  8
0
 62
     0
 10
-38.373265649925507
 20
23.427927790055818
 30
0.0
 11
-35.404861734265012
 21
20.45952387439532
 31
0.0
  0
LINE
  5
1847
  8
0
 62
     0
 10
-37.31742766470007
 20
23.49462181996401
 30
0.0
 11
-34.823410837976908
 21
21.000604993240849
 31
0.0
  0
LINE
  5
1848
  8
0
 62
     0
 10
-35.89181603394492
 20
23.191542204342479
 30
0.0
 11
-34.61333100838273
 21
21.913057178780289
 31
0.0
  0
LINE
  5
1849
  8
0
 62
     0
 10
-36.624848162348087
 20
19.989658054542701
 30
0.0
 11
-34.63431398219609
 21
21.980192234694702
 31
0.0
  0
LINE
  5
184A
  8
0
 62
     0
 10
-37.828754144530308
 20
19.908284087494049
 30
0.0
 11
-35.062127082003542
 21
22.674911150020868
 31
0.0
  0
LINE
  5
184B
  8
0
 62
     0
 10
-38.791649497959327
 20
20.06792074919872
 30
0.0
 11
-35.73652061008778
 21
23.12304963707021
 31
0.0
  0
LINE
  5
184C
  8
0
 62
     0
 10
-39.58466098064082
 20
20.39744128165086
 30
0.0
 11
-36.580798008919537
 21
23.401304253372128
 31
0.0
  0
LINE
  5
184D
  8
0
 62
     0
 10
-40.197750230948543
 20
20.906884046476758
 30
0.0
 11
-37.604997640125077
 21
23.499636637300171
 31
0.0
  0
LINE
  5
184E
  8
0
 62
     0
 10
-40.499654870843422
 20
21.727511421715569
 30
0.0
 11
-38.940381881743463
 21
23.286784410815471
 31
0.0
  0
ENDBLK
  5
1850
  8
0
  0
ENDSEC
  0
SECTION
  2
ENTITIES
  0
POLYLINE
  5
108C
  8
SAPA_PROFIL
  6
CONTINUOUS
 62
     7
 66
     1
 10
0.0
 20
0.0
 30
0.0
 70
     1
  0
VERTEX
  5
132D
  8
SAPA_PROFIL
  6
CONTINUOUS
 62
     7
 10
-74.000000000956746
 20
-16.499999999996991
 30
0.0
  0
VERTEX
  5
132E
  8
SAPA_PROFIL
  6
CONTINUOUS
 62
     7
 10
-77.00000000000297
 20
-16.499999999996991
 30
0.0
 42
-0.4142135623732074
  0
VERTEX
  5
132F
  8
SAPA_PROFIL
  6
CONTINUOUS
 62
     7
 10
-77.50000000000297
 20
-15.99999999999679
 30
0.0
  0
VERTEX
  5
1330
  8
SAPA_PROFIL
  6
CONTINUOUS
 62
     7
 10
-77.499999999999133
 20
-7.3999999999967008
 30
0.0
 42
0.4142135623730951
  0
VERTEX
  5
1331
  8
SAPA_PROFIL
  6
CONTINUOUS
 62
     7
 10
-77.999999999999147
 20
-6.8999999999967008
 30
0.0
  0
VERTEX
  5
1332
  8
SAPA_PROFIL
  6
CONTINUOUS
 62
     7
 10
-80.299999999999812
 20
-6.8999999999967008
 30
0.0
 42
-0.4142135623730951
  0
VERTEX
  5
1333
  8
SAPA_PROFIL
  6
CONTINUOUS
 62
     7
 10
-81.299999999999812
 20
-5.8999999999967008
 30
0.0
  0
VERTEX
  5
1334
  8
SAPA_PROFIL
  6
CONTINUOUS
 62
     7
 10
-81.299999999999812
 20
-5.0873697418212984
 30
0.0
 42
-0.2216946626429368
  0
VERTEX
  5
1335
  8
SAPA_PROFIL
  6
CONTINUOUS
 62
     7
 10
-81.192836282905773
 20
-4.857556408885606
 30
0.0
  0
VERTEX
  5
1336
  8
SAPA_PROFIL
  6
CONTINUOUS
 62
     7
 10
-80.492836282905216
 20
-4.2701866670610542
 30
0.0
 42
-0.6370702608061857
  0
VERTEX
  5
1337
  8
SAPA_PROFIL
  6
CONTINUOUS
 62
     7
 10
-79.999999999999616
 20
-4.4999999999969944
 30
0.0
  0
VERTEX
  5
1338
  8
SAPA_PROFIL
  6
CONTINUOUS
 62
     7
 10
-79.999999999999616
 20
-5.2999999999971896
 30
0.0
 42
0.4142135623730951
  0
VERTEX
  5
1339
  8
SAPA_PROFIL
  6
CONTINUOUS
 62
     7
 10
-79.699999999999406
 20
-5.5999999999973857
 30
0.0
  0
VERTEX
  5
133A
  8
SAPA_PROFIL
  6
CONTINUOUS
 62
     7
 10
-75.299999999998875
 20
-5.599999999996446
 30
0.0
 42
0.4142135623730504
  0
VERTEX
  5
133B
  8
SAPA_PROFIL
  6
CONTINUOUS
 62
     7
 10
-74.999999999999133
 20
-5.2999999999962926
 30
0.0
  0
VERTEX
  5
133C
  8
SAPA_PROFIL
  6
CONTINUOUS
 62
     7
 10
-74.999999999999162
 20
5.3000000000031511
 30
0.0
 42
0.4142135623730878
  0
VERTEX
  5
133D
  8
SAPA_PROFIL
  6
CONTINUOUS
 62
     7
 10
-75.29999999999886
 20
5.6000000000033259
 30
0.0
  0
VERTEX
  5
133E
  8
SAPA_PROFIL
  6
CONTINUOUS
 62
     7
 10
-79.69999999999942
 20
5.6000000000032548
 30
0.0
 42
0.4142135623735842
  0
VERTEX
  5
133F
  8
SAPA_PROFIL
  6
CONTINUOUS
 62
     7
 10
-79.999999999999119
 20
5.3000000000040544
 30
0.0
  0
VERTEX
  5
1340
  8
SAPA_PROFIL
  6
CONTINUOUS
 62
     7
 10
-79.999999999999616
 20
4.5000000000020668
 30
0.0
 42
-0.6370702608069853
  0
VERTEX
  5
1341
  8
SAPA_PROFIL
  6
CONTINUOUS
 62
     7
 10
-80.492836282905216
 20
4.2701866670669801
 30
0.0
  0
VERTEX
  5
1342
  8
SAPA_PROFIL
  6
CONTINUOUS
 62
     7
 10
-81.192836282905773
 20
4.8575564088915391
 30
0.0
 42
-0.2216946626431
  0
VERTEX
  5
1343
  8
SAPA_PROFIL
  6
CONTINUOUS
 62
     7
 10
-81.299999999999812
 20
5.0873697418274233
 30
0.0
  0
VERTEX
  5
1344
  8
SAPA_PROFIL
  6
CONTINUOUS
 62
     7
 10
-81.299999999999329
 20
5.9000000000044182
 30
0.0
 42
-0.4142135623730951
  0
VERTEX
  5
1345
  8
SAPA_PROFIL
  6
CONTINUOUS
 62
     7
 10
-80.299999999999329
 20
6.9000000000044182
 30
0.0
  0
VERTEX
  5
1346
  8
SAPA_PROFIL
  6
CONTINUOUS
 62
     7
 10
-72.799999999999571
 20
6.9000000000035264
 30
0.0
 42
-0.3178372451964626
  0
VERTEX
  5
1347
  8
SAPA_PROFIL
  6
CONTINUOUS
 62
     7
 10
-72.517157287524725
 20
6.7000000000027979
 30
0.0
 42
0.3178372451966722
  0
VERTEX
  5
1348
  8
SAPA_PROFIL
  6
CONTINUOUS
 62
     7
 10
-72.234314575049652
 20
6.5000000000020712
 30
0.0
  0
VERTEX
  5
1349
  8
SAPA_PROFIL
  6
CONTINUOUS
 62
     7
 10
-70.799999999999329
 20
6.5000000000029727
 30
0.0
 42
-0.4142135623726539
  0
VERTEX
  5
134A
  8
SAPA_PROFIL
  6
CONTINUOUS
 62
     7
 10
-70.499999999999602
 20
6.2000000000027908
 30
0.0
  0
VERTEX
  5
134B
  8
SAPA_PROFIL
  6
CONTINUOUS
 62
     7
 10
-70.499999999999616
 20
5.6000000000022432
 30
0.0
 42
-0.4142135623730836
  0
VERTEX
  5
134C
  8
SAPA_PROFIL
  6
CONTINUOUS
 62
     7
 10
-70.799999999999329
 20
5.300000000002977
 30
0.0
  0
VERTEX
  5
134D
  8
SAPA_PROFIL
  6
CONTINUOUS
 62
     7
 10
-72.19999999999942
 20
5.3000000000029699
 30
0.0
 42
0.4142135623730951
  0
VERTEX
  5
134E
  8
SAPA_PROFIL
  6
CONTINUOUS
 62
     7
 10
-72.499999999999588
 20
5.0000000000027951
 30
0.0
  0
VERTEX
  5
134F
  8
SAPA_PROFIL
  6
CONTINUOUS
 62
     7
 10
-72.499999999999588
 20
-4.9999999999977884
 30
0.0
 42
0.4142135623730743
  0
VERTEX
  5
1350
  8
SAPA_PROFIL
  6
CONTINUOUS
 62
     7
 10
-72.19999999999942
 20
-5.299999999996996
 30
0.0
  0
VERTEX
  5
1351
  8
SAPA_PROFIL
  6
CONTINUOUS
 62
     7
 10
-70.799999999999329
 20
-5.2999999999978851
 30
0.0
 42
-0.4142135623721762
  0
VERTEX
  5
1352
  8
SAPA_PROFIL
  6
CONTINUOUS
 62
     7
 10
-70.499999999999559
 20
-5.599999999997193
 30
0.0
  0
VERTEX
  5
1353
  8
SAPA_PROFIL
  6
CONTINUOUS
 62
     7
 10
-70.499999999999147
 20
-6.1999999999978046
 30
0.0
 42
-0.4142135623730534
  0
VERTEX
  5
1354
  8
SAPA_PROFIL
  6
CONTINUOUS
 62
     7
 10
-70.799999999999315
 20
-6.499999999997021
 30
0.0
  0
VERTEX
  5
1355
  8
SAPA_PROFIL
  6
CONTINUOUS
 62
     7
 10
-72.234314575050036
 20
-6.4999999999979092
 30
0.0
 42
0.3178372451963242
  0
VERTEX
  5
1356
  8
SAPA_PROFIL
  6
CONTINUOUS
 62
     7
 10
-72.517157287524725
 20
-6.6999999999968534
 30
0.0
 42
-0.3178372451964607
  0
VERTEX
  5
1357
  8
SAPA_PROFIL
  6
CONTINUOUS
 62
     7
 10
-72.799999999999557
 20
-6.8999999999975659
 30
0.0
  0
VERTEX
  5
1358
  8
SAPA_PROFIL
  6
CONTINUOUS
 62
     7
 10
-74.499999999999645
 20
-6.899999999997787
 30
0.0
 42
0.4142135623730597
  0
VERTEX
  5
1359
  8
SAPA_PROFIL
  6
CONTINUOUS
 62
     7
 10
-74.999999999999588
 20
-7.399999999997787
 30
0.0
  0
VERTEX
  5
135A
  8
SAPA_PROFIL
  6
CONTINUOUS
 62
     7
 10
-74.999999999999588
 20
-12.401923789205
 30
0.0
 42
0.2679491923306345
  0
VERTEX
  5
135B
  8
SAPA_PROFIL
  6
CONTINUOUS
 62
     7
 10
-74.750000000156476
 20
-12.83493649099429
 30
0.0
 42
-0.2679491923317589
  0
VERTEX
  5
135C
  8
SAPA_PROFIL
  6
CONTINUOUS
 62
     7
 10
-73.500000000956732
 20
-14.99999999999698
 30
0.0
  0
VERTEX
  5
135D
  8
SAPA_PROFIL
  6
CONTINUOUS
 62
     7
 10
-73.500000000957527
 20
-15.999999999996991
 30
0.0
 42
-0.4142135623730951
  0
SEQEND
  5
135E
  8
SAPA_PROFIL
  6
CONTINUOUS
 62
     7
  0
POLYLINE
  5
108D
  8
SAPA_PROFIL
  6
CONTINUOUS
 62
     7
 66
     1
 10
0.0
 20
0.0
 30
0.0
 70
     1
  0
VERTEX
  5
135F
  8
SAPA_PROFIL
  6
CONTINUOUS
 62
     7
 10
-43.000000000000448
 20
-23.200000000001719
 30
0.0
  0
VERTEX
  5
1360
  8
SAPA_PROFIL
  6
CONTINUOUS
 62
     7
 10
-43.000000000000448
 20
-20.499999999991321
 30
0.0
 42
0.4142135623730951
  0
VERTEX
  5
1361
  8
SAPA_PROFIL
  6
CONTINUOUS
 62
     7
 10
-43.300000000000452
 20
-20.199999999991331
 30
0.0
  0
VERTEX
  5
1362
  8
SAPA_PROFIL
  6
CONTINUOUS
 62
     7
 10
-44.500000000000853
 20
-20.199999999991331
 30
0.0
 42
-0.4142135623730931
  0
VERTEX
  5
1363
  8
SAPA_PROFIL
  6
CONTINUOUS
 62
     7
 10
-45.500000000000853
 20
-19.199999999991341
 30
0.0
  0
VERTEX
  5
1364
  8
SAPA_PROFIL
  6
CONTINUOUS
 62
     7
 10
-45.500000000000888
 20
-16.70000000000157
 30
0.0
 42
0.4142135623739343
  0
VERTEX
  5
1365
  8
SAPA_PROFIL
  6
CONTINUOUS
 62
     7
 10
-45.80000000000085
 20
-16.400000000000709
 30
0.0
  0
VERTEX
  5
1366
  8
SAPA_PROFIL
  6
CONTINUOUS
 62
     7
 10
-50.200000000000877
 20
-16.400000000000698
 30
0.0
 42
0.4142135623730951
  0
VERTEX
  5
1367
  8
SAPA_PROFIL
  6
CONTINUOUS
 62
     7
 10
-50.500000000000888
 20
-16.700000000001719
 30
0.0
  0
VERTEX
  5
1368
  8
SAPA_PROFIL
  6
CONTINUOUS
 62
     7
 10
-50.500000000000483
 20
-18.400000000000698
 30
0.0
 42
-0.7105995015650853
  0
VERTEX
  5
1369
  8
SAPA_PROFIL
  6
CONTINUOUS
 62
     7
 10
-51.035076580435863
 20
-18.586384015761681
 30
0.0
  0
VERTEX
  5
136A
  8
SAPA_PROFIL
  6
CONTINUOUS
 62
     7
 10
-51.445897150363187
 20
-18.068237143795969
 30
0.0
 42
-0.1691807452123823
  0
VERTEX
  5
136B
  8
SAPA_PROFIL
  6
CONTINUOUS
 62
     7
 10
-51.500000000000831
 20
-17.912917130662091
 30
0.0
  0
VERTEX
  5
136C
  8
SAPA_PROFIL
  6
CONTINUOUS
 62
     7
 10
-51.500000000000888
 20
-10.099999999992709
 30
0.0
 42
-0.4142135623760433
  0
VERTEX
  5
136D
  8
SAPA_PROFIL
  6
CONTINUOUS
 62
     7
 10
-51.199999999997857
 20
-9.7999999999926981
 30
0.0
  0
VERTEX
  5
136E
  8
SAPA_PROFIL
  6
CONTINUOUS
 62
     7
 10
-33.000000000004249
 20
-9.7999999999911154
 30
0.0
 42
-0.5773502691893336
  0
VERTEX
  5
136F
  8
SAPA_PROFIL
  6
CONTINUOUS
 62
     7
 10
-32.740192378868279
 20
-10.249999999991729
 30
0.0
  0
VERTEX
  5
1370
  8
SAPA_PROFIL
  6
CONTINUOUS
 62
     7
 10
-33.317542648061419
 20
-11.249999999994641
 30
0.0
 42
-0.6629740412223103
  0
VERTEX
  5
1371
  8
SAPA_PROFIL
  6
CONTINUOUS
 62
     7
 10
-33.865977684948881
 20
-11.18181818181217
 30
0.0
 42
0.3354367396460152
  0
VERTEX
  5
1372
  8
SAPA_PROFIL
  6
CONTINUOUS
 62
     7
 10
-34.106500531409431
 20
-10.999999999991781
 30
0.0
  0
VERTEX
  5
1373
  8
SAPA_PROFIL
  6
CONTINUOUS
 62
     7
 10
-35.199999999994958
 20
-10.99999999999166
 30
0.0
 42
0.4142135623741014
  0
VERTEX
  5
1374
  8
SAPA_PROFIL
  6
CONTINUOUS
 62
     7
 10
-35.499999999995993
 20
-11.299999999991689
 30
0.0
  0
VERTEX
  5
1375
  8
SAPA_PROFIL
  6
CONTINUOUS
 62
     7
 10
-35.499999999996007
 20
-11.7999999999927
 30
0.0
 42
-0.4142135623730466
  0
VERTEX
  5
1376
  8
SAPA_PROFIL
  6
CONTINUOUS
 62
     7
 10
-35.799999999995968
 20
-12.099999999992709
 30
0.0
  0
VERTEX
  5
1377
  8
SAPA_PROFIL
  6
CONTINUOUS
 62
     7
 10
-36.399999999997021
 20
-12.09999999999167
 30
0.0
 42
-0.4142135623730951
  0
VERTEX
  5
1378
  8
SAPA_PROFIL
  6
CONTINUOUS
 62
     7
 10
-36.699999999995981
 20
-11.7999999999927
 30
0.0
  0
VERTEX
  5
1379
  8
SAPA_PROFIL
  6
CONTINUOUS
 62
     7
 10
-36.699999999994972
 20
-11.39999999999147
 30
0.0
 42
0.4142135623731088
  0
VERTEX
  5
137A
  8
SAPA_PROFIL
  6
CONTINUOUS
 62
     7
 10
-36.999999999994976
 20
-11.099999999991489
 30
0.0
  0
VERTEX
  5
137B
  8
SAPA_PROFIL
  6
CONTINUOUS
 62
     7
 10
-49.699999999995349
 20
-11.099999999991489
 30
0.0
 42
0.4142135623730847
  0
VERTEX
  5
137C
  8
SAPA_PROFIL
  6
CONTINUOUS
 62
     7
 10
-49.999999999996042
 20
-11.39999999999147
 30
0.0
  0
VERTEX
  5
137D
  8
SAPA_PROFIL
  6
CONTINUOUS
 62
     7
 10
-49.999999999996028
 20
-14.60000000000071
 30
0.0
 42
0.4142135623730951
  0
VERTEX
  5
137E
  8
SAPA_PROFIL
  6
CONTINUOUS
 62
     7
 10
-49.699999999995342
 20
-14.900000000000951
 30
0.0
  0
VERTEX
  5
137F
  8
SAPA_PROFIL
  6
CONTINUOUS
 62
     7
 10
-45.500000000000952
 20
-14.90000000000078
 30
0.0
 42
-0.4142135623731122
  0
VERTEX
  5
1380
  8
SAPA_PROFIL
  6
CONTINUOUS
 62
     7
 10
-44.000000000000902
 20
-16.400000000000809
 30
0.0
  0
VERTEX
  5
1381
  8
SAPA_PROFIL
  6
CONTINUOUS
 62
     7
 10
-44.000000000000931
 20
-18.39999999999171
 30
0.0
 42
0.4142135623730951
  0
VERTEX
  5
1382
  8
SAPA_PROFIL
  6
CONTINUOUS
 62
     7
 10
-43.700000000000919
 20
-18.699999999991711
 30
0.0
  0
VERTEX
  5
1383
  8
SAPA_PROFIL
  6
CONTINUOUS
 62
     7
 10
-36.999999999998849
 20
-18.699999999991721
 30
0.0
 42
0.4142135623731017
  0
VERTEX
  5
1384
  8
SAPA_PROFIL
  6
CONTINUOUS
 62
     7
 10
-36.69999999999979
 20
-18.399999999992659
 30
0.0
  0
VERTEX
  5
1385
  8
SAPA_PROFIL
  6
CONTINUOUS
 62
     7
 10
-36.699999999997878
 20
-17.799999999995709
 30
0.0
 42
-0.4142135623730951
  0
VERTEX
  5
1386
  8
SAPA_PROFIL
  6
CONTINUOUS
 62
     7
 10
-36.399999999997902
 20
-17.499999999995708
 30
0.0
  0
VERTEX
  5
1387
  8
SAPA_PROFIL
  6
CONTINUOUS
 62
     7
 10
-35.799999999998867
 20
-17.499999999994682
 30
0.0
 42
-0.4142135623740693
  0
VERTEX
  5
1388
  8
SAPA_PROFIL
  6
CONTINUOUS
 62
     7
 10
-35.499999999998842
 20
-17.79999999999368
 30
0.0
  0
VERTEX
  5
1389
  8
SAPA_PROFIL
  6
CONTINUOUS
 62
     7
 10
-35.499999999998842
 20
-18.39999999999468
 30
0.0
 42
0.4142135623730951
  0
VERTEX
  5
138A
  8
SAPA_PROFIL
  6
CONTINUOUS
 62
     7
 10
-35.199999999998838
 20
-18.699999999994681
 30
0.0
  0
VERTEX
  5
138B
  8
SAPA_PROFIL
  6
CONTINUOUS
 62
     7
 10
-34.239949493650222
 20
-18.699999999993601
 30
0.0
 42
0.2360679774982354
  0
VERTEX
  5
138C
  8
SAPA_PROFIL
  6
CONTINUOUS
 62
     7
 10
-34.0399494936512
 20
-18.599999999994559
 30
0.0
 42
-0.4564120107634379
  0
VERTEX
  5
138D
  8
SAPA_PROFIL
  6
CONTINUOUS
 62
     7
 10
-32.532842712472487
 20
-18.492893218808081
 30
0.0
  0
VERTEX
  5
138E
  8
SAPA_PROFIL
  6
CONTINUOUS
 62
     7
 10
-31.637867965644869
 20
-19.387867965635699
 30
0.0
 42
-0.6681786379193021
  0
VERTEX
  5
138F
  8
SAPA_PROFIL
  6
CONTINUOUS
 62
     7
 10
-31.850000000000851
 20
-19.899999999991699
 30
0.0
  0
VERTEX
  5
1390
  8
SAPA_PROFIL
  6
CONTINUOUS
 62
     7
 10
-40.199999999999953
 20
-19.89999999999468
 30
0.0
 42
0.4142135623730951
  0
VERTEX
  5
1391
  8
SAPA_PROFIL
  6
CONTINUOUS
 62
     7
 10
-40.499999999999943
 20
-20.199999999994681
 30
0.0
  0
VERTEX
  5
1392
  8
SAPA_PROFIL
  6
CONTINUOUS
 62
     7
 10
-40.500000000000981
 20
-23.199999999994699
 30
0.0
 42
0.4142135623730951
  0
VERTEX
  5
1393
  8
SAPA_PROFIL
  6
CONTINUOUS
 62
     7
 10
-40.200000000000983
 20
-23.499999999994689
 30
0.0
  0
VERTEX
  5
1394
  8
SAPA_PROFIL
  6
CONTINUOUS
 62
     7
 10
-35.800000000001667
 20
-23.499999999994699
 30
0.0
 42
-0.4142135623730951
  0
VERTEX
  5
1395
  8
SAPA_PROFIL
  6
CONTINUOUS
 62
     7
 10
-35.500000000001677
 20
-23.799999999994689
 30
0.0
  0
VERTEX
  5
1396
  8
SAPA_PROFIL
  6
CONTINUOUS
 62
     7
 10
-35.500000000001677
 20
-24.750000000000711
 30
0.0
 42
-0.4142135623730951
  0
VERTEX
  5
1397
  8
SAPA_PROFIL
  6
CONTINUOUS
 62
     7
 10
-35.750000000001677
 20
-25.000000000000711
 30
0.0
  0
VERTEX
  5
1398
  8
SAPA_PROFIL
  6
CONTINUOUS
 62
     7
 10
-51.199999999997857
 20
-25.000000000000711
 30
0.0
 42
-0.4142135623750965
  0
VERTEX
  5
1399
  8
SAPA_PROFIL
  6
CONTINUOUS
 62
     7
 10
-51.500000000001862
 20
-24.69999999999467
 30
0.0
  0
VERTEX
  5
139A
  8
SAPA_PROFIL
  6
CONTINUOUS
 62
     7
 10
-51.500000000000867
 20
-22.487082869339371
 30
0.0
 42
-0.1691807452124803
  0
VERTEX
  5
139B
  8
SAPA_PROFIL
  6
CONTINUOUS
 62
     7
 10
-51.445897150363102
 20
-22.33176285620544
 30
0.0
  0
VERTEX
  5
139C
  8
SAPA_PROFIL
  6
CONTINUOUS
 62
     7
 10
-51.035076580435863
 20
-21.81361598424072
 30
0.0
 42
-0.7105995015660667
  0
VERTEX
  5
139D
  8
SAPA_PROFIL
  6
CONTINUOUS
 62
     7
 10
-50.500000000000838
 20
-22.0000000000007
 30
0.0
  0
VERTEX
  5
139E
  8
SAPA_PROFIL
  6
CONTINUOUS
 62
     7
 10
-50.500000000000888
 20
-23.20000000000072
 30
0.0
 42
0.4142135623730951
  0
VERTEX
  5
139F
  8
SAPA_PROFIL
  6
CONTINUOUS
 62
     7
 10
-50.200000000000877
 20
-23.500000000000728
 30
0.0
  0
VERTEX
  5
13A0
  8
SAPA_PROFIL
  6
CONTINUOUS
 62
     7
 10
-43.300000000000473
 20
-23.5000000000007
 30
0.0
 42
0.4142135623731053
  0
SEQEND
  5
13A1
  8
SAPA_PROFIL
  6
CONTINUOUS
 62
     7
  0
POLYLINE
  5
108E
  8
SAPA_PROFIL
  6
CONTINUOUS
 62
     7
 66
     1
 10
0.0
 20
0.0
 30
0.0
 70
     1
  0
VERTEX
  5
13A2
  8
SAPA_PROFIL
  6
CONTINUOUS
 62
     7
 10
-74.000000000956746
 20
16.499999999997019
 30
0.0
  0
VERTEX
  5
13A3
  8
SAPA_PROFIL
  6
CONTINUOUS
 62
     7
 10
-77.00000000000297
 20
16.499999999997019
 30
0.0
 42
0.4142135623732074
  0
VERTEX
  5
13A4
  8
SAPA_PROFIL
  6
CONTINUOUS
 62
     7
 10
-77.50000000000297
 20
15.999999999996829
 30
0.0
  0
VERTEX
  5
13A5
  8
SAPA_PROFIL
  6
CONTINUOUS
 62
     7
 10
-77.499999999999133
 20
7.3999999999967327
 30
0.0
 42
-0.4142135623730951
  0
VERTEX
  5
13A6
  8
SAPA_PROFIL
  6
CONTINUOUS
 62
     7
 10
-77.999999999999147
 20
6.8999999999967327
 30
0.0
  0
VERTEX
  5
13A7
  8
SAPA_PROFIL
  6
CONTINUOUS
 62
     7
 10
-80.299999999999812
 20
6.8999999999967327
 30
0.0
 42
0.4142135623730951
  0
VERTEX
  5
13A8
  8
SAPA_PROFIL
  6
CONTINUOUS
 62
     7
 10
-81.299999999999812
 20
5.8999999999967327
 30
0.0
  0
VERTEX
  5
13A9
  8
SAPA_PROFIL
  6
CONTINUOUS
 62
     7
 10
-81.299999999999812
 20
5.0873697418213304
 30
0.0
 42
0.2216946626429368
  0
VERTEX
  5
13AA
  8
SAPA_PROFIL
  6
CONTINUOUS
 62
     7
 10
-81.192836282905773
 20
4.857556408885638
 30
0.0
  0
VERTEX
  5
13AB
  8
SAPA_PROFIL
  6
CONTINUOUS
 62
     7
 10
-80.492836282905216
 20
4.2701866670610862
 30
0.0
 42
0.6370702608061857
  0
VERTEX
  5
13AC
  8
SAPA_PROFIL
  6
CONTINUOUS
 62
     7
 10
-79.999999999999616
 20
4.4999999999970264
 30
0.0
  0
VERTEX
  5
13AD
  8
SAPA_PROFIL
  6
CONTINUOUS
 62
     7
 10
-79.999999999999616
 20
5.2999999999972216
 30
0.0
 42
-0.4142135623730951
  0
VERTEX
  5
13AE
  8
SAPA_PROFIL
  6
CONTINUOUS
 62
     7
 10
-79.699999999999406
 20
5.5999999999974177
 30
0.0
  0
VERTEX
  5
13AF
  8
SAPA_PROFIL
  6
CONTINUOUS
 62
     7
 10
-75.299999999998875
 20
5.599999999996478
 30
0.0
 42
-0.4142135623730504
  0
VERTEX
  5
13B0
  8
SAPA_PROFIL
  6
CONTINUOUS
 62
     7
 10
-74.999999999999133
 20
5.2999999999963254
 30
0.0
  0
VERTEX
  5
13B1
  8
SAPA_PROFIL
  6
CONTINUOUS
 62
     7
 10
-74.999999999999162
 20
-5.3000000000031191
 30
0.0
 42
-0.4142135623730878
  0
VERTEX
  5
13B2
  8
SAPA_PROFIL
  6
CONTINUOUS
 62
     7
 10
-75.29999999999886
 20
-5.6000000000032939
 30
0.0
  0
VERTEX
  5
13B3
  8
SAPA_PROFIL
  6
CONTINUOUS
 62
     7
 10
-79.69999999999942
 20
-5.6000000000032228
 30
0.0
 42
-0.4142135623735842
  0
VERTEX
  5
13B4
  8
SAPA_PROFIL
  6
CONTINUOUS
 62
     7
 10
-79.999999999999119
 20
-5.3000000000040224
 30
0.0
  0
VERTEX
  5
13B5
  8
SAPA_PROFIL
  6
CONTINUOUS
 62
     7
 10
-79.999999999999616
 20
-4.5000000000020348
 30
0.0
 42
0.6370702608069853
  0
VERTEX
  5
13B6
  8
SAPA_PROFIL
  6
CONTINUOUS
 62
     7
 10
-80.492836282905216
 20
-4.2701866670669482
 30
0.0
  0
VERTEX
  5
13B7
  8
SAPA_PROFIL
  6
CONTINUOUS
 62
     7
 10
-81.192836282905773
 20
-4.8575564088915071
 30
0.0
 42
0.2216946626431
  0
VERTEX
  5
13B8
  8
SAPA_PROFIL
  6
CONTINUOUS
 62
     7
 10
-81.299999999999812
 20
-5.0873697418273913
 30
0.0
  0
VERTEX
  5
13B9
  8
SAPA_PROFIL
  6
CONTINUOUS
 62
     7
 10
-81.299999999999329
 20
-5.9000000000043862
 30
0.0
 42
0.4142135623730951
  0
VERTEX
  5
13BA
  8
SAPA_PROFIL
  6
CONTINUOUS
 62
     7
 10
-80.299999999999329
 20
-6.9000000000043862
 30
0.0
  0
VERTEX
  5
13BB
  8
SAPA_PROFIL
  6
CONTINUOUS
 62
     7
 10
-72.799999999999571
 20
-6.90000000000349
 30
0.0
 42
0.3178372451964626
  0
VERTEX
  5
13BC
  8
SAPA_PROFIL
  6
CONTINUOUS
 62
     7
 10
-72.517157287524725
 20
-6.7000000000027633
 30
0.0
 42
-0.3178372451966722
  0
VERTEX
  5
13BD
  8
SAPA_PROFIL
  6
CONTINUOUS
 62
     7
 10
-72.234314575049652
 20
-6.5000000000020348
 30
0.0
  0
VERTEX
  5
13BE
  8
SAPA_PROFIL
  6
CONTINUOUS
 62
     7
 10
-70.799999999999329
 20
-6.5000000000029408
 30
0.0
 42
0.4142135623726539
  0
VERTEX
  5
13BF
  8
SAPA_PROFIL
  6
CONTINUOUS
 62
     7
 10
-70.499999999999602
 20
-6.2000000000027589
 30
0.0
  0
VERTEX
  5
13C0
  8
SAPA_PROFIL
  6
CONTINUOUS
 62
     7
 10
-70.499999999999616
 20
-5.6000000000022112
 30
0.0
 42
0.4142135623730836
  0
VERTEX
  5
13C1
  8
SAPA_PROFIL
  6
CONTINUOUS
 62
     7
 10
-70.799999999999329
 20
-5.300000000002945
 30
0.0
  0
VERTEX
  5
13C2
  8
SAPA_PROFIL
  6
CONTINUOUS
 62
     7
 10
-72.19999999999942
 20
-5.3000000000029353
 30
0.0
 42
-0.4142135623730951
  0
VERTEX
  5
13C3
  8
SAPA_PROFIL
  6
CONTINUOUS
 62
     7
 10
-72.499999999999588
 20
-5.0000000000027596
 30
0.0
  0
VERTEX
  5
13C4
  8
SAPA_PROFIL
  6
CONTINUOUS
 62
     7
 10
-72.499999999999588
 20
4.9999999999978204
 30
0.0
 42
-0.4142135623730743
  0
VERTEX
  5
13C5
  8
SAPA_PROFIL
  6
CONTINUOUS
 62
     7
 10
-72.19999999999942
 20
5.299999999997028
 30
0.0
  0
VERTEX
  5
13C6
  8
SAPA_PROFIL
  6
CONTINUOUS
 62
     7
 10
-70.799999999999329
 20
5.299999999997917
 30
0.0
 42
0.4142135623721762
  0
VERTEX
  5
13C7
  8
SAPA_PROFIL
  6
CONTINUOUS
 62
     7
 10
-70.499999999999559
 20
5.5999999999972241
 30
0.0
  0
VERTEX
  5
13C8
  8
SAPA_PROFIL
  6
CONTINUOUS
 62
     7
 10
-70.499999999999147
 20
6.1999999999978366
 30
0.0
 42
0.4142135623730534
  0
VERTEX
  5
13C9
  8
SAPA_PROFIL
  6
CONTINUOUS
 62
     7
 10
-70.799999999999315
 20
6.499999999997053
 30
0.0
  0
VERTEX
  5
13CA
  8
SAPA_PROFIL
  6
CONTINUOUS
 62
     7
 10
-72.234314575050036
 20
6.4999999999979412
 30
0.0
 42
-0.3178372451963242
  0
VERTEX
  5
13CB
  8
SAPA_PROFIL
  6
CONTINUOUS
 62
     7
 10
-72.517157287524725
 20
6.6999999999968853
 30
0.0
 42
0.3178372451964607
  0
VERTEX
  5
13CC
  8
SAPA_PROFIL
  6
CONTINUOUS
 62
     7
 10
-72.799999999999557
 20
6.8999999999975978
 30
0.0
  0
VERTEX
  5
13CD
  8
SAPA_PROFIL
  6
CONTINUOUS
 62
     7
 10
-74.499999999999645
 20
6.8999999999978181
 30
0.0
 42
-0.4142135623730597
  0
VERTEX
  5
13CE
  8
SAPA_PROFIL
  6
CONTINUOUS
 62
     7
 10
-74.999999999999588
 20
7.3999999999978181
 30
0.0
  0
VERTEX
  5
13CF
  8
SAPA_PROFIL
  6
CONTINUOUS
 62
     7
 10
-74.999999999999588
 20
12.40192378920503
 30
0.0
 42
-0.2679491923306345
  0
VERTEX
  5
13D0
  8
SAPA_PROFIL
  6
CONTINUOUS
 62
     7
 10
-74.750000000156476
 20
12.83493649099432
 30
0.0
 42
0.2679491923317589
  0
VERTEX
  5
13D1
  8
SAPA_PROFIL
  6
CONTINUOUS
 62
     7
 10
-73.500000000956732
 20
14.999999999997019
 30
0.0
  0
VERTEX
  5
13D2
  8
SAPA_PROFIL
  6
CONTINUOUS
 62
     7
 10
-73.500000000957527
 20
15.999999999997019
 30
0.0
 42
0.4142135623730951
  0
SEQEND
  5
13D3
  8
SAPA_PROFIL
  6
CONTINUOUS
 62
     7
  0
POLYLINE
  5
108F
  8
SAPA_PROFIL
  6
CONTINUOUS
 62
     7
 66
     1
 10
0.0
 20
0.0
 30
0.0
 70
     1
  0
VERTEX
  5
13D4
  8
SAPA_PROFIL
  6
CONTINUOUS
 62
     7
 10
-43.000000000000441
 20
23.20000000000174
 30
0.0
  0
VERTEX
  5
13D5
  8
SAPA_PROFIL
  6
CONTINUOUS
 62
     7
 10
-43.000000000000441
 20
20.499999999991331
 30
0.0
 42
-0.4142135623730951
  0
VERTEX
  5
13D6
  8
SAPA_PROFIL
  6
CONTINUOUS
 62
     7
 10
-43.300000000000431
 20
20.199999999991341
 30
0.0
  0
VERTEX
  5
13D7
  8
SAPA_PROFIL
  6
CONTINUOUS
 62
     7
 10
-44.500000000000838
 20
20.199999999991341
 30
0.0
 42
0.4142135623730931
  0
VERTEX
  5
13D8
  8
SAPA_PROFIL
  6
CONTINUOUS
 62
     7
 10
-45.500000000000853
 20
19.199999999991359
 30
0.0
  0
VERTEX
  5
13D9
  8
SAPA_PROFIL
  6
CONTINUOUS
 62
     7
 10
-45.500000000000881
 20
16.700000000001591
 30
0.0
 42
-0.4142135623739343
  0
VERTEX
  5
13DA
  8
SAPA_PROFIL
  6
CONTINUOUS
 62
     7
 10
-45.800000000000843
 20
16.40000000000072
 30
0.0
  0
VERTEX
  5
13DB
  8
SAPA_PROFIL
  6
CONTINUOUS
 62
     7
 10
-50.20000000000087
 20
16.40000000000072
 30
0.0
 42
-0.4142135623730951
  0
VERTEX
  5
13DC
  8
SAPA_PROFIL
  6
CONTINUOUS
 62
     7
 10
-50.500000000000881
 20
16.70000000000174
 30
0.0
  0
VERTEX
  5
13DD
  8
SAPA_PROFIL
  6
CONTINUOUS
 62
     7
 10
-50.500000000000462
 20
18.40000000000072
 30
0.0
 42
0.7105995015650853
  0
VERTEX
  5
13DE
  8
SAPA_PROFIL
  6
CONTINUOUS
 62
     7
 10
-51.035076580435849
 20
18.586384015761698
 30
0.0
  0
VERTEX
  5
13DF
  8
SAPA_PROFIL
  6
CONTINUOUS
 62
     7
 10
-51.44589715036318
 20
18.068237143795979
 30
0.0
 42
0.1691807452123823
  0
VERTEX
  5
13E0
  8
SAPA_PROFIL
  6
CONTINUOUS
 62
     7
 10
-51.500000000000817
 20
17.912917130662098
 30
0.0
  0
VERTEX
  5
13E1
  8
SAPA_PROFIL
  6
CONTINUOUS
 62
     7
 10
-51.500000000000881
 20
10.099999999992731
 30
0.0
 42
0.4142135623760433
  0
VERTEX
  5
13E2
  8
SAPA_PROFIL
  6
CONTINUOUS
 62
     7
 10
-51.199999999997857
 20
9.7999999999927176
 30
0.0
  0
VERTEX
  5
13E3
  8
SAPA_PROFIL
  6
CONTINUOUS
 62
     7
 10
-33.000000000004242
 20
9.7999999999911296
 30
0.0
 42
0.5773502691893336
  0
VERTEX
  5
13E4
  8
SAPA_PROFIL
  6
CONTINUOUS
 62
     7
 10
-32.740192378868279
 20
10.249999999991751
 30
0.0
  0
VERTEX
  5
13E5
  8
SAPA_PROFIL
  6
CONTINUOUS
 62
     7
 10
-33.317542648061419
 20
11.24999999999465
 30
0.0
 42
0.6629740412223103
  0
VERTEX
  5
13E6
  8
SAPA_PROFIL
  6
CONTINUOUS
 62
     7
 10
-33.865977684948867
 20
11.181818181812179
 30
0.0
 42
-0.3354367396460152
  0
VERTEX
  5
13E7
  8
SAPA_PROFIL
  6
CONTINUOUS
 62
     7
 10
-34.106500531409431
 20
10.99999999999179
 30
0.0
  0
VERTEX
  5
13E8
  8
SAPA_PROFIL
  6
CONTINUOUS
 62
     7
 10
-35.199999999994951
 20
10.99999999999168
 30
0.0
 42
-0.4142135623741014
  0
VERTEX
  5
13E9
  8
SAPA_PROFIL
  6
CONTINUOUS
 62
     7
 10
-35.499999999995993
 20
11.2999999999917
 30
0.0
  0
VERTEX
  5
13EA
  8
SAPA_PROFIL
  6
CONTINUOUS
 62
     7
 10
-35.499999999996007
 20
11.799999999992711
 30
0.0
 42
0.4142135623730466
  0
VERTEX
  5
13EB
  8
SAPA_PROFIL
  6
CONTINUOUS
 62
     7
 10
-35.799999999995961
 20
12.09999999999272
 30
0.0
  0
VERTEX
  5
13EC
  8
SAPA_PROFIL
  6
CONTINUOUS
 62
     7
 10
-36.399999999997007
 20
12.099999999991679
 30
0.0
 42
0.4142135623730951
  0
VERTEX
  5
13ED
  8
SAPA_PROFIL
  6
CONTINUOUS
 62
     7
 10
-36.699999999995967
 20
11.799999999992719
 30
0.0
  0
VERTEX
  5
13EE
  8
SAPA_PROFIL
  6
CONTINUOUS
 62
     7
 10
-36.699999999994972
 20
11.39999999999149
 30
0.0
 42
-0.4142135623731088
  0
VERTEX
  5
13EF
  8
SAPA_PROFIL
  6
CONTINUOUS
 62
     7
 10
-36.999999999994969
 20
11.0999999999915
 30
0.0
  0
VERTEX
  5
13F0
  8
SAPA_PROFIL
  6
CONTINUOUS
 62
     7
 10
-49.699999999995342
 20
11.0999999999915
 30
0.0
 42
-0.4142135623730847
  0
VERTEX
  5
13F1
  8
SAPA_PROFIL
  6
CONTINUOUS
 62
     7
 10
-49.999999999996028
 20
11.39999999999149
 30
0.0
  0
VERTEX
  5
13F2
  8
SAPA_PROFIL
  6
CONTINUOUS
 62
     7
 10
-49.999999999996028
 20
14.60000000000073
 30
0.0
 42
-0.4142135623730951
  0
VERTEX
  5
13F3
  8
SAPA_PROFIL
  6
CONTINUOUS
 62
     7
 10
-49.699999999995327
 20
14.90000000000097
 30
0.0
  0
VERTEX
  5
13F4
  8
SAPA_PROFIL
  6
CONTINUOUS
 62
     7
 10
-45.500000000000931
 20
14.9000000000008
 30
0.0
 42
0.4142135623731122
  0
VERTEX
  5
13F5
  8
SAPA_PROFIL
  6
CONTINUOUS
 62
     7
 10
-44.000000000000881
 20
16.400000000000819
 30
0.0
  0
VERTEX
  5
13F6
  8
SAPA_PROFIL
  6
CONTINUOUS
 62
     7
 10
-44.000000000000917
 20
18.399999999991721
 30
0.0
 42
-0.4142135623730951
  0
VERTEX
  5
13F7
  8
SAPA_PROFIL
  6
CONTINUOUS
 62
     7
 10
-43.700000000000919
 20
18.699999999991729
 30
0.0
  0
VERTEX
  5
13F8
  8
SAPA_PROFIL
  6
CONTINUOUS
 62
     7
 10
-36.999999999998842
 20
18.699999999991739
 30
0.0
 42
-0.4142135623731017
  0
VERTEX
  5
13F9
  8
SAPA_PROFIL
  6
CONTINUOUS
 62
     7
 10
-36.699999999999783
 20
18.39999999999268
 30
0.0
  0
VERTEX
  5
13FA
  8
SAPA_PROFIL
  6
CONTINUOUS
 62
     7
 10
-36.699999999997871
 20
17.79999999999573
 30
0.0
 42
0.4142135623730951
  0
VERTEX
  5
13FB
  8
SAPA_PROFIL
  6
CONTINUOUS
 62
     7
 10
-36.399999999997888
 20
17.49999999999573
 30
0.0
  0
VERTEX
  5
13FC
  8
SAPA_PROFIL
  6
CONTINUOUS
 62
     7
 10
-35.79999999999886
 20
17.499999999994689
 30
0.0
 42
0.4142135623740693
  0
VERTEX
  5
13FD
  8
SAPA_PROFIL
  6
CONTINUOUS
 62
     7
 10
-35.499999999998828
 20
17.799999999993691
 30
0.0
  0
VERTEX
  5
13FE
  8
SAPA_PROFIL
  6
CONTINUOUS
 62
     7
 10
-35.499999999998828
 20
18.399999999994701
 30
0.0
 42
-0.4142135623730951
  0
VERTEX
  5
13FF
  8
SAPA_PROFIL
  6
CONTINUOUS
 62
     7
 10
-35.199999999998838
 20
18.699999999994692
 30
0.0
  0
VERTEX
  5
1400
  8
SAPA_PROFIL
  6
CONTINUOUS
 62
     7
 10
-34.239949493650208
 20
18.699999999993612
 30
0.0
 42
-0.2360679774982354
  0
VERTEX
  5
1401
  8
SAPA_PROFIL
  6
CONTINUOUS
 62
     7
 10
-34.039949493651193
 20
18.599999999994569
 30
0.0
 42
0.4564120107634379
  0
VERTEX
  5
1402
  8
SAPA_PROFIL
  6
CONTINUOUS
 62
     7
 10
-32.532842712472487
 20
18.492893218808099
 30
0.0
  0
VERTEX
  5
1403
  8
SAPA_PROFIL
  6
CONTINUOUS
 62
     7
 10
-31.637867965644851
 20
19.38786796563571
 30
0.0
 42
0.6681786379193021
  0
VERTEX
  5
1404
  8
SAPA_PROFIL
  6
CONTINUOUS
 62
     7
 10
-31.85000000000084
 20
19.89999999999171
 30
0.0
  0
VERTEX
  5
1405
  8
SAPA_PROFIL
  6
CONTINUOUS
 62
     7
 10
-40.199999999999939
 20
19.899999999994701
 30
0.0
 42
-0.4142135623730951
  0
VERTEX
  5
1406
  8
SAPA_PROFIL
  6
CONTINUOUS
 62
     7
 10
-40.499999999999929
 20
20.199999999994699
 30
0.0
  0
VERTEX
  5
1407
  8
SAPA_PROFIL
  6
CONTINUOUS
 62
     7
 10
-40.500000000000973
 20
23.199999999994709
 30
0.0
 42
-0.4142135623730951
  0
VERTEX
  5
1408
  8
SAPA_PROFIL
  6
CONTINUOUS
 62
     7
 10
-40.200000000000969
 20
23.49999999999471
 30
0.0
  0
VERTEX
  5
1409
  8
SAPA_PROFIL
  6
CONTINUOUS
 62
     7
 10
-35.80000000000166
 20
23.499999999994721
 30
0.0
 42
0.4142135623730951
  0
VERTEX
  5
140A
  8
SAPA_PROFIL
  6
CONTINUOUS
 62
     7
 10
-35.50000000000167
 20
23.7999999999947
 30
0.0
  0
VERTEX
  5
140B
  8
SAPA_PROFIL
  6
CONTINUOUS
 62
     7
 10
-35.500000000001663
 20
24.750000000000721
 30
0.0
 42
0.4142135623730951
  0
VERTEX
  5
140C
  8
SAPA_PROFIL
  6
CONTINUOUS
 62
     7
 10
-35.750000000001663
 20
25.000000000000721
 30
0.0
  0
VERTEX
  5
140D
  8
SAPA_PROFIL
  6
CONTINUOUS
 62
     7
 10
-51.19999999999785
 20
25.000000000000721
 30
0.0
 42
0.4142135623750965
  0
VERTEX
  5
140E
  8
SAPA_PROFIL
  6
CONTINUOUS
 62
     7
 10
-51.500000000001847
 20
24.699999999994692
 30
0.0
  0
VERTEX
  5
140F
  8
SAPA_PROFIL
  6
CONTINUOUS
 62
     7
 10
-51.50000000000086
 20
22.487082869339378
 30
0.0
 42
0.1691807452124803
  0
VERTEX
  5
1410
  8
SAPA_PROFIL
  6
CONTINUOUS
 62
     7
 10
-51.445897150363102
 20
22.331762856205462
 30
0.0
  0
VERTEX
  5
1411
  8
SAPA_PROFIL
  6
CONTINUOUS
 62
     7
 10
-51.035076580435849
 20
21.813615984240741
 30
0.0
 42
0.7105995015660667
  0
VERTEX
  5
1412
  8
SAPA_PROFIL
  6
CONTINUOUS
 62
     7
 10
-50.500000000000817
 20
22.000000000000721
 30
0.0
  0
VERTEX
  5
1413
  8
SAPA_PROFIL
  6
CONTINUOUS
 62
     7
 10
-50.500000000000881
 20
23.200000000000738
 30
0.0
 42
-0.4142135623730951
  0
VERTEX
  5
1414
  8
SAPA_PROFIL
  6
CONTINUOUS
 62
     7
 10
-50.20000000000087
 20
23.50000000000075
 30
0.0
  0
VERTEX
  5
1415
  8
SAPA_PROFIL
  6
CONTINUOUS
 62
     7
 10
-43.300000000000452
 20
23.500000000000721
 30
0.0
 42
-0.4142135623731053
  0
SEQEND
  5
1416
  8
SAPA_PROFIL
  6
CONTINUOUS
 62
     7
  0
POLYLINE
  5
1090
  8
SAPA_PROFIL
 66
     1
 10
0.0
 20
0.0
 30
0.0
 70
     1
  0
VERTEX
  5
1417
  8
SAPA_PROFIL
 10
-25.000000000002888
 20
22.600000373537799
 30
0.0
 42
-0.767326987974136
  0
VERTEX
  5
1418
  8
SAPA_PROFIL
 10
-24.849999999999731
 20
22.04019275240433
 30
0.0
 42
0.2679491924279902
  0
VERTEX
  5
1419
  8
SAPA_PROFIL
 10
-25.000000000002441
 20
21.78038513128082
 30
0.0
  0
VERTEX
  5
141A
  8
SAPA_PROFIL
 10
-25.000000000001808
 20
18.800000373537561
 30
0.0
 42
0.4142135623730395
  0
VERTEX
  5
141B
  8
SAPA_PROFIL
 10
-23.500000000001751
 20
17.300000373537848
 30
0.0
  0
VERTEX
  5
141C
  8
SAPA_PROFIL
 10
-22.400000000002361
 20
17.300000373537848
 30
0.0
 42
0.4142135623730951
  0
VERTEX
  5
141D
  8
SAPA_PROFIL
 10
-22.1000000000024
 20
17.600000373537569
 30
0.0
  0
VERTEX
  5
141E
  8
SAPA_PROFIL
 10
-22.1000000000024
 20
18.100000373537569
 30
0.0
 42
0.4142135623730948
  0
VERTEX
  5
141F
  8
SAPA_PROFIL
 10
-22.400000000002361
 20
18.400000373537761
 30
0.0
  0
VERTEX
  5
1420
  8
SAPA_PROFIL
 10
-22.736626924636528
 20
18.400000373537761
 30
0.0
 42
-0.5643553431119927
  0
VERTEX
  5
1421
  8
SAPA_PROFIL
 10
-20.87439504323947
 20
22.724395416772051
 30
0.0
  0
VERTEX
  5
1422
  8
SAPA_PROFIL
 10
-20.50000000000249
 20
22.350000373539849
 30
0.0
  0
VERTEX
  5
1423
  8
SAPA_PROFIL
 10
-20.12560495676961
 20
22.72439541677296
 30
0.0
 42
-0.564355343112654
  0
VERTEX
  5
1424
  8
SAPA_PROFIL
 10
-18.263373075367092
 20
18.400000373537761
 30
0.0
  0
VERTEX
  5
1425
  8
SAPA_PROFIL
 10
-18.60000000000263
 20
18.400000373537761
 30
0.0
 42
0.4142135623729843
  0
VERTEX
  5
1426
  8
SAPA_PROFIL
 10
-18.900000000002699
 20
18.10000037353803
 30
0.0
  0
VERTEX
  5
1427
  8
SAPA_PROFIL
 10
-18.900000000002581
 20
17.600000373537569
 30
0.0
 42
0.4142135623730951
  0
VERTEX
  5
1428
  8
SAPA_PROFIL
 10
-18.60000000000263
 20
17.300000373537848
 30
0.0
  0
VERTEX
  5
1429
  8
SAPA_PROFIL
 10
-16.300000000002669
 20
17.300000373537848
 30
0.0
 42
0.4142135623732062
  0
VERTEX
  5
142A
  8
SAPA_PROFIL
 10
-16.00000000000238
 20
17.600000373537569
 30
0.0
  0
VERTEX
  5
142B
  8
SAPA_PROFIL
 10
-16.00000000000249
 20
22.00000037353772
 30
0.0
 42
-0.4142135623731117
  0
VERTEX
  5
142C
  8
SAPA_PROFIL
 10
-15.00000000000249
 20
23.000000373537841
 30
0.0
  0
VERTEX
  5
142D
  8
SAPA_PROFIL
 10
19.99999999999557
 20
23.000000373538061
 30
0.0
 42
-0.7673269879789009
  0
VERTEX
  5
142E
  8
SAPA_PROFIL
 10
20.24999999999574
 20
22.066987671645901
 30
0.0
 42
0.2679491924311131
  0
VERTEX
  5
142F
  8
SAPA_PROFIL
 10
19.999999999995861
 20
21.633974969753641
 30
0.0
  0
VERTEX
  5
1430
  8
SAPA_PROFIL
 10
19.99999999999665
 20
18.800000373537781
 30
0.0
 42
0.4142135623730395
  0
VERTEX
  5
1431
  8
SAPA_PROFIL
 10
21.49999999999671
 20
17.300000373538069
 30
0.0
  0
VERTEX
  5
1432
  8
SAPA_PROFIL
 10
22.599999999996111
 20
17.300000373538069
 30
0.0
 42
0.4142135623730951
  0
VERTEX
  5
1433
  8
SAPA_PROFIL
 10
22.899999999996059
 20
17.600000373537789
 30
0.0
  0
VERTEX
  5
1434
  8
SAPA_PROFIL
 10
22.899999999996059
 20
18.100000373537789
 30
0.0
 42
0.4142135623730948
  0
VERTEX
  5
1435
  8
SAPA_PROFIL
 10
22.599999999996111
 20
18.400000373537981
 30
0.0
  0
VERTEX
  5
1436
  8
SAPA_PROFIL
 10
22.26337307536193
 20
18.400000373537981
 30
0.0
 42
-0.5643553431119927
  0
VERTEX
  5
1437
  8
SAPA_PROFIL
 10
24.125604956758998
 20
22.724395416772271
 30
0.0
  0
VERTEX
  5
1438
  8
SAPA_PROFIL
 10
24.499999999995971
 20
22.35000037354007
 30
0.0
  0
VERTEX
  5
1439
  8
SAPA_PROFIL
 10
24.874395043228851
 20
22.724395416773181
 30
0.0
 42
-0.564355343112654
  0
VERTEX
  5
143A
  8
SAPA_PROFIL
 10
26.736626924631381
 20
18.400000373537981
 30
0.0
  0
VERTEX
  5
143B
  8
SAPA_PROFIL
 10
26.399999999995838
 20
18.400000373537981
 30
0.0
 42
0.4142135623729843
  0
VERTEX
  5
143C
  8
SAPA_PROFIL
 10
26.09999999999577
 20
18.100000373538251
 30
0.0
  0
VERTEX
  5
143D
  8
SAPA_PROFIL
 10
26.09999999999588
 20
17.600000373537789
 30
0.0
 42
0.4142135623730951
  0
VERTEX
  5
143E
  8
SAPA_PROFIL
 10
26.399999999995838
 20
17.300000373538069
 30
0.0
  0
VERTEX
  5
143F
  8
SAPA_PROFIL
 10
28.699999999995789
 20
17.300000373538069
 30
0.0
 42
0.4142135623732062
  0
VERTEX
  5
1440
  8
SAPA_PROFIL
 10
28.999999999996088
 20
17.600000373537789
 30
0.0
  0
VERTEX
  5
1441
  8
SAPA_PROFIL
 10
28.999999999995971
 20
22.00000037353794
 30
0.0
 42
-0.4142135623730951
  0
VERTEX
  5
1442
  8
SAPA_PROFIL
 10
29.999999999995971
 20
23.00000037353794
 30
0.0
  0
VERTEX
  5
1443
  8
SAPA_PROFIL
 10
34.699999999996358
 20
23.000000373538111
 30
0.0
 42
-0.4142135623730984
  0
VERTEX
  5
1444
  8
SAPA_PROFIL
 10
34.999999999996369
 20
22.700000373538099
 30
0.0
  0
VERTEX
  5
1445
  8
SAPA_PROFIL
 10
34.999999999996369
 20
21.400000373538091
 30
0.0
 42
0.4142135623730951
  0
VERTEX
  5
1446
  8
SAPA_PROFIL
 10
35.29999999999638
 20
21.10000037353808
 30
0.0
  0
VERTEX
  5
1447
  8
SAPA_PROFIL
 10
35.875735931284403
 20
21.10000037353808
 30
0.0
 42
0.198912367379637
  0
VERTEX
  5
1448
  8
SAPA_PROFIL
 10
36.087867965640392
 20
21.187868339182099
 30
0.0
  0
VERTEX
  5
1449
  8
SAPA_PROFIL
 10
37.812132034352153
 20
22.912132407893981
 30
0.0
 42
-0.1989123673796579
  0
VERTEX
  5
144A
  8
SAPA_PROFIL
 10
38.024264068708142
 20
23.000000373538001
 30
0.0
  0
VERTEX
  5
144B
  8
SAPA_PROFIL
 10
41.499999999996483
 20
23.000000373538061
 30
0.0
 42
-0.4142135623730951
  0
VERTEX
  5
144C
  8
SAPA_PROFIL
 10
42.499999999996483
 20
22.00000037353805
 30
0.0
  0
VERTEX
  5
144D
  8
SAPA_PROFIL
 10
42.499999999996469
 20
-21.99999962646184
 30
0.0
 42
-0.4142135623730951
  0
VERTEX
  5
144E
  8
SAPA_PROFIL
 10
41.499999999996461
 20
-22.99999962646184
 30
0.0
  0
VERTEX
  5
144F
  8
SAPA_PROFIL
 10
38.024264068708071
 20
-22.999999626461779
 30
0.0
 42
-0.1989123673796579
  0
VERTEX
  5
1450
  8
SAPA_PROFIL
 10
37.812132034352082
 20
-22.91213166081776
 30
0.0
  0
VERTEX
  5
1451
  8
SAPA_PROFIL
 10
36.087867965640427
 20
-21.187867592105931
 30
0.0
 42
0.198912367379658
  0
VERTEX
  5
1452
  8
SAPA_PROFIL
 10
35.875735931284453
 20
-21.099999626461909
 30
0.0
  0
VERTEX
  5
1453
  8
SAPA_PROFIL
 10
35.299999999996373
 20
-21.099999626461909
 30
0.0
 42
0.4142135623730951
  0
VERTEX
  5
1454
  8
SAPA_PROFIL
 10
34.999999999996362
 20
-21.39999962646192
 30
0.0
  0
VERTEX
  5
1455
  8
SAPA_PROFIL
 10
34.999999999996362
 20
-22.699999626461821
 30
0.0
 42
-0.4142135623730984
  0
VERTEX
  5
1456
  8
SAPA_PROFIL
 10
34.699999999996351
 20
-22.999999626461829
 30
0.0
  0
VERTEX
  5
1457
  8
SAPA_PROFIL
 10
29.999999999995961
 20
-22.999999626461719
 30
0.0
 42
-0.4142135623730951
  0
VERTEX
  5
1458
  8
SAPA_PROFIL
 10
28.999999999995961
 20
-21.999999626461719
 30
0.0
  0
VERTEX
  5
1459
  8
SAPA_PROFIL
 10
28.999999999996071
 20
-17.599999626461571
 30
0.0
 42
0.4142135623732062
  0
VERTEX
  5
145A
  8
SAPA_PROFIL
 10
28.699999999995779
 20
-17.29999962646184
 30
0.0
  0
VERTEX
  5
145B
  8
SAPA_PROFIL
 10
26.399999999995821
 20
-17.29999962646184
 30
0.0
 42
0.4142135623730951
  0
VERTEX
  5
145C
  8
SAPA_PROFIL
 10
26.09999999999587
 20
-17.599999626461571
 30
0.0
  0
VERTEX
  5
145D
  8
SAPA_PROFIL
 10
26.099999999995749
 20
-18.099999626462019
 30
0.0
 42
0.414213562372984
  0
VERTEX
  5
145E
  8
SAPA_PROFIL
 10
26.399999999995821
 20
-18.399999626461749
 30
0.0
  0
VERTEX
  5
145F
  8
SAPA_PROFIL
 10
26.736626924631359
 20
-18.399999626461749
 30
0.0
 42
-0.5643553431126542
  0
VERTEX
  5
1460
  8
SAPA_PROFIL
 10
24.874395043228841
 20
-22.724394669696949
 30
0.0
  0
VERTEX
  5
1461
  8
SAPA_PROFIL
 10
24.499999999995961
 20
-22.349999626463841
 30
0.0
  0
VERTEX
  5
1462
  8
SAPA_PROFIL
 10
24.125604956758991
 20
-22.724394669696039
 30
0.0
 42
-0.5643553431119927
  0
VERTEX
  5
1463
  8
SAPA_PROFIL
 10
22.263373075361919
 20
-18.399999626461749
 30
0.0
  0
VERTEX
  5
1464
  8
SAPA_PROFIL
 10
22.59999999999609
 20
-18.399999626461749
 30
0.0
 42
0.414213562373095
  0
VERTEX
  5
1465
  8
SAPA_PROFIL
 10
22.899999999996052
 20
-18.099999626461571
 30
0.0
  0
VERTEX
  5
1466
  8
SAPA_PROFIL
 10
22.899999999996052
 20
-17.599999626461571
 30
0.0
 42
0.4142135623730953
  0
VERTEX
  5
1467
  8
SAPA_PROFIL
 10
22.59999999999609
 20
-17.29999962646184
 30
0.0
  0
VERTEX
  5
1468
  8
SAPA_PROFIL
 10
21.499999999996689
 20
-17.299999626461609
 30
0.0
 42
0.4142135623730508
  0
VERTEX
  5
1469
  8
SAPA_PROFIL
 10
19.999999999996639
 20
-18.799999626461329
 30
0.0
  0
VERTEX
  5
146A
  8
SAPA_PROFIL
 10
19.9999999999959
 20
-21.633974222677178
 30
0.0
 42
0.2679491924311283
  0
VERTEX
  5
146B
  8
SAPA_PROFIL
 10
20.24999999999573
 20
-22.066986924569449
 30
0.0
 42
-0.7673269879788167
  0
VERTEX
  5
146C
  8
SAPA_PROFIL
 10
19.999999999995559
 20
-22.999999626461602
 30
0.0
  0
VERTEX
  5
146D
  8
SAPA_PROFIL
 10
-15.000000000002499
 20
-22.999999626461371
 30
0.0
 42
-0.4142135623730951
  0
VERTEX
  5
146E
  8
SAPA_PROFIL
 10
-16.000000000002501
 20
-21.999999626461371
 30
0.0
  0
VERTEX
  5
146F
  8
SAPA_PROFIL
 10
-16.000000000002391
 20
-17.599999626461219
 30
0.0
 42
0.4142135623732062
  0
VERTEX
  5
1470
  8
SAPA_PROFIL
 10
-16.300000000002679
 20
-17.299999626461489
 30
0.0
  0
VERTEX
  5
1471
  8
SAPA_PROFIL
 10
-18.600000000002641
 20
-17.299999626461489
 30
0.0
 42
0.4142135623730951
  0
VERTEX
  5
1472
  8
SAPA_PROFIL
 10
-18.900000000002589
 20
-17.599999626461219
 30
0.0
  0
VERTEX
  5
1473
  8
SAPA_PROFIL
 10
-18.900000000002699
 20
-18.09999962646167
 30
0.0
 42
0.414213562372984
  0
VERTEX
  5
1474
  8
SAPA_PROFIL
 10
-18.600000000002641
 20
-18.399999626461401
 30
0.0
  0
VERTEX
  5
1475
  8
SAPA_PROFIL
 10
-18.263373075367099
 20
-18.399999626461401
 30
0.0
 42
-0.5643553431126542
  0
VERTEX
  5
1476
  8
SAPA_PROFIL
 10
-20.125604956769621
 20
-22.724394669696601
 30
0.0
  0
VERTEX
  5
1477
  8
SAPA_PROFIL
 10
-20.500000000002501
 20
-22.349999626463489
 30
0.0
  0
VERTEX
  5
1478
  8
SAPA_PROFIL
 10
-20.87439504323947
 20
-22.724394669695691
 30
0.0
 42
-0.5643553431119927
  0
VERTEX
  5
1479
  8
SAPA_PROFIL
 10
-22.736626924636539
 20
-18.399999626461401
 30
0.0
  0
VERTEX
  5
147A
  8
SAPA_PROFIL
 10
-22.400000000002361
 20
-18.399999626461401
 30
0.0
 42
0.414213562373095
  0
VERTEX
  5
147B
  8
SAPA_PROFIL
 10
-22.10000000000241
 20
-18.099999626461219
 30
0.0
  0
VERTEX
  5
147C
  8
SAPA_PROFIL
 10
-22.10000000000241
 20
-17.599999626461219
 30
0.0
 42
0.4142135623730951
  0
VERTEX
  5
147D
  8
SAPA_PROFIL
 10
-22.400000000002361
 20
-17.299999626461378
 30
0.0
  0
VERTEX
  5
147E
  8
SAPA_PROFIL
 10
-23.500000000001759
 20
-17.299999626461378
 30
0.0
 42
0.4142135623730508
  0
VERTEX
  5
147F
  8
SAPA_PROFIL
 10
-25.000000000001819
 20
-18.799999626461091
 30
0.0
  0
VERTEX
  5
1480
  8
SAPA_PROFIL
 10
-25.000000000002451
 20
-21.780384384204339
 30
0.0
 42
0.2679491924279903
  0
VERTEX
  5
1481
  8
SAPA_PROFIL
 10
-24.849999999999739
 20
-22.04019200532786
 30
0.0
 42
-0.767326987974136
  0
VERTEX
  5
1482
  8
SAPA_PROFIL
 10
-25.000000000002899
 20
-22.59999962646139
 30
0.0
  0
VERTEX
  5
1483
  8
SAPA_PROFIL
 10
-27.000000000001819
 20
-22.59999962646134
 30
0.0
 42
-0.4142135623730951
  0
VERTEX
  5
1484
  8
SAPA_PROFIL
 10
-28.000000000001819
 20
-21.599999626461329
 30
0.0
  0
VERTEX
  5
1485
  8
SAPA_PROFIL
 10
-28.000000000001808
 20
21.600000373537799
 30
0.0
 42
-0.4142135623731284
  0
VERTEX
  5
1486
  8
SAPA_PROFIL
 10
-27.000000000001808
 20
22.60000037353792
 30
0.0
  0
SEQEND
  5
1487
  8
SAPA_PROFIL
  0
POLYLINE
  5
1091
  8
SAPA_PROFIL
 66
     1
 10
0.0
 20
0.0
 30
0.0
 70
     1
  0
VERTEX
  5
1488
  8
SAPA_PROFIL
 10
-30.999999999011781
 20
-2.6999996264622652
 30
0.0
  0
VERTEX
  5
1489
  8
SAPA_PROFIL
 10
-31.249999999011781
 20
-2.6999996264622652
 30
0.0
  0
VERTEX
  5
148A
  8
SAPA_PROFIL
 10
-31.24999999901183
 20
-2.3499996264623562
 30
0.0
 42
0.5450207774094042
  0
VERTEX
  5
148B
  8
SAPA_PROFIL
 10
-31.67376540333731
 20
-2.0767193222103439
 30
0.0
  0
VERTEX
  5
148C
  8
SAPA_PROFIL
 10
-33.049999999011959
 20
-2.6999996264622652
 30
0.0
  0
VERTEX
  5
148D
  8
SAPA_PROFIL
 10
-33.04999999901208
 20
-2.3499996264623562
 30
0.0
 42
0.5450207774090177
  0
VERTEX
  5
148E
  8
SAPA_PROFIL
 10
-33.473765403337161
 20
-2.0767193222102298
 30
0.0
  0
VERTEX
  5
148F
  8
SAPA_PROFIL
 10
-34.849999999011906
 20
-2.6999996264622652
 30
0.0
  0
VERTEX
  5
1490
  8
SAPA_PROFIL
 10
-34.84999999901197
 20
-2.3499996264623562
 30
0.0
 42
0.5450207774094042
  0
VERTEX
  5
1491
  8
SAPA_PROFIL
 10
-35.27376540333745
 20
-2.0767193222103439
 30
0.0
  0
VERTEX
  5
1492
  8
SAPA_PROFIL
 10
-36.649999999011868
 20
-2.6999996264622652
 30
0.0
  0
VERTEX
  5
1493
  8
SAPA_PROFIL
 10
-36.649999999011868
 20
-2.3499996264623562
 30
0.0
 42
0.545020777409516
  0
VERTEX
  5
1494
  8
SAPA_PROFIL
 10
-37.073765403337518
 20
-2.0767193222103439
 30
0.0
  0
VERTEX
  5
1495
  8
SAPA_PROFIL
 10
-38.44999999901205
 20
-2.6999996264622652
 30
0.0
  0
VERTEX
  5
1496
  8
SAPA_PROFIL
 10
-38.44999999901205
 20
-2.3499996264623562
 30
0.0
 42
0.545020777409516
  0
VERTEX
  5
1497
  8
SAPA_PROFIL
 10
-38.8737654033377
 20
-2.0767193222103439
 30
0.0
  0
VERTEX
  5
1498
  8
SAPA_PROFIL
 10
-40.249999999012232
 20
-2.6999996264622652
 30
0.0
  0
VERTEX
  5
1499
  8
SAPA_PROFIL
 10
-40.249999999012232
 20
-2.3499996264623562
 30
0.0
 42
0.5450207774090177
  0
VERTEX
  5
149A
  8
SAPA_PROFIL
 10
-40.67376540333742
 20
-2.0767193222102298
 30
0.0
  0
VERTEX
  5
149B
  8
SAPA_PROFIL
 10
-41.449999999012043
 20
-2.4282667520476902
 30
0.0
  0
VERTEX
  5
149C
  8
SAPA_PROFIL
 10
-41.449999999012107
 20
1.0006707898188649
 30
0.0
  0
VERTEX
  5
149D
  8
SAPA_PROFIL
 10
-41.449999999012107
 20
2.7000003735378288
 30
0.0
  0
VERTEX
  5
149E
  8
SAPA_PROFIL
 10
-41.149999999012088
 20
2.7000003735378288
 30
0.0
  0
VERTEX
  5
149F
  8
SAPA_PROFIL
 10
-39.773765403337791
 20
2.0767200692854528
 30
0.0
 42
0.5450207774093642
  0
VERTEX
  5
14A0
  8
SAPA_PROFIL
 10
-39.349999999012368
 20
2.350000373537692
 30
0.0
  0
VERTEX
  5
14A1
  8
SAPA_PROFIL
 10
-39.349999999012141
 20
2.7000003735378288
 30
0.0
  0
VERTEX
  5
14A2
  8
SAPA_PROFIL
 10
-37.973765403337609
 20
2.0767200692856238
 30
0.0
 42
0.5450207774088696
  0
VERTEX
  5
14A3
  8
SAPA_PROFIL
 10
-37.549999999012421
 20
2.350000373537692
 30
0.0
  0
VERTEX
  5
14A4
  8
SAPA_PROFIL
 10
-37.549999999012194
 20
2.7000003735378288
 30
0.0
  0
VERTEX
  5
14A5
  8
SAPA_PROFIL
 10
-36.173765403337647
 20
2.0767200692856238
 30
0.0
 42
0.5450207774094402
  0
VERTEX
  5
14A6
  8
SAPA_PROFIL
 10
-35.749999999012353
 20
2.350000373537692
 30
0.0
  0
VERTEX
  5
14A7
  8
SAPA_PROFIL
 10
-35.749999999012232
 20
2.7000003735378288
 30
0.0
  0
VERTEX
  5
14A8
  8
SAPA_PROFIL
 10
-34.373765403337927
 20
2.0767200692854528
 30
0.0
 42
0.5450207774093642
  0
VERTEX
  5
14A9
  8
SAPA_PROFIL
 10
-33.949999999012512
 20
2.350000373537692
 30
0.0
  0
VERTEX
  5
14AA
  8
SAPA_PROFIL
 10
-33.949999999012277
 20
2.7000003735378288
 30
0.0
  0
VERTEX
  5
14AB
  8
SAPA_PROFIL
 10
-32.573765403337752
 20
2.0767200692856238
 30
0.0
 42
0.5450207774088696
  0
VERTEX
  5
14AC
  8
SAPA_PROFIL
 10
-32.149999999012607
 20
2.350000373537692
 30
0.0
  0
VERTEX
  5
14AD
  8
SAPA_PROFIL
 10
-32.149999999011868
 20
2.7000003735378288
 30
0.0
  0
VERTEX
  5
14AE
  8
SAPA_PROFIL
 10
-30.999999999011781
 20
2.7000003735378248
 30
0.0
 42
-0.4142135623730951
  0
VERTEX
  5
14AF
  8
SAPA_PROFIL
 10
-29.999999999011781
 20
1.7000003735378251
 30
0.0
  0
VERTEX
  5
14B0
  8
SAPA_PROFIL
 10
-29.999999999011781
 20
-1.699999626462265
 30
0.0
 42
-0.4142135623730951
  0
SEQEND
  5
14B1
  8
SAPA_PROFIL
  0
POLYLINE
  5
1092
  8
SAPA_PROFIL
 66
     1
 10
0.0
 20
0.0
 30
0.0
 70
     1
  0
VERTEX
  5
14B2
  8
SAPA_PROFIL
 10
-30.000000000001759
 20
16.700000373538678
 30
0.0
  0
VERTEX
  5
14B3
  8
SAPA_PROFIL
 10
-30.000000000001759
 20
23.200000373538341
 30
0.0
 42
0.4142135623732062
  0
VERTEX
  5
14B4
  8
SAPA_PROFIL
 10
-30.30000000000182
 20
23.500000373538288
 30
0.0
  0
VERTEX
  5
14B5
  8
SAPA_PROFIL
 10
-34.20000000000158
 20
23.500000373538288
 30
0.0
 42
0.4142135623730951
  0
VERTEX
  5
14B6
  8
SAPA_PROFIL
 10
-34.500000000001528
 20
23.200000373538341
 30
0.0
  0
VERTEX
  5
14B7
  8
SAPA_PROFIL
 10
-34.500000000001648
 20
22.000000373538459
 30
0.0
 42
-0.7105995015650612
  0
VERTEX
  5
14B8
  8
SAPA_PROFIL
 10
-35.03507658043651
 20
21.813616357777629
 30
0.0
  0
VERTEX
  5
14B9
  8
SAPA_PROFIL
 10
-35.283588601450958
 20
22.12705179835735
 30
0.0
 42
-0.169180745212488
  0
VERTEX
  5
14BA
  8
SAPA_PROFIL
 10
-35.500000000001762
 20
22.748331850893241
 30
0.0
  0
VERTEX
  5
14BB
  8
SAPA_PROFIL
 10
-35.500000000001641
 20
24.700000373538511
 30
0.0
 42
-0.4142135623730951
  0
VERTEX
  5
14BC
  8
SAPA_PROFIL
 10
-35.200000000001687
 20
25.000000373538469
 30
0.0
  0
VERTEX
  5
14BD
  8
SAPA_PROFIL
 10
43.999999999996419
 20
25.000000373538111
 30
0.0
 42
-0.4142135623730951
  0
VERTEX
  5
14BE
  8
SAPA_PROFIL
 10
44.499999999996433
 20
24.500000373538111
 30
0.0
  0
VERTEX
  5
14BF
  8
SAPA_PROFIL
 10
44.499999999996412
 20
-24.499999626461889
 30
0.0
 42
-0.4142135623730951
  0
VERTEX
  5
14C0
  8
SAPA_PROFIL
 10
43.999999999996412
 20
-24.999999626461889
 30
0.0
  0
VERTEX
  5
14C1
  8
SAPA_PROFIL
 10
-35.200000000001808
 20
-24.999999626461989
 30
0.0
 42
-0.4142135623730951
  0
VERTEX
  5
14C2
  8
SAPA_PROFIL
 10
-35.500000000001769
 20
-24.699999626462041
 30
0.0
  0
VERTEX
  5
14C3
  8
SAPA_PROFIL
 10
-35.500000000001769
 20
-22.748331103816948
 30
0.0
 42
-0.1691807452125303
  0
VERTEX
  5
14C4
  8
SAPA_PROFIL
 10
-35.283588601450852
 20
-22.12705105128094
 30
0.0
  0
VERTEX
  5
14C5
  8
SAPA_PROFIL
 10
-35.035076580436403
 20
-21.81361561070127
 30
0.0
 42
-0.7105995015650845
  0
VERTEX
  5
14C6
  8
SAPA_PROFIL
 10
-34.500000000001762
 20
-21.999999626461989
 30
0.0
  0
VERTEX
  5
14C7
  8
SAPA_PROFIL
 10
-34.500000000001762
 20
-23.199999626461931
 30
0.0
 42
0.4142135623732061
  0
VERTEX
  5
14C8
  8
SAPA_PROFIL
 10
-34.200000000001701
 20
-23.499999626461879
 30
0.0
  0
VERTEX
  5
14C9
  8
SAPA_PROFIL
 10
-30.300000000001951
 20
-23.499999626461879
 30
0.0
 42
0.4142135623732061
  0
VERTEX
  5
14CA
  8
SAPA_PROFIL
 10
-30.000000000001879
 20
-23.199999626461931
 30
0.0
  0
VERTEX
  5
14CB
  8
SAPA_PROFIL
 10
-30.000000000001769
 20
-16.699999626461981
 30
0.0
 42
0.4142135623730951
  0
VERTEX
  5
14CC
  8
SAPA_PROFIL
 10
-30.500000000001769
 20
-16.199999626461981
 30
0.0
  0
VERTEX
  5
14CD
  8
SAPA_PROFIL
 10
-34.20000000000158
 20
-16.19999962646186
 30
0.0
 42
0.4142135623733172
  0
VERTEX
  5
14CE
  8
SAPA_PROFIL
 10
-34.500000000001762
 20
-16.499999626462049
 30
0.0
  0
VERTEX
  5
14CF
  8
SAPA_PROFIL
 10
-34.500000000001542
 20
-18.39999962646197
 30
0.0
 42
-0.7105995015650612
  0
VERTEX
  5
14D0
  8
SAPA_PROFIL
 10
-35.035076580436403
 20
-18.586383642222799
 30
0.0
  0
VERTEX
  5
14D1
  8
SAPA_PROFIL
 10
-35.283588601450852
 20
-18.272948201643249
 30
0.0
 42
-0.1691807452125303
  0
VERTEX
  5
14D2
  8
SAPA_PROFIL
 10
-35.500000000001769
 20
-17.651668149107241
 30
0.0
  0
VERTEX
  5
14D3
  8
SAPA_PROFIL
 10
-35.500000000001769
 20
-11.29999962646194
 30
0.0
 42
-0.4142135623728731
  0
VERTEX
  5
14D4
  8
SAPA_PROFIL
 10
-35.200000000001808
 20
-10.999999626461991
 30
0.0
  0
VERTEX
  5
14D5
  8
SAPA_PROFIL
 10
-34.500000000001542
 20
-10.99999962646222
 30
0.0
 42
-0.4142135623730951
  0
VERTEX
  5
14D6
  8
SAPA_PROFIL
 10
-34.20000000000158
 20
-11.299999626462171
 30
0.0
  0
VERTEX
  5
14D7
  8
SAPA_PROFIL
 10
-34.20000000000158
 20
-14.19999962646175
 30
0.0
 42
0.4142135623730951
  0
VERTEX
  5
14D8
  8
SAPA_PROFIL
 10
-33.70000000000158
 20
-14.69999962646175
 30
0.0
  0
VERTEX
  5
14D9
  8
SAPA_PROFIL
 10
-30.500000000001769
 20
-14.699999626461979
 30
0.0
 42
0.4142135623731617
  0
VERTEX
  5
14DA
  8
SAPA_PROFIL
 10
-30.000000000001759
 20
-14.199999626461979
 30
0.0
  0
VERTEX
  5
14DB
  8
SAPA_PROFIL
 10
-30.00000000000199
 20
-5.9999996264625599
 30
0.0
 42
0.4142135623730951
  0
VERTEX
  5
14DC
  8
SAPA_PROFIL
 10
-31.00000000000199
 20
-4.9999996264625599
 30
0.0
  0
VERTEX
  5
14DD
  8
SAPA_PROFIL
 10
-52.199999999011879
 20
-4.9999996264623263
 30
0.0
 42
-0.4142135623730951
  0
VERTEX
  5
14DE
  8
SAPA_PROFIL
 10
-52.499999999011891
 20
-4.6999996264623141
 30
0.0
  0
VERTEX
  5
14DF
  8
SAPA_PROFIL
 10
-52.499999999011827
 20
-3.075010156175594
 30
0.0
  0
VERTEX
  5
14E0
  8
SAPA_PROFIL
 10
-51.535790539647849
 20
-2.2144747773913158
 30
0.0
 42
-0.6264792893017398
  0
VERTEX
  5
14E1
  8
SAPA_PROFIL
 10
-51.049999999012421
 20
-2.4500206858893838
 30
0.0
  0
VERTEX
  5
14E2
  8
SAPA_PROFIL
 10
-51.049999999012179
 20
-2.6999996264623141
 30
0.0
  0
VERTEX
  5
14E3
  8
SAPA_PROFIL
 10
-49.673765403337882
 20
-2.176719322210189
 30
0.0
 42
-0.5450207774090681
  0
VERTEX
  5
14E4
  8
SAPA_PROFIL
 10
-49.249999999012353
 20
-2.4499996264623141
 30
0.0
  0
VERTEX
  5
14E5
  8
SAPA_PROFIL
 10
-49.249999999012232
 20
-2.6999996264622581
 30
0.0
  0
VERTEX
  5
14E6
  8
SAPA_PROFIL
 10
-47.87376540333792
 20
-2.1767193222103032
 30
0.0
 42
-0.545020777409516
  0
VERTEX
  5
14E7
  8
SAPA_PROFIL
 10
-47.44999999901227
 20
-2.4499996264623141
 30
0.0
  0
VERTEX
  5
14E8
  8
SAPA_PROFIL
 10
-47.44999999901227
 20
-2.6999996264622581
 30
0.0
  0
VERTEX
  5
14E9
  8
SAPA_PROFIL
 10
-46.073765403337617
 20
-2.176719322210189
 30
0.0
 42
-0.5450207774091295
  0
VERTEX
  5
14EA
  8
SAPA_PROFIL
 10
-45.64999999901238
 20
-2.4499996264623141
 30
0.0
  0
VERTEX
  5
14EB
  8
SAPA_PROFIL
 10
-45.649999999012323
 20
-2.6999996264622581
 30
0.0
  0
VERTEX
  5
14EC
  8
SAPA_PROFIL
 10
-44.273765403337791
 20
-2.1767193222103032
 30
0.0
 42
-0.545020777409516
  0
VERTEX
  5
14ED
  8
SAPA_PROFIL
 10
-43.849999999012127
 20
-2.4499996264623141
 30
0.0
  0
VERTEX
  5
14EE
  8
SAPA_PROFIL
 10
-43.849999999012127
 20
-2.6999996264622581
 30
0.0
  0
VERTEX
  5
14EF
  8
SAPA_PROFIL
 10
-43.182570825615642
 20
-2.4460464742920029
 30
0.0
 42
0.3492695052203141
  0
VERTEX
  5
14F0
  8
SAPA_PROFIL
 10
-42.949999999012221
 20
-2.153722498923841
 30
0.0
  0
VERTEX
  5
14F1
  8
SAPA_PROFIL
 10
-42.949999999012221
 20
-1.2649106905293901
 30
0.0
 42
-0.3475404855924057
  0
VERTEX
  5
14F2
  8
SAPA_PROFIL
 10
-42.71923076824293
 20
-0.9730081372830312
 30
0.0
 42
0.7905694150422074
  0
VERTEX
  5
14F3
  8
SAPA_PROFIL
 10
-42.719230768243101
 20
0.9730088843599666
 30
0.0
 42
-0.3475404855923888
  0
VERTEX
  5
14F4
  8
SAPA_PROFIL
 10
-42.949999999012221
 20
1.2649114376071779
 30
0.0
  0
VERTEX
  5
14F5
  8
SAPA_PROFIL
 10
-42.9499999990121
 20
1.876720069285692
 30
0.0
 42
0.4142135623730951
  0
VERTEX
  5
14F6
  8
SAPA_PROFIL
 10
-43.249999999012111
 20
2.1767200692857029
 30
0.0
  0
VERTEX
  5
14F7
  8
SAPA_PROFIL
 10
-43.3737654033377
 20
2.1767200692856461
 30
0.0
  0
VERTEX
  5
14F8
  8
SAPA_PROFIL
 10
-44.749999999012232
 20
2.7000003735378288
 30
0.0
  0
VERTEX
  5
14F9
  8
SAPA_PROFIL
 10
-44.749999999012452
 20
2.4500003735376579
 30
0.0
 42
-0.5450207774088696
  0
VERTEX
  5
14FA
  8
SAPA_PROFIL
 10
-45.173765403337647
 20
2.1767200692855901
 30
0.0
  0
VERTEX
  5
14FB
  8
SAPA_PROFIL
 10
-46.549999999012179
 20
2.7000003735378288
 30
0.0
  0
VERTEX
  5
14FC
  8
SAPA_PROFIL
 10
-46.549999999012407
 20
2.4500003735376579
 30
0.0
 42
-0.5450207774091855
  0
VERTEX
  5
14FD
  8
SAPA_PROFIL
 10
-46.973765403337772
 20
2.1767200692855329
 30
0.0
  0
VERTEX
  5
14FE
  8
SAPA_PROFIL
 10
-48.349999999012141
 20
2.7000003735378288
 30
0.0
  0
VERTEX
  5
14FF
  8
SAPA_PROFIL
 10
-48.349999999012141
 20
2.4500003735376579
 30
0.0
 42
-0.5450207774093374
  0
VERTEX
  5
1500
  8
SAPA_PROFIL
 10
-48.773765403337741
 20
2.1767200692857598
 30
0.0
  0
VERTEX
  5
1501
  8
SAPA_PROFIL
 10
-50.149999999012323
 20
2.7000003735378288
 30
0.0
  0
VERTEX
  5
1502
  8
SAPA_PROFIL
 10
-50.149999999011918
 20
2.149979314110634
 30
0.0
  0
VERTEX
  5
1503
  8
SAPA_PROFIL
 10
-51.347075010161461
 20
2.1499793141105812
 30
0.0
 42
-0.1681572645226206
  0
VERTEX
  5
1504
  8
SAPA_PROFIL
 10
-51.532521788160693
 20
2.2141626638721301
 30
0.0
  0
VERTEX
  5
1505
  8
SAPA_PROFIL
 10
-52.49999999901177
 20
3.0749898438243828
 30
0.0
  0
VERTEX
  5
1506
  8
SAPA_PROFIL
 10
-52.499999999011827
 20
4.7000003735403331
 30
0.0
 42
-0.4142135623730951
  0
VERTEX
  5
1507
  8
SAPA_PROFIL
 10
-52.199999999011823
 20
5.0000003735403453
 30
0.0
  0
VERTEX
  5
1508
  8
SAPA_PROFIL
 10
-31.000000000001869
 20
5.0000003735401668
 30
0.0
 42
0.4142135623730951
  0
VERTEX
  5
1509
  8
SAPA_PROFIL
 10
-30.000000000001869
 20
6.0000003735401668
 30
0.0
  0
VERTEX
  5
150A
  8
SAPA_PROFIL
 10
-30.000000000001759
 20
14.200000373538559
 30
0.0
 42
0.4142135623730951
  0
VERTEX
  5
150B
  8
SAPA_PROFIL
 10
-30.500000000001759
 20
14.700000373538559
 30
0.0
  0
VERTEX
  5
150C
  8
SAPA_PROFIL
 10
-33.700000000001808
 20
14.70000037353857
 30
0.0
 42
0.4142135623730951
  0
VERTEX
  5
150D
  8
SAPA_PROFIL
 10
-34.200000000001808
 20
14.20000037353857
 30
0.0
  0
VERTEX
  5
150E
  8
SAPA_PROFIL
 10
-34.20000000000158
 20
11.30000037353865
 30
0.0
 42
-0.4142135623730951
  0
VERTEX
  5
150F
  8
SAPA_PROFIL
 10
-34.500000000001542
 20
11.00000037353869
 30
0.0
  0
VERTEX
  5
1510
  8
SAPA_PROFIL
 10
-35.200000000001701
 20
11.00000037353858
 30
0.0
 42
-0.4142135623730951
  0
VERTEX
  5
1511
  8
SAPA_PROFIL
 10
-35.500000000001769
 20
11.30000037353842
 30
0.0
  0
VERTEX
  5
1512
  8
SAPA_PROFIL
 10
-35.500000000001648
 20
17.651668896183711
 30
0.0
 42
-0.1691807452124953
  0
VERTEX
  5
1513
  8
SAPA_PROFIL
 10
-35.283588601450788
 20
18.272948948719609
 30
0.0
  0
VERTEX
  5
1514
  8
SAPA_PROFIL
 10
-35.035076580436403
 20
18.586384389299269
 30
0.0
 42
-0.7105995015650612
  0
VERTEX
  5
1515
  8
SAPA_PROFIL
 10
-34.500000000001542
 20
18.40000037353844
 30
0.0
  0
VERTEX
  5
1516
  8
SAPA_PROFIL
 10
-34.500000000001762
 20
16.500000373538629
 30
0.0
 42
0.4142135623732061
  0
VERTEX
  5
1517
  8
SAPA_PROFIL
 10
-34.20000000000158
 20
16.200000373538561
 30
0.0
  0
VERTEX
  5
1518
  8
SAPA_PROFIL
 10
-30.500000000001759
 20
16.200000373538678
 30
0.0
 42
0.4142135623730951
  0
SEQEND
  5
1519
  8
SAPA_PROFIL
  0
LINE
  5
1093
  8
SAPA_PROFIL
 10
-83.332392354088142
 20
8.1554699308606988
 30
0.0
 11
-81.999999999999488
 21
11.000000747076079
 31
0.0
  0
ARC
  5
1094
  8
SAPA_PROFIL
 10
-172.6354815713868
 20
0.0000000000000317
 30
0.0
 40
82.373247182518654
 50
352.32588299315529
 51
7.6741170068447557
  0
LINE
  5
1095
  8
SAPA_PROFIL
 10
-83.332392354088142
 20
-8.1554691837842022
 30
0.0
 11
-81.999999999999488
 21
-10.99999999999959
 31
0.0
  0
LINE
  5
1096
  8
SAPA_PROFIL
 10
-83.332392354088157
 20
8.1554691837893571
 30
0.0
 11
-81.999999999999488
 21
10.999999999999609
 31
0.0
  0
LINE
  5
10BD
  8
SAPA_GLAS
 10
-84.999999999999474
 20
37.999999999999623
 30
0.0
 11
-68.999999999999474
 21
37.999999999999623
 31
0.0
  0
LINE
  5
10BE
  8
SAPA_GLAS
 10
-84.999999999999474
 20
25.99999999999962
 30
0.0
 11
-68.999999999999474
 21
25.99999999999962
 31
0.0
1001
ACAD
1000
ASC_BOUNDS
1002
{
1070
    19
1005
10C4
1002
}
  0
LINE
  5
10BF
  8
SAPA_GLAS
 10
-81.999999999999488
 20
10.999999999999609
 30
0.0
 11
-84.999999999999474
 21
10.99999999999962
 31
0.0
1001
ACAD
1000
ASC_BOUNDS
1002
{
1070
    19
1005
10C4
1002
}
  0
LINE
  5
10C0
  8
SAPA_GLAS
 10
-68.999999999999474
 20
10.999999999999609
 30
0.0
 11
-71.999999999999488
 21
10.999999999999609
 31
0.0
1001
ACAD
1000
ASC_BOUNDS
1002
{
1070
    19
1005
10C4
1002
}
  0
POLYLINE
  5
10C1
  8
SAPA_GLAS
 66
     1
 10
0.0
 20
0.0
 30
0.0
1001
ACAD
1000
ASC_BOUNDS
1002
{
1070
    19
1005
10C4
1002
}
  0
VERTEX
  5
15DE
  8
SAPA_GLAS
 10
-90.999999999999474
 20
40.999999999999609
 30
0.0
  0
VERTEX
  5
15DF
  8
SAPA_GLAS
 10
-90.999999999999488
 20
10.99999999999962
 30
0.0
  0
VERTEX
  5
15E0
  8
SAPA_GLAS
 10
-84.999999999999474
 20
10.99999999999962
 30
0.0
  0
VERTEX
  5
15E1
  8
SAPA_GLAS
 10
-84.999999999999474
 20
40.999999999999609
 30
0.0
  0
SEQEND
  5
15E2
  8
SAPA_GLAS
  0
POLYLINE
  5
10C2
  8
SAPA_GLAS
 66
     1
 10
0.0
 20
0.0
 30
0.0
1001
ACAD
1000
ASC_BOUNDS
1002
{
1070
    19
1005
10C4
1002
}
  0
VERTEX
  5
15E3
  8
SAPA_GLAS
 10
-68.999999999999474
 20
40.999999999999609
 30
0.0
  0
VERTEX
  5
15E4
  8
SAPA_GLAS
 10
-68.999999999999474
 20
10.999999999999609
 30
0.0
  0
VERTEX
  5
15E5
  8
SAPA_GLAS
 10
-62.999999999999488
 20
10.999999999999609
 30
0.0
  0
VERTEX
  5
15E6
  8
SAPA_GLAS
 10
-62.999999999999481
 20
40.999999999999609
 30
0.0
  0
SEQEND
  5
15E7
  8
SAPA_GLAS
  0
POLYLINE
  5
10C3
  8
SAPA_GLAS
 66
     1
 10
0.0
 20
0.0
 30
0.0
 70
     1
1001
ACAD
1000
ASC_BOUNDS
1002
{
1070
    19
1005
10C4
1002
}
  0
VERTEX
  5
15E8
  8
SAPA_GLAS
 10
-80.199999999999477
 20
18.999999999999609
 30
0.0
  0
VERTEX
  5
15E9
  8
SAPA_GLAS
 10
-73.7999999999995
 20
18.999999999999609
 30
0.0
 42
-0.4142135623730951
  0
VERTEX
  5
15EA
  8
SAPA_GLAS
 10
-73.499999999999488
 20
18.699999999999601
 30
0.0
  0
VERTEX
  5
15EB
  8
SAPA_GLAS
 10
-73.499999999999488
 20
10.999999999999609
 30
0.0
  0
VERTEX
  5
15EC
  8
SAPA_GLAS
 10
-71.999999999999488
 20
10.999999999999609
 30
0.0
  0
VERTEX
  5
15ED
  8
SAPA_GLAS
 10
-71.999999999999488
 20
20.699999999999608
 30
0.0
 42
0.4142135623730951
  0
VERTEX
  5
15EE
  8
SAPA_GLAS
 10
-72.2999999999995
 20
20.99999999999962
 30
0.0
  0
VERTEX
  5
15EF
  8
SAPA_GLAS
 10
-81.699999999999477
 20
20.99999999999962
 30
0.0
 42
0.4142135623730951
  0
VERTEX
  5
15F0
  8
SAPA_GLAS
 10
-81.999999999999488
 20
20.699999999999608
 30
0.0
  0
VERTEX
  5
15F1
  8
SAPA_GLAS
 10
-81.999999999999488
 20
10.999999999999609
 30
0.0
  0
VERTEX
  5
15F2
  8
SAPA_GLAS
 10
-80.499999999999488
 20
10.999999999999609
 30
0.0
  0
VERTEX
  5
15F3
  8
SAPA_GLAS
 10
-80.499999999999488
 20
18.699999999999601
 30
0.0
 42
-0.4142135623730951
  0
SEQEND
  5
15F4
  8
SAPA_GLAS
  0
INSERT
  5
10C4
  8
SAPA_GLAS
  6
CONTINUOUS
  2
*X54
 10
0.0
 20
0.0
 30
0.0
1001
GRADIENTCOLOR1ACI
1070
     5
1001
GRADIENTCOLOR2ACI
1070
     2
1001
ACAD
1000
HATCH
1002
{
1070
    19
1000
ANSI37
1040
0.25
1040
-1.5707963267948959
1000
ASC_BOUNDS
1070
     1
1070
     1
1070
     6
1005
10BF
1005
10C1
1005
10BE
1005
10C2
1005
10C0
1005
10C3
1000
ASC_SEEDPOINT
1011
-79.450586921254398
1021
0.0
1031
-0.0
1021
21.804617272266128
1031
0.0
1000
R14_HATCH_DATA
1000
10C4
1011
1.0
1021
0.0
1031
-0.0
1021
0.0
1031
0.0
1011
0.0
1021
0.0
1031
-0.0
1021
1.0
1031
0.0
1011
0.0
1021
0.0
1031
-0.0
1021
0.0
1031
1.0
1040
0.0
1010
0.0
1020
0.0
1030
1.0
1000
ANSI37
1070
     0
1070
     1
1071
        1
1071
        7
1070
     1
1070
     1
1071
       10
1040
-72.2999999999995
1040
20.99999999999962
1040
-0.4142135623730951
1040
-71.999999999999488
1040
20.699999999999608
1040
0.0
1040
-71.999999999999488
1040
10.999999999999609
1040
0.0
1040
-68.999999999999474
1040
10.999999999999609
1040
0.0
1040
-68.999999999999474
1040
25.99999999999962
1040
0.0
1040
-84.999999999999474
1040
25.99999999999962
1040
0.0
1040
-84.999999999999474
1040
10.99999999999962
1040
0.0
1040
-81.999999999999488
1040
10.999999999999609
1040
0.0
1040
-81.999999999999488
1040
20.699999999999608
1040
-0.4142135623730951
1040
-81.699999999999477
1040
20.99999999999962
1040
0.0
1071
        6
1005
10C3
1005
10C0
1005
10C2
1005
10BE
1005
10C1
1005
10BF
1070
     1
1070
     1
1040
-1.5707963267948959
1040
0.25
1070
     0
1070
     2
1040
5.4977871437821371
1040
0.0
1040
0.0
1040
0.5612660075668222
1040
0.5612660075668219
1070
     0
1040
0.7853981633974481
1040
0.0
1040
0.0
1040
-0.5612660075668219
1040
0.5612660075668222
1070
     0
1040
0.1332406017304326
1071
        1
1040
-79.450586921254398
1040
21.804617272266128
1040
0.0
1002
}
  0
LINE
  5
10C5
  8
SAPA_GLAS
 10
-84.999999999999503
 20
-37.999999999999581
 30
0.0
 11
-68.999999999999503
 21
-37.999999999999588
 31
0.0
  0
LINE
  5
10C6
  8
SAPA_GLAS
 10
-84.999999999999474
 20
-25.999999999999591
 30
0.0
 11
-68.999999999999474
 21
-25.999999999999591
 31
0.0
1001
ACAD
1000
ASC_BOUNDS
1002
{
1070
    19
1005
10CC
1002
}
  0
LINE
  5
10C7
  8
SAPA_GLAS
 10
-81.999999999999488
 20
-10.999999999999581
 30
0.0
 11
-84.999999999999474
 21
-10.999999999999581
 31
0.0
1001
ACAD
1000
ASC_BOUNDS
1002
{
1070
    19
1005
10CC
1002
}
  0
LINE
  5
10C8
  8
SAPA_GLAS
 10
-68.999999999999474
 20
-10.99999999999959
 30
0.0
 11
-71.999999999999488
 21
-10.99999999999959
 31
0.0
1001
ACAD
1000
ASC_BOUNDS
1002
{
1070
    19
1005
10CC
1002
}
  0
POLYLINE
  5
10C9
  8
SAPA_GLAS
 66
     1
 10
0.0
 20
0.0
 30
0.0
1001
ACAD
1000
ASC_BOUNDS
1002
{
1070
    19
1005
10CC
1002
}
  0
VERTEX
  5
1640
  8
SAPA_GLAS
 10
-90.999999999999488
 20
-40.999999999999567
 30
0.0
  0
VERTEX
  5
1641
  8
SAPA_GLAS
 10
-90.999999999999488
 20
-10.999999999999581
 30
0.0
  0
VERTEX
  5
1642
  8
SAPA_GLAS
 10
-84.999999999999474
 20
-10.999999999999581
 30
0.0
  0
VERTEX
  5
1643
  8
SAPA_GLAS
 10
-84.999999999999503
 20
-40.999999999999567
 30
0.0
  0
SEQEND
  5
1644
  8
SAPA_GLAS
  0
POLYLINE
  5
10CA
  8
SAPA_GLAS
 66
     1
 10
0.0
 20
0.0
 30
0.0
1001
ACAD
1000
ASC_BOUNDS
1002
{
1070
    19
1005
10CC
1002
}
  0
VERTEX
  5
1645
  8
SAPA_GLAS
 10
-68.999999999999503
 20
-40.999999999999581
 30
0.0
  0
VERTEX
  5
1646
  8
SAPA_GLAS
 10
-68.999999999999474
 20
-10.99999999999959
 30
0.0
  0
VERTEX
  5
1647
  8
SAPA_GLAS
 10
-62.999999999999488
 20
-10.99999999999959
 30
0.0
  0
VERTEX
  5
1648
  8
SAPA_GLAS
 10
-62.999999999999503
 20
-40.999999999999581
 30
0.0
  0
SEQEND
  5
1649
  8
SAPA_GLAS
  0
POLYLINE
  5
10CB
  8
SAPA_GLAS
 66
     1
 10
0.0
 20
0.0
 30
0.0
 70
     1
1001
ACAD
1000
ASC_BOUNDS
1002
{
1070
    19
1005
10CC
1002
}
  0
VERTEX
  5
164A
  8
SAPA_GLAS
 10
-80.199999999999477
 20
-18.999999999999581
 30
0.0
  0
VERTEX
  5
164B
  8
SAPA_GLAS
 10
-73.7999999999995
 20
-18.999999999999581
 30
0.0
 42
0.4142135623730951
  0
VERTEX
  5
164C
  8
SAPA_GLAS
 10
-73.499999999999488
 20
-18.699999999999569
 30
0.0
  0
VERTEX
  5
164D
  8
SAPA_GLAS
 10
-73.499999999999488
 20
-10.99999999999959
 30
0.0
  0
VERTEX
  5
164E
  8
SAPA_GLAS
 10
-71.999999999999488
 20
-10.99999999999959
 30
0.0
  0
VERTEX
  5
164F
  8
SAPA_GLAS
 10
-71.999999999999488
 20
-20.69999999999958
 30
0.0
 42
-0.4142135623730951
  0
VERTEX
  5
1650
  8
SAPA_GLAS
 10
-72.2999999999995
 20
-20.999999999999581
 30
0.0
  0
VERTEX
  5
1651
  8
SAPA_GLAS
 10
-81.699999999999477
 20
-20.999999999999581
 30
0.0
 42
-0.4142135623730951
  0
VERTEX
  5
1652
  8
SAPA_GLAS
 10
-81.999999999999488
 20
-20.699999999999569
 30
0.0
  0
VERTEX
  5
1653
  8
SAPA_GLAS
 10
-81.999999999999488
 20
-10.999999999999581
 30
0.0
  0
VERTEX
  5
1654
  8
SAPA_GLAS
 10
-80.499999999999488
 20
-10.999999999999581
 30
0.0
  0
VERTEX
  5
1655
  8
SAPA_GLAS
 10
-80.499999999999488
 20
-18.699999999999569
 30
0.0
 42
0.4142135623730951
  0
SEQEND
  5
1656
  8
SAPA_GLAS
  0
INSERT
  5
10CC
  8
SAPA_GLAS
  6
CONTINUOUS
  2
*X55
 10
0.0
 20
0.0
 30
0.0
1001
GRADIENTCOLOR1ACI
1070
     5
1001
GRADIENTCOLOR2ACI
1070
     2
1001
ACAD
1000
HATCH
1002
{
1070
    19
1000
ANSI37
1040
0.25
1040
0.0
1000
ASC_BOUNDS
1070
     1
1070
     1
1070
     6
1005
10C7
1005
10C9
1005
10C6
1005
10CA
1005
10C8
1005
10CB
1000
ASC_SEEDPOINT
1011
-79.450586921254398
1021
0.0
1031
-0.0
1021
-21.8046172722661
1031
0.0
1000
R14_HATCH_DATA
1000
10CC
1011
1.0
1021
0.0
1031
-0.0
1021
0.0
1031
0.0
1011
0.0
1021
0.0
1031
-0.0
1021
1.0
1031
0.0
1011
0.0
1021
0.0
1031
-0.0
1021
0.0
1031
1.0
1040
0.0
1010
0.0
1020
0.0
1030
1.0
1000
ANSI37
1070
     0
1070
     1
1071
        1
1071
        7
1070
     1
1070
     1
1071
       10
1040
-72.2999999999995
1040
-20.999999999999581
1040
0.4142135623730951
1040
-71.999999999999488
1040
-20.69999999999958
1040
0.0
1040
-71.999999999999488
1040
-10.99999999999959
1040
0.0
1040
-68.999999999999474
1040
-10.99999999999959
1040
0.0
1040
-68.999999999999474
1040
-25.999999999999591
1040
0.0
1040
-84.999999999999474
1040
-25.999999999999591
1040
0.0
1040
-84.999999999999474
1040
-10.999999999999581
1040
0.0
1040
-81.999999999999488
1040
-10.999999999999581
1040
0.0
1040
-81.999999999999488
1040
-20.699999999999569
1040
0.4142135623730951
1040
-81.699999999999477
1040
-20.999999999999581
1040
0.0
1071
        6
1005
10CB
1005
10C8
1005
10CA
1005
10C6
1005
10C9
1005
10C7
1070
     1
1070
     1
1040
0.0
1040
0.25
1070
     0
1070
     2
1040
0.7853981633974483
1040
0.0
1040
0.0
1040
-0.5612660075668221
1040
0.5612660075668221
1070
     0
1040
2.3561944901923439
1040
0.0
1040
0.0
1040
-0.5612660075668221
1040
-0.5612660075668221
1070
     0
1040
0.1332406017304326
1071
        1
1040
-79.450586921254398
1040
-21.8046172722661
1040
0.0
1002
}
  0
INSERT
  5
10D2
  8
SAPA_FYLLNING
  6
CONTINUOUS
  2
*X57
 10
0.0
 20
0.0
 30
0.0
1001
GRADIENTCOLOR1ACI
1070
     5
1001
GRADIENTCOLOR2ACI
1070
     2
1001
ACAD
1000
HATCH
1002
{
1070
    19
1000
ANSI37
1040
0.25
1040
-1.5707963267948959
1000
R14_HATCH_DATA
1000
10D2
1011
1.0
1021
0.0
1031
-0.0
1021
0.0
1031
0.0
1011
0.0
1021
0.0
1031
-0.0
1021
1.0
1031
0.0
1011
0.0
1021
0.0
1031
-0.0
1021
0.0
1031
1.0
1040
0.0
1010
0.0
1020
0.0
1030
1.0
1000
ANSI37
1070
     0
1070
     0
1071
        1
1071
        7
1070
     1
1070
     1
1071
       10
1040
-90.999999999999488
1040
-10.999999999999581
1040
0.0
1040
-84.999999999999474
1040
-10.999999999999581
1040
0.0
1040
-81.999999999999488
1040
-10.99999999999959
1040
0.0
1040
-83.096354115955862
1040
-8.6593883485197924
1040
-0.14191703096683
1040
-83.332392354087347
1040
-8.1554691837893021
1040
-0.0782100801382185
1040
-83.332392354088157
1040
8.1554691837841311
1040
-0.1419170309632624
1040
-83.096354115965354
1040
8.6593883485038408
1040
0.0
1040
-81.999999999999488
1040
10.999999999999609
1040
0.0
1040
-84.999999999999474
1040
10.99999999999962
1040
0.0
1040
-90.999999999999517
1040
10.99999999999962
1040
-0.0670696010119378
1071
        0
1070
     1
1070
     1
1040
-1.5707963267948959
1040
0.25
1070
     0
1070
     2
1040
5.4977871437821371
1040
0.0
1040
0.0
1040
0.5612660075668222
1040
0.5612660075668219
1070
     0
1040
0.7853981633974481
1040
0.0
1040
0.0
1040
-0.5612660075668219
1040
0.5612660075668222
1070
     0
1040
0.0243851215238776
1071
        1
1040
-87.848372678597798
1040
1.060341990365502
1040
0.0
1002
}
  0
POLYLINE
  5
10DA
  8
SAPA_ISOLATOR
 66
     1
 10
0.0
 20
0.0
 30
0.0
 70
     1
  0
VERTEX
  5
175A
  8
SAPA_ISOLATOR
 10
-53.699999999999818
 20
3.5
 30
0.0
  0
VERTEX
  5
175B
  8
SAPA_ISOLATOR
 10
-53.699999999999818
 20
2.6029440986901591
 30
0.0
  0
VERTEX
  5
175C
  8
SAPA_ISOLATOR
 10
-52.197055901308431
 20
1.099999999998772
 30
0.0
  0
VERTEX
  5
175D
  8
SAPA_ISOLATOR
 10
-46.478136728428119
 20
1.0999999999989989
 30
0.0
 42
-0.0502608893789828
  0
VERTEX
  5
175E
  8
SAPA_ISOLATOR
 10
-45.495019712916701
 20
0.4230777223442601
 30
0.0
 42
-0.460955221230658
  0
VERTEX
  5
175F
  8
SAPA_ISOLATOR
 10
-45.495019712917383
 20
-0.4230769752680317
 30
0.0
 42
-0.0502609546985642
  0
VERTEX
  5
1760
  8
SAPA_ISOLATOR
 10
-46.478138087674779
 20
-1.1000000000012731
 30
0.0
  0
VERTEX
  5
1761
  8
SAPA_ISOLATOR
 10
-52.197056648386933
 20
-1.1000000000012731
 30
0.0
  0
VERTEX
  5
1762
  8
SAPA_ISOLATOR
 10
-53.700000000000038
 20
-2.6029433516139302
 30
0.0
  0
VERTEX
  5
1763
  8
SAPA_ISOLATOR
 10
-53.700000000000038
 20
-3.5
 30
0.0
 42
-0.4142135623728733
  0
VERTEX
  5
1764
  8
SAPA_ISOLATOR
 10
-54.0
 20
-3.7999999999999541
 30
0.0
  0
VERTEX
  5
1765
  8
SAPA_ISOLATOR
 10
-61.099999999999959
 20
-3.8000000000009768
 30
0.0
 42
-0.4142135623731387
  0
VERTEX
  5
1766
  8
SAPA_ISOLATOR
 10
-61.600000000000023
 20
-3.3000000000009768
 30
0.0
  0
VERTEX
  5
1767
  8
SAPA_ISOLATOR
 10
-61.60000000000008
 20
3.2999999999988172
 30
0.0
 42
-0.4142135623730469
  0
VERTEX
  5
1768
  8
SAPA_ISOLATOR
 10
-61.100000000000129
 20
3.7999999999988172
 30
0.0
  0
VERTEX
  5
1769
  8
SAPA_ISOLATOR
 10
-54.0
 20
3.7999999999999541
 30
0.0
 42
-0.4142135623733169
  0
SEQEND
  5
176A
  8
SAPA_ISOLATOR
  0
POLYLINE
  5
10DB
  8
SAPA_ISOLATOR
 66
     1
 10
0.0
 20
0.0
 30
0.0
 70
     1
  0
VERTEX
  5
176B
  8
SAPA_ISOLATOR
 10
-71.499999999998053
 20
6.7999999999974534
 30
0.0
 42
-0.4142135623731284
  0
VERTEX
  5
176C
  8
SAPA_ISOLATOR
 10
-70.999999999997954
 20
6.2999999999974534
 30
0.0
  0
VERTEX
  5
176D
  8
SAPA_ISOLATOR
 10
-70.999999999997954
 20
5.5
 30
0.0
 42
0.4142135623730951
  0
VERTEX
  5
176E
  8
SAPA_ISOLATOR
 10
-70.499999999997954
 20
5.0
 30
0.0
  0
VERTEX
  5
176F
  8
SAPA_ISOLATOR
 10
-53.0
 20
4.9999999999997717
 30
0.0
 42
-0.4142135623730951
  0
VERTEX
  5
1770
  8
SAPA_ISOLATOR
 10
-52.5
 20
4.4999999999997717
 30
0.0
  0
VERTEX
  5
1771
  8
SAPA_ISOLATOR
 10
-52.5
 20
3.1000003735380228
 30
0.0
  0
VERTEX
  5
1772
  8
SAPA_ISOLATOR
 10
-51.69999962646056
 20
2.2999999999985898
 30
0.0
  0
VERTEX
  5
1773
  8
SAPA_ISOLATOR
 10
-47.241778772773273
 20
2.3000000000004088
 30
0.0
 42
-0.0970774689087859
  0
VERTEX
  5
1774
  8
SAPA_ISOLATOR
 10
-44.975410008182727
 20
1.031358705728052
 30
0.0
 42
-0.4609552212306134
  0
VERTEX
  5
1775
  8
SAPA_ISOLATOR
 10
-44.975410008182607
 20
-1.0313579586517101
 30
0.0
 42
-0.0970775585520922
  0
VERTEX
  5
1776
  8
SAPA_ISOLATOR
 10
-47.241781051835908
 20
-2.3000000000013179
 30
0.0
  0
VERTEX
  5
1777
  8
SAPA_ISOLATOR
 10
-51.700000373539517
 20
-2.3000000000013179
 30
0.0
  0
VERTEX
  5
1778
  8
SAPA_ISOLATOR
 10
-52.5
 20
-3.099999626461567
 30
0.0
  0
VERTEX
  5
1779
  8
SAPA_ISOLATOR
 10
-52.5
 20
-4.4999999999997717
 30
0.0
 42
-0.4142135623730951
  0
VERTEX
  5
177A
  8
SAPA_ISOLATOR
 10
-53.0
 20
-4.9999999999997717
 30
0.0
  0
VERTEX
  5
177B
  8
SAPA_ISOLATOR
 10
-70.499999999997954
 20
-5.0000000000050022
 30
0.0
 42
0.4142135623730951
  0
VERTEX
  5
177C
  8
SAPA_ISOLATOR
 10
-70.999999999997954
 20
-5.5000000000050022
 30
0.0
  0
VERTEX
  5
177D
  8
SAPA_ISOLATOR
 10
-70.999999999997954
 20
-6.3000000000024547
 30
0.0
 42
-0.4142135623731617
  0
VERTEX
  5
177E
  8
SAPA_ISOLATOR
 10
-71.499999999998522
 20
-6.8000000000023979
 30
0.0
  0
VERTEX
  5
177F
  8
SAPA_ISOLATOR
 10
-80.299999999998477
 20
-6.8000000000026262
 30
0.0
 42
-0.4142135623730951
  0
VERTEX
  5
1780
  8
SAPA_ISOLATOR
 10
-81.299999999998477
 20
-5.800000000002683
 30
0.0
  0
VERTEX
  5
1781
  8
SAPA_ISOLATOR
 10
-81.299999999998477
 20
-5.0873719966523359
 30
0.0
 42
-0.221694662643068
  0
VERTEX
  5
1782
  8
SAPA_ISOLATOR
 10
-81.192836282904295
 20
-4.8575586637166452
 30
0.0
  0
VERTEX
  5
1783
  8
SAPA_ISOLATOR
 10
-80.492055319897077
 20
-4.269533616121179
 30
0.0
 42
-0.6358782360467221
  0
VERTEX
  5
1784
  8
SAPA_ISOLATOR
 10
-79.999999999998522
 20
-4.5000000000018181
 30
0.0
  0
VERTEX
  5
1785
  8
SAPA_ISOLATOR
 10
-79.999999999998295
 20
-5.300000000002683
 30
0.0
 42
0.4142135623730951
  0
VERTEX
  5
1786
  8
SAPA_ISOLATOR
 10
-79.699999999998113
 20
-5.6000000000024102
 30
0.0
  0
VERTEX
  5
1787
  8
SAPA_ISOLATOR
 10
-72.499999999998522
 20
-5.6000000000026366
 30
0.0
 42
0.9995465490080238
  0
VERTEX
  5
1788
  8
SAPA_ISOLATOR
 10
-72.499999999998295
 20
-4.9993422943207397
 30
0.0
  0
VERTEX
  5
1789
  8
SAPA_ISOLATOR
 10
-72.49999999999801
 20
-0.8660254037865797
 30
0.0
  0
VERTEX
  5
178A
  8
SAPA_ISOLATOR
 10
-71.999999999998124
 20
-0.0000000000022737
 30
0.0
  0
VERTEX
  5
178B
  8
SAPA_ISOLATOR
 10
-72.499999999998238
 20
0.8660254037823733
 30
0.0
  0
VERTEX
  5
178C
  8
SAPA_ISOLATOR
 10
-72.499999999998295
 20
4.9993422943157384
 30
0.0
 42
0.9995465490087907
  0
VERTEX
  5
178D
  8
SAPA_ISOLATOR
 10
-72.499999999998522
 20
5.5999999999971797
 30
0.0
  0
VERTEX
  5
178E
  8
SAPA_ISOLATOR
 10
-79.699999999998113
 20
5.5999999999974071
 30
0.0
 42
0.4142135623735446
  0
VERTEX
  5
178F
  8
SAPA_ISOLATOR
 10
-79.999999999998067
 20
5.2999999999976799
 30
0.0
  0
VERTEX
  5
1790
  8
SAPA_ISOLATOR
 10
-79.999999999998522
 20
4.4999999999977263
 30
0.0
 42
-0.6358782360470147
  0
VERTEX
  5
1791
  8
SAPA_ISOLATOR
 10
-80.492055319897077
 20
4.2695336161186779
 30
0.0
  0
VERTEX
  5
1792
  8
SAPA_ISOLATOR
 10
-81.192836282904295
 20
4.8575586637143706
 30
0.0
 42
-0.2216946626430204
  0
VERTEX
  5
1793
  8
SAPA_ISOLATOR
 10
-81.299999999998477
 20
5.0873719966498347
 30
0.0
  0
VERTEX
  5
1794
  8
SAPA_ISOLATOR
 10
-81.299999999998477
 20
5.7999999999981346
 30
0.0
 42
-0.4142135623731617
  0
VERTEX
  5
1795
  8
SAPA_ISOLATOR
 10
-80.299999999998249
 20
6.7999999999981346
 30
0.0
  0
SEQEND
  5
1796
  8
SAPA_ISOLATOR
  0
POLYLINE
  5
10DC
  8
SAPA_ISOLATOR
 66
     1
 10
0.0
 20
0.0
 30
0.0
 70
     1
  0
VERTEX
  5
1797
  8
SAPA_ISOLATOR
 10
-63.1000000000002
 20
3.7999999999984762
 30
0.0
 42
-0.4142135623731387
  0
VERTEX
  5
1798
  8
SAPA_ISOLATOR
 10
-62.600000000000129
 20
3.2999999999984762
 30
0.0
  0
VERTEX
  5
1799
  8
SAPA_ISOLATOR
 10
-62.60000000000008
 20
-3.300000000001432
 30
0.0
 42
-0.4142135623730514
  0
VERTEX
  5
179A
  8
SAPA_ISOLATOR
 10
-63.100000000000023
 20
-3.800000000001432
 30
0.0
  0
VERTEX
  5
179B
  8
SAPA_ISOLATOR
 10
-70.200000000000159
 20
-3.8000000000024552
 30
0.0
 42
-0.4142135623730951
  0
VERTEX
  5
179C
  8
SAPA_ISOLATOR
 10
-70.700000000000159
 20
-3.3000000000024552
 30
0.0
  0
VERTEX
  5
179D
  8
SAPA_ISOLATOR
 10
-70.700000000000159
 20
3.299999999997453
 30
0.0
 42
-0.4142135623730951
  0
VERTEX
  5
179E
  8
SAPA_ISOLATOR
 10
-70.200000000000159
 20
3.799999999997453
 30
0.0
  0
SEQEND
  5
179F
  8
SAPA_ISOLATOR
  0
POLYLINE
  5
1102
  8
SAPA_FOGBAND
 10
-40.499999966998303
 20
-21.699999999993103
 30
0.0
 66
     1
 70
     8
  0
VERTEX
  8
SAPA_FOGBAND
  5
18C6
 10
-40.5000
 20
-21.7000
 30
0.000000
  70
    32
  0
VERTEX
  8
SAPA_FOGBAND
  5
18C7
 10
-40.4964
 20
-21.6117
 30
0.000000
  70
    32
  0
VERTEX
  8
SAPA_FOGBAND
  5
18C8
 10
-40.4858
 20
-21.5236
 30
0.000000
  70
    32
  0
VERTEX
  8
SAPA_FOGBAND
  5
18C9
 10
-40.4680
 20
-21.4359
 30
0.000000
  70
    32
  0
VERTEX
  8
SAPA_FOGBAND
  5
18CA
 10
-40.4432
 20
-21.3488
 30
0.000000
  70
    32
  0
VERTEX
  8
SAPA_FOGBAND
  5
18CB
 10
-40.4115
 20
-21.2626
 30
0.000000
  70
    32
  0
VERTEX
  8
SAPA_FOGBAND
  5
18CC
 10
-40.3728
 20
-21.1775
 30
0.000000
  70
    32
  0
VERTEX
  8
SAPA_FOGBAND
  5
18CD
 10
-40.3273
 20
-21.0936
 30
0.000000
  70
    32
  0
VERTEX
  8
SAPA_FOGBAND
  5
18CE
 10
-40.2751
 20
-21.0112
 30
0.000000
  70
    32
  0
VERTEX
  8
SAPA_FOGBAND
  5
18CF
 10
-40.2163
 20
-20.9304
 30
0.000000
  70
    32
  0
VERTEX
  8
SAPA_FOGBAND
  5
18D0
 10
-40.1512
 20
-20.8515
 30
0.000000
  70
    32
  0
VERTEX
  8
SAPA_FOGBAND
  5
18D1
 10
-40.0797
 20
-20.7746
 30
0.000000
  70
    32
  0
VERTEX
  8
SAPA_FOGBAND
  5
18D2
 10
-40.0021
 20
-20.7000
 30
0.000000
  70
    32
  0
VERTEX
  8
SAPA_FOGBAND
  5
18D3
 10
-39.9186
 20
-20.6277
 30
0.000000
  70
    32
  0
VERTEX
  8
SAPA_FOGBAND
  5
18D4
 10
-39.8294
 20
-20.5581
 30
0.000000
  70
    32
  0
VERTEX
  8
SAPA_FOGBAND
  5
18D5
 10
-39.7347
 20
-20.4912
 30
0.000000
  70
    32
  0
VERTEX
  8
SAPA_FOGBAND
  5
18D6
 10
-39.6347
 20
-20.4272
 30
0.000000
  70
    32
  0
VERTEX
  8
SAPA_FOGBAND
  5
18D7
 10
-39.5297
 20
-20.3663
 30
0.000000
  70
    32
  0
VERTEX
  8
SAPA_FOGBAND
  5
18D8
 10
-39.4199
 20
-20.3086
 30
0.000000
  70
    32
  0
VERTEX
  8
SAPA_FOGBAND
  5
18D9
 10
-39.3055
 20
-20.2542
 30
0.000000
  70
    32
  0
VERTEX
  8
SAPA_FOGBAND
  5
18DA
 10
-39.1870
 20
-20.2034
 30
0.000000
  70
    32
  0
VERTEX
  8
SAPA_FOGBAND
  5
18DB
 10
-39.0645
 20
-20.1561
 30
0.000000
  70
    32
  0
VERTEX
  8
SAPA_FOGBAND
  5
18DC
 10
-38.9383
 20
-20.1125
 30
0.000000
  70
    32
  0
VERTEX
  8
SAPA_FOGBAND
  5
18DD
 10
-38.8088
 20
-20.0728
 30
0.000000
  70
    32
  0
VERTEX
  8
SAPA_FOGBAND
  5
18DE
 10
-38.6762
 20
-20.0370
 30
0.000000
  70
    32
  0
VERTEX
  8
SAPA_FOGBAND
  5
18DF
 10
-38.5409
 20
-20.0052
 30
0.000000
  70
    32
  0
VERTEX
  8
SAPA_FOGBAND
  5
18E0
 10
-38.4032
 20
-19.9775
 30
0.000000
  70
    32
  0
VERTEX
  8
SAPA_FOGBAND
  5
18E1
 10
-38.2635
 20
-19.9539
 30
0.000000
  70
    32
  0
VERTEX
  8
SAPA_FOGBAND
  5
18E2
 10
-38.1220
 20
-19.9346
 30
0.000000
  70
    32
  0
VERTEX
  8
SAPA_FOGBAND
  5
18E3
 10
-37.9791
 20
-19.9195
 30
0.000000
  70
    32
  0
VERTEX
  8
SAPA_FOGBAND
  5
18E4
 10
-37.8352
 20
-19.9087
 30
0.000000
  70
    32
  0
VERTEX
  8
SAPA_FOGBAND
  5
18E5
 10
-37.6906
 20
-19.9022
 30
0.000000
  70
    32
  0
VERTEX
  8
SAPA_FOGBAND
  5
18E6
 10
-37.5456
 20
-19.9000
 30
0.000000
  70
    32
  0
VERTEX
  8
SAPA_FOGBAND
  5
18E7
 10
-37.4007
 20
-19.9022
 30
0.000000
  70
    32
  0
VERTEX
  8
SAPA_FOGBAND
  5
18E8
 10
-37.2561
 20
-19.9087
 30
0.000000
  70
    32
  0
VERTEX
  8
SAPA_FOGBAND
  5
18E9
 10
-37.1121
 20
-19.9195
 30
0.000000
  70
    32
  0
VERTEX
  8
SAPA_FOGBAND
  5
18EA
 10
-36.9693
 20
-19.9346
 30
0.000000
  70
    32
  0
VERTEX
  8
SAPA_FOGBAND
  5
18EB
 10
-36.8278
 20
-19.9539
 30
0.000000
  70
    32
  0
VERTEX
  8
SAPA_FOGBAND
  5
18EC
 10
-36.6880
 20
-19.9775
 30
0.000000
  70
    32
  0
VERTEX
  8
SAPA_FOGBAND
  5
18ED
 10
-36.5503
 20
-20.0052
 30
0.000000
  70
    32
  0
VERTEX
  8
SAPA_FOGBAND
  5
18EE
 10
-36.4151
 20
-20.0370
 30
0.000000
  70
    32
  0
VERTEX
  8
SAPA_FOGBAND
  5
18EF
 10
-36.2825
 20
-20.0728
 30
0.000000
  70
    32
  0
VERTEX
  8
SAPA_FOGBAND
  5
18F0
 10
-36.1530
 20
-20.1125
 30
0.000000
  70
    32
  0
VERTEX
  8
SAPA_FOGBAND
  5
18F1
 10
-36.0268
 20
-20.1561
 30
0.000000
  70
    32
  0
VERTEX
  8
SAPA_FOGBAND
  5
18F2
 10
-35.9043
 20
-20.2034
 30
0.000000
  70
    32
  0
VERTEX
  8
SAPA_FOGBAND
  5
18F3
 10
-35.7857
 20
-20.2542
 30
0.000000
  70
    32
  0
VERTEX
  8
SAPA_FOGBAND
  5
18F4
 10
-35.6714
 20
-20.3086
 30
0.000000
  70
    32
  0
VERTEX
  8
SAPA_FOGBAND
  5
18F5
 10
-35.5616
 20
-20.3663
 30
0.000000
  70
    32
  0
VERTEX
  8
SAPA_FOGBAND
  5
18F6
 10
-35.4566
 20
-20.4272
 30
0.000000
  70
    32
  0
VERTEX
  8
SAPA_FOGBAND
  5
18F7
 10
-35.3566
 20
-20.4912
 30
0.000000
  70
    32
  0
VERTEX
  8
SAPA_FOGBAND
  5
18F8
 10
-35.2619
 20
-20.5581
 30
0.000000
  70
    32
  0
VERTEX
  8
SAPA_FOGBAND
  5
18F9
 10
-35.1727
 20
-20.6277
 30
0.000000
  70
    32
  0
VERTEX
  8
SAPA_FOGBAND
  5
18FA
 10
-35.0892
 20
-20.7000
 30
0.000000
  70
    32
  0
VERTEX
  8
SAPA_FOGBAND
  5
18FB
 10
-35.0116
 20
-20.7746
 30
0.000000
  70
    32
  0
VERTEX
  8
SAPA_FOGBAND
  5
18FC
 10
-34.9401
 20
-20.8515
 30
0.000000
  70
    32
  0
VERTEX
  8
SAPA_FOGBAND
  5
18FD
 10
-34.8749
 20
-20.9304
 30
0.000000
  70
    32
  0
VERTEX
  8
SAPA_FOGBAND
  5
18FE
 10
-34.8162
 20
-21.0112
 30
0.000000
  70
    32
  0
VERTEX
  8
SAPA_FOGBAND
  5
18FF
 10
-34.7640
 20
-21.0936
 30
0.000000
  70
    32
  0
VERTEX
  8
SAPA_FOGBAND
  5
1900
 10
-34.7185
 20
-21.1775
 30
0.000000
  70
    32
  0
VERTEX
  8
SAPA_FOGBAND
  5
1901
 10
-34.6798
 20
-21.2626
 30
0.000000
  70
    32
  0
VERTEX
  8
SAPA_FOGBAND
  5
1902
 10
-34.6480
 20
-21.3488
 30
0.000000
  70
    32
  0
VERTEX
  8
SAPA_FOGBAND
  5
1903
 10
-34.6233
 20
-21.4359
 30
0.000000
  70
    32
  0
VERTEX
  8
SAPA_FOGBAND
  5
1904
 10
-34.6055
 20
-21.5236
 30
0.000000
  70
    32
  0
VERTEX
  8
SAPA_FOGBAND
  5
1905
 10
-34.5948
 20
-21.6117
 30
0.000000
  70
    32
  0
VERTEX
  8
SAPA_FOGBAND
  5
1906
 10
-34.5913
 20
-21.7000
 30
0.000000
  70
    32
  0
VERTEX
  8
SAPA_FOGBAND
  5
1907
 10
-34.5948
 20
-21.7883
 30
0.000000
  70
    32
  0
VERTEX
  8
SAPA_FOGBAND
  5
1908
 10
-34.6055
 20
-21.8764
 30
0.000000
  70
    32
  0
VERTEX
  8
SAPA_FOGBAND
  5
1909
 10
-34.6233
 20
-21.9641
 30
0.000000
  70
    32
  0
VERTEX
  8
SAPA_FOGBAND
  5
190A
 10
-34.6480
 20
-22.0512
 30
0.000000
  70
    32
  0
VERTEX
  8
SAPA_FOGBAND
  5
190B
 10
-34.6798
 20
-22.1374
 30
0.000000
  70
    32
  0
VERTEX
  8
SAPA_FOGBAND
  5
190C
 10
-34.7185
 20
-22.2225
 30
0.000000
  70
    32
  0
VERTEX
  8
SAPA_FOGBAND
  5
190D
 10
-34.7640
 20
-22.3064
 30
0.000000
  70
    32
  0
VERTEX
  8
SAPA_FOGBAND
  5
190E
 10
-34.8162
 20
-22.3888
 30
0.000000
  70
    32
  0
VERTEX
  8
SAPA_FOGBAND
  5
190F
 10
-34.8749
 20
-22.4696
 30
0.000000
  70
    32
  0
VERTEX
  8
SAPA_FOGBAND
  5
1910
 10
-34.9401
 20
-22.5485
 30
0.000000
  70
    32
  0
VERTEX
  8
SAPA_FOGBAND
  5
1911
 10
-35.0116
 20
-22.6254
 30
0.000000
  70
    32
  0
VERTEX
  8
SAPA_FOGBAND
  5
1912
 10
-35.0892
 20
-22.7000
 30
0.000000
  70
    32
  0
VERTEX
  8
SAPA_FOGBAND
  5
1913
 10
-35.1727
 20
-22.7723
 30
0.000000
  70
    32
  0
VERTEX
  8
SAPA_FOGBAND
  5
1914
 10
-35.2619
 20
-22.8419
 30
0.000000
  70
    32
  0
VERTEX
  8
SAPA_FOGBAND
  5
1915
 10
-35.3566
 20
-22.9088
 30
0.000000
  70
    32
  0
VERTEX
  8
SAPA_FOGBAND
  5
1916
 10
-35.4566
 20
-22.9728
 30
0.000000
  70
    32
  0
VERTEX
  8
SAPA_FOGBAND
  5
1917
 10
-35.5616
 20
-23.0337
 30
0.000000
  70
    32
  0
VERTEX
  8
SAPA_FOGBAND
  5
1918
 10
-35.6714
 20
-23.0914
 30
0.000000
  70
    32
  0
VERTEX
  8
SAPA_FOGBAND
  5
1919
 10
-35.7857
 20
-23.1458
 30
0.000000
  70
    32
  0
VERTEX
  8
SAPA_FOGBAND
  5
191A
 10
-35.9043
 20
-23.1966
 30
0.000000
  70
    32
  0
VERTEX
  8
SAPA_FOGBAND
  5
191B
 10
-36.0268
 20
-23.2439
 30
0.000000
  70
    32
  0
VERTEX
  8
SAPA_FOGBAND
  5
191C
 10
-36.1530
 20
-23.2875
 30
0.000000
  70
    32
  0
VERTEX
  8
SAPA_FOGBAND
  5
191D
 10
-36.2825
 20
-23.3272
 30
0.000000
  70
    32
  0
VERTEX
  8
SAPA_FOGBAND
  5
191E
 10
-36.4151
 20
-23.3630
 30
0.000000
  70
    32
  0
VERTEX
  8
SAPA_FOGBAND
  5
191F
 10
-36.5503
 20
-23.3948
 30
0.000000
  70
    32
  0
VERTEX
  8
SAPA_FOGBAND
  5
1920
 10
-36.6880
 20
-23.4225
 30
0.000000
  70
    32
  0
VERTEX
  8
SAPA_FOGBAND
  5
1921
 10
-36.8278
 20
-23.4461
 30
0.000000
  70
    32
  0
VERTEX
  8
SAPA_FOGBAND
  5
1922
 10
-36.9693
 20
-23.4654
 30
0.000000
  70
    32
  0
VERTEX
  8
SAPA_FOGBAND
  5
1923
 10
-37.1121
 20
-23.4805
 30
0.000000
  70
    32
  0
VERTEX
  8
SAPA_FOGBAND
  5
1924
 10
-37.2561
 20
-23.4913
 30
0.000000
  70
    32
  0
VERTEX
  8
SAPA_FOGBAND
  5
1925
 10
-37.4007
 20
-23.4978
 30
0.000000
  70
    32
  0
VERTEX
  8
SAPA_FOGBAND
  5
1926
 10
-37.5456
 20
-23.5000
 30
0.000000
  70
    32
  0
VERTEX
  8
SAPA_FOGBAND
  5
1927
 10
-37.6906
 20
-23.4978
 30
0.000000
  70
    32
  0
VERTEX
  8
SAPA_FOGBAND
  5
1928
 10
-37.8352
 20
-23.4913
 30
0.000000
  70
    32
  0
VERTEX
  8
SAPA_FOGBAND
  5
1929
 10
-37.9791
 20
-23.4805
 30
0.000000
  70
    32
  0
VERTEX
  8
SAPA_FOGBAND
  5
192A
 10
-38.1220
 20
-23.4654
 30
0.000000
  70
    32
  0
VERTEX
  8
SAPA_FOGBAND
  5
192B
 10
-38.2635
 20
-23.4461
 30
0.000000
  70
    32
  0
VERTEX
  8
SAPA_FOGBAND
  5
192C
 10
-38.4032
 20
-23.4225
 30
0.000000
  70
    32
  0
VERTEX
  8
SAPA_FOGBAND
  5
192D
 10
-38.5409
 20
-23.3948
 30
0.000000
  70
    32
  0
VERTEX
  8
SAPA_FOGBAND
  5
192E
 10
-38.6762
 20
-23.3630
 30
0.000000
  70
    32
  0
VERTEX
  8
SAPA_FOGBAND
  5
192F
 10
-38.8088
 20
-23.3272
 30
0.000000
  70
    32
  0
VERTEX
  8
SAPA_FOGBAND
  5
1930
 10
-38.9383
 20
-23.2875
 30
0.000000
  70
    32
  0
VERTEX
  8
SAPA_FOGBAND
  5
1931
 10
-39.0645
 20
-23.2439
 30
0.000000
  70
    32
  0
VERTEX
  8
SAPA_FOGBAND
  5
1932
 10
-39.1870
 20
-23.1966
 30
0.000000
  70
    32
  0
VERTEX
  8
SAPA_FOGBAND
  5
1933
 10
-39.3055
 20
-23.1458
 30
0.000000
  70
    32
  0
VERTEX
  8
SAPA_FOGBAND
  5
1934
 10
-39.4199
 20
-23.0914
 30
0.000000
  70
    32
  0
VERTEX
  8
SAPA_FOGBAND
  5
1935
 10
-39.5297
 20
-23.0337
 30
0.000000
  70
    32
  0
VERTEX
  8
SAPA_FOGBAND
  5
1936
 10
-39.6347
 20
-22.9728
 30
0.000000
  70
    32
  0
VERTEX
  8
SAPA_FOGBAND
  5
1937
 10
-39.7347
 20
-22.9088
 30
0.000000
  70
    32
  0
VERTEX
  8
SAPA_FOGBAND
  5
1938
 10
-39.8294
 20
-22.8419
 30
0.000000
  70
    32
  0
VERTEX
  8
SAPA_FOGBAND
  5
1939
 10
-39.9186
 20
-22.7723
 30
0.000000
  70
    32
  0
VERTEX
  8
SAPA_FOGBAND
  5
193A
 10
-40.0021
 20
-22.7000
 30
0.000000
  70
    32
  0
VERTEX
  8
SAPA_FOGBAND
  5
193B
 10
-40.0797
 20
-22.6254
 30
0.000000
  70
    32
  0
VERTEX
  8
SAPA_FOGBAND
  5
193C
 10
-40.1512
 20
-22.5485
 30
0.000000
  70
    32
  0
VERTEX
  8
SAPA_FOGBAND
  5
193D
 10
-40.2163
 20
-22.4696
 30
0.000000
  70
    32
  0
VERTEX
  8
SAPA_FOGBAND
  5
193E
 10
-40.2751
 20
-22.3888
 30
0.000000
  70
    32
  0
VERTEX
  8
SAPA_FOGBAND
  5
193F
 10
-40.3273
 20
-22.3064
 30
0.000000
  70
    32
  0
VERTEX
  8
SAPA_FOGBAND
  5
1940
 10
-40.3728
 20
-22.2225
 30
0.000000
  70
    32
  0
VERTEX
  8
SAPA_FOGBAND
  5
1941
 10
-40.4115
 20
-22.1374
 30
0.000000
  70
    32
  0
VERTEX
  8
SAPA_FOGBAND
  5
1942
 10
-40.4432
 20
-22.0512
 30
0.000000
  70
    32
  0
VERTEX
  8
SAPA_FOGBAND
  5
1943
 10
-40.4680
 20
-21.9641
 30
0.000000
  70
    32
  0
VERTEX
  8
SAPA_FOGBAND
  5
1944
 10
-40.4858
 20
-21.8764
 30
0.000000
  70
    32
  0
VERTEX
  8
SAPA_FOGBAND
  5
1945
 10
-40.4964
 20
-21.7883
 30
0.000000
  70
    32
  0
VERTEX
  8
SAPA_FOGBAND
  5
1946
 10
-40.5000
 20
-21.7000
 30
0.000000
  70
    32
  0
SEQEND
  8
SAPA_FOGBAND
  5
1947
  0
INSERT
  5
1103
  8
SAPA_FOGBAND
  6
CONTINUOUS
  2
*X60
 10
0.0
 20
0.0
 30
0.0
1001
ACAD
1000
HATCH
1002
{
1070
    19
1000
ANSI37
1040
0.25
1040
-0.0000000000000002
1000
R14_HATCH_DATA
1000
1103
1011
1.0
1021
0.0
1031
-0.0
1021
0.0
1031
0.0
1011
0.0
1021
0.0
1031
-0.0
1021
1.0
1031
0.0
1011
0.0
1021
0.0
1031
-0.0
1021
0.0
1031
1.0
1040
0.0
1010
0.0
1020
0.0
1030
1.0
1000
ANSI37
1070
     0
1070
     0
1071
        1
1071
        1
1071
        3
1070
     3
1040
-37.545638078316301
1040
-21.699999999992169
1040
-2.9543618886820009
1040
-0.0000000000009329
1040
0.6092686230810487
1040
3.0288543565674959
1040
8.8961375621551824
1070
     1
1070
     2
1040
-36.097247745463861
1040
-21.528106314816689
1040
1.5432917594600579
1040
5.5082984255660516
1040
5.8549249879456822
1070
     1
1070
     1
1040
-34.693331288384883
1040
-22.169018193595761
1040
-34.610031169442713
1040
-21.902499339185589
1071
        0
1070
     0
1070
     1
1040
-0.0000000000000002
1040
0.25
1070
     0
1070
     2
1040
2.3561944901923439
1040
444.38140031398763
1040
-362.90915699464682
1040
0.5612660075668219
1040
0.5612660075668222
1070
     0
1040
0.785398163397449
1040
444.38140031398763
1040
-362.90915699464682
1040
0.5612660075668222
1040
-0.5612660075668219
1070
     0
1071
        1
1040
-37.788408381380343
1040
-21.851617139245921
1040
0.0
1002
}
  0
POLYLINE
  5
1104
  8
SAPA_FOGBAND
 10
-40.499999966998281
 20
21.699999999993125
 30
0.0
 66
     1
 70
     8
  0
VERTEX
  8
SAPA_FOGBAND
  5
1948
 10
-40.5000
 20
21.7000
 30
0.000000
  70
    32
  0
VERTEX
  8
SAPA_FOGBAND
  5
1949
 10
-40.4964
 20
21.6117
 30
0.000000
  70
    32
  0
VERTEX
  8
SAPA_FOGBAND
  5
194A
 10
-40.4858
 20
21.5236
 30
0.000000
  70
    32
  0
VERTEX
  8
SAPA_FOGBAND
  5
194B
 10
-40.4680
 20
21.4359
 30
0.000000
  70
    32
  0
VERTEX
  8
SAPA_FOGBAND
  5
194C
 10
-40.4432
 20
21.3488
 30
0.000000
  70
    32
  0
VERTEX
  8
SAPA_FOGBAND
  5
194D
 10
-40.4115
 20
21.2626
 30
0.000000
  70
    32
  0
VERTEX
  8
SAPA_FOGBAND
  5
194E
 10
-40.3728
 20
21.1775
 30
0.000000
  70
    32
  0
VERTEX
  8
SAPA_FOGBAND
  5
194F
 10
-40.3273
 20
21.0936
 30
0.000000
  70
    32
  0
VERTEX
  8
SAPA_FOGBAND
  5
1950
 10
-40.2751
 20
21.0112
 30
0.000000
  70
    32
  0
VERTEX
  8
SAPA_FOGBAND
  5
1951
 10
-40.2163
 20
20.9304
 30
0.000000
  70
    32
  0
VERTEX
  8
SAPA_FOGBAND
  5
1952
 10
-40.1512
 20
20.8515
 30
0.000000
  70
    32
  0
VERTEX
  8
SAPA_FOGBAND
  5
1953
 10
-40.0797
 20
20.7746
 30
0.000000
  70
    32
  0
VERTEX
  8
SAPA_FOGBAND
  5
1954
 10
-40.0021
 20
20.7000
 30
0.000000
  70
    32
  0
VERTEX
  8
SAPA_FOGBAND
  5
1955
 10
-39.9186
 20
20.6277
 30
0.000000
  70
    32
  0
VERTEX
  8
SAPA_FOGBAND
  5
1956
 10
-39.8294
 20
20.5581
 30
0.000000
  70
    32
  0
VERTEX
  8
SAPA_FOGBAND
  5
1957
 10
-39.7347
 20
20.4912
 30
0.000000
  70
    32
  0
VERTEX
  8
SAPA_FOGBAND
  5
1958
 10
-39.6347
 20
20.4272
 30
0.000000
  70
    32
  0
VERTEX
  8
SAPA_FOGBAND
  5
1959
 10
-39.5297
 20
20.3663
 30
0.000000
  70
    32
  0
VERTEX
  8
SAPA_FOGBAND
  5
195A
 10
-39.4199
 20
20.3086
 30
0.000000
  70
    32
  0
VERTEX
  8
SAPA_FOGBAND
  5
195B
 10
-39.3055
 20
20.2542
 30
0.000000
  70
    32
  0
VERTEX
  8
SAPA_FOGBAND
  5
195C
 10
-39.1870
 20
20.2034
 30
0.000000
  70
    32
  0
VERTEX
  8
SAPA_FOGBAND
  5
195D
 10
-39.0645
 20
20.1561
 30
0.000000
  70
    32
  0
VERTEX
  8
SAPA_FOGBAND
  5
195E
 10
-38.9383
 20
20.1125
 30
0.000000
  70
    32
  0
VERTEX
  8
SAPA_FOGBAND
  5
195F
 10
-38.8088
 20
20.0728
 30
0.000000
  70
    32
  0
VERTEX
  8
SAPA_FOGBAND
  5
1960
 10
-38.6762
 20
20.0370
 30
0.000000
  70
    32
  0
VERTEX
  8
SAPA_FOGBAND
  5
1961
 10
-38.5409
 20
20.0052
 30
0.000000
  70
    32
  0
VERTEX
  8
SAPA_FOGBAND
  5
1962
 10
-38.4032
 20
19.9775
 30
0.000000
  70
    32
  0
VERTEX
  8
SAPA_FOGBAND
  5
1963
 10
-38.2635
 20
19.9539
 30
0.000000
  70
    32
  0
VERTEX
  8
SAPA_FOGBAND
  5
1964
 10
-38.1220
 20
19.9346
 30
0.000000
  70
    32
  0
VERTEX
  8
SAPA_FOGBAND
  5
1965
 10
-37.9791
 20
19.9195
 30
0.000000
  70
    32
  0
VERTEX
  8
SAPA_FOGBAND
  5
1966
 10
-37.8352
 20
19.9087
 30
0.000000
  70
    32
  0
VERTEX
  8
SAPA_FOGBAND
  5
1967
 10
-37.6906
 20
19.9022
 30
0.000000
  70
    32
  0
VERTEX
  8
SAPA_FOGBAND
  5
1968
 10
-37.5456
 20
19.9000
 30
0.000000
  70
    32
  0
VERTEX
  8
SAPA_FOGBAND
  5
1969
 10
-37.4007
 20
19.9022
 30
0.000000
  70
    32
  0
VERTEX
  8
SAPA_FOGBAND
  5
196A
 10
-37.2561
 20
19.9087
 30
0.000000
  70
    32
  0
VERTEX
  8
SAPA_FOGBAND
  5
196B
 10
-37.1121
 20
19.9195
 30
0.000000
  70
    32
  0
VERTEX
  8
SAPA_FOGBAND
  5
196C
 10
-36.9693
 20
19.9346
 30
0.000000
  70
    32
  0
VERTEX
  8
SAPA_FOGBAND
  5
196D
 10
-36.8278
 20
19.9539
 30
0.000000
  70
    32
  0
VERTEX
  8
SAPA_FOGBAND
  5
196E
 10
-36.6880
 20
19.9775
 30
0.000000
  70
    32
  0
VERTEX
  8
SAPA_FOGBAND
  5
196F
 10
-36.5503
 20
20.0052
 30
0.000000
  70
    32
  0
VERTEX
  8
SAPA_FOGBAND
  5
1970
 10
-36.4151
 20
20.0370
 30
0.000000
  70
    32
  0
VERTEX
  8
SAPA_FOGBAND
  5
1971
 10
-36.2825
 20
20.0728
 30
0.000000
  70
    32
  0
VERTEX
  8
SAPA_FOGBAND
  5
1972
 10
-36.1530
 20
20.1125
 30
0.000000
  70
    32
  0
VERTEX
  8
SAPA_FOGBAND
  5
1973
 10
-36.0268
 20
20.1561
 30
0.000000
  70
    32
  0
VERTEX
  8
SAPA_FOGBAND
  5
1974
 10
-35.9043
 20
20.2034
 30
0.000000
  70
    32
  0
VERTEX
  8
SAPA_FOGBAND
  5
1975
 10
-35.7857
 20
20.2542
 30
0.000000
  70
    32
  0
VERTEX
  8
SAPA_FOGBAND
  5
1976
 10
-35.6714
 20
20.3086
 30
0.000000
  70
    32
  0
VERTEX
  8
SAPA_FOGBAND
  5
1977
 10
-35.5616
 20
20.3663
 30
0.000000
  70
    32
  0
VERTEX
  8
SAPA_FOGBAND
  5
1978
 10
-35.4566
 20
20.4272
 30
0.000000
  70
    32
  0
VERTEX
  8
SAPA_FOGBAND
  5
1979
 10
-35.3566
 20
20.4912
 30
0.000000
  70
    32
  0
VERTEX
  8
SAPA_FOGBAND
  5
197A
 10
-35.2619
 20
20.5581
 30
0.000000
  70
    32
  0
VERTEX
  8
SAPA_FOGBAND
  5
197B
 10
-35.1727
 20
20.6277
 30
0.000000
  70
    32
  0
VERTEX
  8
SAPA_FOGBAND
  5
197C
 10
-35.0892
 20
20.7000
 30
0.000000
  70
    32
  0
VERTEX
  8
SAPA_FOGBAND
  5
197D
 10
-35.0116
 20
20.7746
 30
0.000000
  70
    32
  0
VERTEX
  8
SAPA_FOGBAND
  5
197E
 10
-34.9401
 20
20.8515
 30
0.000000
  70
    32
  0
VERTEX
  8
SAPA_FOGBAND
  5
197F
 10
-34.8749
 20
20.9304
 30
0.000000
  70
    32
  0
VERTEX
  8
SAPA_FOGBAND
  5
1980
 10
-34.8162
 20
21.0112
 30
0.000000
  70
    32
  0
VERTEX
  8
SAPA_FOGBAND
  5
1981
 10
-34.7640
 20
21.0936
 30
0.000000
  70
    32
  0
VERTEX
  8
SAPA_FOGBAND
  5
1982
 10
-34.7185
 20
21.1775
 30
0.000000
  70
    32
  0
VERTEX
  8
SAPA_FOGBAND
  5
1983
 10
-34.6798
 20
21.2626
 30
0.000000
  70
    32
  0
VERTEX
  8
SAPA_FOGBAND
  5
1984
 10
-34.6480
 20
21.3488
 30
0.000000
  70
    32
  0
VERTEX
  8
SAPA_FOGBAND
  5
1985
 10
-34.6233
 20
21.4359
 30
0.000000
  70
    32
  0
VERTEX
  8
SAPA_FOGBAND
  5
1986
 10
-34.6055
 20
21.5236
 30
0.000000
  70
    32
  0
VERTEX
  8
SAPA_FOGBAND
  5
1987
 10
-34.5948
 20
21.6117
 30
0.000000
  70
    32
  0
VERTEX
  8
SAPA_FOGBAND
  5
1988
 10
-34.5913
 20
21.7000
 30
0.000000
  70
    32
  0
VERTEX
  8
SAPA_FOGBAND
  5
1989
 10
-34.5948
 20
21.7883
 30
0.000000
  70
    32
  0
VERTEX
  8
SAPA_FOGBAND
  5
198A
 10
-34.6055
 20
21.8764
 30
0.000000
  70
    32
  0
VERTEX
  8
SAPA_FOGBAND
  5
198B
 10
-34.6233
 20
21.9641
 30
0.000000
  70
    32
  0
VERTEX
  8
SAPA_FOGBAND
  5
198C
 10
-34.6480
 20
22.0512
 30
0.000000
  70
    32
  0
VERTEX
  8
SAPA_FOGBAND
  5
198D
 10
-34.6798
 20
22.1374
 30
0.000000
  70
    32
  0
VERTEX
  8
SAPA_FOGBAND
  5
198E
 10
-34.7185
 20
22.2225
 30
0.000000
  70
    32
  0
VERTEX
  8
SAPA_FOGBAND
  5
198F
 10
-34.7640
 20
22.3064
 30
0.000000
  70
    32
  0
VERTEX
  8
SAPA_FOGBAND
  5
1990
 10
-34.8162
 20
22.3888
 30
0.000000
  70
    32
  0
VERTEX
  8
SAPA_FOGBAND
  5
1991
 10
-34.8749
 20
22.4696
 30
0.000000
  70
    32
  0
VERTEX
  8
SAPA_FOGBAND
  5
1992
 10
-34.9401
 20
22.5485
 30
0.000000
  70
    32
  0
VERTEX
  8
SAPA_FOGBAND
  5
1993
 10
-35.0116
 20
22.6254
 30
0.000000
  70
    32
  0
VERTEX
  8
SAPA_FOGBAND
  5
1994
 10
-35.0892
 20
22.7000
 30
0.000000
  70
    32
  0
VERTEX
  8
SAPA_FOGBAND
  5
1995
 10
-35.1727
 20
22.7723
 30
0.000000
  70
    32
  0
VERTEX
  8
SAPA_FOGBAND
  5
1996
 10
-35.2619
 20
22.8419
 30
0.000000
  70
    32
  0
VERTEX
  8
SAPA_FOGBAND
  5
1997
 10
-35.3566
 20
22.9088
 30
0.000000
  70
    32
  0
VERTEX
  8
SAPA_FOGBAND
  5
1998
 10
-35.4566
 20
22.9728
 30
0.000000
  70
    32
  0
VERTEX
  8
SAPA_FOGBAND
  5
1999
 10
-35.5616
 20
23.0337
 30
0.000000
  70
    32
  0
VERTEX
  8
SAPA_FOGBAND
  5
199A
 10
-35.6714
 20
23.0914
 30
0.000000
  70
    32
  0
VERTEX
  8
SAPA_FOGBAND
  5
199B
 10
-35.7857
 20
23.1458
 30
0.000000
  70
    32
  0
VERTEX
  8
SAPA_FOGBAND
  5
199C
 10
-35.9043
 20
23.1966
 30
0.000000
  70
    32
  0
VERTEX
  8
SAPA_FOGBAND
  5
199D
 10
-36.0268
 20
23.2439
 30
0.000000
  70
    32
  0
VERTEX
  8
SAPA_FOGBAND
  5
199E
 10
-36.1530
 20
23.2875
 30
0.000000
  70
    32
  0
VERTEX
  8
SAPA_FOGBAND
  5
199F
 10
-36.2825
 20
23.3272
 30
0.000000
  70
    32
  0
VERTEX
  8
SAPA_FOGBAND
  5
19A0
 10
-36.4151
 20
23.3630
 30
0.000000
  70
    32
  0
VERTEX
  8
SAPA_FOGBAND
  5
19A1
 10
-36.5503
 20
23.3948
 30
0.000000
  70
    32
  0
VERTEX
  8
SAPA_FOGBAND
  5
19A2
 10
-36.6880
 20
23.4225
 30
0.000000
  70
    32
  0
VERTEX
  8
SAPA_FOGBAND
  5
19A3
 10
-36.8278
 20
23.4461
 30
0.000000
  70
    32
  0
VERTEX
  8
SAPA_FOGBAND
  5
19A4
 10
-36.9693
 20
23.4654
 30
0.000000
  70
    32
  0
VERTEX
  8
SAPA_FOGBAND
  5
19A5
 10
-37.1121
 20
23.4805
 30
0.000000
  70
    32
  0
VERTEX
  8
SAPA_FOGBAND
  5
19A6
 10
-37.2561
 20
23.4913
 30
0.000000
  70
    32
  0
VERTEX
  8
SAPA_FOGBAND
  5
19A7
 10
-37.4007
 20
23.4978
 30
0.000000
  70
    32
  0
VERTEX
  8
SAPA_FOGBAND
  5
19A8
 10
-37.5456
 20
23.5000
 30
0.000000
  70
    32
  0
VERTEX
  8
SAPA_FOGBAND
  5
19A9
 10
-37.6906
 20
23.4978
 30
0.000000
  70
    32
  0
VERTEX
  8
SAPA_FOGBAND
  5
19AA
 10
-37.8352
 20
23.4913
 30
0.000000
  70
    32
  0
VERTEX
  8
SAPA_FOGBAND
  5
19AB
 10
-37.9791
 20
23.4805
 30
0.000000
  70
    32
  0
VERTEX
  8
SAPA_FOGBAND
  5
19AC
 10
-38.1220
 20
23.4654
 30
0.000000
  70
    32
  0
VERTEX
  8
SAPA_FOGBAND
  5
19AD
 10
-38.2635
 20
23.4461
 30
0.000000
  70
    32
  0
VERTEX
  8
SAPA_FOGBAND
  5
19AE
 10
-38.4032
 20
23.4225
 30
0.000000
  70
    32
  0
VERTEX
  8
SAPA_FOGBAND
  5
19AF
 10
-38.5409
 20
23.3948
 30
0.000000
  70
    32
  0
VERTEX
  8
SAPA_FOGBAND
  5
19B0
 10
-38.6762
 20
23.3630
 30
0.000000
  70
    32
  0
VERTEX
  8
SAPA_FOGBAND
  5
19B1
 10
-38.8088
 20
23.3272
 30
0.000000
  70
    32
  0
VERTEX
  8
SAPA_FOGBAND
  5
19B2
 10
-38.9383
 20
23.2875
 30
0.000000
  70
    32
  0
VERTEX
  8
SAPA_FOGBAND
  5
19B3
 10
-39.0645
 20
23.2439
 30
0.000000
  70
    32
  0
VERTEX
  8
SAPA_FOGBAND
  5
19B4
 10
-39.1870
 20
23.1966
 30
0.000000
  70
    32
  0
VERTEX
  8
SAPA_FOGBAND
  5
19B5
 10
-39.3055
 20
23.1458
 30
0.000000
  70
    32
  0
VERTEX
  8
SAPA_FOGBAND
  5
19B6
 10
-39.4199
 20
23.0914
 30
0.000000
  70
    32
  0
VERTEX
  8
SAPA_FOGBAND
  5
19B7
 10
-39.5297
 20
23.0337
 30
0.000000
  70
    32
  0
VERTEX
  8
SAPA_FOGBAND
  5
19B8
 10
-39.6347
 20
22.9728
 30
0.000000
  70
    32
  0
VERTEX
  8
SAPA_FOGBAND
  5
19B9
 10
-39.7347
 20
22.9088
 30
0.000000
  70
    32
  0
VERTEX
  8
SAPA_FOGBAND
  5
19BA
 10
-39.8294
 20
22.8419
 30
0.000000
  70
    32
  0
VERTEX
  8
SAPA_FOGBAND
  5
19BB
 10
-39.9186
 20
22.7723
 30
0.000000
  70
    32
  0
VERTEX
  8
SAPA_FOGBAND
  5
19BC
 10
-40.0021
 20
22.7000
 30
0.000000
  70
    32
  0
VERTEX
  8
SAPA_FOGBAND
  5
19BD
 10
-40.0797
 20
22.6254
 30
0.000000
  70
    32
  0
VERTEX
  8
SAPA_FOGBAND
  5
19BE
 10
-40.1512
 20
22.5485
 30
0.000000
  70
    32
  0
VERTEX
  8
SAPA_FOGBAND
  5
19BF
 10
-40.2163
 20
22.4696
 30
0.000000
  70
    32
  0
VERTEX
  8
SAPA_FOGBAND
  5
19C0
 10
-40.2751
 20
22.3888
 30
0.000000
  70
    32
  0
VERTEX
  8
SAPA_FOGBAND
  5
19C1
 10
-40.3273
 20
22.3064
 30
0.000000
  70
    32
  0
VERTEX
  8
SAPA_FOGBAND
  5
19C2
 10
-40.3728
 20
22.2225
 30
0.000000
  70
    32
  0
VERTEX
  8
SAPA_FOGBAND
  5
19C3
 10
-40.4115
 20
22.1374
 30
0.000000
  70
    32
  0
VERTEX
  8
SAPA_FOGBAND
  5
19C4
 10
-40.4432
 20
22.0512
 30
0.000000
  70
    32
  0
VERTEX
  8
SAPA_FOGBAND
  5
19C5
 10
-40.4680
 20
21.9641
 30
0.000000
  70
    32
  0
VERTEX
  8
SAPA_FOGBAND
  5
19C6
 10
-40.4858
 20
21.8764
 30
0.000000
  70
    32
  0
VERTEX
  8
SAPA_FOGBAND
  5
19C7
 10
-40.4964
 20
21.7883
 30
0.000000
  70
    32
  0
VERTEX
  8
SAPA_FOGBAND
  5
19C8
 10
-40.5000
 20
21.7000
 30
0.000000
  70
    32
  0
SEQEND
  8
SAPA_FOGBAND
  5
19C9
  0
INSERT
  5
1105
  8
SAPA_FOGBAND
  6
CONTINUOUS
  2
*X61
 10
0.0
 20
0.0
 30
0.0
1001
ACAD
1000
HATCH
1002
{
1070
    19
1000
ANSI37
1040
0.25
1040
-1.570796326794897
1000
R14_HATCH_DATA
1000
1105
1011
1.0
1021
0.0
1031
-0.0
1021
0.0
1031
0.0
1011
0.0
1021
0.0
1031
-0.0
1021
1.0
1031
0.0
1011
0.0
1021
0.0
1031
-0.0
1021
0.0
1031
1.0
1040
0.0
1010
0.0
1020
0.0
1030
1.0
1000
ANSI37
1070
     0
1070
     0
1071
        1
1071
        1
1071
        3
1070
     3
1040
-37.54563807831628
1040
21.69999999999219
1040
-2.9543618886820009
1040
0.0000000000009328
1040
0.6092686230810487
1040
3.0288543565674959
1040
8.8961375621551824
1070
     0
1070
     2
1040
-36.097247745463847
1040
21.528106314816711
1040
1.5432917594600579
1040
5.5082984255660516
1040
5.8549249879456822
1070
     0
1070
     1
1040
-34.693331288384861
1040
22.169018193595779
1040
-34.610031169442699
1040
21.90249933918561
1071
        0
1070
     0
1070
     1
1040
-1.570796326794897
1040
0.25
1070
     0
1070
     2
1040
0.7853981633974481
1040
-403.4091569946487
1040
-420.88176377657828
1040
0.5612660075668221
1040
-0.5612660075668221
1070
     0
1040
5.4977871437821371
1040
-403.4091569946487
1040
-420.88176377657828
1040
-0.5612660075668221
1040
-0.5612660075668221
1070
     0
1071
        1
1040
-37.788408381380329
1040
21.851617139245938
1040
0.0
1002
}
  0
POLYLINE
  5
1106
  8
SAPA_FOGBAND
 66
     1
 10
0.0
 20
0.0
 30
0.0
 70
     1
  0
VERTEX
  5
1851
  8
SAPA_FOGBAND
 10
-80.768193081411013
 20
-4.1787401792169874
 30
0.0
  0
VERTEX
  5
1852
  8
SAPA_FOGBAND
 10
-80.544896306152935
 20
-4.1787401792169732
 30
0.0
 42
-0.3500011104185251
  0
VERTEX
  5
1853
  8
SAPA_FOGBAND
 10
-79.764899471718081
 20
-4.8009624014392074
 30
0.0
 42
0.3500011104185275
  0
VERTEX
  5
1854
  8
SAPA_FOGBAND
 10
-78.789903428674506
 20
-5.578740179216978
 30
0.0
  0
VERTEX
  5
1855
  8
SAPA_FOGBAND
 10
-78.46489947171807
 20
-5.5787401792169797
 30
0.0
 42
0.4142135623730992
  0
VERTEX
  5
1856
  8
SAPA_FOGBAND
 10
-77.46489947171807
 20
-4.5787401792169797
 30
0.0
  0
VERTEX
  5
1857
  8
SAPA_FOGBAND
 10
-77.46489947171807
 20
4.6212598207830391
 30
0.0
 42
0.4142135623730909
  0
VERTEX
  5
1858
  8
SAPA_FOGBAND
 10
-78.46489947171807
 20
5.621259820783024
 30
0.0
  0
VERTEX
  5
1859
  8
SAPA_FOGBAND
 10
-78.789903428674506
 20
5.6212598207830391
 30
0.0
 42
0.3500011104185275
  0
VERTEX
  5
185A
  8
SAPA_FOGBAND
 10
-79.764899471718053
 20
4.8434820430052667
 30
0.0
 42
-0.3500011104185328
  0
VERTEX
  5
185B
  8
SAPA_FOGBAND
 10
-80.544896306152935
 20
4.2212598207830192
 30
0.0
  0
VERTEX
  5
185C
  8
SAPA_FOGBAND
 10
-80.768193081411013
 20
4.2212598207830192
 30
0.0
 42
-0.380963100045198
  0
VERTEX
  5
185D
  8
SAPA_FOGBAND
 10
-81.264899471718081
 20
4.6639644297978728
 30
0.0
 42
-0.0458039546811979
  0
VERTEX
  5
185E
  8
SAPA_FOGBAND
 10
-81.341546602805465
 20
7.9530679894324399
 30
0.0
 42
0.9570085662280619
  0
VERTEX
  5
185F
  8
SAPA_FOGBAND
 10
-83.327059573289304
 20
8.1767290045698076
 30
0.0
 42
0.0782100801382191
  0
VERTEX
  5
1860
  8
SAPA_FOGBAND
 10
-83.327059573289347
 20
-8.1342093630037482
 30
0.0
 42
0.9570085662280891
  0
VERTEX
  5
1861
  8
SAPA_FOGBAND
 10
-81.341546602805465
 20
-7.9105483478663521
 30
0.0
 42
-0.0458039546811975
  0
VERTEX
  5
1862
  8
SAPA_FOGBAND
 10
-81.264899471718081
 20
-4.6214447882318392
 30
0.0
 42
-0.380963100045198
  0
SEQEND
  5
1863
  8
SAPA_FOGBAND
  0
POLYLINE
  5
1107
  8
SAPA_FOGBAND
 10
-58.646125407834958
 20
15.182155401672935
 30
0.0
 66
     1
 70
     8
  0
VERTEX
  8
SAPA_FOGBAND
  5
19CA
 10
-58.6461
 20
15.1822
 30
0.000000
  70
    32
  0
VERTEX
  8
SAPA_FOGBAND
  5
19CB
 10
-58.7402
 20
15.1866
 30
0.000000
  70
    32
  0
VERTEX
  8
SAPA_FOGBAND
  5
19CC
 10
-58.8340
 20
15.2001
 30
0.000000
  70
    32
  0
VERTEX
  8
SAPA_FOGBAND
  5
19CD
 10
-58.9274
 20
15.2225
 30
0.000000
  70
    32
  0
VERTEX
  8
SAPA_FOGBAND
  5
19CE
 10
-59.0201
 20
15.2539
 30
0.000000
  70
    32
  0
VERTEX
  8
SAPA_FOGBAND
  5
19CF
 10
-59.1118
 20
15.2940
 30
0.000000
  70
    32
  0
VERTEX
  8
SAPA_FOGBAND
  5
19D0
 10
-59.2025
 20
15.3428
 30
0.000000
  70
    32
  0
VERTEX
  8
SAPA_FOGBAND
  5
19D1
 10
-59.2918
 20
15.4003
 30
0.000000
  70
    32
  0
VERTEX
  8
SAPA_FOGBAND
  5
19D2
 10
-59.3796
 20
15.4662
 30
0.000000
  70
    32
  0
VERTEX
  8
SAPA_FOGBAND
  5
19D3
 10
-59.4656
 20
15.5404
 30
0.000000
  70
    32
  0
VERTEX
  8
SAPA_FOGBAND
  5
19D4
 10
-59.5496
 20
15.6227
 30
0.000000
  70
    32
  0
VERTEX
  8
SAPA_FOGBAND
  5
19D5
 10
-59.6315
 20
15.7130
 30
0.000000
  70
    32
  0
VERTEX
  8
SAPA_FOGBAND
  5
19D6
 10
-59.7110
 20
15.8110
 30
0.000000
  70
    32
  0
VERTEX
  8
SAPA_FOGBAND
  5
19D7
 10
-59.7879
 20
15.9165
 30
0.000000
  70
    32
  0
VERTEX
  8
SAPA_FOGBAND
  5
19D8
 10
-59.8621
 20
16.0291
 30
0.000000
  70
    32
  0
VERTEX
  8
SAPA_FOGBAND
  5
19D9
 10
-59.9333
 20
16.1487
 30
0.000000
  70
    32
  0
VERTEX
  8
SAPA_FOGBAND
  5
19DA
 10
-60.0014
 20
16.2750
 30
0.000000
  70
    32
  0
VERTEX
  8
SAPA_FOGBAND
  5
19DB
 10
-60.0663
 20
16.4077
 30
0.000000
  70
    32
  0
VERTEX
  8
SAPA_FOGBAND
  5
19DC
 10
-60.1277
 20
16.5463
 30
0.000000
  70
    32
  0
VERTEX
  8
SAPA_FOGBAND
  5
19DD
 10
-60.1856
 20
16.6907
 30
0.000000
  70
    32
  0
VERTEX
  8
SAPA_FOGBAND
  5
19DE
 10
-60.2398
 20
16.8405
 30
0.000000
  70
    32
  0
VERTEX
  8
SAPA_FOGBAND
  5
19DF
 10
-60.2901
 20
16.9952
 30
0.000000
  70
    32
  0
VERTEX
  8
SAPA_FOGBAND
  5
19E0
 10
-60.3365
 20
17.1545
 30
0.000000
  70
    32
  0
VERTEX
  8
SAPA_FOGBAND
  5
19E1
 10
-60.3788
 20
17.3181
 30
0.000000
  70
    32
  0
VERTEX
  8
SAPA_FOGBAND
  5
19E2
 10
-60.4169
 20
17.4856
 30
0.000000
  70
    32
  0
VERTEX
  8
SAPA_FOGBAND
  5
19E3
 10
-60.4508
 20
17.6564
 30
0.000000
  70
    32
  0
VERTEX
  8
SAPA_FOGBAND
  5
19E4
 10
-60.4803
 20
17.8303
 30
0.000000
  70
    32
  0
VERTEX
  8
SAPA_FOGBAND
  5
19E5
 10
-60.5054
 20
18.0068
 30
0.000000
  70
    32
  0
VERTEX
  8
SAPA_FOGBAND
  5
19E6
 10
-60.5260
 20
18.1855
 30
0.000000
  70
    32
  0
VERTEX
  8
SAPA_FOGBAND
  5
19E7
 10
-60.5421
 20
18.3660
 30
0.000000
  70
    32
  0
VERTEX
  8
SAPA_FOGBAND
  5
19E8
 10
-60.5536
 20
18.5477
 30
0.000000
  70
    32
  0
VERTEX
  8
SAPA_FOGBAND
  5
19E9
 10
-60.5605
 20
18.7304
 30
0.000000
  70
    32
  0
VERTEX
  8
SAPA_FOGBAND
  5
19EA
 10
-60.5628
 20
18.9135
 30
0.000000
  70
    32
  0
VERTEX
  8
SAPA_FOGBAND
  5
19EB
 10
-60.5605
 20
19.0966
 30
0.000000
  70
    32
  0
VERTEX
  8
SAPA_FOGBAND
  5
19EC
 10
-60.5536
 20
19.2792
 30
0.000000
  70
    32
  0
VERTEX
  8
SAPA_FOGBAND
  5
19ED
 10
-60.5421
 20
19.4610
 30
0.000000
  70
    32
  0
VERTEX
  8
SAPA_FOGBAND
  5
19EE
 10
-60.5260
 20
19.6414
 30
0.000000
  70
    32
  0
VERTEX
  8
SAPA_FOGBAND
  5
19EF
 10
-60.5054
 20
19.8201
 30
0.000000
  70
    32
  0
VERTEX
  8
SAPA_FOGBAND
  5
19F0
 10
-60.4803
 20
19.9966
 30
0.000000
  70
    32
  0
VERTEX
  8
SAPA_FOGBAND
  5
19F1
 10
-60.4508
 20
20.1705
 30
0.000000
  70
    32
  0
VERTEX
  8
SAPA_FOGBAND
  5
19F2
 10
-60.4169
 20
20.3414
 30
0.000000
  70
    32
  0
VERTEX
  8
SAPA_FOGBAND
  5
19F3
 10
-60.3788
 20
20.5088
 30
0.000000
  70
    32
  0
VERTEX
  8
SAPA_FOGBAND
  5
19F4
 10
-60.3365
 20
20.6724
 30
0.000000
  70
    32
  0
VERTEX
  8
SAPA_FOGBAND
  5
19F5
 10
-60.2901
 20
20.8318
 30
0.000000
  70
    32
  0
VERTEX
  8
SAPA_FOGBAND
  5
19F6
 10
-60.2398
 20
20.9865
 30
0.000000
  70
    32
  0
VERTEX
  8
SAPA_FOGBAND
  5
19F7
 10
-60.1856
 20
21.1362
 30
0.000000
  70
    32
  0
VERTEX
  8
SAPA_FOGBAND
  5
19F8
 10
-60.1277
 20
21.2806
 30
0.000000
  70
    32
  0
VERTEX
  8
SAPA_FOGBAND
  5
19F9
 10
-60.0663
 20
21.4193
 30
0.000000
  70
    32
  0
VERTEX
  8
SAPA_FOGBAND
  5
19FA
 10
-60.0014
 20
21.5519
 30
0.000000
  70
    32
  0
VERTEX
  8
SAPA_FOGBAND
  5
19FB
 10
-59.9333
 20
21.6782
 30
0.000000
  70
    32
  0
VERTEX
  8
SAPA_FOGBAND
  5
19FC
 10
-59.8621
 20
21.7978
 30
0.000000
  70
    32
  0
VERTEX
  8
SAPA_FOGBAND
  5
19FD
 10
-59.7879
 20
21.9105
 30
0.000000
  70
    32
  0
VERTEX
  8
SAPA_FOGBAND
  5
19FE
 10
-59.7110
 20
22.0159
 30
0.000000
  70
    32
  0
VERTEX
  8
SAPA_FOGBAND
  5
19FF
 10
-59.6315
 20
22.1139
 30
0.000000
  70
    32
  0
VERTEX
  8
SAPA_FOGBAND
  5
1A00
 10
-59.5496
 20
22.2042
 30
0.000000
  70
    32
  0
VERTEX
  8
SAPA_FOGBAND
  5
1A01
 10
-59.4656
 20
22.2865
 30
0.000000
  70
    32
  0
VERTEX
  8
SAPA_FOGBAND
  5
1A02
 10
-59.3796
 20
22.3608
 30
0.000000
  70
    32
  0
VERTEX
  8
SAPA_FOGBAND
  5
1A03
 10
-59.2918
 20
22.4267
 30
0.000000
  70
    32
  0
VERTEX
  8
SAPA_FOGBAND
  5
1A04
 10
-59.2025
 20
22.4841
 30
0.000000
  70
    32
  0
VERTEX
  8
SAPA_FOGBAND
  5
1A05
 10
-59.1118
 20
22.5330
 30
0.000000
  70
    32
  0
VERTEX
  8
SAPA_FOGBAND
  5
1A06
 10
-59.0201
 20
22.5731
 30
0.000000
  70
    32
  0
VERTEX
  8
SAPA_FOGBAND
  5
1A07
 10
-58.9274
 20
22.6044
 30
0.000000
  70
    32
  0
VERTEX
  8
SAPA_FOGBAND
  5
1A08
 10
-58.8340
 20
22.6268
 30
0.000000
  70
    32
  0
VERTEX
  8
SAPA_FOGBAND
  5
1A09
 10
-58.7402
 20
22.6403
 30
0.000000
  70
    32
  0
VERTEX
  8
SAPA_FOGBAND
  5
1A0A
 10
-58.6461
 20
22.6448
 30
0.000000
  70
    32
  0
VERTEX
  8
SAPA_FOGBAND
  5
1A0B
 10
-58.5521
 20
22.6403
 30
0.000000
  70
    32
  0
VERTEX
  8
SAPA_FOGBAND
  5
1A0C
 10
-58.4583
 20
22.6268
 30
0.000000
  70
    32
  0
VERTEX
  8
SAPA_FOGBAND
  5
1A0D
 10
-58.3649
 20
22.6044
 30
0.000000
  70
    32
  0
VERTEX
  8
SAPA_FOGBAND
  5
1A0E
 10
-58.2722
 20
22.5731
 30
0.000000
  70
    32
  0
VERTEX
  8
SAPA_FOGBAND
  5
1A0F
 10
-58.1804
 20
22.5330
 30
0.000000
  70
    32
  0
VERTEX
  8
SAPA_FOGBAND
  5
1A10
 10
-58.0897
 20
22.4841
 30
0.000000
  70
    32
  0
VERTEX
  8
SAPA_FOGBAND
  5
1A11
 10
-58.0004
 20
22.4267
 30
0.000000
  70
    32
  0
VERTEX
  8
SAPA_FOGBAND
  5
1A12
 10
-57.9126
 20
22.3608
 30
0.000000
  70
    32
  0
VERTEX
  8
SAPA_FOGBAND
  5
1A13
 10
-57.8266
 20
22.2865
 30
0.000000
  70
    32
  0
VERTEX
  8
SAPA_FOGBAND
  5
1A14
 10
-57.7426
 20
22.2042
 30
0.000000
  70
    32
  0
VERTEX
  8
SAPA_FOGBAND
  5
1A15
 10
-57.6607
 20
22.1139
 30
0.000000
  70
    32
  0
VERTEX
  8
SAPA_FOGBAND
  5
1A16
 10
-57.5813
 20
22.0159
 30
0.000000
  70
    32
  0
VERTEX
  8
SAPA_FOGBAND
  5
1A17
 10
-57.5044
 20
21.9105
 30
0.000000
  70
    32
  0
VERTEX
  8
SAPA_FOGBAND
  5
1A18
 10
-57.4302
 20
21.7978
 30
0.000000
  70
    32
  0
VERTEX
  8
SAPA_FOGBAND
  5
1A19
 10
-57.3590
 20
21.6782
 30
0.000000
  70
    32
  0
VERTEX
  8
SAPA_FOGBAND
  5
1A1A
 10
-57.2908
 20
21.5519
 30
0.000000
  70
    32
  0
VERTEX
  8
SAPA_FOGBAND
  5
1A1B
 10
-57.2260
 20
21.4193
 30
0.000000
  70
    32
  0
VERTEX
  8
SAPA_FOGBAND
  5
1A1C
 10
-57.1645
 20
21.2806
 30
0.000000
  70
    32
  0
VERTEX
  8
SAPA_FOGBAND
  5
1A1D
 10
-57.1066
 20
21.1362
 30
0.000000
  70
    32
  0
VERTEX
  8
SAPA_FOGBAND
  5
1A1E
 10
-57.0525
 20
20.9865
 30
0.000000
  70
    32
  0
VERTEX
  8
SAPA_FOGBAND
  5
1A1F
 10
-57.0021
 20
20.8318
 30
0.000000
  70
    32
  0
VERTEX
  8
SAPA_FOGBAND
  5
1A20
 10
-56.9558
 20
20.6724
 30
0.000000
  70
    32
  0
VERTEX
  8
SAPA_FOGBAND
  5
1A21
 10
-56.9135
 20
20.5088
 30
0.000000
  70
    32
  0
VERTEX
  8
SAPA_FOGBAND
  5
1A22
 10
-56.8753
 20
20.3414
 30
0.000000
  70
    32
  0
VERTEX
  8
SAPA_FOGBAND
  5
1A23
 10
-56.8415
 20
20.1705
 30
0.000000
  70
    32
  0
VERTEX
  8
SAPA_FOGBAND
  5
1A24
 10
-56.8120
 20
19.9966
 30
0.000000
  70
    32
  0
VERTEX
  8
SAPA_FOGBAND
  5
1A25
 10
-56.7869
 20
19.8201
 30
0.000000
  70
    32
  0
VERTEX
  8
SAPA_FOGBAND
  5
1A26
 10
-56.7663
 20
19.6414
 30
0.000000
  70
    32
  0
VERTEX
  8
SAPA_FOGBAND
  5
1A27
 10
-56.7502
 20
19.4610
 30
0.000000
  70
    32
  0
VERTEX
  8
SAPA_FOGBAND
  5
1A28
 10
-56.7387
 20
19.2792
 30
0.000000
  70
    32
  0
VERTEX
  8
SAPA_FOGBAND
  5
1A29
 10
-56.7317
 20
19.0966
 30
0.000000
  70
    32
  0
VERTEX
  8
SAPA_FOGBAND
  5
1A2A
 10
-56.7294
 20
18.9135
 30
0.000000
  70
    32
  0
VERTEX
  8
SAPA_FOGBAND
  5
1A2B
 10
-56.7317
 20
18.7304
 30
0.000000
  70
    32
  0
VERTEX
  8
SAPA_FOGBAND
  5
1A2C
 10
-56.7387
 20
18.5477
 30
0.000000
  70
    32
  0
VERTEX
  8
SAPA_FOGBAND
  5
1A2D
 10
-56.7502
 20
18.3660
 30
0.000000
  70
    32
  0
VERTEX
  8
SAPA_FOGBAND
  5
1A2E
 10
-56.7663
 20
18.1855
 30
0.000000
  70
    32
  0
VERTEX
  8
SAPA_FOGBAND
  5
1A2F
 10
-56.7869
 20
18.0068
 30
0.000000
  70
    32
  0
VERTEX
  8
SAPA_FOGBAND
  5
1A30
 10
-56.8120
 20
17.8303
 30
0.000000
  70
    32
  0
VERTEX
  8
SAPA_FOGBAND
  5
1A31
 10
-56.8415
 20
17.6564
 30
0.000000
  70
    32
  0
VERTEX
  8
SAPA_FOGBAND
  5
1A32
 10
-56.8753
 20
17.4856
 30
0.000000
  70
    32
  0
VERTEX
  8
SAPA_FOGBAND
  5
1A33
 10
-56.9135
 20
17.3181
 30
0.000000
  70
    32
  0
VERTEX
  8
SAPA_FOGBAND
  5
1A34
 10
-56.9558
 20
17.1545
 30
0.000000
  70
    32
  0
VERTEX
  8
SAPA_FOGBAND
  5
1A35
 10
-57.0021
 20
16.9952
 30
0.000000
  70
    32
  0
VERTEX
  8
SAPA_FOGBAND
  5
1A36
 10
-57.0525
 20
16.8405
 30
0.000000
  70
    32
  0
VERTEX
  8
SAPA_FOGBAND
  5
1A37
 10
-57.1066
 20
16.6907
 30
0.000000
  70
    32
  0
VERTEX
  8
SAPA_FOGBAND
  5
1A38
 10
-57.1645
 20
16.5463
 30
0.000000
  70
    32
  0
VERTEX
  8
SAPA_FOGBAND
  5
1A39
 10
-57.2260
 20
16.4077
 30
0.000000
  70
    32
  0
VERTEX
  8
SAPA_FOGBAND
  5
1A3A
 10
-57.2908
 20
16.2750
 30
0.000000
  70
    32
  0
VERTEX
  8
SAPA_FOGBAND
  5
1A3B
 10
-57.3590
 20
16.1487
 30
0.000000
  70
    32
  0
VERTEX
  8
SAPA_FOGBAND
  5
1A3C
 10
-57.4302
 20
16.0291
 30
0.000000
  70
    32
  0
VERTEX
  8
SAPA_FOGBAND
  5
1A3D
 10
-57.5044
 20
15.9165
 30
0.000000
  70
    32
  0
VERTEX
  8
SAPA_FOGBAND
  5
1A3E
 10
-57.5813
 20
15.8110
 30
0.000000
  70
    32
  0
VERTEX
  8
SAPA_FOGBAND
  5
1A3F
 10
-57.6607
 20
15.7130
 30
0.000000
  70
    32
  0
VERTEX
  8
SAPA_FOGBAND
  5
1A40
 10
-57.7426
 20
15.6227
 30
0.000000
  70
    32
  0
VERTEX
  8
SAPA_FOGBAND
  5
1A41
 10
-57.8266
 20
15.5404
 30
0.000000
  70
    32
  0
VERTEX
  8
SAPA_FOGBAND
  5
1A42
 10
-57.9126
 20
15.4662
 30
0.000000
  70
    32
  0
VERTEX
  8
SAPA_FOGBAND
  5
1A43
 10
-58.0004
 20
15.4003
 30
0.000000
  70
    32
  0
VERTEX
  8
SAPA_FOGBAND
  5
1A44
 10
-58.0897
 20
15.3428
 30
0.000000
  70
    32
  0
VERTEX
  8
SAPA_FOGBAND
  5
1A45
 10
-58.1804
 20
15.2940
 30
0.000000
  70
    32
  0
VERTEX
  8
SAPA_FOGBAND
  5
1A46
 10
-58.2722
 20
15.2539
 30
0.000000
  70
    32
  0
VERTEX
  8
SAPA_FOGBAND
  5
1A47
 10
-58.3649
 20
15.2225
 30
0.000000
  70
    32
  0
VERTEX
  8
SAPA_FOGBAND
  5
1A48
 10
-58.4583
 20
15.2001
 30
0.000000
  70
    32
  0
VERTEX
  8
SAPA_FOGBAND
  5
1A49
 10
-58.5521
 20
15.1866
 30
0.000000
  70
    32
  0
VERTEX
  8
SAPA_FOGBAND
  5
1A4A
 10
-58.6461
 20
15.1822
 30
0.000000
  70
    32
  0
SEQEND
  8
SAPA_FOGBAND
  5
1A4B
  0
POLYLINE
  5
1108
  8
SAPA_FOGBAND
 66
     1
 10
0.0
 20
0.0
 30
0.0
  0
VERTEX
  5
1864
  8
SAPA_FOGBAND
 10
-51.800000000001802
 20
23.787839836612122
 30
0.0
  0
VERTEX
  5
1865
  8
SAPA_FOGBAND
 10
-51.500000000001847
 20
23.787839836612122
 30
0.0
  0
VERTEX
  5
1866
  8
SAPA_FOGBAND
 10
-51.800000000001802
 20
23.787839836612122
 30
0.0
 42
0.4142135623730951
  0
VERTEX
  5
1867
  8
SAPA_FOGBAND
 10
-52.300000000001802
 20
23.287839836612122
 30
0.0
  0
VERTEX
  5
1868
  8
SAPA_FOGBAND
 10
-52.300000000001859
 20
15.98783983661216
 30
0.0
 42
0.4142135623730951
  0
VERTEX
  5
1869
  8
SAPA_FOGBAND
 10
-51.800000000001873
 20
15.48783983661216
 30
0.0
  0
VERTEX
  5
186A
  8
SAPA_FOGBAND
 10
-51.500000000001847
 20
15.48783983661216
 30
0.0
  0
SEQEND
  5
186B
  8
SAPA_FOGBAND
  0
POLYLINE
  5
1109
  8
SAPA_FOGBAND
 66
     1
 10
0.0
 20
0.0
 30
0.0
 70
     1
  0
VERTEX
  5
186C
  8
SAPA_FOGBAND
 10
-49.585369502363072
 20
21.08783983661213
 30
0.0
  0
VERTEX
  5
186D
  8
SAPA_FOGBAND
 10
-50.185369502363038
 20
21.08783983661213
 30
0.0
 42
0.9999999999999998
  0
VERTEX
  5
186E
  8
SAPA_FOGBAND
 10
-50.185369502363052
 20
19.287839836612171
 30
0.0
  0
VERTEX
  5
186F
  8
SAPA_FOGBAND
 10
-49.585369502363079
 20
19.287839836612122
 30
0.0
 42
0.9999999999999998
  0
SEQEND
  5
1870
  8
SAPA_FOGBAND
  0
POLYLINE
  5
110A
  8
SAPA_FOGBAND
 66
     1
 10
0.0
 20
0.0
 30
0.0
 70
     1
  0
VERTEX
  5
1871
  8
SAPA_FOGBAND
 10
-56.418068725706668
 20
11.498975242774391
 30
0.0
 42
0.646356061736289
  0
VERTEX
  5
1872
  8
SAPA_FOGBAND
 10
-57.166938780872357
 20
13.16169210575292
 30
0.0
  0
VERTEX
  5
1873
  8
SAPA_FOGBAND
 10
-60.64591139233243
 20
13.16169210575292
 30
0.0
 42
0.4879283649264857
  0
VERTEX
  5
1874
  8
SAPA_FOGBAND
 10
-61.61605389247778
 20
11.91915648071657
 30
0.0
  0
VERTEX
  5
1875
  8
SAPA_FOGBAND
 10
-60.896604538392843
 20
9.0413590643768096
 30
0.0
 42
0.3441507314089108
  0
VERTEX
  5
1876
  8
SAPA_FOGBAND
 10
-59.926462038247507
 20
8.2838946894131418
 30
0.0
  0
VERTEX
  5
1877
  8
SAPA_FOGBAND
 10
-59.713662158164219
 20
8.2838946894131276
 30
0.0
 42
0.214804042991016
  0
VERTEX
  5
1878
  8
SAPA_FOGBAND
 10
-58.964792102998508
 20
8.6211778264346144
 30
0.0
  0
SEQEND
  5
1879
  8
SAPA_FOGBAND
  0
POLYLINE
  5
110B
  8
SAPA_FOGBAND
 66
     1
 10
0.0
 20
0.0
 30
0.0
 70
     1
  0
VERTEX
  5
187A
  8
SAPA_FOGBAND
 10
-51.500000000001847
 20
18.187839836612149
 30
0.0
 42
-0.4142135623730951
  0
VERTEX
  5
187B
  8
SAPA_FOGBAND
 10
-51.000000000001862
 20
18.687839836612149
 30
0.0
  0
VERTEX
  5
187C
  8
SAPA_FOGBAND
 10
-50.05857458311997
 20
18.687839836612149
 30
0.0
  0
VERTEX
  5
187D
  8
SAPA_FOGBAND
 10
-49.991114673809513
 20
18.436076027591682
 30
0.0
 42
0.474057181023226
  0
VERTEX
  5
187E
  8
SAPA_FOGBAND
 10
-49.708832088170922
 20
18.30878216522806
 30
0.0
  0
VERTEX
  5
187F
  8
SAPA_FOGBAND
 10
-48.262625951411032
 20
18.928882667986699
 30
0.0
 42
0.2846003776496053
  0
VERTEX
  5
1880
  8
SAPA_FOGBAND
 10
-47.985369502363049
 20
19.376526846446811
 30
0.0
  0
VERTEX
  5
1881
  8
SAPA_FOGBAND
 10
-47.985369502363049
 20
20.999152826777419
 30
0.0
 42
0.2846003776496055
  0
VERTEX
  5
1882
  8
SAPA_FOGBAND
 10
-48.262625951411017
 20
21.446797005237588
 30
0.0
  0
VERTEX
  5
1883
  8
SAPA_FOGBAND
 10
-49.708832088170851
 20
22.066897507996181
 30
0.0
 42
0.474057181023226
  0
VERTEX
  5
1884
  8
SAPA_FOGBAND
 10
-49.991114673809498
 20
21.93960364563263
 30
0.0
  0
VERTEX
  5
1885
  8
SAPA_FOGBAND
 10
-50.05857458311997
 20
21.687839836612149
 30
0.0
  0
VERTEX
  5
1886
  8
SAPA_FOGBAND
 10
-51.000000000001847
 20
21.687839836612149
 30
0.0
 42
-0.4142135623730951
  0
VERTEX
  5
1887
  8
SAPA_FOGBAND
 10
-51.500000000001847
 20
22.187839836612149
 30
0.0
  0
VERTEX
  5
1888
  8
SAPA_FOGBAND
 10
-51.500000000001791
 20
24.699999999993612
 30
0.0
 42
0.4052499559557504
  0
VERTEX
  5
1889
  8
SAPA_FOGBAND
 10
-51.790791339129129
 20
24.999858634294739
 30
0.0
  0
VERTEX
  5
188A
  8
SAPA_FOGBAND
 10
-62.69079133912917
 20
25.48769844896416
 30
0.0
 42
0.4232343445545565
  0
VERTEX
  5
188B
  8
SAPA_FOGBAND
 10
-63.000000000001847
 20
25.187839814663029
 30
0.0
  0
VERTEX
  5
188C
  8
SAPA_FOGBAND
 10
-63.000000000001862
 20
11.549392649420991
 30
0.0
 42
0.0613213552369726
  0
VERTEX
  5
188D
  8
SAPA_FOGBAND
 10
-62.98507125007454
 20
11.428124836902819
 30
0.0
  0
VERTEX
  5
188E
  8
SAPA_FOGBAND
 10
-62.414366093742721
 20
5.945304211575813
 30
0.0
 42
0.3441507314089092
  0
VERTEX
  5
188F
  8
SAPA_FOGBAND
 10
-61.444223593597393
 20
5.1878398366121532
 30
0.0
  0
VERTEX
  5
1890
  8
SAPA_FOGBAND
 10
-60.206139425069189
 20
5.1878398366121523
 30
0.0
 42
0.2148040429910146
  0
VERTEX
  5
1891
  8
SAPA_FOGBAND
 10
-59.831704397486327
 20
5.3564814051228877
 30
0.0
  0
VERTEX
  5
1892
  8
SAPA_FOGBAND
 10
-51.751129944836102
 20
14.48753053661753
 30
0.0
 42
0.1831167524995932
  0
VERTEX
  5
1893
  8
SAPA_FOGBAND
 10
-51.500000000001847
 20
15.15024739959606
 30
0.0
  0
SEQEND
  5
1894
  8
SAPA_FOGBAND
  0
POLYLINE
  5
110C
  8
SAPA_FOGBAND
 10
-58.646125407834965
 20
-15.182155401672915
 30
0.0
 66
     1
 70
     8
  0
VERTEX
  8
SAPA_FOGBAND
  5
1A4C
 10
-58.6461
 20
-15.1822
 30
0.000000
  70
    32
  0
VERTEX
  8
SAPA_FOGBAND
  5
1A4D
 10
-58.7402
 20
-15.1866
 30
0.000000
  70
    32
  0
VERTEX
  8
SAPA_FOGBAND
  5
1A4E
 10
-58.8340
 20
-15.2001
 30
0.000000
  70
    32
  0
VERTEX
  8
SAPA_FOGBAND
  5
1A4F
 10
-58.9274
 20
-15.2225
 30
0.000000
  70
    32
  0
VERTEX
  8
SAPA_FOGBAND
  5
1A50
 10
-59.0201
 20
-15.2539
 30
0.000000
  70
    32
  0
VERTEX
  8
SAPA_FOGBAND
  5
1A51
 10
-59.1118
 20
-15.2940
 30
0.000000
  70
    32
  0
VERTEX
  8
SAPA_FOGBAND
  5
1A52
 10
-59.2025
 20
-15.3428
 30
0.000000
  70
    32
  0
VERTEX
  8
SAPA_FOGBAND
  5
1A53
 10
-59.2918
 20
-15.4003
 30
0.000000
  70
    32
  0
VERTEX
  8
SAPA_FOGBAND
  5
1A54
 10
-59.3796
 20
-15.4662
 30
0.000000
  70
    32
  0
VERTEX
  8
SAPA_FOGBAND
  5
1A55
 10
-59.4656
 20
-15.5404
 30
0.000000
  70
    32
  0
VERTEX
  8
SAPA_FOGBAND
  5
1A56
 10
-59.5496
 20
-15.6227
 30
0.000000
  70
    32
  0
VERTEX
  8
SAPA_FOGBAND
  5
1A57
 10
-59.6315
 20
-15.7130
 30
0.000000
  70
    32
  0
VERTEX
  8
SAPA_FOGBAND
  5
1A58
 10
-59.7110
 20
-15.8110
 30
0.000000
  70
    32
  0
VERTEX
  8
SAPA_FOGBAND
  5
1A59
 10
-59.7879
 20
-15.9165
 30
0.000000
  70
    32
  0
VERTEX
  8
SAPA_FOGBAND
  5
1A5A
 10
-59.8621
 20
-16.0291
 30
0.000000
  70
    32
  0
VERTEX
  8
SAPA_FOGBAND
  5
1A5B
 10
-59.9333
 20
-16.1487
 30
0.000000
  70
    32
  0
VERTEX
  8
SAPA_FOGBAND
  5
1A5C
 10
-60.0014
 20
-16.2750
 30
0.000000
  70
    32
  0
VERTEX
  8
SAPA_FOGBAND
  5
1A5D
 10
-60.0663
 20
-16.4077
 30
0.000000
  70
    32
  0
VERTEX
  8
SAPA_FOGBAND
  5
1A5E
 10
-60.1277
 20
-16.5463
 30
0.000000
  70
    32
  0
VERTEX
  8
SAPA_FOGBAND
  5
1A5F
 10
-60.1856
 20
-16.6907
 30
0.000000
  70
    32
  0
VERTEX
  8
SAPA_FOGBAND
  5
1A60
 10
-60.2398
 20
-16.8405
 30
0.000000
  70
    32
  0
VERTEX
  8
SAPA_FOGBAND
  5
1A61
 10
-60.2901
 20
-16.9952
 30
0.000000
  70
    32
  0
VERTEX
  8
SAPA_FOGBAND
  5
1A62
 10
-60.3365
 20
-17.1545
 30
0.000000
  70
    32
  0
VERTEX
  8
SAPA_FOGBAND
  5
1A63
 10
-60.3788
 20
-17.3181
 30
0.000000
  70
    32
  0
VERTEX
  8
SAPA_FOGBAND
  5
1A64
 10
-60.4169
 20
-17.4856
 30
0.000000
  70
    32
  0
VERTEX
  8
SAPA_FOGBAND
  5
1A65
 10
-60.4508
 20
-17.6564
 30
0.000000
  70
    32
  0
VERTEX
  8
SAPA_FOGBAND
  5
1A66
 10
-60.4803
 20
-17.8303
 30
0.000000
  70
    32
  0
VERTEX
  8
SAPA_FOGBAND
  5
1A67
 10
-60.5054
 20
-18.0068
 30
0.000000
  70
    32
  0
VERTEX
  8
SAPA_FOGBAND
  5
1A68
 10
-60.5260
 20
-18.1855
 30
0.000000
  70
    32
  0
VERTEX
  8
SAPA_FOGBAND
  5
1A69
 10
-60.5421
 20
-18.3660
 30
0.000000
  70
    32
  0
VERTEX
  8
SAPA_FOGBAND
  5
1A6A
 10
-60.5536
 20
-18.5477
 30
0.000000
  70
    32
  0
VERTEX
  8
SAPA_FOGBAND
  5
1A6B
 10
-60.5605
 20
-18.7304
 30
0.000000
  70
    32
  0
VERTEX
  8
SAPA_FOGBAND
  5
1A6C
 10
-60.5628
 20
-18.9135
 30
0.000000
  70
    32
  0
VERTEX
  8
SAPA_FOGBAND
  5
1A6D
 10
-60.5605
 20
-19.0966
 30
0.000000
  70
    32
  0
VERTEX
  8
SAPA_FOGBAND
  5
1A6E
 10
-60.5536
 20
-19.2792
 30
0.000000
  70
    32
  0
VERTEX
  8
SAPA_FOGBAND
  5
1A6F
 10
-60.5421
 20
-19.4610
 30
0.000000
  70
    32
  0
VERTEX
  8
SAPA_FOGBAND
  5
1A70
 10
-60.5260
 20
-19.6414
 30
0.000000
  70
    32
  0
VERTEX
  8
SAPA_FOGBAND
  5
1A71
 10
-60.5054
 20
-19.8201
 30
0.000000
  70
    32
  0
VERTEX
  8
SAPA_FOGBAND
  5
1A72
 10
-60.4803
 20
-19.9966
 30
0.000000
  70
    32
  0
VERTEX
  8
SAPA_FOGBAND
  5
1A73
 10
-60.4508
 20
-20.1705
 30
0.000000
  70
    32
  0
VERTEX
  8
SAPA_FOGBAND
  5
1A74
 10
-60.4169
 20
-20.3414
 30
0.000000
  70
    32
  0
VERTEX
  8
SAPA_FOGBAND
  5
1A75
 10
-60.3788
 20
-20.5088
 30
0.000000
  70
    32
  0
VERTEX
  8
SAPA_FOGBAND
  5
1A76
 10
-60.3365
 20
-20.6724
 30
0.000000
  70
    32
  0
VERTEX
  8
SAPA_FOGBAND
  5
1A77
 10
-60.2901
 20
-20.8318
 30
0.000000
  70
    32
  0
VERTEX
  8
SAPA_FOGBAND
  5
1A78
 10
-60.2398
 20
-20.9865
 30
0.000000
  70
    32
  0
VERTEX
  8
SAPA_FOGBAND
  5
1A79
 10
-60.1856
 20
-21.1362
 30
0.000000
  70
    32
  0
VERTEX
  8
SAPA_FOGBAND
  5
1A7A
 10
-60.1277
 20
-21.2806
 30
0.000000
  70
    32
  0
VERTEX
  8
SAPA_FOGBAND
  5
1A7B
 10
-60.0663
 20
-21.4193
 30
0.000000
  70
    32
  0
VERTEX
  8
SAPA_FOGBAND
  5
1A7C
 10
-60.0014
 20
-21.5519
 30
0.000000
  70
    32
  0
VERTEX
  8
SAPA_FOGBAND
  5
1A7D
 10
-59.9333
 20
-21.6782
 30
0.000000
  70
    32
  0
VERTEX
  8
SAPA_FOGBAND
  5
1A7E
 10
-59.8621
 20
-21.7978
 30
0.000000
  70
    32
  0
VERTEX
  8
SAPA_FOGBAND
  5
1A7F
 10
-59.7879
 20
-21.9105
 30
0.000000
  70
    32
  0
VERTEX
  8
SAPA_FOGBAND
  5
1A80
 10
-59.7110
 20
-22.0159
 30
0.000000
  70
    32
  0
VERTEX
  8
SAPA_FOGBAND
  5
1A81
 10
-59.6315
 20
-22.1139
 30
0.000000
  70
    32
  0
VERTEX
  8
SAPA_FOGBAND
  5
1A82
 10
-59.5496
 20
-22.2042
 30
0.000000
  70
    32
  0
VERTEX
  8
SAPA_FOGBAND
  5
1A83
 10
-59.4656
 20
-22.2865
 30
0.000000
  70
    32
  0
VERTEX
  8
SAPA_FOGBAND
  5
1A84
 10
-59.3796
 20
-22.3608
 30
0.000000
  70
    32
  0
VERTEX
  8
SAPA_FOGBAND
  5
1A85
 10
-59.2918
 20
-22.4267
 30
0.000000
  70
    32
  0
VERTEX
  8
SAPA_FOGBAND
  5
1A86
 10
-59.2025
 20
-22.4841
 30
0.000000
  70
    32
  0
VERTEX
  8
SAPA_FOGBAND
  5
1A87
 10
-59.1118
 20
-22.5330
 30
0.000000
  70
    32
  0
VERTEX
  8
SAPA_FOGBAND
  5
1A88
 10
-59.0201
 20
-22.5731
 30
0.000000
  70
    32
  0
VERTEX
  8
SAPA_FOGBAND
  5
1A89
 10
-58.9274
 20
-22.6044
 30
0.000000
  70
    32
  0
VERTEX
  8
SAPA_FOGBAND
  5
1A8A
 10
-58.8340
 20
-22.6268
 30
0.000000
  70
    32
  0
VERTEX
  8
SAPA_FOGBAND
  5
1A8B
 10
-58.7402
 20
-22.6403
 30
0.000000
  70
    32
  0
VERTEX
  8
SAPA_FOGBAND
  5
1A8C
 10
-58.6461
 20
-22.6448
 30
0.000000
  70
    32
  0
VERTEX
  8
SAPA_FOGBAND
  5
1A8D
 10
-58.5521
 20
-22.6403
 30
0.000000
  70
    32
  0
VERTEX
  8
SAPA_FOGBAND
  5
1A8E
 10
-58.4583
 20
-22.6268
 30
0.000000
  70
    32
  0
VERTEX
  8
SAPA_FOGBAND
  5
1A8F
 10
-58.3649
 20
-22.6044
 30
0.000000
  70
    32
  0
VERTEX
  8
SAPA_FOGBAND
  5
1A90
 10
-58.2722
 20
-22.5731
 30
0.000000
  70
    32
  0
VERTEX
  8
SAPA_FOGBAND
  5
1A91
 10
-58.1804
 20
-22.5330
 30
0.000000
  70
    32
  0
VERTEX
  8
SAPA_FOGBAND
  5
1A92
 10
-58.0897
 20
-22.4841
 30
0.000000
  70
    32
  0
VERTEX
  8
SAPA_FOGBAND
  5
1A93
 10
-58.0004
 20
-22.4267
 30
0.000000
  70
    32
  0
VERTEX
  8
SAPA_FOGBAND
  5
1A94
 10
-57.9126
 20
-22.3608
 30
0.000000
  70
    32
  0
VERTEX
  8
SAPA_FOGBAND
  5
1A95
 10
-57.8266
 20
-22.2865
 30
0.000000
  70
    32
  0
VERTEX
  8
SAPA_FOGBAND
  5
1A96
 10
-57.7426
 20
-22.2042
 30
0.000000
  70
    32
  0
VERTEX
  8
SAPA_FOGBAND
  5
1A97
 10
-57.6607
 20
-22.1139
 30
0.000000
  70
    32
  0
VERTEX
  8
SAPA_FOGBAND
  5
1A98
 10
-57.5813
 20
-22.0159
 30
0.000000
  70
    32
  0
VERTEX
  8
SAPA_FOGBAND
  5
1A99
 10
-57.5044
 20
-21.9105
 30
0.000000
  70
    32
  0
VERTEX
  8
SAPA_FOGBAND
  5
1A9A
 10
-57.4302
 20
-21.7978
 30
0.000000
  70
    32
  0
VERTEX
  8
SAPA_FOGBAND
  5
1A9B
 10
-57.3590
 20
-21.6782
 30
0.000000
  70
    32
  0
VERTEX
  8
SAPA_FOGBAND
  5
1A9C
 10
-57.2908
 20
-21.5519
 30
0.000000
  70
    32
  0
VERTEX
  8
SAPA_FOGBAND
  5
1A9D
 10
-57.2260
 20
-21.4193
 30
0.000000
  70
    32
  0
VERTEX
  8
SAPA_FOGBAND
  5
1A9E
 10
-57.1645
 20
-21.2806
 30
0.000000
  70
    32
  0
VERTEX
  8
SAPA_FOGBAND
  5
1A9F
 10
-57.1066
 20
-21.1362
 30
0.000000
  70
    32
  0
VERTEX
  8
SAPA_FOGBAND
  5
1AA0
 10
-57.0525
 20
-20.9865
 30
0.000000
  70
    32
  0
VERTEX
  8
SAPA_FOGBAND
  5
1AA1
 10
-57.0021
 20
-20.8318
 30
0.000000
  70
    32
  0
VERTEX
  8
SAPA_FOGBAND
  5
1AA2
 10
-56.9558
 20
-20.6724
 30
0.000000
  70
    32
  0
VERTEX
  8
SAPA_FOGBAND
  5
1AA3
 10
-56.9135
 20
-20.5088
 30
0.000000
  70
    32
  0
VERTEX
  8
SAPA_FOGBAND
  5
1AA4
 10
-56.8753
 20
-20.3414
 30
0.000000
  70
    32
  0
VERTEX
  8
SAPA_FOGBAND
  5
1AA5
 10
-56.8415
 20
-20.1705
 30
0.000000
  70
    32
  0
VERTEX
  8
SAPA_FOGBAND
  5
1AA6
 10
-56.8120
 20
-19.9966
 30
0.000000
  70
    32
  0
VERTEX
  8
SAPA_FOGBAND
  5
1AA7
 10
-56.7869
 20
-19.8201
 30
0.000000
  70
    32
  0
VERTEX
  8
SAPA_FOGBAND
  5
1AA8
 10
-56.7663
 20
-19.6414
 30
0.000000
  70
    32
  0
VERTEX
  8
SAPA_FOGBAND
  5
1AA9
 10
-56.7502
 20
-19.4610
 30
0.000000
  70
    32
  0
VERTEX
  8
SAPA_FOGBAND
  5
1AAA
 10
-56.7387
 20
-19.2792
 30
0.000000
  70
    32
  0
VERTEX
  8
SAPA_FOGBAND
  5
1AAB
 10
-56.7317
 20
-19.0966
 30
0.000000
  70
    32
  0
VERTEX
  8
SAPA_FOGBAND
  5
1AAC
 10
-56.7294
 20
-18.9135
 30
0.000000
  70
    32
  0
VERTEX
  8
SAPA_FOGBAND
  5
1AAD
 10
-56.7317
 20
-18.7304
 30
0.000000
  70
    32
  0
VERTEX
  8
SAPA_FOGBAND
  5
1AAE
 10
-56.7387
 20
-18.5477
 30
0.000000
  70
    32
  0
VERTEX
  8
SAPA_FOGBAND
  5
1AAF
 10
-56.7502
 20
-18.3660
 30
0.000000
  70
    32
  0
VERTEX
  8
SAPA_FOGBAND
  5
1AB0
 10
-56.7663
 20
-18.1855
 30
0.000000
  70
    32
  0
VERTEX
  8
SAPA_FOGBAND
  5
1AB1
 10
-56.7869
 20
-18.0068
 30
0.000000
  70
    32
  0
VERTEX
  8
SAPA_FOGBAND
  5
1AB2
 10
-56.8120
 20
-17.8303
 30
0.000000
  70
    32
  0
VERTEX
  8
SAPA_FOGBAND
  5
1AB3
 10
-56.8415
 20
-17.6564
 30
0.000000
  70
    32
  0
VERTEX
  8
SAPA_FOGBAND
  5
1AB4
 10
-56.8753
 20
-17.4856
 30
0.000000
  70
    32
  0
VERTEX
  8
SAPA_FOGBAND
  5
1AB5
 10
-56.9135
 20
-17.3181
 30
0.000000
  70
    32
  0
VERTEX
  8
SAPA_FOGBAND
  5
1AB6
 10
-56.9558
 20
-17.1545
 30
0.000000
  70
    32
  0
VERTEX
  8
SAPA_FOGBAND
  5
1AB7
 10
-57.0021
 20
-16.9952
 30
0.000000
  70
    32
  0
VERTEX
  8
SAPA_FOGBAND
  5
1AB8
 10
-57.0525
 20
-16.8405
 30
0.000000
  70
    32
  0
VERTEX
  8
SAPA_FOGBAND
  5
1AB9
 10
-57.1066
 20
-16.6907
 30
0.000000
  70
    32
  0
VERTEX
  8
SAPA_FOGBAND
  5
1ABA
 10
-57.1645
 20
-16.5463
 30
0.000000
  70
    32
  0
VERTEX
  8
SAPA_FOGBAND
  5
1ABB
 10
-57.2260
 20
-16.4077
 30
0.000000
  70
    32
  0
VERTEX
  8
SAPA_FOGBAND
  5
1ABC
 10
-57.2908
 20
-16.2750
 30
0.000000
  70
    32
  0
VERTEX
  8
SAPA_FOGBAND
  5
1ABD
 10
-57.3590
 20
-16.1487
 30
0.000000
  70
    32
  0
VERTEX
  8
SAPA_FOGBAND
  5
1ABE
 10
-57.4302
 20
-16.0291
 30
0.000000
  70
    32
  0
VERTEX
  8
SAPA_FOGBAND
  5
1ABF
 10
-57.5044
 20
-15.9165
 30
0.000000
  70
    32
  0
VERTEX
  8
SAPA_FOGBAND
  5
1AC0
 10
-57.5813
 20
-15.8110
 30
0.000000
  70
    32
  0
VERTEX
  8
SAPA_FOGBAND
  5
1AC1
 10
-57.6607
 20
-15.7130
 30
0.000000
  70
    32
  0
VERTEX
  8
SAPA_FOGBAND
  5
1AC2
 10
-57.7426
 20
-15.6227
 30
0.000000
  70
    32
  0
VERTEX
  8
SAPA_FOGBAND
  5
1AC3
 10
-57.8266
 20
-15.5404
 30
0.000000
  70
    32
  0
VERTEX
  8
SAPA_FOGBAND
  5
1AC4
 10
-57.9126
 20
-15.4662
 30
0.000000
  70
    32
  0
VERTEX
  8
SAPA_FOGBAND
  5
1AC5
 10
-58.0004
 20
-15.4003
 30
0.000000
  70
    32
  0
VERTEX
  8
SAPA_FOGBAND
  5
1AC6
 10
-58.0897
 20
-15.3428
 30
0.000000
  70
    32
  0
VERTEX
  8
SAPA_FOGBAND
  5
1AC7
 10
-58.1804
 20
-15.2940
 30
0.000000
  70
    32
  0
VERTEX
  8
SAPA_FOGBAND
  5
1AC8
 10
-58.2722
 20
-15.2539
 30
0.000000
  70
    32
  0
VERTEX
  8
SAPA_FOGBAND
  5
1AC9
 10
-58.3649
 20
-15.2225
 30
0.000000
  70
    32
  0
VERTEX
  8
SAPA_FOGBAND
  5
1ACA
 10
-58.4583
 20
-15.2001
 30
0.000000
  70
    32
  0
VERTEX
  8
SAPA_FOGBAND
  5
1ACB
 10
-58.5521
 20
-15.1866
 30
0.000000
  70
    32
  0
VERTEX
  8
SAPA_FOGBAND
  5
1ACC
 10
-58.6461
 20
-15.1822
 30
0.000000
  70
    32
  0
SEQEND
  8
SAPA_FOGBAND
  5
1ACD
  0
POLYLINE
  5
110D
  8
SAPA_FOGBAND
 66
     1
 10
0.0
 20
0.0
 30
0.0
  0
VERTEX
  5
1895
  8
SAPA_FOGBAND
 10
-51.800000000001809
 20
-23.7878398366121
 30
0.0
  0
VERTEX
  5
1896
  8
SAPA_FOGBAND
 10
-51.500000000001862
 20
-23.7878398366121
 30
0.0
  0
VERTEX
  5
1897
  8
SAPA_FOGBAND
 10
-51.800000000001809
 20
-23.7878398366121
 30
0.0
 42
-0.4142135623730951
  0
VERTEX
  5
1898
  8
SAPA_FOGBAND
 10
-52.300000000001809
 20
-23.2878398366121
 30
0.0
  0
VERTEX
  5
1899
  8
SAPA_FOGBAND
 10
-52.300000000001859
 20
-15.987839836612141
 30
0.0
 42
-0.4142135623730951
  0
VERTEX
  5
189A
  8
SAPA_FOGBAND
 10
-51.800000000001873
 20
-15.487839836612141
 30
0.0
  0
VERTEX
  5
189B
  8
SAPA_FOGBAND
 10
-51.500000000001847
 20
-15.487839836612141
 30
0.0
  0
SEQEND
  5
189C
  8
SAPA_FOGBAND
  0
POLYLINE
  5
110E
  8
SAPA_FOGBAND
 66
     1
 10
0.0
 20
0.0
 30
0.0
 70
     1
  0
VERTEX
  5
189D
  8
SAPA_FOGBAND
 10
-49.585369502363093
 20
-21.087839836612108
 30
0.0
  0
VERTEX
  5
189E
  8
SAPA_FOGBAND
 10
-50.185369502363059
 20
-21.087839836612108
 30
0.0
 42
-0.9999999999999998
  0
VERTEX
  5
189F
  8
SAPA_FOGBAND
 10
-50.185369502363059
 20
-19.28783983661215
 30
0.0
  0
VERTEX
  5
18A0
  8
SAPA_FOGBAND
 10
-49.585369502363093
 20
-19.2878398366121
 30
0.0
 42
-0.9999999999999998
  0
SEQEND
  5
18A1
  8
SAPA_FOGBAND
  0
POLYLINE
  5
110F
  8
SAPA_FOGBAND
 66
     1
 10
0.0
 20
0.0
 30
0.0
 70
     1
  0
VERTEX
  5
18A2
  8
SAPA_FOGBAND
 10
-56.418068725706668
 20
-11.49897524277436
 30
0.0
 42
-0.646356061736289
  0
VERTEX
  5
18A3
  8
SAPA_FOGBAND
 10
-57.166938780872357
 20
-13.16169210575289
 30
0.0
  0
VERTEX
  5
18A4
  8
SAPA_FOGBAND
 10
-60.64591139233243
 20
-13.16169210575289
 30
0.0
 42
-0.4879283649264857
  0
VERTEX
  5
18A5
  8
SAPA_FOGBAND
 10
-61.61605389247778
 20
-11.91915648071655
 30
0.0
  0
VERTEX
  5
18A6
  8
SAPA_FOGBAND
 10
-60.896604538392843
 20
-9.0413590643767865
 30
0.0
 42
-0.3441507314089108
  0
VERTEX
  5
18A7
  8
SAPA_FOGBAND
 10
-59.926462038247507
 20
-8.2838946894131205
 30
0.0
  0
VERTEX
  5
18A8
  8
SAPA_FOGBAND
 10
-59.713662158164219
 20
-8.2838946894131062
 30
0.0
 42
-0.214804042991016
  0
VERTEX
  5
18A9
  8
SAPA_FOGBAND
 10
-58.964792102998508
 20
-8.6211778264345931
 30
0.0
  0
SEQEND
  5
18AA
  8
SAPA_FOGBAND
  0
POLYLINE
  5
1110
  8
SAPA_FOGBAND
 66
     1
 10
0.0
 20
0.0
 30
0.0
 70
     1
  0
VERTEX
  5
18AB
  8
SAPA_FOGBAND
 10
-51.500000000001862
 20
-18.187839836612131
 30
0.0
 42
0.4142135623730951
  0
VERTEX
  5
18AC
  8
SAPA_FOGBAND
 10
-51.000000000001862
 20
-18.687839836612131
 30
0.0
  0
VERTEX
  5
18AD
  8
SAPA_FOGBAND
 10
-50.05857458311997
 20
-18.687839836612131
 30
0.0
  0
VERTEX
  5
18AE
  8
SAPA_FOGBAND
 10
-49.99111467380952
 20
-18.43607602759165
 30
0.0
 42
-0.474057181023226
  0
VERTEX
  5
18AF
  8
SAPA_FOGBAND
 10
-49.708832088170922
 20
-18.308782165228038
 30
0.0
  0
VERTEX
  5
18B0
  8
SAPA_FOGBAND
 10
-48.262625951411039
 20
-18.928882667986681
 30
0.0
 42
-0.2846003776496053
  0
VERTEX
  5
18B1
  8
SAPA_FOGBAND
 10
-47.985369502363064
 20
-19.37652684644679
 30
0.0
  0
VERTEX
  5
18B2
  8
SAPA_FOGBAND
 10
-47.985369502363064
 20
-20.999152826777401
 30
0.0
 42
-0.2846003776496055
  0
VERTEX
  5
18B3
  8
SAPA_FOGBAND
 10
-48.262625951411039
 20
-21.44679700523757
 30
0.0
  0
VERTEX
  5
18B4
  8
SAPA_FOGBAND
 10
-49.708832088170858
 20
-22.06689750799617
 30
0.0
 42
-0.474057181023226
  0
VERTEX
  5
18B5
  8
SAPA_FOGBAND
 10
-49.99111467380952
 20
-21.939603645632609
 30
0.0
  0
VERTEX
  5
18B6
  8
SAPA_FOGBAND
 10
-50.05857458311997
 20
-21.687839836612131
 30
0.0
  0
VERTEX
  5
18B7
  8
SAPA_FOGBAND
 10
-51.000000000001862
 20
-21.687839836612131
 30
0.0
 42
0.4142135623730951
  0
VERTEX
  5
18B8
  8
SAPA_FOGBAND
 10
-51.500000000001862
 20
-22.187839836612131
 30
0.0
  0
VERTEX
  5
18B9
  8
SAPA_FOGBAND
 10
-51.500000000001798
 20
-24.69999999999358
 30
0.0
 42
-0.4052499559557504
  0
VERTEX
  5
18BA
  8
SAPA_FOGBAND
 10
-51.790791339129143
 20
-24.999858634294721
 30
0.0
  0
VERTEX
  5
18BB
  8
SAPA_FOGBAND
 10
-62.690791339129177
 20
-25.487698448964139
 30
0.0
 42
-0.4232343445545565
  0
VERTEX
  5
18BC
  8
SAPA_FOGBAND
 10
-63.000000000001869
 20
-25.187839814663011
 30
0.0
  0
VERTEX
  5
18BD
  8
SAPA_FOGBAND
 10
-63.000000000001862
 20
-11.54939264942097
 30
0.0
 42
-0.0613213552369726
  0
VERTEX
  5
18BE
  8
SAPA_FOGBAND
 10
-62.98507125007454
 20
-11.428124836902789
 30
0.0
  0
VERTEX
  5
18BF
  8
SAPA_FOGBAND
 10
-62.414366093742721
 20
-5.945304211575789
 30
0.0
 42
-0.3441507314089092
  0
VERTEX
  5
18C0
  8
SAPA_FOGBAND
 10
-61.444223593597393
 20
-5.1878398366121292
 30
0.0
  0
VERTEX
  5
18C1
  8
SAPA_FOGBAND
 10
-60.206139425069189
 20
-5.1878398366121292
 30
0.0
 42
-0.2148040429910146
  0
VERTEX
  5
18C2
  8
SAPA_FOGBAND
 10
-59.831704397486327
 20
-5.3564814051228646
 30
0.0
  0
VERTEX
  5
18C3
  8
SAPA_FOGBAND
 10
-51.751129944836102
 20
-14.48753053661752
 30
0.0
 42
-0.1831167524995932
  0
VERTEX
  5
18C4
  8
SAPA_FOGBAND
 10
-51.500000000001847
 20
-15.15024739959604
 30
0.0
  0
SEQEND
  5
18C5
  8
SAPA_FOGBAND
  0
VIEWPORT
  5
C4
 67
     1
  8
0
 10
160.5543545598442
 20
116.00969601843509
 30
0.0
 40
404.96977709277462
 41
256.8421457311839
 68
     1
 69
     1
1001
ACAD
1000
MVIEW
1002
{
1070
    16
1010
0.0
1020
0.0
1030
0.0
1010
0.0
1020
0.0
1030
1.0
1040
0.0
1040
256.8421457311839
1040
99.206250190734863
1040
130.70624923706049
1040
50.0
1040
0.0
1040
0.0
1070
     0
1070
     0
1070
     1
1070
     1
1070
     0
1070
     0
1070
     0
1070
     0
1040
0.0
1040
0.0
1040
0.0
1040
10.0
1040
10.0
1040
10.0
1040
10.0
1070
     0
1002
{
1002
}
1002
}
  0
ENDSEC
  0
EOF
