  0
SECTION
  2
HEADER
  9
$ACADVER
  1
AC1009
  9
$INSBASE
 10
0.0
 20
0.0
 30
0.0
  9
$EXTMIN
 10
-60.947767924945282
 20
-93.378873565215486
 30
0.0
  9
$EXTMAX
 10
60.947767177869032
 20
53.424772658060881
 30
0.0
  9
$LIMMIN
 10
0.0
 20
0.0
  9
$LIMMAX
 10
790.0
 20
790.0
  9
$ORTHOMODE
 70
     1
  9
$REGENMODE
 70
     1
  9
$FILLMODE
 70
     1
  9
$QTEXTMODE
 70
     0
  9
$MIRRTEXT
 70
     1
  9
$DRAGMODE
 70
     2
  9
$LTSCALE
 40
4.0
  9
$OSMODE
 70
   167
  9
$ATTMODE
 70
     1
  9
$TEXTSIZE
 40
3.5
  9
$TRACEWID
 40
0.05
  9
$TEXTSTYLE
  7
ISO
  9
$CLAYER
  8
0
  9
$CELTYPE
  6
BYLAYER
  9
$CECOLOR
 62
   256
  9
$DIMSCALE
 40
0.0
  9
$DIMASZ
 40
3.0
  9
$DIMEXO
 40
1.5
  9
$DIMDLI
 40
10.0
  9
$DIMRND
 40
0.0
  9
$DIMDLE
 40
0.0
  9
$DIMEXE
 40
1.5
  9
$DIMTP
 40
0.0
  9
$DIMTM
 40
0.0
  9
$DIMTXT
 40
3.0
  9
$DIMCEN
 40
-5.0
  9
$DIMTSZ
 40
0.0
  9
$DIMTOL
 70
     0
  9
$DIMLIM
 70
     0
  9
$DIMTIH
 70
     0
  9
$DIMTOH
 70
     0
  9
$DIMSE1
 70
     0
  9
$DIMSE2
 70
     0
  9
$DIMTAD
 70
     1
  9
$DIMZIN
 70
     8
  9
$DIMBLK
  1

  9
$DIMASO
 70
     1
  9
$DIMSHO
 70
     1
  9
$DIMPOST
  1

  9
$DIMAPOST
  1

  9
$DIMALT
 70
     0
  9
$DIMALTD
 70
     0
  9
$DIMALTF
 40
25.399999999999999
  9
$DIMLFAC
 40
-1.0
  9
$DIMTOFL
 70
     1
  9
$DIMTVP
 40
0.0
  9
$DIMTIX
 70
     0
  9
$DIMSOXD
 70
     0
  9
$DIMSAH
 70
     0
  9
$DIMBLK1
  1

  9
$DIMBLK2
  1

  9
$DIMSTYLE
  2
MASKIN
  9
$DIMCLRD
 70
   256
  9
$DIMCLRE
 70
   256
  9
$DIMCLRT
 70
     2
  9
$DIMTFAC
 40
1.0
  9
$DIMGAP
 40
1.0
  9
$LUNITS
 70
     2
  9
$LUPREC
 70
     8
  9
$SKETCHINC
 40
0.1
  9
$FILLETRAD
 40
0.0
  9
$AUNITS
 70
     0
  9
$AUPREC
 70
     8
  9
$MENU
  1
ACAD
  9
$ELEVATION
 40
0.0
  9
$PELEVATION
 40
0.0
  9
$THICKNESS
 40
0.0
  9
$LIMCHECK
 70
     0
  9
$BLIPMODE
 70
     0
  9
$CHAMFERA
 40
0.0
  9
$CHAMFERB
 40
0.0
  9
$SKPOLY
 70
     0
  9
$TDCREATE
 40
2456223.6054304629
  9
$TDUPDATE
 40
2456646.6730250232
  9
$TDINDWG
 40
0.0261399306
  9
$TDUSRTIMER
 40
0.0261397454
  9
$USRTIMER
 70
     1
  9
$ANGBASE
 50
0.0
  9
$ANGDIR
 70
     0
  9
$PDMODE
 70
     0
  9
$PDSIZE
 40
0.0
  9
$PLINEWID
 40
0.0
  9
$COORDS
 70
     1
  9
$SPLFRAME
 70
     0
  9
$SPLINETYPE
 70
     6
  9
$SPLINESEGS
 70
     8
  9
$ATTDIA
 70
     0
  9
$ATTREQ
 70
     1
  9
$HANDLING
 70
     1
  9
$HANDSEED
  5
208B
  9
$SURFTAB1
 70
     6
  9
$SURFTAB2
 70
     6
  9
$SURFTYPE
 70
     6
  9
$SURFU
 70
     6
  9
$SURFV
 70
     6
  9
$UCSNAME
  2

  9
$UCSORG
 10
0.0
 20
0.0
 30
0.0
  9
$UCSXDIR
 10
1.0
 20
0.0
 30
0.0
  9
$UCSYDIR
 10
0.0
 20
1.0
 30
0.0
  9
$PUCSNAME
  2

  9
$PUCSORG
 10
0.0
 20
0.0
 30
0.0
  9
$PUCSXDIR
 10
1.0
 20
0.0
 30
0.0
  9
$PUCSYDIR
 10
0.0
 20
1.0
 30
0.0
  9
$USERI1
 70
     0
  9
$USERI2
 70
     0
  9
$USERI3
 70
     0
  9
$USERI4
 70
     0
  9
$USERI5
 70
     0
  9
$USERR1
 40
0.0
  9
$USERR2
 40
0.0
  9
$USERR3
 40
0.0
  9
$USERR4
 40
0.0
  9
$USERR5
 40
0.0
  9
$WORLDVIEW
 70
     1
  9
$SHADEDGE
 70
     3
  9
$SHADEDIF
 70
    70
  9
$TILEMODE
 70
     1
  9
$MAXACTVP
 70
    16
  9
$PLIMCHECK
 70
     0
  9
$PEXTMIN
 10
1.0000000000000000E+020
 20
1.0000000000000000E+020
 30
1.0000000000000000E+020
  9
$PEXTMAX
 10
-1.0000000000000000E+020
 20
-1.0000000000000000E+020
 30
-1.0000000000000000E+020
  9
$PLIMMIN
 10
-5.069427490234375
 20
-5.8737497329711914
  9
$PLIMMAX
 10
291.89889526367187
 20
204.0995779037475
  9
$UNITMODE
 70
     0
  9
$VISRETAIN
 70
     1
  9
$PLINEGEN
 70
     0
  9
$PSLTSCALE
 70
     1
  0
ENDSEC
  0
SECTION
  2
TABLES
  0
TABLE
  2
VPORT
 70
     1
  0
VPORT
  2
*ACTIVE
 70
     0
 10
0.0
 20
0.0
 11
1.0
 21
1.0
 12
0.4315471796351176
 22
5.0718437074578162
 13
0.0
 23
0.0
 14
1.0
 24
1.0
 15
0.0
 25
0.0
 16
0.0
 26
0.0
 36
1.0
 17
0.0
 27
0.0
 37
0.0
 40
153.13545186575101
 41
2.112307692307692
 42
50.0
 43
0.0
 44
0.0
 50
0.0
 51
0.0
 71
     0
 72
   100
 73
     1
 74
     1
 75
     0
 76
     0
 77
     0
 78
     0
  0
ENDTAB
  0
TABLE
  2
LTYPE
 70
    40
  0
LTYPE
  2
CONTINUOUS
 70
     0
  3
Solid line
 72
    65
 73
     0
 40
0.0
  0
LTYPE
  2
DASHDOT
 70
     0
  3
__ . __ . __ . __ . __ . __ . __ . __ . __ . __
 72
    65
 73
     4
 40
1.0
 49
0.5
 49
-0.25
 49
0.0
 49
-0.25
  0
LTYPE
  2
BYGG-018516$0$NEWDOT
 70
     0
  3
____ . ____ . ____ . ____ . ____ . ____ . ____
 72
    65
 73
     4
 40
2.0
 49
1.0
 49
-0.5
 49
0.0
 49
-0.5
  0
LTYPE
  2
BYGG-018516$0$ZIGZAG
 70
     0
  3
Zig zag /\/\/\/\/\/\/\/\/\/\/\/\/\/\/\/\/\/\/\/\/\/\/\/
 72
    65
 73
     4
 40
20.32254
 49
0.00254
 49
-5.0800000000000001
 49
-10.16
 49
-5.0800000000000001
  0
LTYPE
  2
BYGG-014269$0$NEWDOT
 70
     0
  3
____ . ____ . ____ . ____ . ____ . ____ . ____
 72
    65
 73
     4
 40
2.0
 49
1.0
 49
-0.5
 49
0.0
 49
-0.5
  0
LTYPE
  2
BYGG-014269$0$ZIGZAG
 70
     0
  3
Zig zag /\/\/\/\/\/\/\/\/\/\/\/\/\/\/\/\/\/\/\/\/\/\/\/
 72
    65
 73
     4
 40
20.32254
 49
0.00254
 49
-5.0800000000000001
 49
-10.16
 49
-5.0800000000000001
  0
LTYPE
  2
BYGG-028959$0$NEWDOT
 70
     0
  3
____ . ____ . ____ . ____ . ____ . ____ . ____
 72
    65
 73
     4
 40
2.0
 49
1.0
 49
-0.5
 49
0.0
 49
-0.5
  0
LTYPE
  2
BYGG-028959$0$DASHDOT
 70
     0
  3
__ . __ . __ . __ . __ . __ . __ . __ . __ . __
 72
    65
 73
     4
 40
1.0
 49
0.5
 49
-0.25
 49
0.0
 49
-0.25
  0
LTYPE
  2
BYGG-028959$0$DASHED
 70
     0
  3
__ __ __ __ __ __ __ __ __ __ __ __ __ __ __
 72
    65
 73
     2
 40
0.75
 49
0.5
 49
-0.25
  0
LTYPE
  2
BYGG-028959$0$PHANTOM
 70
     0
  3
Phantom ______  __  __  ______  __  __  ______
 72
    65
 73
     6
 40
63.5
 49
31.75
 49
-6.3499999999999988
 49
6.3499999999999988
 49
-6.3499999999999988
 49
6.3499999999999988
 49
-6.3499999999999988
  0
LTYPE
  2
BYGG-019653$0$NEWDOT
 70
     0
  3
____ . ____ . ____ . ____ . ____ . ____ . ____
 72
    65
 73
     4
 40
2.0
 49
1.0
 49
-0.5
 49
0.0
 49
-0.5
  0
LTYPE
  2
BYGG-019653$0$DASHDOT
 70
     0
  3
__ . __ . __ . __ . __ . __ . __ . __ . __ . __
 72
    65
 73
     4
 40
1.0
 49
0.5
 49
-0.25
 49
0.0
 49
-0.25
  0
LTYPE
  2
BYGG-019653$0$DASHED
 70
     0
  3
__ __ __ __ __ __ __ __ __ __ __ __ __ __ __
 72
    65
 73
     2
 40
0.75
 49
0.5
 49
-0.25
  0
LTYPE
  2
BYGG-019653$0$PHANTOM
 70
     0
  3
Phantom ______  __  __  ______  __  __  ______
 72
    65
 73
     6
 40
63.5
 49
31.75
 49
-6.3499999999999988
 49
6.3499999999999988
 49
-6.3499999999999988
 49
6.3499999999999988
 49
-6.3499999999999988
  0
LTYPE
  2
BYGG-029261$0$NEWDOT
 70
     0
  3
____ . ____ . ____ . ____ . ____ . ____ . ____
 72
    65
 73
     4
 40
2.0
 49
1.0
 49
-0.5
 49
0.0
 49
-0.5
  0
LTYPE
  2
BYGG-029261$0$DASHDOT
 70
     0
  3
__ . __ . __ . __ . __ . __ . __ . __ . __ . __
 72
    65
 73
     4
 40
1.0
 49
0.5
 49
-0.25
 49
0.0
 49
-0.25
  0
LTYPE
  2
BYGG-029261$0$DASHED
 70
     0
  3
__ __ __ __ __ __ __ __ __ __ __ __ __ __ __
 72
    65
 73
     2
 40
0.75
 49
0.5
 49
-0.25
  0
LTYPE
  2
BYGG-029261$0$PHANTOM
 70
     0
  3
Phantom ______  __  __  ______  __  __  ______
 72
    65
 73
     6
 40
63.5
 49
31.75
 49
-6.3499999999999988
 49
6.3499999999999988
 49
-6.3499999999999988
 49
6.3499999999999988
 49
-6.3499999999999988
  0
LTYPE
  2
BYGG-022089$0$NEWDOT
 70
     0
  3
____ . ____ . ____ . ____ . ____ . ____ . ____
 72
    65
 73
     4
 40
2.0
 49
1.0
 49
-0.5
 49
0.0
 49
-0.5
  0
LTYPE
  2
BYGG-022089$0$DASHDOT
 70
     0
  3
__ . __ . __ . __ . __ . __ . __ . __ . __ . __
 72
    65
 73
     4
 40
1.0
 49
0.5
 49
-0.25
 49
0.0
 49
-0.25
  0
LTYPE
  2
BYGG-022089$0$DASHED
 70
     0
  3
__ __ __ __ __ __ __ __ __ __ __ __ __ __ __
 72
    65
 73
     2
 40
0.75
 49
0.5
 49
-0.25
  0
LTYPE
  2
BYGG-022089$0$PHANTOM
 70
     0
  3
Phantom ______  __  __  ______  __  __  ______
 72
    65
 73
     6
 40
63.5
 49
31.75
 49
-6.3499999999999988
 49
6.3499999999999988
 49
-6.3499999999999988
 49
6.3499999999999988
 49
-6.3499999999999988
  0
LTYPE
  2
BYGG-018731$0$NEWDOT
 70
     0
  3
____ . ____ . ____ . ____ . ____ . ____ . ____
 72
    65
 73
     4
 40
2.0
 49
1.0
 49
-0.5
 49
0.0
 49
-0.5
  0
LTYPE
  2
BYGG-018731$0$DASHDOT
 70
     0
  3
__ . __ . __ . __ . __ . __ . __ . __ . __ . __
 72
    65
 73
     4
 40
1.0
 49
0.5
 49
-0.25
 49
0.0
 49
-0.25
  0
LTYPE
  2
BYGG-018731$0$DASHED
 70
     0
  3
__ __ __ __ __ __ __ __ __ __ __ __ __ __ __
 72
    65
 73
     2
 40
0.75
 49
0.5
 49
-0.25
  0
LTYPE
  2
BYGG-018731$0$PHANTOM
 70
     0
  3
Phantom ______  __  __  ______  __  __  ______
 72
    65
 73
     6
 40
63.5
 49
31.75
 49
-6.3499999999999988
 49
6.3499999999999988
 49
-6.3499999999999988
 49
6.3499999999999988
 49
-6.3499999999999988
  0
LTYPE
  2
BYGG-020945$0$NEWDOT
 70
     0
  3
____ . ____ . ____ . ____ . ____ . ____ . ____
 72
    65
 73
     4
 40
2.0
 49
1.0
 49
-0.5
 49
0.0
 49
-0.5
  0
LTYPE
  2
BYGG-020945$0$DASHDOT
 70
     0
  3
__ . __ . __ . __ . __ . __ . __ . __ . __ . __
 72
    65
 73
     4
 40
1.0
 49
0.5
 49
-0.25
 49
0.0
 49
-0.25
  0
LTYPE
  2
BYGG-020945$0$DASHED
 70
     0
  3
__ __ __ __ __ __ __ __ __ __ __ __ __ __ __
 72
    65
 73
     2
 40
0.75
 49
0.5
 49
-0.25
  0
LTYPE
  2
BYGG-020945$0$PHANTOM
 70
     0
  3
Phantom ______  __  __  ______  __  __  ______
 72
    65
 73
     6
 40
63.5
 49
31.75
 49
-6.3499999999999988
 49
6.3499999999999988
 49
-6.3499999999999988
 49
6.3499999999999988
 49
-6.3499999999999988
  0
LTYPE
  2
BYGG-014113$0$NEWDOT
 70
     0
  3
____ . ____ . ____ . ____ . ____ . ____ . ____
 72
    65
 73
     4
 40
2.0
 49
1.0
 49
-0.5
 49
0.0
 49
-0.5
  0
LTYPE
  2
BYGG-014113$0$DASHDOT
 70
     0
  3
__ . __ . __ . __ . __ . __ . __ . __ . __ . __
 72
    65
 73
     4
 40
1.0
 49
0.5
 49
-0.25
 49
0.0
 49
-0.25
  0
LTYPE
  2
BYGG-014113$0$DASHED
 70
     0
  3
__ __ __ __ __ __ __ __ __ __ __ __ __ __ __
 72
    65
 73
     2
 40
0.75
 49
0.5
 49
-0.25
  0
LTYPE
  2
BYGG-025538$0$NEWDOT
 70
     0
  3
____ . ____ . ____ . ____ . ____ . ____ . ____
 72
    65
 73
     4
 40
2.0
 49
1.0
 49
-0.5
 49
0.0
 49
-0.5
  0
LTYPE
  2
BYGG-025538$0$DASHDOT
 70
     0
  3
__ . __ . __ . __ . __ . __ . __ . __ . __ . __
 72
    65
 73
     4
 40
1.0
 49
0.5
 49
-0.25
 49
0.0
 49
-0.25
  0
LTYPE
  2
BYGG-025538$0$DASHED
 70
     0
  3
__ __ __ __ __ __ __ __ __ __ __ __ __ __ __
 72
    65
 73
     2
 40
0.75
 49
0.5
 49
-0.25
  0
LTYPE
  2
BYGG-025538$0$PHANTOM
 70
     0
  3
Phantom ______  __  __  ______  __  __  ______
 72
    65
 73
     6
 40
63.5
 49
31.75
 49
-6.3499999999999988
 49
6.3499999999999988
 49
-6.3499999999999988
 49
6.3499999999999988
 49
-6.3499999999999988
  0
LTYPE
  2
BYGG-019653$0$DOT_CENTER
 70
     0
  3
Dot_Center
 72
    65
 73
     4
 40
14.0
 49
12.0
 49
-1.0
 49
0.0
 49
-1.0
  0
LTYPE
  2
BYGG-019653$0$DASH_CENTER
 70
     0
  3
Dash_Center
 72
    65
 73
     4
 40
14.0
 49
11.0
 49
-1.0
 49
1.0
 49
-1.0
  0
LTYPE
  2
BYGG-022089$0$PHANTOM2
 70
     0
  3
Phantom (.5x) ___ _ _ ___ _ _ ___ _ _ ___ _ _
 72
    65
 73
     6
 40
1.25
 49
0.625
 49
-0.125
 49
0.125
 49
-0.125
 49
0.125
 49
-0.125
  0
ENDTAB
  0
TABLE
  2
LAYER
 70
   226
  0
LAYER
  2
0
 70
     0
 62
     7
  6
CONTINUOUS
  0
LAYER
  2
SAPA_FYLLNING
 70
     0
 62
     4
  6
CONTINUOUS
  0
LAYER
  2
SAPA_GLAS
 70
     0
 62
     4
  6
CONTINUOUS
  0
LAYER
  2
SAPA_ISOLATOR
 70
     0
 62
     4
  6
CONTINUOUS
  0
LAYER
  2
SAPA_FOGBAND
 70
     0
 62
     2
  6
CONTINUOUS
  0
LAYER
  2
SAPA_PROFIL
 70
     0
 62
     7
  6
CONTINUOUS
  0
ENDTAB
  0
TABLE
  2
STYLE
 70
    29
  0
STYLE
  2
STANDARD
 70
     0
 40
0.0
 41
1.0
 50
0.0
 71
     0
 42
0.2
  3
txt
  4

  0
STYLE
  2
ISO
 70
     0
 40
0.0
 41
1.0
 50
0.0
 71
     0
 42
3.5
  3
txt
  4

  0
STYLE
  2

 70
     1
 40
0.0
 41
1.0
 50
0.0
 71
     0
 42
0.2
  3
ltypeshp.shx
  4

  0
STYLE
  2
BYGG-021665$0$STANDARD
 70
     0
 40
0.0
 41
1.0
 50
0.0
 71
     0
 42
0.2
  3
txt
  4

  0
STYLE
  2
BYGG-021665$0$ISO
 70
     0
 40
0.0
 41
1.0
 50
0.0
 71
     0
 42
3.5
  3
isocp3.shx
  4

  0
STYLE
  2
BYGG-018516$0$STANDARD
 70
     0
 40
0.0
 41
1.0
 50
0.0
 71
     0
 42
0.2
  3
txt
  4

  0
STYLE
  2
BYGG-018516$0$ISO
 70
     0
 40
0.0
 41
1.0
 50
0.0
 71
     0
 42
3.5
  3
isocp3.shx
  4

  0
STYLE
  2
BYGG-021581$0$STANDARD
 70
     0
 40
0.0
 41
1.0
 50
0.0
 71
     0
 42
0.2
  3
txt
  4

  0
STYLE
  2
BYGG-014269$0$STANDARD
 70
     0
 40
0.0
 41
1.0
 50
0.0
 71
     0
 42
0.2
  3
txt
  4

  0
STYLE
  2
BYGG-014269$0$ISO
 70
     0
 40
0.0
 41
1.0
 50
0.0
 71
     0
 42
2.5
  3
isocp3.shx
  4

  0
STYLE
  2
BYGG-028959$0$STANDARD
 70
     0
 40
0.0
 41
1.0
 50
0.0
 71
     0
 42
0.2
  3
txt
  4

  0
STYLE
  2
BYGG-028959$0$ISO
 70
     0
 40
0.0
 41
1.0
 50
0.0
 71
     0
 42
3.5
  3
txt
  4

  0
STYLE
  2
BYGG-019653$0$STANDARD
 70
     0
 40
0.0
 41
1.0
 50
0.0
 71
     0
 42
0.2
  3
txt
  4

  0
STYLE
  2
BYGG-019653$0$ISO
 70
     0
 40
0.0
 41
1.0
 50
0.0
 71
     0
 42
3.5
  3
txt
  4

  0
STYLE
  2
BYGG-019653$0$CONVERTER_11
 70
     0
 40
0.0
 41
0.72
 50
0.0
 71
     0
 42
0.2
  3
txt.shx
  4

  0
STYLE
  2
BYGG-022089$0$STANDARD
 70
     0
 40
0.0
 41
1.0
 50
0.0
 71
     0
 42
0.2
  3
txt
  4

  0
STYLE
  2
BYGG-022089$0$ISO
 70
     0
 40
0.0
 41
1.0
 50
0.0
 71
     0
 42
3.5
  3
txt
  4

  0
STYLE
  2
BYGG-022089$0$ANNOTATIVE
 70
     0
 40
0.0
 41
1.0
 50
0.0
 71
     0
 42
0.2
  3
txt
  4

  0
STYLE
  2
BYGG-018731$0$STANDARD
 70
     0
 40
0.0
 41
1.0
 50
0.0
 71
     0
 42
0.2
  3
txt
  4

  0
STYLE
  2
BYGG-018731$0$ISO
 70
     0
 40
0.0
 41
1.0
 50
0.0
 71
     0
 42
3.5
  3
txt
  4

  0
STYLE
  2
BYGG-029261$0$STANDARD
 70
     0
 40
0.0
 41
1.0
 50
0.0
 71
     0
 42
0.2
  3
txt
  4

  0
STYLE
  2
BYGG-029261$0$ISO
 70
     0
 40
0.0
 41
1.0
 50
0.0
 71
     0
 42
3.5
  3
txt
  4

  0
STYLE
  2
BYGG-020945$0$STANDARD
 70
     0
 40
0.0
 41
1.0
 50
0.0
 71
     0
 42
0.2
  3
txt
  4

  0
STYLE
  2
BYGG-020945$0$ISO
 70
     0
 40
0.0
 41
1.0
 50
0.0
 71
     0
 42
3.5
  3
txt
  4

  0
STYLE
  2
BYGG-014113$0$STANDARD
 70
     0
 40
0.0
 41
1.0
 50
0.0
 71
     0
 42
0.2
  3
txt
  4

  0
STYLE
  2
BYGG-014113$0$ISO
 70
     0
 40
0.0
 41
1.0
 50
0.0
 71
     0
 42
3.5
  3
isocp3.shx
  4

  0
STYLE
  2
BYGG-014113$0$SIMPLEX
 70
     0
 40
0.0
 41
1.0
 50
0.0
 71
     0
 42
0.4
  3
simplex
  4

  0
STYLE
  2
BYGG-025538$0$STANDARD
 70
     0
 40
0.0
 41
1.0
 50
0.0
 71
     0
 42
0.2
  3
txt
  4

  0
STYLE
  2
BYGG-025538$0$ISO
 70
     0
 40
0.0
 41
1.0
 50
0.0
 71
     0
 42
3.5
  3
txt
  4

  0
ENDTAB
  0
TABLE
  2
VIEW
 70
     0
  0
ENDTAB
  0
TABLE
  2
UCS
 70
     0
  0
ENDTAB
  0
TABLE
  2
APPID
 70
    21
  0
APPID
  2
ACAD
 70
     0
  0
APPID
  2
ACAD_DSTYLE_DIMTEXT_FILL
 70
     0
  0
APPID
  2
ACAD_DSTYLE_DIMEXT_LENGTH
 70
     0
  0
APPID
  2
ACAD_DSTYLE_DIMEXT_ENABLED
 70
     0
  0
APPID
  2
ACAD_DSTYLE_DIM_LINETYPE
 70
     0
  0
APPID
  2
ACAD_DSTYLE_DIM_EXT1_LINETYPE
 70
     0
  0
APPID
  2
ACAD_DSTYLE_DIM_EXT2_LINETYPE
 70
     0
  0
APPID
  2
ACAD_DSTYLE_DIMJOGGED_JOGA
 70
     0
  0
APPID
  2
ACAD_DSTYLE_DIMARC_LENGTH_
 70
     0
  0
APPID
  2
ACAD_PSEXT
 70
     0
  0
APPID
  2
ACAD_MLEADERVER
 70
     0
  0
APPID
  2
ACAD_NAV_VCDISPLAY
 70
     0
  0
APPID
  2
ACADANNOTATIVE
 70
     0
  0
APPID
  2
ACAECLAYERSTANDARD
 70
     0
  0
APPID
  2
ACAD_EXEMPT_FROM_CAD_STANDARDS
 70
     0
  0
APPID
  2
AME_SOL
 70
     0
  0
APPID
  2
GRADIENTCOLOR1ACI
 70
     0
  0
APPID
  2
GRADIENTCOLOR2ACI
 70
     0
  0
APPID
  2
AMG_ARCHIVE11
 70
     0
  0
APPID
  2
AEC_XDATA_BOUND_SPACE
 70
     0
  0
APPID
  2
ACCMTRANSPARENCY
 70
     0
  0
ENDTAB
  0
TABLE
  2
DIMSTYLE
 70
    43
  0
DIMSTYLE
  2
STANDARD
 70
     0
  3

  4

  5

  6

  7

 40
1.0
 41
0.18
 42
0.0625
 43
0.38
 44
0.18
 45
0.0
 46
0.0
 47
0.0
 48
0.0
140
0.18
141
0.09
142
0.0
143
25.399999999999999
144
1.0
145
0.0
146
1.0
147
0.09
 71
     0
 72
     0
 73
     1
 74
     1
 75
     0
 76
     0
 77
     0
 78
     0
170
     0
171
     2
172
     0
173
     0
174
     0
175
     0
176
     0
177
     0
178
     0
  0
DIMSTYLE
  2
MASKIN
 70
     0
  3

  4

  5

  6

  7

 40
0.0
 41
3.0
 42
1.5
 43
10.0
 44
1.5
 45
0.0
 46
0.0
 47
0.0
 48
0.0
140
3.0
141
-5.0
142
0.0
143
25.399999999999999
144
-1.0
145
0.0
146
1.0
147
1.0
 71
     0
 72
     0
 73
     0
 74
     0
 75
     0
 76
     0
 77
     1
 78
     8
170
     0
171
     0
172
     1
173
     0
174
     0
175
     0
176
   256
177
   256
178
     2
  0
DIMSTYLE
  2
BYGG-021665$0$MASKIN
 70
     0
  3

  4

  5

  6

  7

 40
0.0
 41
3.0
 42
1.5
 43
10.0
 44
1.5
 45
0.0
 46
0.0
 47
0.0
 48
0.0
140
3.0
141
-5.0
142
0.0
143
25.399999999999999
144
-1.0
145
0.0
146
1.0
147
1.0
 71
     0
 72
     0
 73
     0
 74
     0
 75
     0
 76
     0
 77
     1
 78
     8
170
     0
171
     0
172
     1
173
     0
174
     0
175
     0
176
   256
177
   256
178
   256
  0
DIMSTYLE
  2
BYGG-018516$0$STANDARD
 70
     0
  3

  4

  5

  6

  7

 40
1.0
 41
0.18
 42
0.0625
 43
0.38
 44
0.18
 45
0.0
 46
0.0
 47
0.0
 48
0.0
140
0.18
141
0.09
142
0.0
143
25.399999999999999
144
1.0
145
0.0
146
1.0
147
0.09
 71
     0
 72
     0
 73
     1
 74
     1
 75
     0
 76
     0
 77
     0
 78
     0
170
     0
171
     2
172
     0
173
     0
174
     0
175
     0
176
     0
177
     0
178
     0
  0
DIMSTYLE
  2
BYGG-018516$0$MASKIN
 70
     0
  3

  4

  5

  6

  7

 40
0.0
 41
3.0
 42
1.5
 43
10.0
 44
1.5
 45
0.0
 46
0.0
 47
0.0
 48
0.0
140
3.0
141
-5.0
142
0.0
143
25.399999999999999
144
-1.0
145
0.0
146
1.0
147
1.0
 71
     0
 72
     0
 73
     0
 74
     0
 75
     0
 76
     0
 77
     1
 78
     8
170
     0
171
     0
172
     1
173
     0
174
     0
175
     0
176
   256
177
   256
178
     2
  0
DIMSTYLE
  2
BYGG-021581$0$STANDARD
 70
     0
  3

  4

  5

  6

  7

 40
1.0
 41
0.18
 42
0.0625
 43
0.38
 44
0.18
 45
0.0
 46
0.0
 47
0.0
 48
0.0
140
0.18
141
0.09
142
0.0
143
25.399999999999999
144
1.0
145
0.0
146
1.0
147
0.09
 71
     0
 72
     0
 73
     1
 74
     1
 75
     0
 76
     0
 77
     0
 78
     0
170
     0
171
     2
172
     0
173
     0
174
     0
175
     0
176
     0
177
     0
178
     0
  0
DIMSTYLE
  2
BYGG-014269$0$STANDARD
 70
     0
  3

  4

  5

  6

  7

 40
1.0
 41
0.18
 42
0.0625
 43
0.38
 44
0.18
 45
0.0
 46
0.0
 47
0.0
 48
0.0
140
0.18
141
0.09
142
0.0
143
25.399999999999999
144
1.0
145
0.0
146
1.0
147
0.09
 71
     0
 72
     0
 73
     1
 74
     1
 75
     0
 76
     0
 77
     0
 78
     0
170
     0
171
     2
172
     0
173
     0
174
     0
175
     0
176
     0
177
     0
178
     0
  0
DIMSTYLE
  2
BYGG-014269$0$MASKIN
 70
     0
  3

  4

  5

  6

  7

 40
0.0
 41
3.0
 42
1.5
 43
10.0
 44
1.5
 45
0.0
 46
0.0
 47
0.0
 48
0.0
140
3.0
141
-5.0
142
0.0
143
25.399999999999999
144
-1.0
145
0.0
146
1.0
147
1.0
 71
     0
 72
     0
 73
     0
 74
     1
 75
     0
 76
     0
 77
     1
 78
     8
170
     0
171
     0
172
     1
173
     0
174
     0
175
     0
176
   256
177
   256
178
     2
  0
DIMSTYLE
  2
BYGG-028959$0$STANDARD
 70
     0
  3

  4

  5

  6

  7

 40
1.0
 41
0.18
 42
0.0625
 43
0.38
 44
0.18
 45
0.0
 46
0.0
 47
0.0
 48
0.0
140
0.18
141
0.09
142
0.0
143
25.399999999999999
144
1.0
145
0.0
146
1.0
147
0.09
 71
     0
 72
     0
 73
     1
 74
     1
 75
     0
 76
     0
 77
     0
 78
     0
170
     0
171
     2
172
     0
173
     0
174
     0
175
     0
176
     0
177
     0
178
     0
  0
DIMSTYLE
  2
BYGG-028959$0$MASKIN
 70
     0
  3

  4

  5

  6

  7

 40
0.0
 41
3.0
 42
1.5
 43
10.0
 44
1.5
 45
0.0
 46
0.0
 47
0.0
 48
0.0
140
3.0
141
-5.0
142
0.0
143
25.399999999999999
144
-1.0
145
0.0
146
1.0
147
1.0
 71
     0
 72
     0
 73
     0
 74
     0
 75
     0
 76
     0
 77
     1
 78
     8
170
     0
171
     0
172
     1
173
     0
174
     0
175
     0
176
   256
177
   256
178
     2
  0
DIMSTYLE
  2
BYGG-019653$0$STANDARD
 70
     0
  3

  4

  5

  6

  7

 40
1.0
 41
0.18
 42
0.0625
 43
0.38
 44
0.18
 45
0.0
 46
0.0
 47
0.0
 48
0.0
140
0.18
141
0.09
142
0.0
143
25.399999999999999
144
1.0
145
0.0
146
1.0
147
0.09
 71
     0
 72
     0
 73
     1
 74
     1
 75
     0
 76
     0
 77
     0
 78
     0
170
     0
171
     2
172
     0
173
     0
174
     0
175
     0
176
     0
177
     0
178
     0
  0
DIMSTYLE
  2
BYGG-019653$0$MASKIN
 70
     0
  3

  4

  5

  6

  7

 40
0.0
 41
3.0
 42
1.5
 43
10.0
 44
1.5
 45
0.0
 46
0.0
 47
0.0
 48
0.0
140
3.0
141
-5.0
142
0.0
143
25.399999999999999
144
-1.0
145
0.0
146
1.0
147
1.0
 71
     0
 72
     0
 73
     0
 74
     0
 75
     0
 76
     0
 77
     1
 78
     8
170
     0
171
     0
172
     1
173
     0
174
     0
175
     0
176
   256
177
   256
178
     2
  0
DIMSTYLE
  2
BYGG-019653$0$ME10_DIM_10
 70
     0
  3

  4

  5

  6

  7

 40
1.0
 41
0.7
 42
0.0
 43
0.38
 44
0.4
 45
0.0
 46
0.0
 47
0.0
 48
0.0
140
0.7
141
0.09
142
0.0
143
25.399999999999999
144
1.0
145
0.0
146
1.0
147
0.4
 71
     0
 72
     0
 73
     0
 74
     0
 75
     0
 76
     0
 77
     1
 78
     8
170
     0
171
     2
172
     1
173
     1
174
     0
175
     0
176
     1
177
     1
178
     2
  0
DIMSTYLE
  2
BYGG-019653$0$ME10_DIM_11
 70
     0
  3

  4

  5

  6

  7

 40
1.0
 41
0.7
 42
0.0
 43
0.38
 44
0.4
 45
0.0
 46
0.0
 47
0.0
 48
0.0
140
0.7
141
0.09
142
0.0
143
25.399999999999999
144
1.0
145
0.0
146
1.0
147
0.4
 71
     0
 72
     0
 73
     0
 74
     0
 75
     0
 76
     0
 77
     1
 78
     8
170
     0
171
     2
172
     1
173
     1
174
     0
175
     0
176
     1
177
     1
178
     2
  0
DIMSTYLE
  2
BYGG-019653$0$ME10_DIM_12
 70
     0
  3
(<>)
  4

  5

  6

  7

 40
1.0
 41
0.7
 42
0.0
 43
0.38
 44
0.4
 45
0.0
 46
0.0
 47
0.0
 48
0.0
140
0.7
141
0.09
142
0.0
143
25.399999999999999
144
1.0
145
0.0
146
1.0
147
0.4
 71
     0
 72
     0
 73
     0
 74
     0
 75
     0
 76
     0
 77
     1
 78
     8
170
     0
171
     2
172
     1
173
     1
174
     0
175
     0
176
     1
177
     1
178
     2
  0
DIMSTYLE
  2
BYGG-019653$0$ME10_DIM_13
 70
     0
  3

  4

  5

  6

  7

 40
1.0
 41
0.7
 42
0.0
 43
0.38
 44
0.4
 45
0.0
 46
0.0
 47
0.0
 48
0.0
140
0.7
141
0.09
142
0.0
143
25.399999999999999
144
1.0
145
0.0
146
1.0
147
0.4
 71
     0
 72
     0
 73
     0
 74
     0
 75
     0
 76
     0
 77
     1
 78
     8
170
     0
171
     2
172
     1
173
     1
174
     0
175
     0
176
     1
177
     1
178
     2
  0
DIMSTYLE
  2
BYGG-019653$0$ME10_DIM_14
 70
     0
  3

  4

  5

  6

  7

 40
1.0
 41
0.7
 42
0.0
 43
0.38
 44
0.4
 45
0.0
 46
0.0
 47
0.0
 48
0.0
140
0.7
141
0.09
142
0.0
143
25.399999999999999
144
1.0
145
0.0
146
1.0
147
0.4
 71
     0
 72
     0
 73
     0
 74
     0
 75
     0
 76
     0
 77
     1
 78
     8
170
     0
171
     2
172
     1
173
     1
174
     0
175
     0
176
     1
177
     1
178
     2
  0
DIMSTYLE
  2
BYGG-019653$0$ME10_DIM_15
 70
     0
  3

  4

  5

  6

  7

 40
1.0
 41
0.7
 42
0.0
 43
0.38
 44
0.4
 45
0.0
 46
0.0
 47
0.0
 48
0.0
140
0.7
141
0.09
142
0.0
143
25.399999999999999
144
1.0
145
0.0
146
1.0
147
0.4
 71
     0
 72
     0
 73
     0
 74
     0
 75
     0
 76
     0
 77
     1
 78
     8
170
     0
171
     2
172
     1
173
     1
174
     0
175
     0
176
     1
177
     1
178
     2
  0
DIMSTYLE
  2
BYGG-019653$0$ME10_DIM_16
 70
     0
  3

  4

  5

  6

  7

 40
1.0
 41
0.7
 42
0.0
 43
0.38
 44
0.4
 45
0.0
 46
0.0
 47
0.3
 48
0.3
140
0.7
141
0.09
142
0.0
143
25.399999999999999
144
1.0
145
0.0
146
0.6
147
0.4
 71
     1
 72
     0
 73
     0
 74
     0
 75
     0
 76
     0
 77
     1
 78
     8
170
     0
171
     2
172
     1
173
     1
174
     0
175
     0
176
     1
177
     1
178
     2
  0
DIMSTYLE
  2
BYGG-019653$0$ME10_DIM_17
 70
     0
  3

  4

  5

  6

  7

 40
1.0
 41
0.7
 42
0.0
 43
0.38
 44
0.4
 45
0.0
 46
0.0
 47
0.0
 48
0.0
140
0.7
141
0.09
142
0.0
143
25.399999999999999
144
1.0
145
0.0
146
1.0
147
0.4
 71
     0
 72
     0
 73
     0
 74
     0
 75
     0
 76
     0
 77
     1
 78
     8
170
     0
171
     2
172
     1
173
     1
174
     0
175
     0
176
     1
177
     1
178
     2
  0
DIMSTYLE
  2
BYGG-019653$0$ME10_DIM_18
 70
     0
  3

  4

  5

  6

  7

 40
1.0
 41
0.7
 42
0.0
 43
0.38
 44
0.4
 45
0.0
 46
0.0
 47
0.3
 48
0.3
140
0.7
141
0.09
142
0.0
143
25.399999999999999
144
1.0
145
0.0
146
0.6
147
0.4
 71
     1
 72
     0
 73
     0
 74
     0
 75
     0
 76
     0
 77
     1
 78
     8
170
     0
171
     2
172
     1
173
     1
174
     0
175
     0
176
     1
177
     1
178
     2
  0
DIMSTYLE
  2
BYGG-019653$0$ME10_DIM_19
 70
     0
  3

  4

  5

  6

  7

 40
1.0
 41
0.7
 42
0.0
 43
0.38
 44
0.4
 45
0.0
 46
0.0
 47
0.0
 48
0.0
140
0.7
141
0.09
142
0.0
143
25.399999999999999
144
1.0
145
0.0
146
1.0
147
0.4
 71
     0
 72
     0
 73
     0
 74
     0
 75
     0
 76
     0
 77
     1
 78
     8
170
     0
171
     2
172
     1
173
     1
174
     0
175
     0
176
     1
177
     1
178
     2
  0
DIMSTYLE
  2
BYGG-019653$0$ME10_DIM_20
 70
     0
  3

  4

  5

  6

  7

 40
1.0
 41
0.7
 42
0.0
 43
0.38
 44
0.4
 45
0.0
 46
0.0
 47
0.0
 48
0.0
140
0.7
141
0.09
142
0.0
143
25.399999999999999
144
1.0
145
0.0
146
1.0
147
0.4
 71
     0
 72
     0
 73
     0
 74
     0
 75
     0
 76
     0
 77
     1
 78
     8
170
     0
171
     2
172
     1
173
     1
174
     0
175
     0
176
     1
177
     1
178
     2
  0
DIMSTYLE
  2
BYGG-019653$0$ME10_DIM_21
 70
     0
  3
(<>)
  4

  5

  6

  7

 40
1.0
 41
0.7
 42
0.0
 43
0.38
 44
0.4
 45
0.0
 46
0.0
 47
0.0
 48
0.0
140
0.7
141
0.09
142
0.0
143
25.399999999999999
144
1.0
145
0.0
146
1.0
147
0.4
 71
     0
 72
     0
 73
     0
 74
     0
 75
     0
 76
     0
 77
     1
 78
     8
170
     0
171
     2
172
     1
173
     1
174
     0
175
     0
176
     1
177
     1
178
     2
  0
DIMSTYLE
  2
BYGG-019653$0$ME10_DIM_22
 70
     0
  3

  4

  5

  6

  7

 40
1.0
 41
0.7
 42
0.0
 43
0.38
 44
0.4
 45
0.0
 46
0.0
 47
0.0
 48
0.0
140
0.7
141
0.09
142
0.0
143
25.399999999999999
144
1.0
145
0.0
146
1.0
147
0.4
 71
     0
 72
     0
 73
     0
 74
     0
 75
     0
 76
     0
 77
     1
 78
     8
170
     0
171
     2
172
     1
173
     1
174
     0
175
     0
176
     1
177
     1
178
     2
  0
DIMSTYLE
  2
BYGG-019653$0$ME10_DIM_23
 70
     0
  3

  4

  5

  6

  7

 40
1.0
 41
0.7
 42
0.0
 43
0.38
 44
0.4
 45
0.0
 46
0.0
 47
0.0
 48
0.0
140
0.7
141
0.09
142
0.0
143
25.399999999999999
144
1.0
145
0.0
146
1.0
147
0.4
 71
     0
 72
     0
 73
     0
 74
     0
 75
     0
 76
     0
 77
     1
 78
     8
170
     0
171
     2
172
     1
173
     1
174
     0
175
     0
176
     1
177
     1
178
     2
  0
DIMSTYLE
  2
BYGG-022089$0$STANDARD
 70
     0
  3

  4

  5

  6

  7

 40
1.0
 41
0.18
 42
0.0625
 43
0.38
 44
0.18
 45
0.0
 46
0.0
 47
0.0
 48
0.0
140
0.18
141
0.09
142
0.0
143
25.399999999999999
144
1.0
145
0.0
146
1.0
147
0.09
 71
     0
 72
     0
 73
     1
 74
     1
 75
     0
 76
     0
 77
     0
 78
     0
170
     0
171
     2
172
     0
173
     0
174
     0
175
     0
176
     0
177
     0
178
     0
  0
DIMSTYLE
  2
BYGG-022089$0$MASKIN
 70
     0
  3

  4

  5

  6

  7

 40
0.0
 41
3.0
 42
1.5
 43
10.0
 44
1.5
 45
0.0
 46
0.0
 47
0.0
 48
0.0
140
3.0
141
-5.0
142
0.0
143
25.399999999999999
144
-1.0
145
0.0
146
1.0
147
1.0
 71
     0
 72
     0
 73
     0
 74
     0
 75
     0
 76
     0
 77
     1
 78
     8
170
     0
171
     0
172
     1
173
     0
174
     0
175
     0
176
   256
177
   256
178
     2
  0
DIMSTYLE
  2
BYGG-022089$0$ANNOTATIVE
 70
     0
  3

  4

  5

  6

  7

 40
1.0
 41
0.18
 42
0.0625
 43
0.38
 44
0.18
 45
0.0
 46
0.0
 47
0.0
 48
0.0
140
0.18
141
0.09
142
0.0
143
25.399999999999999
144
1.0
145
0.0
146
1.0
147
0.09
 71
     0
 72
     0
 73
     1
 74
     1
 75
     0
 76
     0
 77
     0
 78
     0
170
     0
171
     2
172
     0
173
     0
174
     0
175
     0
176
     0
177
     0
178
     0
  0
DIMSTYLE
  2
BYGG-018731$0$STANDARD
 70
     0
  3

  4

  5

  6

  7

 40
1.0
 41
0.18
 42
0.0625
 43
0.38
 44
0.18
 45
0.0
 46
0.0
 47
0.0
 48
0.0
140
0.18
141
0.09
142
0.0
143
25.399999999999999
144
1.0
145
0.0
146
1.0
147
0.09
 71
     0
 72
     0
 73
     1
 74
     1
 75
     0
 76
     0
 77
     0
 78
     0
170
     0
171
     2
172
     0
173
     0
174
     0
175
     0
176
     0
177
     0
178
     0
  0
DIMSTYLE
  2
BYGG-018731$0$MASKIN
 70
     0
  3

  4

  5

  6

  7

 40
0.0
 41
3.0
 42
1.5
 43
10.0
 44
1.5
 45
0.0
 46
0.0
 47
0.0
 48
0.0
140
3.0
141
-5.0
142
0.0
143
25.399999999999999
144
-1.0
145
0.0
146
1.0
147
1.0
 71
     0
 72
     0
 73
     0
 74
     0
 75
     0
 76
     0
 77
     1
 78
     8
170
     0
171
     0
172
     1
173
     0
174
     0
175
     0
176
   256
177
   256
178
     2
  0
DIMSTYLE
  2
BYGG-029261$0$STANDARD
 70
     0
  3

  4

  5

  6

  7

 40
1.0
 41
0.18
 42
0.0625
 43
0.38
 44
0.18
 45
0.0
 46
0.0
 47
0.0
 48
0.0
140
0.18
141
0.09
142
0.0
143
25.399999999999999
144
1.0
145
0.0
146
1.0
147
0.09
 71
     0
 72
     0
 73
     1
 74
     1
 75
     0
 76
     0
 77
     0
 78
     0
170
     0
171
     2
172
     0
173
     0
174
     0
175
     0
176
     0
177
     0
178
     0
  0
DIMSTYLE
  2
BYGG-029261$0$MASKIN
 70
     0
  3

  4

  5

  6

  7

 40
0.0
 41
3.0
 42
1.5
 43
10.0
 44
1.5
 45
0.0
 46
0.0
 47
0.0
 48
0.0
140
3.0
141
-5.0
142
0.0
143
25.399999999999999
144
-1.0
145
0.0
146
1.0
147
1.0
 71
     0
 72
     0
 73
     0
 74
     0
 75
     0
 76
     0
 77
     1
 78
     8
170
     0
171
     0
172
     1
173
     0
174
     0
175
     0
176
   256
177
   256
178
     2
  0
DIMSTYLE
  2
BYGG-029261$0$ISO-25
 70
     0
  3

  4

  5

  6

  7

 40
1.0
 41
2.5
 42
0.625
 43
3.75
 44
1.25
 45
0.0
 46
0.0
 47
0.0
 48
0.0
140
2.5
141
2.5
142
0.0
143
0.03937007874016
144
1.0
145
0.0
146
1.0
147
0.625
 71
     0
 72
     0
 73
     0
 74
     0
 75
     0
 76
     0
 77
     1
 78
     8
170
     0
171
     3
172
     1
173
     0
174
     0
175
     0
176
     0
177
     0
178
     0
  0
DIMSTYLE
  2
BYGG-020945$0$STANDARD
 70
     0
  3

  4

  5

  6

  7

 40
1.0
 41
0.18
 42
0.0625
 43
0.38
 44
0.18
 45
0.0
 46
0.0
 47
0.0
 48
0.0
140
0.18
141
0.09
142
0.0
143
25.399999999999999
144
1.0
145
0.0
146
1.0
147
0.09
 71
     0
 72
     0
 73
     1
 74
     1
 75
     0
 76
     0
 77
     0
 78
     0
170
     0
171
     2
172
     0
173
     0
174
     0
175
     0
176
     0
177
     0
178
     0
  0
DIMSTYLE
  2
BYGG-020945$0$MASKIN
 70
     0
  3

  4

  5

  6

  7

 40
0.0
 41
3.0
 42
1.5
 43
10.0
 44
1.5
 45
0.0
 46
0.0
 47
0.0
 48
0.0
140
3.0
141
-5.0
142
0.0
143
25.399999999999999
144
-1.0
145
0.0
146
1.0
147
1.0
 71
     0
 72
     0
 73
     0
 74
     0
 75
     0
 76
     0
 77
     1
 78
     8
170
     0
171
     0
172
     1
173
     0
174
     0
175
     0
176
   256
177
   256
178
     2
  0
DIMSTYLE
  2
BYGG-014113$0$MASKIN
 70
     0
  3

  4

  5

  6

  7

 40
0.0
 41
3.0
 42
1.5
 43
10.0
 44
1.5
 45
0.0
 46
0.0
 47
0.0
 48
0.0
140
3.0
141
-5.0
142
0.0
143
25.399999999999999
144
-1.0
145
0.0
146
1.0
147
1.0
 71
     0
 72
     0
 73
     0
 74
     0
 75
     0
 76
     0
 77
     1
 78
     8
170
     0
171
     0
172
     1
173
     0
174
     0
175
     0
176
   256
177
   256
178
   256
  0
DIMSTYLE
  2
BYGG-014113$0$MASKIN1
 70
     0
  3

  4

  5

  6

  7

 40
1.0
 41
3.0
 42
1.5
 43
10.0
 44
1.5
 45
0.0
 46
0.0
 47
0.0
 48
0.0
140
3.0
141
-5.0
142
0.0
143
25.399999999999999
144
1.0
145
0.0
146
1.0
147
0.9
 71
     0
 72
     0
 73
     0
 74
     0
 75
     0
 76
     0
 77
     1
 78
     8
170
     0
171
     0
172
     1
173
     0
174
     0
175
     0
176
   256
177
   256
178
   256
  0
DIMSTYLE
  2
BYGG-014113$0$MASKIN2
 70
     0
  3

  4

  5

  6

  7

 40
1.0
 41
3.0
 42
1.5
 43
10.0
 44
1.5
 45
0.0
 46
0.0
 47
0.0
 48
0.0
140
3.0
141
-5.0
142
0.0
143
25.399999999999999
144
1.0
145
0.0
146
1.0
147
0.9
 71
     0
 72
     0
 73
     0
 74
     0
 75
     0
 76
     0
 77
     1
 78
     8
170
     0
171
     0
172
     1
173
     0
174
     0
175
     0
176
   256
177
   256
178
   256
  0
DIMSTYLE
  2
BYGG-014113$0$MASKIN3
 70
     0
  3

  4

  5

  6

  7

 40
1.0
 41
3.0
 42
1.5
 43
10.0
 44
1.5
 45
0.0
 46
0.0
 47
0.0
 48
0.0
140
3.0
141
-5.0
142
0.0
143
25.399999999999999
144
1.0
145
0.0
146
1.0
147
0.9
 71
     0
 72
     0
 73
     0
 74
     0
 75
     0
 76
     0
 77
     1
 78
     8
170
     0
171
     0
172
     1
173
     0
174
     0
175
     0
176
   256
177
   256
178
   256
  0
DIMSTYLE
  2
BYGG-014113$0$STANDARD
 70
     0
  3

  4

  5

  6

  7

 40
1.0
 41
0.18
 42
0.0625
 43
0.38
 44
0.18
 45
0.0
 46
0.0
 47
0.0
 48
0.0
140
0.18
141
0.09
142
0.0
143
25.399999999999999
144
1.0
145
0.0
146
1.0
147
0.09
 71
     0
 72
     0
 73
     1
 74
     1
 75
     0
 76
     0
 77
     0
 78
     0
170
     0
171
     2
172
     0
173
     0
174
     0
175
     0
176
     0
177
     0
178
     0
  0
DIMSTYLE
  2
BYGG-025538$0$STANDARD
 70
     0
  3

  4

  5

  6

  7

 40
1.0
 41
0.18
 42
0.0625
 43
0.38
 44
0.18
 45
0.0
 46
0.0
 47
0.0
 48
0.0
140
0.18
141
0.09
142
0.0
143
25.399999999999999
144
1.0
145
0.0
146
1.0
147
0.09
 71
     0
 72
     0
 73
     1
 74
     1
 75
     0
 76
     0
 77
     0
 78
     0
170
     0
171
     2
172
     0
173
     0
174
     0
175
     0
176
     0
177
     0
178
     0
  0
DIMSTYLE
  2
BYGG-025538$0$MASKIN
 70
     0
  3

  4

  5

  6

  7

 40
0.0
 41
3.0
 42
1.5
 43
10.0
 44
1.5
 45
0.0
 46
0.0
 47
0.0
 48
0.0
140
3.0
141
-5.0
142
0.0
143
25.399999999999999
144
-1.0
145
0.0
146
1.0
147
1.0
 71
     0
 72
     0
 73
     0
 74
     0
 75
     0
 76
     0
 77
     1
 78
     8
170
     0
171
     0
172
     1
173
     0
174
     0
175
     0
176
   256
177
   256
178
     2
  0
ENDTAB
  0
ENDSEC
  0
SECTION
  2
BLOCKS
  0
BLOCK
  8
0
  2
$MODEL_SPACE
 70
     0
 10
0.0
 20
0.0
 30
0.0
  3
$MODEL_SPACE
  1

  0
ENDBLK
  5
37
  8
0
  0
BLOCK
 67
     1
  8
0
  2
$PAPER_SPACE
 70
     0
 10
0.0
 20
0.0
 30
0.0
  3
$PAPER_SPACE
  1

  0
ENDBLK
  5
35
 67
     1
  8
0
  0
BLOCK
  8
0
  2
*X53
 70
     1
 10
0.0
 20
0.0
 30
0.0
  3
*X53
  1

  0
LINE
  5
1CC4
  8
0
 62
     0
 10
10.999999626457299
 20
-83.184538987251514
 30
0.0
 11
10.60321765580195
 21
-82.787757016596174
 31
0.0
  0
LINE
  5
1CC5
  8
0
 62
     0
 10
10.99999962645729
 20
-84.307071002385172
 30
0.0
 11
9.6777952201285515
 21
-82.984866596056435
 31
0.0
  0
LINE
  5
1CC6
  8
0
 62
     0
 10
10.999999626457299
 20
-85.429603017518815
 30
0.0
 11
8.752372784455126
 21
-83.181976175516667
 31
0.0
  0
LINE
  5
1CC7
  8
0
 62
     0
 10
10.999999626457299
 20
-86.552135032652473
 30
0.0
 11
7.8088027971775062
 21
-83.360938203372683
 31
0.0
  0
LINE
  5
1CC8
  8
0
 62
     0
 10
10.99999962645729
 20
-87.674667047786116
 30
0.0
 11
6.8244511217810384
 21
-83.499118543109859
 31
0.0
  0
LINE
  5
1CC9
  8
0
 62
     0
 10
10.99999962645729
 20
-88.797199062919759
 30
0.0
 11
5.8230498696659581
 21
-83.620249306128414
 31
0.0
  0
LINE
  5
1CCA
  8
0
 62
     0
 10
10.99999962645729
 20
-89.919731078053417
 30
0.0
 11
4.8038093954561907
 21
-83.723540847052305
 31
0.0
  0
LINE
  5
1CCB
  8
0
 62
     0
 10
10.95354492414468
 20
-90.995808390874416
 30
0.0
 11
3.7658553763217881
 21
-83.808118843051545
 31
0.0
  0
LINE
  5
1CCC
  8
0
 62
     0
 10
9.7267983995057108
 20
-90.891593881369104
 30
0.0
 11
2.7082159537108832
 21
-83.873011435574284
 31
0.0
  0
LINE
  5
1CCD
  8
0
 62
     0
 10
8.5134424420681611
 20
-90.800769939065191
 30
0.0
 11
1.6298062058181979
 21
-83.917133702815235
 31
0.0
  0
LINE
  5
1CCE
  8
0
 62
     0
 10
7.3130193320783974
 20
-90.722878844209063
 30
0.0
 11
0.5294092396223391
 21
-83.939268751753005
 31
0.0
  0
LINE
  5
1CCF
  8
0
 62
     0
 10
6.12510045654777
 20
-90.657491983812093
 30
0.0
 11
-0.5941250203466524
 21
-83.938266506917671
 31
0.0
  0
LINE
  5
1CD0
  8
0
 62
     0
 10
4.949283785058582
 20
-90.604207327456535
 30
0.0
 11
-1.742363556235865
 21
-83.912559986162108
 31
0.0
  0
LINE
  5
1CD1
  8
0
 62
     0
 10
3.7851916216604731
 20
-90.562647179192084
 30
0.0
 11
-2.9172620080937501
 21
-83.860193549437852
 31
0.0
  0
LINE
  5
1CD2
  8
0
 62
     0
 10
2.6324685967675521
 20
-90.532456169432805
 30
0.0
 11
-4.1208580842229656
 21
-83.779129488442294
 31
0.0
  0
LINE
  5
1CD3
  8
0
 62
     0
 10
1.490779868418727
 20
-90.513299456217624
 30
0.0
 11
-5.3555138476891031
 21
-83.667005740109801
 31
0.0
  0
LINE
  5
1CD4
  8
0
 62
     0
 10
0.3598095067851261
 20
-90.504861109717666
 30
0.0
 11
-6.6239928544399973
 21
-83.521058748492564
 31
0.0
  0
LINE
  5
1CD5
  8
0
 62
     0
 10
-0.7607409604219555
 20
-90.506842657644214
 30
0.0
 11
-7.9295627937115176
 21
-83.338020824354658
 31
0.0
  0
LINE
  5
1CD6
  8
0
 62
     0
 10
-1.8711538608354701
 20
-90.518961772364364
 30
0.0
 11
-9.3426741115862626
 21
-83.047441521613564
 31
0.0
  0
LINE
  5
1CD7
  8
0
 62
     0
 10
-2.9716965651506859
 20
-90.54095108318279
 30
0.0
 11
-10.76645668362946
 21
-82.746190964703999
 31
0.0
  0
LINE
  5
1CD8
  8
0
 62
     0
 10
-4.0626225639809803
 20
-90.572557099486147
 30
0.0
 11
-10.96953220212955
 21
-83.665647461337571
 31
0.0
  0
LINE
  5
1CD9
  8
0
 62
     0
 10
-5.1441724462608391
 20
-90.613539232339917
 30
0.0
 11
-10.96953220212955
 21
-84.788179476471214
 31
0.0
  0
LINE
  5
1CDA
  8
0
 62
     0
 10
-6.2165747899942678
 20
-90.663668903740131
 30
0.0
 11
-10.969532202129541
 21
-85.910711491604857
 31
0.0
  0
LINE
  5
1CDB
  8
0
 62
     0
 10
-7.2800469747731071
 20
-90.722728734094929
 30
0.0
 11
-10.969532202129541
 21
-87.033243506738515
 31
0.0
  0
LINE
  5
1CDC
  8
0
 62
     0
 10
-8.3347959243130347
 20
-90.790511799688659
 30
0.0
 11
-10.96953220212955
 21
-88.155775521872144
 31
0.0
  0
LINE
  5
1CDD
  8
0
 62
     0
 10
-9.3810187862460808
 20
-90.866820952889256
 30
0.0
 11
-10.96953220212955
 21
-89.278307537005787
 31
0.0
  0
LINE
  5
1CDE
  8
0
 62
     0
 10
-10.418903555537749
 20
-90.951468198731234
 30
0.0
 11
-10.96953220212955
 21
-90.400839552139445
 31
0.0
  0
LINE
  5
1CDF
  8
0
 62
     0
 10
10.449370979865529
 20
-90.951468198731206
 30
0.0
 11
10.999999626457299
 21
-90.400839552139416
 31
0.0
  0
LINE
  5
1CE0
  8
0
 62
     0
 10
9.4114862105738482
 20
-90.866820952889228
 30
0.0
 11
10.999999626457299
 21
-89.278307537005773
 31
0.0
  0
LINE
  5
1CE1
  8
0
 62
     0
 10
8.3652633486407861
 20
-90.790511799688645
 30
0.0
 11
10.999999626457299
 21
-88.155775521872116
 31
0.0
  0
LINE
  5
1CE2
  8
0
 62
     0
 10
7.3105143991008461
 20
-90.722728734094929
 30
0.0
 11
10.999999626457299
 21
-87.033243506738486
 31
0.0
  0
LINE
  5
1CE3
  8
0
 62
     0
 10
6.247042214322021
 20
-90.663668903740131
 30
0.0
 11
10.99999962645731
 21
-85.910711491604843
 31
0.0
  0
LINE
  5
1CE4
  8
0
 62
     0
 10
5.1746398705885781
 20
-90.613539232339917
 30
0.0
 11
10.99999962645731
 21
-84.788179476471186
 31
0.0
  0
LINE
  5
1CE5
  8
0
 62
     0
 10
4.0930899883087264
 20
-90.572557099486133
 30
0.0
 11
10.999999626457299
 21
-83.665647461337556
 31
0.0
  0
LINE
  5
1CE6
  8
0
 62
     0
 10
3.0021639894784249
 20
-90.54095108318279
 30
0.0
 11
10.7965331226026
 21
-82.746581950058598
 31
0.0
  0
LINE
  5
1CE7
  8
0
 62
     0
 10
1.9016212851632011
 20
-90.518961772364378
 30
0.0
 11
9.3702006025814555
 21
-83.050382454946117
 31
0.0
  0
LINE
  5
1CE8
  8
0
 62
     0
 10
0.7912083847496733
 20
-90.506842657644256
 30
0.0
 11
7.9600302180392291
 21
-83.3380208243547
 31
0.0
  0
LINE
  5
1CE9
  8
0
 62
     0
 10
-0.3293420824574085
 20
-90.504861109717694
 30
0.0
 11
6.6544602787677221
 21
-83.521058748492564
 31
0.0
  0
LINE
  5
1CEA
  8
0
 62
     0
 10
-1.4603124440910089
 20
-90.513299456217638
 30
0.0
 11
5.3859812720168128
 21
-83.667005740109815
 31
0.0
  0
LINE
  5
1CEB
  8
0
 62
     0
 10
-2.6020011724398411
 20
-90.532456169432834
 30
0.0
 11
4.1513255085506771
 21
-83.779129488442308
 31
0.0
  0
LINE
  5
1CEC
  8
0
 62
     0
 10
-3.754724197332755
 20
-90.562647179192098
 30
0.0
 11
2.9477294324214749
 21
-83.860193549437867
 31
0.0
  0
LINE
  5
1CED
  8
0
 62
     0
 10
-4.9188163607308786
 20
-90.604207327456578
 30
0.0
 11
1.7728309805635829
 21
-83.912559986162123
 31
0.0
  0
LINE
  5
1CEE
  8
0
 62
     0
 10
-6.0946330322200657
 20
-90.657491983812122
 30
0.0
 11
0.6245924446743701
 21
-83.938266506917685
 31
0.0
  0
LINE
  5
1CEF
  8
0
 62
     0
 10
-7.2825519077507082
 20
-90.722878844209134
 30
0.0
 11
-0.498941815294586
 21
-83.939268751753005
 31
0.0
  0
LINE
  5
1CF0
  8
0
 62
     0
 10
-8.4829750177404701
 20
-90.800769939065248
 30
0.0
 11
-1.5993387814904521
 21
-83.917133702815221
 31
0.0
  0
LINE
  5
1CF1
  8
0
 62
     0
 10
-9.6963309751780358
 20
-90.891593881369175
 30
0.0
 11
-2.6777485293831371
 21
-83.873011435574284
 31
0.0
  0
LINE
  5
1CF2
  8
0
 62
     0
 10
-10.923077499816991
 20
-90.995808390874487
 30
0.0
 11
-3.7353879519940341
 21
-83.808118843051517
 31
0.0
  0
LINE
  5
1CF3
  8
0
 62
     0
 10
-10.969532202129541
 20
-89.919731078053388
 30
0.0
 11
-4.7733419711284313
 21
-83.723540847052277
 31
0.0
  0
LINE
  5
1CF4
  8
0
 62
     0
 10
-10.969532202129541
 20
-88.797199062919745
 30
0.0
 11
-5.7925824453382111
 21
-83.620249306128414
 31
0.0
  0
LINE
  5
1CF5
  8
0
 62
     0
 10
-10.969532202129541
 20
-87.674667047786116
 30
0.0
 11
-6.7939836974532852
 21
-83.499118543109844
 31
0.0
  0
LINE
  5
1CF6
  8
0
 62
     0
 10
-10.969532202129541
 20
-86.552135032652444
 30
0.0
 11
-7.7783353728497602
 21
-83.360938203372655
 31
0.0
  0
LINE
  5
1CF7
  8
0
 62
     0
 10
-10.969532202129541
 20
-85.429603017518815
 30
0.0
 11
-8.7192728521495422
 21
-83.179343667538788
 31
0.0
  0
LINE
  5
1CF8
  8
0
 62
     0
 10
-10.969532202129541
 20
-84.307071002385157
 30
0.0
 11
-9.6457718815786606
 21
-82.983310681834269
 31
0.0
  0
LINE
  5
1CF9
  8
0
 62
     0
 10
-10.96953220212955
 20
-83.184538987251514
 30
0.0
 11
-10.572270911007781
 21
-82.787277696129749
 31
0.0
  0
ENDBLK
  5
1CFB
  8
0
  0
BLOCK
  8
0
  2
*X54
 70
     1
 10
0.0
 20
0.0
 30
0.0
  3
*X54
  1

  0
LINE
  5
1CFD
  8
0
 62
     0
 10
10.999999626457299
 20
-83.184538987251514
 30
0.0
 11
10.60321765580195
 21
-82.787757016596174
 31
0.0
  0
LINE
  5
1CFE
  8
0
 62
     0
 10
10.99999962645729
 20
-84.307071002385172
 30
0.0
 11
9.6777952201285515
 21
-82.984866596056435
 31
0.0
  0
LINE
  5
1CFF
  8
0
 62
     0
 10
10.999999626457299
 20
-85.429603017518815
 30
0.0
 11
8.752372784455126
 21
-83.181976175516667
 31
0.0
  0
LINE
  5
1D00
  8
0
 62
     0
 10
10.999999626457299
 20
-86.552135032652473
 30
0.0
 11
7.8088027971775062
 21
-83.360938203372683
 31
0.0
  0
LINE
  5
1D01
  8
0
 62
     0
 10
10.99999962645729
 20
-87.674667047786116
 30
0.0
 11
6.8244511217810384
 21
-83.499118543109859
 31
0.0
  0
LINE
  5
1D02
  8
0
 62
     0
 10
10.99999962645729
 20
-88.797199062919759
 30
0.0
 11
5.8230498696659581
 21
-83.620249306128414
 31
0.0
  0
LINE
  5
1D03
  8
0
 62
     0
 10
10.99999962645729
 20
-89.919731078053417
 30
0.0
 11
4.8038093954561907
 21
-83.723540847052305
 31
0.0
  0
LINE
  5
1D04
  8
0
 62
     0
 10
10.95354492414468
 20
-90.995808390874416
 30
0.0
 11
3.7658553763217881
 21
-83.808118843051545
 31
0.0
  0
LINE
  5
1D05
  8
0
 62
     0
 10
9.7267983995057108
 20
-90.891593881369104
 30
0.0
 11
2.7082159537108832
 21
-83.873011435574284
 31
0.0
  0
LINE
  5
1D06
  8
0
 62
     0
 10
8.5134424420681611
 20
-90.800769939065191
 30
0.0
 11
1.6298062058181979
 21
-83.917133702815235
 31
0.0
  0
LINE
  5
1D07
  8
0
 62
     0
 10
7.3130193320783974
 20
-90.722878844209063
 30
0.0
 11
0.5294092396223391
 21
-83.939268751753005
 31
0.0
  0
LINE
  5
1D08
  8
0
 62
     0
 10
6.12510045654777
 20
-90.657491983812093
 30
0.0
 11
-0.5941250203466524
 21
-83.938266506917671
 31
0.0
  0
LINE
  5
1D09
  8
0
 62
     0
 10
4.949283785058582
 20
-90.604207327456535
 30
0.0
 11
-1.742363556235865
 21
-83.912559986162108
 31
0.0
  0
LINE
  5
1D0A
  8
0
 62
     0
 10
3.7851916216604731
 20
-90.562647179192084
 30
0.0
 11
-2.9172620080937501
 21
-83.860193549437852
 31
0.0
  0
LINE
  5
1D0B
  8
0
 62
     0
 10
2.6324685967675521
 20
-90.532456169432805
 30
0.0
 11
-4.1208580842229656
 21
-83.779129488442294
 31
0.0
  0
LINE
  5
1D0C
  8
0
 62
     0
 10
1.490779868418727
 20
-90.513299456217624
 30
0.0
 11
-5.3555138476891031
 21
-83.667005740109801
 31
0.0
  0
LINE
  5
1D0D
  8
0
 62
     0
 10
0.3598095067851261
 20
-90.504861109717666
 30
0.0
 11
-6.6239928544399973
 21
-83.521058748492564
 31
0.0
  0
LINE
  5
1D0E
  8
0
 62
     0
 10
-0.7607409604219555
 20
-90.506842657644214
 30
0.0
 11
-7.9295627937115176
 21
-83.338020824354658
 31
0.0
  0
LINE
  5
1D0F
  8
0
 62
     0
 10
-1.8711538608354701
 20
-90.518961772364364
 30
0.0
 11
-9.3426741115862626
 21
-83.047441521613564
 31
0.0
  0
LINE
  5
1D10
  8
0
 62
     0
 10
-2.9716965651506859
 20
-90.54095108318279
 30
0.0
 11
-10.76645668362946
 21
-82.746190964703999
 31
0.0
  0
LINE
  5
1D11
  8
0
 62
     0
 10
-4.0626225639809803
 20
-90.572557099486147
 30
0.0
 11
-10.96953220212955
 21
-83.665647461337571
 31
0.0
  0
LINE
  5
1D12
  8
0
 62
     0
 10
-5.1441724462608391
 20
-90.613539232339917
 30
0.0
 11
-10.96953220212955
 21
-84.788179476471214
 31
0.0
  0
LINE
  5
1D13
  8
0
 62
     0
 10
-6.2165747899942678
 20
-90.663668903740131
 30
0.0
 11
-10.969532202129541
 21
-85.910711491604857
 31
0.0
  0
LINE
  5
1D14
  8
0
 62
     0
 10
-7.2800469747731071
 20
-90.722728734094929
 30
0.0
 11
-10.969532202129541
 21
-87.033243506738515
 31
0.0
  0
LINE
  5
1D15
  8
0
 62
     0
 10
-8.3347959243130347
 20
-90.790511799688659
 30
0.0
 11
-10.96953220212955
 21
-88.155775521872144
 31
0.0
  0
LINE
  5
1D16
  8
0
 62
     0
 10
-9.3810187862460808
 20
-90.866820952889256
 30
0.0
 11
-10.96953220212955
 21
-89.278307537005787
 31
0.0
  0
LINE
  5
1D17
  8
0
 62
     0
 10
-10.418903555537749
 20
-90.951468198731234
 30
0.0
 11
-10.96953220212955
 21
-90.400839552139445
 31
0.0
  0
LINE
  5
1D18
  8
0
 62
     0
 10
10.449370979865529
 20
-90.951468198731206
 30
0.0
 11
10.999999626457299
 21
-90.400839552139416
 31
0.0
  0
LINE
  5
1D19
  8
0
 62
     0
 10
9.4114862105738482
 20
-90.866820952889228
 30
0.0
 11
10.999999626457299
 21
-89.278307537005773
 31
0.0
  0
LINE
  5
1D1A
  8
0
 62
     0
 10
8.3652633486407861
 20
-90.790511799688645
 30
0.0
 11
10.999999626457299
 21
-88.155775521872116
 31
0.0
  0
LINE
  5
1D1B
  8
0
 62
     0
 10
7.3105143991008461
 20
-90.722728734094929
 30
0.0
 11
10.999999626457299
 21
-87.033243506738486
 31
0.0
  0
LINE
  5
1D1C
  8
0
 62
     0
 10
6.247042214322021
 20
-90.663668903740131
 30
0.0
 11
10.99999962645731
 21
-85.910711491604843
 31
0.0
  0
LINE
  5
1D1D
  8
0
 62
     0
 10
5.1746398705885781
 20
-90.613539232339917
 30
0.0
 11
10.99999962645731
 21
-84.788179476471186
 31
0.0
  0
LINE
  5
1D1E
  8
0
 62
     0
 10
4.0930899883087264
 20
-90.572557099486133
 30
0.0
 11
10.999999626457299
 21
-83.665647461337556
 31
0.0
  0
LINE
  5
1D1F
  8
0
 62
     0
 10
3.0021639894784249
 20
-90.54095108318279
 30
0.0
 11
10.7965331226026
 21
-82.746581950058598
 31
0.0
  0
LINE
  5
1D20
  8
0
 62
     0
 10
1.9016212851632011
 20
-90.518961772364378
 30
0.0
 11
9.3702006025814555
 21
-83.050382454946117
 31
0.0
  0
LINE
  5
1D21
  8
0
 62
     0
 10
0.7912083847496733
 20
-90.506842657644256
 30
0.0
 11
7.9600302180392291
 21
-83.3380208243547
 31
0.0
  0
LINE
  5
1D22
  8
0
 62
     0
 10
-0.3293420824574085
 20
-90.504861109717694
 30
0.0
 11
6.6544602787677221
 21
-83.521058748492564
 31
0.0
  0
LINE
  5
1D23
  8
0
 62
     0
 10
-1.4603124440910089
 20
-90.513299456217638
 30
0.0
 11
5.3859812720168128
 21
-83.667005740109815
 31
0.0
  0
LINE
  5
1D24
  8
0
 62
     0
 10
-2.6020011724398411
 20
-90.532456169432834
 30
0.0
 11
4.1513255085506771
 21
-83.779129488442308
 31
0.0
  0
LINE
  5
1D25
  8
0
 62
     0
 10
-3.754724197332755
 20
-90.562647179192098
 30
0.0
 11
2.9477294324214749
 21
-83.860193549437867
 31
0.0
  0
LINE
  5
1D26
  8
0
 62
     0
 10
-4.9188163607308786
 20
-90.604207327456578
 30
0.0
 11
1.7728309805635829
 21
-83.912559986162123
 31
0.0
  0
LINE
  5
1D27
  8
0
 62
     0
 10
-6.0946330322200657
 20
-90.657491983812122
 30
0.0
 11
0.6245924446743701
 21
-83.938266506917685
 31
0.0
  0
LINE
  5
1D28
  8
0
 62
     0
 10
-7.2825519077507082
 20
-90.722878844209134
 30
0.0
 11
-0.498941815294586
 21
-83.939268751753005
 31
0.0
  0
LINE
  5
1D29
  8
0
 62
     0
 10
-8.4829750177404701
 20
-90.800769939065248
 30
0.0
 11
-1.5993387814904521
 21
-83.917133702815221
 31
0.0
  0
LINE
  5
1D2A
  8
0
 62
     0
 10
-9.6963309751780358
 20
-90.891593881369175
 30
0.0
 11
-2.6777485293831371
 21
-83.873011435574284
 31
0.0
  0
LINE
  5
1D2B
  8
0
 62
     0
 10
-10.923077499816991
 20
-90.995808390874487
 30
0.0
 11
-3.7353879519940341
 21
-83.808118843051517
 31
0.0
  0
LINE
  5
1D2C
  8
0
 62
     0
 10
-10.969532202129541
 20
-89.919731078053388
 30
0.0
 11
-4.7733419711284313
 21
-83.723540847052277
 31
0.0
  0
LINE
  5
1D2D
  8
0
 62
     0
 10
-10.969532202129541
 20
-88.797199062919745
 30
0.0
 11
-5.7925824453382111
 21
-83.620249306128414
 31
0.0
  0
LINE
  5
1D2E
  8
0
 62
     0
 10
-10.969532202129541
 20
-87.674667047786116
 30
0.0
 11
-6.7939836974532852
 21
-83.499118543109844
 31
0.0
  0
LINE
  5
1D2F
  8
0
 62
     0
 10
-10.969532202129541
 20
-86.552135032652444
 30
0.0
 11
-7.7783353728497602
 21
-83.360938203372655
 31
0.0
  0
LINE
  5
1D30
  8
0
 62
     0
 10
-10.969532202129541
 20
-85.429603017518815
 30
0.0
 11
-8.7192728521495422
 21
-83.179343667538788
 31
0.0
  0
LINE
  5
1D31
  8
0
 62
     0
 10
-10.969532202129541
 20
-84.307071002385157
 30
0.0
 11
-9.6457718815786606
 21
-82.983310681834269
 31
0.0
  0
LINE
  5
1D32
  8
0
 62
     0
 10
-10.96953220212955
 20
-83.184538987251514
 30
0.0
 11
-10.572270911007781
 21
-82.787277696129749
 31
0.0
  0
ENDBLK
  5
1D34
  8
0
  0
ENDSEC
  0
SECTION
  2
ENTITIES
  0
LINE
  5
10D0
  8
SAPA_GLAS
 10
10.99999962645731
 20
-85.000000000480611
 30
0.0
 11
10.99999962645731
 21
-81.900000000983027
 31
0.0
  0
LINE
  5
10D1
  8
SAPA_GLAS
 10
10.99999962645731
 20
-81.900000000983027
 30
0.0
 11
19.999999626461062
 21
-81.900000000983013
 31
0.0
  0
LINE
  5
10D2
  8
SAPA_GLAS
 10
19.999999626461062
 20
-81.900000000983013
 30
0.0
 11
19.999999626461062
 21
-85.000000000480611
 31
0.0
  0
ARC
  5
10D3
  8
SAPA_GLAS
 10
44.384360951061382
 20
-81.927472822962287
 30
0.0
 40
8.2592372925440731
 50
158.49662819893419
 51
201.8396948290183
  0
LINE
  5
10E0
  8
SAPA_GLAS
 10
-11.00000037353354
 20
-85.000000000480611
 30
0.0
 11
-11.00000037353354
 21
-81.900000000983027
 31
0.0
  0
LINE
  5
10E1
  8
SAPA_GLAS
 10
-11.00000037353354
 20
-81.900000000983027
 30
0.0
 11
-20.00000037353729
 21
-81.900000000983013
 31
0.0
  0
LINE
  5
10E2
  8
SAPA_GLAS
 10
-20.00000037353729
 20
-81.900000000983013
 30
0.0
 11
-20.00000037353729
 21
-85.000000000480611
 31
0.0
  0
ARC
  5
10E3
  8
SAPA_GLAS
 10
-44.38436169813761
 20
-81.927472822962287
 30
0.0
 40
8.2592372925440731
 50
338.1603051709817
 51
21.503371801065821
  0
LINE
  5
131F
  8
SAPA_GLAS
 10
-54.271210755919689
 20
-50.910857607580233
 30
0.0
 11
-13.00000037353354
 21
-50.910857607580233
 31
0.0
  0
LINE
  5
1320
  8
SAPA_GLAS
 10
-13.00000037353354
 20
-50.910857607580233
 30
0.0
 11
-13.00000037353354
 21
-42.910857607580219
 31
0.0
  0
LINE
  5
1321
  8
SAPA_GLAS
 10
-13.00000037353354
 20
-42.910857607580219
 30
0.0
 11
-54.271210755919689
 21
-42.910857607580219
 31
0.0
  0
LINE
  5
1342
  8
SAPA_GLAS
 10
-52.271210755919661
 20
-91.000000000480597
 30
0.0
 11
-11.00000037353354
 21
-91.000000000480597
 31
0.0
  0
LINE
  5
1343
  8
SAPA_GLAS
 10
-11.00000037353354
 20
-91.000000000480597
 30
0.0
 11
-11.00000037353354
 21
-85.000000000480611
 31
0.0
  0
LINE
  5
1344
  8
SAPA_GLAS
 10
-11.00000037353354
 20
-85.000000000480611
 30
0.0
 11
-52.271210755919661
 21
-85.000000000480611
 31
0.0
  0
LINE
  5
1345
  8
SAPA_GLAS
 10
-19.247414977439281
 20
-85.000000000480611
 30
0.0
 11
-19.247414977439281
 21
-84.931249999999991
 31
0.0
1001
GRADIENTCOLOR1ACI
1070
     5
1001
GRADIENTCOLOR2ACI
1070
     2
1001
ACAD
1010
0.0
1020
0.0
1030
0.0
  0
LINE
  5
1346
  8
SAPA_GLAS
 10
-19.247414977439281
 20
-83.343749999999986
 30
0.0
 11
-19.247414977439281
 21
-82.549999999999983
 31
0.0
1001
GRADIENTCOLOR1ACI
1070
     5
1001
GRADIENTCOLOR2ACI
1070
     2
1001
ACAD
1010
0.0
1020
0.0
1030
0.0
  0
LINE
  5
1347
  8
SAPA_GLAS
 10
-17.872599648589279
 20
-85.000000000480611
 30
0.0
 11
-17.872599648589279
 21
-84.931249999999991
 31
0.0
1001
GRADIENTCOLOR1ACI
1070
     5
1001
GRADIENTCOLOR2ACI
1070
     2
1001
ACAD
1010
0.0
1020
0.0
1030
0.0
  0
LINE
  5
1348
  8
SAPA_GLAS
 10
-17.872599648589279
 20
-83.343749999999986
 30
0.0
 11
-17.872599648589279
 21
-82.549999999999983
 31
0.0
1001
GRADIENTCOLOR1ACI
1070
     5
1001
GRADIENTCOLOR2ACI
1070
     2
1001
ACAD
1010
0.0
1020
0.0
1030
0.0
  0
LINE
  5
1349
  8
SAPA_GLAS
 10
-16.497784319739282
 20
-85.000000000480611
 30
0.0
 11
-16.497784319739282
 21
-84.931249999999991
 31
0.0
1001
GRADIENTCOLOR1ACI
1070
     5
1001
GRADIENTCOLOR2ACI
1070
     2
1001
ACAD
1010
0.0
1020
0.0
1030
0.0
  0
LINE
  5
134A
  8
SAPA_GLAS
 10
-16.497784319739282
 20
-83.343749999999986
 30
0.0
 11
-16.497784319739282
 21
-82.549999999999983
 31
0.0
1001
GRADIENTCOLOR1ACI
1070
     5
1001
GRADIENTCOLOR2ACI
1070
     2
1001
ACAD
1010
0.0
1020
0.0
1030
0.0
  0
LINE
  5
134B
  8
SAPA_GLAS
 10
-15.12296899088928
 20
-85.000000000480611
 30
0.0
 11
-15.12296899088928
 21
-84.931249999999991
 31
0.0
1001
GRADIENTCOLOR1ACI
1070
     5
1001
GRADIENTCOLOR2ACI
1070
     2
1001
ACAD
1010
0.0
1020
0.0
1030
0.0
  0
LINE
  5
134C
  8
SAPA_GLAS
 10
-15.12296899088928
 20
-83.343749999999986
 30
0.0
 11
-15.12296899088928
 21
-82.549999999999983
 31
0.0
1001
GRADIENTCOLOR1ACI
1070
     5
1001
GRADIENTCOLOR2ACI
1070
     2
1001
ACAD
1010
0.0
1020
0.0
1030
0.0
  0
LINE
  5
134D
  8
SAPA_GLAS
 10
-13.748153662039281
 20
-85.000000000480611
 30
0.0
 11
-13.748153662039281
 21
-84.931249999999991
 31
0.0
1001
GRADIENTCOLOR1ACI
1070
     5
1001
GRADIENTCOLOR2ACI
1070
     2
1001
ACAD
1010
0.0
1020
0.0
1030
0.0
  0
LINE
  5
134E
  8
SAPA_GLAS
 10
-13.748153662039281
 20
-83.343749999999986
 30
0.0
 11
-13.748153662039281
 21
-82.549999999999983
 31
0.0
1001
GRADIENTCOLOR1ACI
1070
     5
1001
GRADIENTCOLOR2ACI
1070
     2
1001
ACAD
1010
0.0
1020
0.0
1030
0.0
  0
LINE
  5
134F
  8
SAPA_GLAS
 10
-12.373338333189279
 20
-85.000000000480611
 30
0.0
 11
-12.373338333189279
 21
-84.931249999999991
 31
0.0
1001
GRADIENTCOLOR1ACI
1070
     5
1001
GRADIENTCOLOR2ACI
1070
     2
1001
ACAD
1010
0.0
1020
0.0
1030
0.0
  0
LINE
  5
1350
  8
SAPA_GLAS
 10
-12.373338333189279
 20
-83.343749999999986
 30
0.0
 11
-12.373338333189279
 21
-82.549999999999983
 31
0.0
1001
GRADIENTCOLOR1ACI
1070
     5
1001
GRADIENTCOLOR2ACI
1070
     2
1001
ACAD
1010
0.0
1020
0.0
1030
0.0
  0
LINE
  5
1351
  8
SAPA_GLAS
 10
-11.68593065747158
 20
-84.534375014521444
 30
0.0
 11
-12.37333832172548
 21
-84.931250014521439
 31
0.0
1001
GRADIENTCOLOR1ACI
1070
     5
1001
GRADIENTCOLOR2ACI
1070
     2
1001
ACAD
1010
0.0
1020
0.0
1030
0.0
  0
LINE
  5
1352
  8
SAPA_GLAS
 10
-12.373338321896579
 20
-83.343750014225066
 30
0.0
 11
-13.060745986150479
 21
-83.740625014225074
 31
0.0
1001
GRADIENTCOLOR1ACI
1070
     5
1001
GRADIENTCOLOR2ACI
1070
     2
1001
ACAD
1010
0.0
1020
0.0
1030
0.0
  0
LINE
  5
1353
  8
SAPA_GLAS
 10
-14.43556131465828
 20
-84.534375014225077
 30
0.0
 11
-15.12296897891218
 21
-84.931250014225071
 31
0.0
1001
GRADIENTCOLOR1ACI
1070
     5
1001
GRADIENTCOLOR2ACI
1070
     2
1001
ACAD
1010
0.0
1020
0.0
1030
0.0
  0
LINE
  5
1354
  8
SAPA_GLAS
 10
-13.06074598632158
 20
-82.153125013928715
 30
0.0
 11
-13.748153650575469
 21
-82.550000013928724
 31
0.0
1001
GRADIENTCOLOR1ACI
1070
     5
1001
GRADIENTCOLOR2ACI
1070
     2
1001
ACAD
1010
0.0
1020
0.0
1030
0.0
  0
LINE
  5
1355
  8
SAPA_GLAS
 10
-15.12296897908327
 20
-83.343750013928727
 30
0.0
 11
-15.81037664333717
 21
-83.740625013928721
 31
0.0
1001
GRADIENTCOLOR1ACI
1070
     5
1001
GRADIENTCOLOR2ACI
1070
     2
1001
ACAD
1010
0.0
1020
0.0
1030
0.0
  0
LINE
  5
1356
  8
SAPA_GLAS
 10
-17.185191971844969
 20
-84.534375013928724
 30
0.0
 11
-17.872599636098862
 21
-84.931250013928718
 31
0.0
1001
GRADIENTCOLOR1ACI
1070
     5
1001
GRADIENTCOLOR2ACI
1070
     2
1001
ACAD
1010
0.0
1020
0.0
1030
0.0
  0
LINE
  5
1357
  8
SAPA_GLAS
 10
-15.81037664350827
 20
-82.153125013632376
 30
0.0
 11
-16.497784307762171
 21
-82.550000013632371
 31
0.0
1001
GRADIENTCOLOR1ACI
1070
     5
1001
GRADIENTCOLOR2ACI
1070
     2
1001
ACAD
1010
0.0
1020
0.0
1030
0.0
  0
LINE
  5
1358
  8
SAPA_GLAS
 10
-17.872599636269971
 20
-83.343750013632373
 30
0.0
 11
-18.560007300523871
 21
-83.740625013632368
 31
0.0
1001
GRADIENTCOLOR1ACI
1070
     5
1001
GRADIENTCOLOR2ACI
1070
     2
1001
ACAD
1010
0.0
1020
0.0
1030
0.0
  0
LINE
  5
1359
  8
SAPA_GLAS
 10
-19.934822629031661
 20
-84.534375013632385
 30
0.0
 11
-20.000000373537301
 21
-84.572005401967871
 31
0.0
1001
GRADIENTCOLOR1ACI
1070
     5
1001
GRADIENTCOLOR2ACI
1070
     2
1001
ACAD
1010
0.0
1020
0.0
1030
0.0
  0
LINE
  5
135A
  8
SAPA_GLAS
 10
-18.56000730069497
 20
-82.153125013336009
 30
0.0
 11
-19.24741496494887
 21
-82.550000013336003
 31
0.0
1001
GRADIENTCOLOR1ACI
1070
     5
1001
GRADIENTCOLOR2ACI
1070
     2
1001
ACAD
1010
0.0
1020
0.0
1030
0.0
  0
LINE
  5
135B
  8
SAPA_GLAS
 10
-19.247414983085658
 20
-84.93125001807779
 30
0.0
 11
-19.934822647339558
 21
-84.534375018077796
 31
0.0
1001
GRADIENTCOLOR1ACI
1070
     5
1001
GRADIENTCOLOR2ACI
1070
     2
1001
ACAD
1010
0.0
1020
0.0
1030
0.0
  0
LINE
  5
135C
  8
SAPA_GLAS
 10
-16.497784325898959
 20
-84.931250017781423
 30
0.0
 11
-17.185191990152859
 21
-84.534375017781429
 31
0.0
1001
GRADIENTCOLOR1ACI
1070
     5
1001
GRADIENTCOLOR2ACI
1070
     2
1001
ACAD
1010
0.0
1020
0.0
1030
0.0
  0
LINE
  5
135D
  8
SAPA_GLAS
 10
-18.560007318660649
 20
-83.740625017781426
 30
0.0
 11
-19.247414982914549
 21
-83.343750017781431
 31
0.0
1001
GRADIENTCOLOR1ACI
1070
     5
1001
GRADIENTCOLOR2ACI
1070
     2
1001
ACAD
1010
0.0
1020
0.0
1030
0.0
  0
LINE
  5
135E
  8
SAPA_GLAS
 10
-13.748153668712281
 20
-84.931250017485084
 30
0.0
 11
-14.435561332966181
 21
-84.534375017485075
 31
0.0
1001
GRADIENTCOLOR1ACI
1070
     5
1001
GRADIENTCOLOR2ACI
1070
     2
1001
ACAD
1010
0.0
1020
0.0
1030
0.0
  0
LINE
  5
135F
  8
SAPA_GLAS
 10
-15.81037666147397
 20
-83.740625017485087
 30
0.0
 11
-16.497784325727871
 21
-83.343750017485107
 31
0.0
1001
GRADIENTCOLOR1ACI
1070
     5
1001
GRADIENTCOLOR2ACI
1070
     2
1001
ACAD
1010
0.0
1020
0.0
1030
0.0
  0
LINE
  5
1360
  8
SAPA_GLAS
 10
-17.872599654235671
 20
-82.55000001748509
 30
0.0
 11
-18.560007318489561
 21
-82.153125017485095
 31
0.0
1001
GRADIENTCOLOR1ACI
1070
     5
1001
GRADIENTCOLOR2ACI
1070
     2
1001
ACAD
1010
0.0
1020
0.0
1030
0.0
  0
LINE
  5
1361
  8
SAPA_GLAS
 10
-11.00000037353354
 20
-84.930397061835706
 30
0.0
 11
-11.685930675779479
 21
-84.534375017188708
 31
0.0
1001
GRADIENTCOLOR1ACI
1070
     5
1001
GRADIENTCOLOR2ACI
1070
     2
1001
ACAD
1010
0.0
1020
0.0
1030
0.0
  0
LINE
  5
1362
  8
SAPA_GLAS
 10
-13.06074600428728
 20
-83.740625017188705
 30
0.0
 11
-13.748153668541169
 21
-83.343750017188711
 31
0.0
1001
GRADIENTCOLOR1ACI
1070
     5
1001
GRADIENTCOLOR2ACI
1070
     2
1001
ACAD
1010
0.0
1020
0.0
1030
0.0
  0
LINE
  5
1363
  8
SAPA_GLAS
 10
-15.12296899704897
 20
-82.550000017188708
 30
0.0
 11
-15.81037666130287
 21
-82.153125017188714
 31
0.0
1001
GRADIENTCOLOR1ACI
1070
     5
1001
GRADIENTCOLOR2ACI
1070
     2
1001
ACAD
1010
0.0
1020
0.0
1030
0.0
  0
LINE
  5
1364
  8
SAPA_GLAS
 10
-12.37333833986227
 20
-82.550000016892369
 30
0.0
 11
-13.06074600411617
 21
-82.153125016892375
 31
0.0
1001
GRADIENTCOLOR1ACI
1070
     5
1001
GRADIENTCOLOR2ACI
1070
     2
1001
ACAD
1010
0.0
1020
0.0
1030
0.0
  0
LINE
  5
1385
  8
SAPA_GLAS
 10
-36.233458007492253
 20
-85.000000000480597
 30
0.0
 11
-36.585893707142262
 21
-84.647564300830595
 31
0.0
1001
GRADIENTCOLOR1ACI
1070
     5
1001
GRADIENTCOLOR2ACI
1070
     2
1001
ACAD
1010
0.0
1020
0.0
1030
0.0
  0
LINE
  5
1386
  8
SAPA_GLAS
 10
-35.110925992358609
 20
-85.000000000480611
 30
0.0
 11
-36.334697023920477
 21
-83.77622896891873
 31
0.0
1001
GRADIENTCOLOR1ACI
1070
     5
1001
GRADIENTCOLOR2ACI
1070
     2
1001
ACAD
1010
0.0
1020
0.0
1030
0.0
  0
LINE
  5
1387
  8
SAPA_GLAS
 10
-33.988393977224959
 20
-85.000000000480597
 30
0.0
 11
-36.17299254118376
 21
-82.81540143652181
 31
0.0
1001
GRADIENTCOLOR1ACI
1070
     5
1001
GRADIENTCOLOR2ACI
1070
     2
1001
ACAD
1010
0.0
1020
0.0
1030
0.0
  0
LINE
  5
1388
  8
SAPA_GLAS
 10
-32.865861962091323
 20
-85.000000000480597
 30
0.0
 11
-36.127284788703861
 21
-81.738577173868066
 31
0.0
1001
GRADIENTCOLOR1ACI
1070
     5
1001
GRADIENTCOLOR2ACI
1070
     2
1001
ACAD
1010
0.0
1020
0.0
1030
0.0
  0
LINE
  5
1389
  8
SAPA_GLAS
 10
-31.743329946957669
 20
-85.000000000480597
 30
0.0
 11
-36.250716871870793
 21
-80.492613075567476
 31
0.0
1001
GRADIENTCOLOR1ACI
1070
     5
1001
GRADIENTCOLOR2ACI
1070
     2
1001
ACAD
1010
0.0
1020
0.0
1030
0.0
  0
LINE
  5
138A
  8
SAPA_GLAS
 10
-30.620797931824018
 20
-85.000000000480611
 30
0.0
 11
-36.686624346862921
 21
-78.934173585441684
 31
0.0
1001
GRADIENTCOLOR1ACI
1070
     5
1001
GRADIENTCOLOR2ACI
1070
     2
1001
ACAD
1010
0.0
1020
0.0
1030
0.0
  0
LINE
  5
138B
  8
SAPA_GLAS
 10
-29.498265916690379
 20
-85.000000000480597
 30
0.0
 11
-35.59826591612017
 21
-78.900000001050813
 31
0.0
1001
GRADIENTCOLOR1ACI
1070
     5
1001
GRADIENTCOLOR2ACI
1070
     2
1001
ACAD
1010
0.0
1020
0.0
1030
0.0
  0
LINE
  5
138C
  8
SAPA_GLAS
 10
-28.375733901556739
 20
-85.000000000480597
 30
0.0
 11
-34.475733900917483
 21
-78.900000001119864
 31
0.0
1001
GRADIENTCOLOR1ACI
1070
     5
1001
GRADIENTCOLOR2ACI
1070
     2
1001
ACAD
1010
0.0
1020
0.0
1030
0.0
  0
LINE
  5
138D
  8
SAPA_GLAS
 10
-27.253201886423088
 20
-85.000000000480597
 30
0.0
 11
-33.353201885714768
 21
-78.900000001188914
 31
0.0
1001
GRADIENTCOLOR1ACI
1070
     5
1001
GRADIENTCOLOR2ACI
1070
     2
1001
ACAD
1010
0.0
1020
0.0
1030
0.0
  0
LINE
  5
138E
  8
SAPA_GLAS
 10
-26.130669871289449
 20
-85.000000000480611
 30
0.0
 11
-32.23066987051206
 21
-78.900000001257993
 31
0.0
1001
GRADIENTCOLOR1ACI
1070
     5
1001
GRADIENTCOLOR2ACI
1070
     2
1001
ACAD
1010
0.0
1020
0.0
1030
0.0
  0
LINE
  5
138F
  8
SAPA_GLAS
 10
-25.008137856155798
 20
-85.000000000480611
 30
0.0
 11
-31.108137855309369
 21
-78.900000001327044
 31
0.0
1001
GRADIENTCOLOR1ACI
1070
     5
1001
GRADIENTCOLOR2ACI
1070
     2
1001
ACAD
1010
0.0
1020
0.0
1030
0.0
  0
LINE
  5
1390
  8
SAPA_GLAS
 10
-23.885605841022159
 20
-85.000000000480611
 30
0.0
 11
-29.985605840106661
 21
-78.900000001396108
 31
0.0
1001
GRADIENTCOLOR1ACI
1070
     5
1001
GRADIENTCOLOR2ACI
1070
     2
1001
ACAD
1010
0.0
1020
0.0
1030
0.0
  0
LINE
  5
1391
  8
SAPA_GLAS
 10
-22.763073825888519
 20
-85.000000000480597
 30
0.0
 11
-28.86307382490395
 21
-78.900000001465159
 31
0.0
1001
GRADIENTCOLOR1ACI
1070
     5
1001
GRADIENTCOLOR2ACI
1070
     2
1001
ACAD
1010
0.0
1020
0.0
1030
0.0
  0
LINE
  5
1392
  8
SAPA_GLAS
 10
-21.640541810754879
 20
-85.000000000480597
 30
0.0
 11
-27.740541809701259
 21
-78.900000001534195
 31
0.0
1001
GRADIENTCOLOR1ACI
1070
     5
1001
GRADIENTCOLOR2ACI
1070
     2
1001
ACAD
1010
0.0
1020
0.0
1030
0.0
  0
LINE
  5
1393
  8
SAPA_GLAS
 10
-20.518009795621229
 20
-85.000000000480597
 30
0.0
 11
-26.618009794498551
 21
-78.900000001603274
 31
0.0
1001
GRADIENTCOLOR1ACI
1070
     5
1001
GRADIENTCOLOR2ACI
1070
     2
1001
ACAD
1010
0.0
1020
0.0
1030
0.0
  0
LINE
  5
1394
  8
SAPA_GLAS
 10
-20.000000373537279
 20
-84.395477407430903
 30
0.0
 11
-25.49547777929584
 21
-78.900000001672325
 31
0.0
1001
GRADIENTCOLOR1ACI
1070
     5
1001
GRADIENTCOLOR2ACI
1070
     2
1001
ACAD
1010
0.0
1020
0.0
1030
0.0
  0
LINE
  5
1395
  8
SAPA_GLAS
 10
-20.000000373537279
 20
-83.272945392297245
 30
0.0
 11
-24.372945764093149
 21
-78.900000001741404
 31
0.0
1001
GRADIENTCOLOR1ACI
1070
     5
1001
GRADIENTCOLOR2ACI
1070
     2
1001
ACAD
1010
0.0
1020
0.0
1030
0.0
  0
LINE
  5
1396
  8
SAPA_GLAS
 10
-20.000000373537279
 20
-82.150413377163616
 30
0.0
 11
-23.250413748890441
 21
-78.900000001810454
 31
0.0
1001
GRADIENTCOLOR1ACI
1070
     5
1001
GRADIENTCOLOR2ACI
1070
     2
1001
ACAD
1010
0.0
1020
0.0
1030
0.0
  0
LINE
  5
1397
  8
SAPA_GLAS
 10
-20.00000037353729
 20
-81.027881362029945
 30
0.0
 11
-22.12788173368773
 21
-78.900000001879519
 31
0.0
1001
GRADIENTCOLOR1ACI
1070
     5
1001
GRADIENTCOLOR2ACI
1070
     2
1001
ACAD
1010
0.0
1020
0.0
1030
0.0
  0
LINE
  5
1398
  8
SAPA_GLAS
 10
-20.141645696658198
 20
-79.763704023775418
 30
0.0
 11
-20.86370439539456
 21
-79.041645325039056
 31
0.0
1001
GRADIENTCOLOR1ACI
1070
     5
1001
GRADIENTCOLOR2ACI
1070
     2
1001
ACAD
1010
0.0
1020
0.0
1030
0.0
  0
LINE
  5
1399
  8
SAPA_GLAS
 10
-20.000000373537301
 20
-83.984324862615722
 30
0.0
 11
-21.0156755114022
 21
-85.000000000480625
 31
0.0
1001
GRADIENTCOLOR1ACI
1070
     5
1001
GRADIENTCOLOR2ACI
1070
     2
1001
ACAD
1010
0.0
1020
0.0
1030
0.0
  0
LINE
  5
139A
  8
SAPA_GLAS
 10
-20.000000373537301
 20
-82.861792847482064
 30
0.0
 11
-22.13820752653584
 21
-85.000000000480611
 31
0.0
1001
GRADIENTCOLOR1ACI
1070
     5
1001
GRADIENTCOLOR2ACI
1070
     2
1001
ACAD
1010
0.0
1020
0.0
1030
0.0
  0
LINE
  5
139B
  8
SAPA_GLAS
 10
-19.976687888560541
 20
-81.715948347371679
 30
0.0
 11
-23.260739541669491
 21
-85.000000000480625
 31
0.0
1001
GRADIENTCOLOR1ACI
1070
     5
1001
GRADIENTCOLOR2ACI
1070
     2
1001
ACAD
1010
0.0
1020
0.0
1030
0.0
  0
LINE
  5
139C
  8
SAPA_GLAS
 10
-20.00000037353729
 20
-80.616728817214764
 30
0.0
 11
-24.383271556803141
 21
-85.000000000480611
 31
0.0
1001
GRADIENTCOLOR1ACI
1070
     5
1001
GRADIENTCOLOR2ACI
1070
     2
1001
ACAD
1010
0.0
1020
0.0
1030
0.0
  0
LINE
  5
139D
  8
SAPA_GLAS
 10
-20.184701334746041
 20
-79.678897763289882
 30
0.0
 11
-25.505803571936781
 21
-85.000000000480611
 31
0.0
1001
GRADIENTCOLOR1ACI
1070
     5
1001
GRADIENTCOLOR2ACI
1070
     2
1001
ACAD
1010
0.0
1020
0.0
1030
0.0
  0
LINE
  5
139E
  8
SAPA_GLAS
 10
-20.736931165504689
 20
-79.108595578914901
 30
0.0
 11
-26.628335587070421
 21
-85.000000000480625
 31
0.0
1001
GRADIENTCOLOR1ACI
1070
     5
1001
GRADIENTCOLOR2ACI
1070
     2
1001
ACAD
1010
0.0
1020
0.0
1030
0.0
  0
LINE
  5
139F
  8
SAPA_GLAS
 10
-21.650867603632332
 20
-78.900000001908893
 30
0.0
 11
-27.75086760220406
 21
-85.000000000480611
 31
0.0
1001
GRADIENTCOLOR1ACI
1070
     5
1001
GRADIENTCOLOR2ACI
1070
     2
1001
ACAD
1010
0.0
1020
0.0
1030
0.0
  0
LINE
  5
13A0
  8
SAPA_GLAS
 10
-22.77339961869691
 20
-78.900000001839828
 30
0.0
 11
-28.873399617337711
 21
-85.000000000480611
 31
0.0
1001
GRADIENTCOLOR1ACI
1070
     5
1001
GRADIENTCOLOR2ACI
1070
     2
1001
ACAD
1010
0.0
1020
0.0
1030
0.0
  0
LINE
  5
13A1
  8
SAPA_GLAS
 10
-23.895931633761499
 20
-78.900000001770778
 30
0.0
 11
-29.995931632471351
 21
-85.000000000480611
 31
0.0
1001
GRADIENTCOLOR1ACI
1070
     5
1001
GRADIENTCOLOR2ACI
1070
     2
1001
ACAD
1010
0.0
1020
0.0
1030
0.0
  0
LINE
  5
13A2
  8
SAPA_GLAS
 10
-25.018463648826081
 20
-78.900000001701699
 30
0.0
 11
-31.118463647605001
 21
-85.000000000480625
 31
0.0
1001
GRADIENTCOLOR1ACI
1070
     5
1001
GRADIENTCOLOR2ACI
1070
     2
1001
ACAD
1010
0.0
1020
0.0
1030
0.0
  0
LINE
  5
13A3
  8
SAPA_GLAS
 10
-26.140995663890671
 20
-78.900000001632634
 30
0.0
 11
-32.240995662738648
 21
-85.000000000480625
 31
0.0
1001
GRADIENTCOLOR1ACI
1070
     5
1001
GRADIENTCOLOR2ACI
1070
     2
1001
ACAD
1010
0.0
1020
0.0
1030
0.0
  0
LINE
  5
13A4
  8
SAPA_GLAS
 10
-27.263527678955239
 20
-78.900000001563583
 30
0.0
 11
-33.363527677872291
 21
-85.000000000480611
 31
0.0
1001
GRADIENTCOLOR1ACI
1070
     5
1001
GRADIENTCOLOR2ACI
1070
     2
1001
ACAD
1010
0.0
1020
0.0
1030
0.0
  0
LINE
  5
13A5
  8
SAPA_GLAS
 10
-28.386059694019838
 20
-78.900000001494533
 30
0.0
 11
-34.486059693005927
 21
-85.000000000480611
 31
0.0
1001
GRADIENTCOLOR1ACI
1070
     5
1001
GRADIENTCOLOR2ACI
1070
     2
1001
ACAD
1010
0.0
1020
0.0
1030
0.0
  0
LINE
  5
13A6
  8
SAPA_GLAS
 10
-29.508591709084421
 20
-78.900000001425454
 30
0.0
 11
-35.608591708139571
 21
-85.000000000480625
 31
0.0
1001
GRADIENTCOLOR1ACI
1070
     5
1001
GRADIENTCOLOR2ACI
1070
     2
1001
ACAD
1010
0.0
1020
0.0
1030
0.0
  0
LINE
  5
13A7
  8
SAPA_GLAS
 10
-30.631123724148999
 20
-78.900000001356403
 30
0.0
 11
-36.709123007231533
 21
-84.977999284438937
 31
0.0
1001
GRADIENTCOLOR1ACI
1070
     5
1001
GRADIENTCOLOR2ACI
1070
     2
1001
ACAD
1010
0.0
1020
0.0
1030
0.0
  0
LINE
  5
13A8
  8
SAPA_GLAS
 10
-31.753655739213588
 20
-78.900000001287353
 30
0.0
 11
-36.258293497260667
 21
-83.404637759334435
 31
0.0
1001
GRADIENTCOLOR1ACI
1070
     5
1001
GRADIENTCOLOR2ACI
1070
     2
1001
ACAD
1010
0.0
1020
0.0
1030
0.0
  0
LINE
  5
13A9
  8
SAPA_GLAS
 10
-32.87618775427817
 20
-78.900000001218288
 30
0.0
 11
-36.128176548029593
 21
-82.151988794969697
 31
0.0
1001
GRADIENTCOLOR1ACI
1070
     5
1001
GRADIENTCOLOR2ACI
1070
     2
1001
ACAD
1010
0.0
1020
0.0
1030
0.0
  0
LINE
  5
13AA
  8
SAPA_GLAS
 10
-33.998719769342763
 20
-78.900000001149223
 30
0.0
 11
-36.169658424390349
 21
-81.07093865619683
 31
0.0
1001
GRADIENTCOLOR1ACI
1070
     5
1001
GRADIENTCOLOR2ACI
1070
     2
1001
ACAD
1010
0.0
1020
0.0
1030
0.0
  0
LINE
  5
13AB
  8
SAPA_GLAS
 10
-35.121251784407349
 20
-78.900000001080173
 30
0.0
 11
-36.32825318077937
 21
-80.107001397452194
 31
0.0
1001
GRADIENTCOLOR1ACI
1070
     5
1001
GRADIENTCOLOR2ACI
1070
     2
1001
ACAD
1010
0.0
1020
0.0
1030
0.0
  0
LINE
  5
13AC
  8
SAPA_GLAS
 10
-36.243783799471927
 20
-78.900000001011094
 30
0.0
 11
-36.576948330745331
 21
-79.233164532284505
 31
0.0
1001
GRADIENTCOLOR1ACI
1070
     5
1001
GRADIENTCOLOR2ACI
1070
     2
1001
ACAD
1010
0.0
1020
0.0
1030
0.0
  0
LINE
  5
13B2
  8
SAPA_GLAS
 10
54.271210008843468
 20
-50.910857607580233
 30
0.0
 11
12.99999962645731
 21
-50.910857607580233
 31
0.0
  0
LINE
  5
13B3
  8
SAPA_GLAS
 10
12.99999962645731
 20
-50.910857607580233
 30
0.0
 11
12.99999962645731
 21
-42.910857607580219
 31
0.0
  0
LINE
  5
13B4
  8
SAPA_GLAS
 10
12.99999962645731
 20
-42.910857607580219
 30
0.0
 11
54.271210008843468
 21
-42.910857607580219
 31
0.0
  0
LINE
  5
13E0
  8
SAPA_GLAS
 10
52.27121000884344
 20
-91.000000000480597
 30
0.0
 11
10.99999962645731
 21
-91.000000000480597
 31
0.0
  0
LINE
  5
13E1
  8
SAPA_GLAS
 10
10.99999962645731
 20
-91.000000000480597
 30
0.0
 11
10.99999962645731
 21
-85.000000000480611
 31
0.0
  0
LINE
  5
13E2
  8
SAPA_GLAS
 10
10.99999962645731
 20
-85.000000000480611
 30
0.0
 11
52.27121000884344
 21
-85.000000000480611
 31
0.0
  0
LINE
  5
13E3
  8
SAPA_GLAS
 10
12.37333758611071
 20
-85.000000000480611
 30
0.0
 11
12.37333758611071
 21
-84.931249999999991
 31
0.0
1001
GRADIENTCOLOR1ACI
1070
     5
1001
GRADIENTCOLOR2ACI
1070
     2
1001
ACAD
1010
0.0
1020
0.0
1030
0.0
  0
LINE
  5
13E4
  8
SAPA_GLAS
 10
12.37333758611071
 20
-83.343749999999986
 30
0.0
 11
12.37333758611071
 21
-82.549999999999983
 31
0.0
1001
GRADIENTCOLOR1ACI
1070
     5
1001
GRADIENTCOLOR2ACI
1070
     2
1001
ACAD
1010
0.0
1020
0.0
1030
0.0
  0
LINE
  5
13E5
  8
SAPA_GLAS
 10
13.748152914960709
 20
-85.000000000480611
 30
0.0
 11
13.748152914960709
 21
-84.931249999999991
 31
0.0
1001
GRADIENTCOLOR1ACI
1070
     5
1001
GRADIENTCOLOR2ACI
1070
     2
1001
ACAD
1010
0.0
1020
0.0
1030
0.0
  0
LINE
  5
13E6
  8
SAPA_GLAS
 10
13.748152914960709
 20
-83.343749999999986
 30
0.0
 11
13.748152914960709
 21
-82.549999999999983
 31
0.0
1001
GRADIENTCOLOR1ACI
1070
     5
1001
GRADIENTCOLOR2ACI
1070
     2
1001
ACAD
1010
0.0
1020
0.0
1030
0.0
  0
LINE
  5
13E7
  8
SAPA_GLAS
 10
15.12296824381071
 20
-85.000000000480611
 30
0.0
 11
15.12296824381071
 21
-84.931249999999991
 31
0.0
1001
GRADIENTCOLOR1ACI
1070
     5
1001
GRADIENTCOLOR2ACI
1070
     2
1001
ACAD
1010
0.0
1020
0.0
1030
0.0
  0
LINE
  5
13E8
  8
SAPA_GLAS
 10
15.12296824381071
 20
-83.343749999999986
 30
0.0
 11
15.12296824381071
 21
-82.549999999999983
 31
0.0
1001
GRADIENTCOLOR1ACI
1070
     5
1001
GRADIENTCOLOR2ACI
1070
     2
1001
ACAD
1010
0.0
1020
0.0
1030
0.0
  0
LINE
  5
13E9
  8
SAPA_GLAS
 10
16.497783572660708
 20
-85.000000000480611
 30
0.0
 11
16.497783572660708
 21
-84.931249999999991
 31
0.0
1001
GRADIENTCOLOR1ACI
1070
     5
1001
GRADIENTCOLOR2ACI
1070
     2
1001
ACAD
1010
0.0
1020
0.0
1030
0.0
  0
LINE
  5
13EA
  8
SAPA_GLAS
 10
16.497783572660708
 20
-83.343749999999986
 30
0.0
 11
16.497783572660708
 21
-82.549999999999983
 31
0.0
1001
GRADIENTCOLOR1ACI
1070
     5
1001
GRADIENTCOLOR2ACI
1070
     2
1001
ACAD
1010
0.0
1020
0.0
1030
0.0
  0
LINE
  5
13EB
  8
SAPA_GLAS
 10
17.87259890151071
 20
-85.000000000480611
 30
0.0
 11
17.87259890151071
 21
-84.931249999999991
 31
0.0
1001
GRADIENTCOLOR1ACI
1070
     5
1001
GRADIENTCOLOR2ACI
1070
     2
1001
ACAD
1010
0.0
1020
0.0
1030
0.0
  0
LINE
  5
13EC
  8
SAPA_GLAS
 10
17.87259890151071
 20
-83.343749999999986
 30
0.0
 11
17.87259890151071
 21
-82.549999999999983
 31
0.0
1001
GRADIENTCOLOR1ACI
1070
     5
1001
GRADIENTCOLOR2ACI
1070
     2
1001
ACAD
1010
0.0
1020
0.0
1030
0.0
  0
LINE
  5
13ED
  8
SAPA_GLAS
 10
19.247414230360711
 20
-85.000000000480611
 30
0.0
 11
19.247414230360711
 21
-84.931249999999991
 31
0.0
1001
GRADIENTCOLOR1ACI
1070
     5
1001
GRADIENTCOLOR2ACI
1070
     2
1001
ACAD
1010
0.0
1020
0.0
1030
0.0
  0
LINE
  5
13EE
  8
SAPA_GLAS
 10
19.247414230360711
 20
-83.343749999999986
 30
0.0
 11
19.247414230360711
 21
-82.549999999999983
 31
0.0
1001
GRADIENTCOLOR1ACI
1070
     5
1001
GRADIENTCOLOR2ACI
1070
     2
1001
ACAD
1010
0.0
1020
0.0
1030
0.0
  0
LINE
  5
13EF
  8
SAPA_GLAS
 10
19.999999626461062
 20
-83.702994639915801
 30
0.0
 11
19.934821900089851
 21
-83.740625017781383
 31
0.0
1001
GRADIENTCOLOR1ACI
1070
     5
1001
GRADIENTCOLOR2ACI
1070
     2
1001
ACAD
1010
0.0
1020
0.0
1030
0.0
  0
LINE
  5
13F0
  8
SAPA_GLAS
 10
18.560006571582051
 20
-84.534375017781386
 30
0.0
 11
17.872598907328161
 21
-84.931250017781366
 31
0.0
1001
GRADIENTCOLOR1ACI
1070
     5
1001
GRADIENTCOLOR2ACI
1070
     2
1001
ACAD
1010
0.0
1020
0.0
1030
0.0
  0
LINE
  5
13F1
  8
SAPA_GLAS
 10
19.934821899918742
 20
-82.153125017485038
 30
0.0
 11
19.247414235664849
 21
-82.550000017485047
 31
0.0
1001
GRADIENTCOLOR1ACI
1070
     5
1001
GRADIENTCOLOR2ACI
1070
     2
1001
ACAD
1010
0.0
1020
0.0
1030
0.0
  0
LINE
  5
13F2
  8
SAPA_GLAS
 10
17.872598907157052
 20
-83.343750017485036
 30
0.0
 11
17.185191242903151
 21
-83.740625017485016
 31
0.0
1001
GRADIENTCOLOR1ACI
1070
     5
1001
GRADIENTCOLOR2ACI
1070
     2
1001
ACAD
1010
0.0
1020
0.0
1030
0.0
  0
LINE
  5
13F3
  8
SAPA_GLAS
 10
15.810375914395349
 20
-84.534375017485033
 30
0.0
 11
15.12296825014146
 21
-84.931250017485013
 31
0.0
1001
GRADIENTCOLOR1ACI
1070
     5
1001
GRADIENTCOLOR2ACI
1070
     2
1001
ACAD
1010
0.0
1020
0.0
1030
0.0
  0
LINE
  5
13F4
  8
SAPA_GLAS
 10
17.185191242732049
 20
-82.153125017188685
 30
0.0
 11
16.49778357847816
 21
-82.550000017188665
 31
0.0
1001
GRADIENTCOLOR1ACI
1070
     5
1001
GRADIENTCOLOR2ACI
1070
     2
1001
ACAD
1010
0.0
1020
0.0
1030
0.0
  0
LINE
  5
13F5
  8
SAPA_GLAS
 10
15.122968249970359
 20
-83.343750017188654
 30
0.0
 11
14.435560585716461
 21
-83.740625017188648
 31
0.0
1001
GRADIENTCOLOR1ACI
1070
     5
1001
GRADIENTCOLOR2ACI
1070
     2
1001
ACAD
1010
0.0
1020
0.0
1030
0.0
  0
LINE
  5
13F6
  8
SAPA_GLAS
 10
13.060745257208669
 20
-84.534375017188665
 30
0.0
 11
12.373337592954771
 21
-84.931250017188646
 31
0.0
1001
GRADIENTCOLOR1ACI
1070
     5
1001
GRADIENTCOLOR2ACI
1070
     2
1001
ACAD
1010
0.0
1020
0.0
1030
0.0
  0
LINE
  5
13F7
  8
SAPA_GLAS
 10
14.43556058554535
 20
-82.153125016892304
 30
0.0
 11
13.74815292129146
 21
-82.550000016892298
 31
0.0
1001
GRADIENTCOLOR1ACI
1070
     5
1001
GRADIENTCOLOR2ACI
1070
     2
1001
ACAD
1010
0.0
1020
0.0
1030
0.0
  0
LINE
  5
13F8
  8
SAPA_GLAS
 10
12.37333759278366
 20
-83.343750016892315
 30
0.0
 11
11.68592992852976
 21
-83.740625016892295
 31
0.0
1001
GRADIENTCOLOR1ACI
1070
     5
1001
GRADIENTCOLOR2ACI
1070
     2
1001
ACAD
1010
0.0
1020
0.0
1030
0.0
  0
LINE
  5
13F9
  8
SAPA_GLAS
 10
11.685929928358661
 20
-82.153125016595936
 30
0.0
 11
10.999999626457299
 21
-82.549147061044025
 31
0.0
1001
GRADIENTCOLOR1ACI
1070
     5
1001
GRADIENTCOLOR2ACI
1070
     2
1001
ACAD
1010
0.0
1020
0.0
1030
0.0
  0
LINE
  5
13FA
  8
SAPA_GLAS
 10
13.74815290315467
 20
-84.93125001452151
 30
0.0
 11
13.06074523890077
 21
-84.534375014521515
 31
0.0
1001
GRADIENTCOLOR1ACI
1070
     5
1001
GRADIENTCOLOR2ACI
1070
     2
1001
ACAD
1010
0.0
1020
0.0
1030
0.0
  0
LINE
  5
13FB
  8
SAPA_GLAS
 10
11.68592991039298
 20
-83.740625014521513
 30
0.0
 11
10.99999962645731
 21
-83.344602980445956
 31
0.0
1001
GRADIENTCOLOR1ACI
1070
     5
1001
GRADIENTCOLOR2ACI
1070
     2
1001
ACAD
1010
0.0
1020
0.0
1030
0.0
  0
LINE
  5
13FC
  8
SAPA_GLAS
 10
16.497783560341361
 20
-84.931250014225157
 30
0.0
 11
15.810375896087461
 21
-84.534375014225162
 31
0.0
1001
GRADIENTCOLOR1ACI
1070
     5
1001
GRADIENTCOLOR2ACI
1070
     2
1001
ACAD
1010
0.0
1020
0.0
1030
0.0
  0
LINE
  5
13FD
  8
SAPA_GLAS
 10
14.435560567579669
 20
-83.740625014225159
 30
0.0
 11
13.748152903325771
 21
-83.343750014225165
 31
0.0
1001
GRADIENTCOLOR1ACI
1070
     5
1001
GRADIENTCOLOR2ACI
1070
     2
1001
ACAD
1010
0.0
1020
0.0
1030
0.0
  0
LINE
  5
13FE
  8
SAPA_GLAS
 10
12.37333757481797
 20
-82.550000014225162
 30
0.0
 11
11.68592991056407
 21
-82.153125014225154
 31
0.0
1001
GRADIENTCOLOR1ACI
1070
     5
1001
GRADIENTCOLOR2ACI
1070
     2
1001
ACAD
1010
0.0
1020
0.0
1030
0.0
  0
LINE
  5
13FF
  8
SAPA_GLAS
 10
19.24741421752805
 20
-84.931250013928803
 30
0.0
 11
18.56000655327416
 21
-84.534375013928809
 31
0.0
1001
GRADIENTCOLOR1ACI
1070
     5
1001
GRADIENTCOLOR2ACI
1070
     2
1001
ACAD
1010
0.0
1020
0.0
1030
0.0
  0
LINE
  5
1400
  8
SAPA_GLAS
 10
17.18519122476636
 20
-83.740625013928806
 30
0.0
 11
16.49778356051246
 21
-83.343750013928812
 31
0.0
1001
GRADIENTCOLOR1ACI
1070
     5
1001
GRADIENTCOLOR2ACI
1070
     2
1001
ACAD
1010
0.0
1020
0.0
1030
0.0
  0
LINE
  5
1401
  8
SAPA_GLAS
 10
15.122968232004659
 20
-82.550000013928809
 30
0.0
 11
14.43556056775077
 21
-82.153125013928815
 31
0.0
1001
GRADIENTCOLOR1ACI
1070
     5
1001
GRADIENTCOLOR2ACI
1070
     2
1001
ACAD
1010
0.0
1020
0.0
1030
0.0
  0
LINE
  5
1402
  8
SAPA_GLAS
 10
19.934821881953049
 20
-83.740625013632453
 30
0.0
 11
19.247414217699159
 21
-83.343750013632459
 31
0.0
1001
GRADIENTCOLOR1ACI
1070
     5
1001
GRADIENTCOLOR2ACI
1070
     2
1001
ACAD
1010
0.0
1020
0.0
1030
0.0
  0
LINE
  5
1403
  8
SAPA_GLAS
 10
17.872598889191359
 20
-82.550000013632456
 30
0.0
 11
17.185191224937459
 21
-82.153125013632462
 31
0.0
1001
GRADIENTCOLOR1ACI
1070
     5
1001
GRADIENTCOLOR2ACI
1070
     2
1001
ACAD
1010
0.0
1020
0.0
1030
0.0
  0
LINE
  5
1404
  8
SAPA_GLAS
 10
19.999999626461051
 20
-82.190755401574165
 30
0.0
 11
19.934821882124162
 21
-82.153125013336094
 31
0.0
1001
GRADIENTCOLOR1ACI
1070
     5
1001
GRADIENTCOLOR2ACI
1070
     2
1001
ACAD
1010
0.0
1020
0.0
1030
0.0
  0
LINE
  5
1421
  8
SAPA_GLAS
 10
21.015674764323599
 20
-85.000000000480597
 30
0.0
 11
19.999999626461069
 21
-83.984324862618067
 31
0.0
1001
GRADIENTCOLOR1ACI
1070
     5
1001
GRADIENTCOLOR2ACI
1070
     2
1001
ACAD
1010
0.0
1020
0.0
1030
0.0
  0
LINE
  5
1422
  8
SAPA_GLAS
 10
22.138206779457249
 20
-85.000000000480597
 30
0.0
 11
19.999999626461069
 21
-82.861792847484423
 31
0.0
1001
GRADIENTCOLOR1ACI
1070
     5
1001
GRADIENTCOLOR2ACI
1070
     2
1001
ACAD
1010
0.0
1020
0.0
1030
0.0
  0
LINE
  5
1423
  8
SAPA_GLAS
 10
23.260738794590889
 20
-85.000000000480611
 30
0.0
 11
19.97668714148362
 21
-81.715948347373313
 31
0.0
1001
GRADIENTCOLOR1ACI
1070
     5
1001
GRADIENTCOLOR2ACI
1070
     2
1001
ACAD
1010
0.0
1020
0.0
1030
0.0
  0
LINE
  5
1424
  8
SAPA_GLAS
 10
24.383270809724529
 20
-85.000000000480597
 30
0.0
 11
19.999999626461062
 21
-80.616728817217137
 31
0.0
1001
GRADIENTCOLOR1ACI
1070
     5
1001
GRADIENTCOLOR2ACI
1070
     2
1001
ACAD
1010
0.0
1020
0.0
1030
0.0
  0
LINE
  5
1425
  8
SAPA_GLAS
 10
25.505802824858179
 20
-85.000000000480597
 30
0.0
 11
20.184700587668971
 21
-79.678897763291388
 31
0.0
1001
GRADIENTCOLOR1ACI
1070
     5
1001
GRADIENTCOLOR2ACI
1070
     2
1001
ACAD
1010
0.0
1020
0.0
1030
0.0
  0
LINE
  5
1426
  8
SAPA_GLAS
 10
26.628334839991819
 20
-85.000000000480597
 30
0.0
 11
20.736930418426979
 21
-79.108595578915754
 31
0.0
1001
GRADIENTCOLOR1ACI
1070
     5
1001
GRADIENTCOLOR2ACI
1070
     2
1001
ACAD
1010
0.0
1020
0.0
1030
0.0
  0
LINE
  5
1427
  8
SAPA_GLAS
 10
27.750866855125469
 20
-85.000000000480611
 30
0.0
 11
21.65086685655373
 21
-78.900000001908865
 31
0.0
1001
GRADIENTCOLOR1ACI
1070
     5
1001
GRADIENTCOLOR2ACI
1070
     2
1001
ACAD
1010
0.0
1020
0.0
1030
0.0
  0
LINE
  5
1428
  8
SAPA_GLAS
 10
28.87339887025912
 20
-85.000000000480611
 30
0.0
 11
22.773398871618308
 21
-78.9000000018398
 31
0.0
1001
GRADIENTCOLOR1ACI
1070
     5
1001
GRADIENTCOLOR2ACI
1070
     2
1001
ACAD
1010
0.0
1020
0.0
1030
0.0
  0
LINE
  5
1429
  8
SAPA_GLAS
 10
29.995930885392749
 20
-85.000000000480597
 30
0.0
 11
23.895930886682908
 21
-78.900000001770735
 31
0.0
1001
GRADIENTCOLOR1ACI
1070
     5
1001
GRADIENTCOLOR2ACI
1070
     2
1001
ACAD
1010
0.0
1020
0.0
1030
0.0
  0
LINE
  5
142A
  8
SAPA_GLAS
 10
31.118462900526399
 20
-85.000000000480611
 30
0.0
 11
25.01846290174749
 21
-78.900000001701699
 31
0.0
1001
GRADIENTCOLOR1ACI
1070
     5
1001
GRADIENTCOLOR2ACI
1070
     2
1001
ACAD
1010
0.0
1020
0.0
1030
0.0
  0
LINE
  5
142B
  8
SAPA_GLAS
 10
32.240994915660039
 20
-85.000000000480611
 30
0.0
 11
26.140994916812069
 21
-78.900000001632634
 31
0.0
1001
GRADIENTCOLOR1ACI
1070
     5
1001
GRADIENTCOLOR2ACI
1070
     2
1001
ACAD
1010
0.0
1020
0.0
1030
0.0
  0
LINE
  5
142C
  8
SAPA_GLAS
 10
33.363526930793689
 20
-85.000000000480611
 30
0.0
 11
27.263526931876651
 21
-78.900000001563569
 31
0.0
1001
GRADIENTCOLOR1ACI
1070
     5
1001
GRADIENTCOLOR2ACI
1070
     2
1001
ACAD
1010
0.0
1020
0.0
1030
0.0
  0
LINE
  5
142D
  8
SAPA_GLAS
 10
34.486058945927333
 20
-85.000000000480611
 30
0.0
 11
28.38605894694124
 21
-78.900000001494519
 31
0.0
1001
GRADIENTCOLOR1ACI
1070
     5
1001
GRADIENTCOLOR2ACI
1070
     2
1001
ACAD
1010
0.0
1020
0.0
1030
0.0
  0
LINE
  5
142E
  8
SAPA_GLAS
 10
35.608590961060969
 20
-85.000000000480597
 30
0.0
 11
29.50859096200583
 21
-78.900000001425454
 31
0.0
1001
GRADIENTCOLOR1ACI
1070
     5
1001
GRADIENTCOLOR2ACI
1070
     2
1001
ACAD
1010
0.0
1020
0.0
1030
0.0
  0
LINE
  5
142F
  8
SAPA_GLAS
 10
36.709122260156853
 20
-84.977999284442831
 30
0.0
 11
30.631122977070412
 21
-78.900000001356389
 31
0.0
1001
GRADIENTCOLOR1ACI
1070
     5
1001
GRADIENTCOLOR2ACI
1070
     2
1001
ACAD
1010
0.0
1020
0.0
1030
0.0
  0
LINE
  5
1430
  8
SAPA_GLAS
 10
36.25829275018495
 20
-83.404637759337291
 30
0.0
 11
31.753654992135001
 21
-78.900000001287339
 31
0.0
1001
GRADIENTCOLOR1ACI
1070
     5
1001
GRADIENTCOLOR2ACI
1070
     2
1001
ACAD
1010
0.0
1020
0.0
1030
0.0
  0
LINE
  5
1431
  8
SAPA_GLAS
 10
36.1281758009534
 20
-82.151988794972112
 30
0.0
 11
32.876187007199583
 21
-78.900000001218274
 31
0.0
1001
GRADIENTCOLOR1ACI
1070
     5
1001
GRADIENTCOLOR2ACI
1070
     2
1001
ACAD
1010
0.0
1020
0.0
1030
0.0
  0
LINE
  5
1432
  8
SAPA_GLAS
 10
36.169657677313879
 20
-81.070938656198919
 30
0.0
 11
33.998719022264147
 21
-78.900000001149209
 31
0.0
1001
GRADIENTCOLOR1ACI
1070
     5
1001
GRADIENTCOLOR2ACI
1070
     2
1001
ACAD
1010
0.0
1020
0.0
1030
0.0
  0
LINE
  5
1433
  8
SAPA_GLAS
 10
36.328252433702701
 20
-80.107001397454113
 30
0.0
 11
35.121251037328747
 21
-78.900000001080159
 31
0.0
1001
GRADIENTCOLOR1ACI
1070
     5
1001
GRADIENTCOLOR2ACI
1070
     2
1001
ACAD
1010
0.0
1020
0.0
1030
0.0
  0
LINE
  5
1434
  8
SAPA_GLAS
 10
36.576947583668492
 20
-79.233164532286253
 30
0.0
 11
36.243783052393333
 21
-78.900000001011094
 31
0.0
1001
GRADIENTCOLOR1ACI
1070
     5
1001
GRADIENTCOLOR2ACI
1070
     2
1001
ACAD
1010
0.0
1020
0.0
1030
0.0
  0
LINE
  5
1435
  8
SAPA_GLAS
 10
36.585892960065422
 20
-84.647564300828861
 30
0.0
 11
36.233457260413672
 21
-85.000000000480611
 31
0.0
1001
GRADIENTCOLOR1ACI
1070
     5
1001
GRADIENTCOLOR2ACI
1070
     2
1001
ACAD
1010
0.0
1020
0.0
1030
0.0
  0
LINE
  5
1436
  8
SAPA_GLAS
 10
36.334696276843822
 20
-83.776228968916826
 30
0.0
 11
35.110925245280022
 21
-85.000000000480625
 31
0.0
1001
GRADIENTCOLOR1ACI
1070
     5
1001
GRADIENTCOLOR2ACI
1070
     2
1001
ACAD
1010
0.0
1020
0.0
1030
0.0
  0
LINE
  5
1437
  8
SAPA_GLAS
 10
36.172991794107311
 20
-82.815401436519693
 30
0.0
 11
33.988393230146372
 21
-85.000000000480625
 31
0.0
1001
GRADIENTCOLOR1ACI
1070
     5
1001
GRADIENTCOLOR2ACI
1070
     2
1001
ACAD
1010
0.0
1020
0.0
1030
0.0
  0
LINE
  5
1438
  8
SAPA_GLAS
 10
36.127284041627689
 20
-81.738577173865664
 30
0.0
 11
32.865861215012728
 21
-85.000000000480625
 31
0.0
1001
GRADIENTCOLOR1ACI
1070
     5
1001
GRADIENTCOLOR2ACI
1070
     2
1001
ACAD
1010
0.0
1020
0.0
1030
0.0
  0
LINE
  5
1439
  8
SAPA_GLAS
 10
36.250716124795083
 20
-80.492613075564634
 30
0.0
 11
31.743329199879089
 21
-85.000000000480625
 31
0.0
1001
GRADIENTCOLOR1ACI
1070
     5
1001
GRADIENTCOLOR2ACI
1070
     2
1001
ACAD
1010
0.0
1020
0.0
1030
0.0
  0
LINE
  5
143A
  8
SAPA_GLAS
 10
36.686623599788192
 20
-78.934173585437875
 30
0.0
 11
30.620797184745442
 21
-85.000000000480625
 31
0.0
1001
GRADIENTCOLOR1ACI
1070
     5
1001
GRADIENTCOLOR2ACI
1070
     2
1001
ACAD
1010
0.0
1020
0.0
1030
0.0
  0
LINE
  5
143B
  8
SAPA_GLAS
 10
35.598265169041603
 20
-78.900000001050813
 30
0.0
 11
29.498265169611798
 21
-85.000000000480625
 31
0.0
1001
GRADIENTCOLOR1ACI
1070
     5
1001
GRADIENTCOLOR2ACI
1070
     2
1001
ACAD
1010
0.0
1020
0.0
1030
0.0
  0
LINE
  5
143C
  8
SAPA_GLAS
 10
34.475733153838902
 20
-78.900000001119878
 30
0.0
 11
28.375733154478159
 21
-85.000000000480625
 31
0.0
1001
GRADIENTCOLOR1ACI
1070
     5
1001
GRADIENTCOLOR2ACI
1070
     2
1001
ACAD
1010
0.0
1020
0.0
1030
0.0
  0
LINE
  5
143D
  8
SAPA_GLAS
 10
33.353201138636187
 20
-78.900000001188943
 30
0.0
 11
27.253201139344512
 21
-85.000000000480625
 31
0.0
1001
GRADIENTCOLOR1ACI
1070
     5
1001
GRADIENTCOLOR2ACI
1070
     2
1001
ACAD
1010
0.0
1020
0.0
1030
0.0
  0
LINE
  5
143E
  8
SAPA_GLAS
 10
32.230669123433493
 20
-78.900000001258007
 30
0.0
 11
26.130669124210868
 21
-85.000000000480625
 31
0.0
1001
GRADIENTCOLOR1ACI
1070
     5
1001
GRADIENTCOLOR2ACI
1070
     2
1001
ACAD
1010
0.0
1020
0.0
1030
0.0
  0
LINE
  5
143F
  8
SAPA_GLAS
 10
31.108137108230778
 20
-78.900000001327072
 30
0.0
 11
25.008137109077229
 21
-85.000000000480625
 31
0.0
1001
GRADIENTCOLOR1ACI
1070
     5
1001
GRADIENTCOLOR2ACI
1070
     2
1001
ACAD
1010
0.0
1020
0.0
1030
0.0
  0
LINE
  5
1440
  8
SAPA_GLAS
 10
29.985605093028081
 20
-78.900000001396137
 30
0.0
 11
23.885605093943578
 21
-85.000000000480625
 31
0.0
1001
GRADIENTCOLOR1ACI
1070
     5
1001
GRADIENTCOLOR2ACI
1070
     2
1001
ACAD
1010
0.0
1020
0.0
1030
0.0
  0
LINE
  5
1441
  8
SAPA_GLAS
 10
28.863073077825359
 20
-78.900000001465202
 30
0.0
 11
22.763073078809931
 21
-85.000000000480625
 31
0.0
1001
GRADIENTCOLOR1ACI
1070
     5
1001
GRADIENTCOLOR2ACI
1070
     2
1001
ACAD
1010
0.0
1020
0.0
1030
0.0
  0
LINE
  5
1442
  8
SAPA_GLAS
 10
27.740541062622661
 20
-78.900000001534238
 30
0.0
 11
21.640541063676281
 21
-85.000000000480625
 31
0.0
1001
GRADIENTCOLOR1ACI
1070
     5
1001
GRADIENTCOLOR2ACI
1070
     2
1001
ACAD
1010
0.0
1020
0.0
1030
0.0
  0
LINE
  5
1443
  8
SAPA_GLAS
 10
26.61800904741996
 20
-78.900000001603303
 30
0.0
 11
20.518009048542641
 21
-85.000000000480611
 31
0.0
1001
GRADIENTCOLOR1ACI
1070
     5
1001
GRADIENTCOLOR2ACI
1070
     2
1001
ACAD
1010
0.0
1020
0.0
1030
0.0
  0
LINE
  5
1444
  8
SAPA_GLAS
 10
25.495477032217249
 20
-78.900000001672367
 30
0.0
 11
19.999999626461051
 21
-84.395477407428558
 31
0.0
1001
GRADIENTCOLOR1ACI
1070
     5
1001
GRADIENTCOLOR2ACI
1070
     2
1001
ACAD
1010
0.0
1020
0.0
1030
0.0
  0
LINE
  5
1445
  8
SAPA_GLAS
 10
24.372945017014551
 20
-78.900000001741432
 30
0.0
 11
19.999999626461051
 21
-83.272945392294929
 31
0.0
1001
GRADIENTCOLOR1ACI
1070
     5
1001
GRADIENTCOLOR2ACI
1070
     2
1001
ACAD
1010
0.0
1020
0.0
1030
0.0
  0
LINE
  5
1446
  8
SAPA_GLAS
 10
23.25041300181184
 20
-78.900000001810497
 30
0.0
 11
19.999999626461051
 21
-82.150413377161286
 31
0.0
1001
GRADIENTCOLOR1ACI
1070
     5
1001
GRADIENTCOLOR2ACI
1070
     2
1001
ACAD
1010
0.0
1020
0.0
1030
0.0
  0
LINE
  5
1447
  8
SAPA_GLAS
 10
22.127880986609131
 20
-78.900000001879548
 30
0.0
 11
19.999999626461062
 21
-81.027881362027628
 31
0.0
1001
GRADIENTCOLOR1ACI
1070
     5
1001
GRADIENTCOLOR2ACI
1070
     2
1001
ACAD
1010
0.0
1020
0.0
1030
0.0
  0
LINE
  5
1448
  8
SAPA_GLAS
 10
20.863703648313891
 20
-79.041645325041159
 30
0.0
 11
20.141644949584052
 21
-79.763704023770984
 31
0.0
1001
GRADIENTCOLOR1ACI
1070
     5
1001
GRADIENTCOLOR2ACI
1070
     2
1001
ACAD
1010
0.0
1020
0.0
1030
0.0
  0
ARC
  5
144E
  8
SAPA_FYLLNING
 10
-55.089381434509527
 20
-36.910857608572051
 30
0.0
 40
5.9999999999999973
 50
192.47303848572849
 51
0.0000000000002036
  0
LINE
  5
144F
  8
SAPA_FYLLNING
 10
-49.089381434509527
 20
-36.91085760857203
 30
0.0
 11
-49.089389098422323
 21
23.681146336175878
 31
0.0
  0
ARC
  5
1450
  8
SAPA_FYLLNING
 10
-43.089389098422323
 20
23.681146336175871
 30
0.0
 40
6.0
 50
0.0
 51
180.0
  0
LINE
  5
1451
  8
SAPA_FYLLNING
 10
-37.089389098422323
 20
23.681146336175871
 30
0.0
 11
-37.089380290291189
 21
-36.910857607580233
 31
0.0
  0
ARC
  5
1452
  8
SAPA_FYLLNING
 10
-31.089380290291189
 20
-36.910857607580233
 30
0.0
 40
6.0
 50
180.0
 51
0.0
  0
LINE
  5
1453
  8
SAPA_FYLLNING
 10
-25.089380290291189
 20
-36.910857607580233
 30
0.0
 11
-25.089387580660411
 21
23.681146336175871
 31
0.0
  0
ARC
  5
1477
  8
SAPA_FYLLNING
 10
55.089380687433277
 20
-36.910857608572051
 30
0.0
 40
5.9999999999999991
 50
179.9999999999998
 51
347.52696151427142
  0
LINE
  5
1478
  8
SAPA_FYLLNING
 10
49.089380687433277
 20
-36.91085760857203
 30
0.0
 11
49.089388351346088
 21
23.681146336175861
 31
0.0
  0
ARC
  5
1479
  8
SAPA_FYLLNING
 10
43.089388351346081
 20
23.681146336175861
 30
0.0
 40
6.0
 50
0.0
 51
180.0
  0
LINE
  5
147A
  8
SAPA_FYLLNING
 10
37.089388351346088
 20
23.681146336175861
 30
0.0
 11
37.089379543214932
 21
-36.910857607580233
 31
0.0
  0
ARC
  5
147B
  8
SAPA_FYLLNING
 10
31.089379543214928
 20
-36.910857607580233
 30
0.0
 40
6.0
 50
180.0
 51
0.0
  0
LINE
  5
147C
  8
SAPA_FYLLNING
 10
25.089379543214928
 20
-36.910857607580233
 30
0.0
 11
25.089386833584172
 21
23.681146336175861
 31
0.0
  0
ARC
  5
1826
  8
SAPA_PROFIL
 10
-12.28821087970681
 20
-33.900000000001597
 30
0.0
 40
0.2999999999998626
 50
135.78466642077061
 51
271.55442622518859
  0
LINE
  5
1827
  8
SAPA_PROFIL
 10
-10.303555178356021
 20
-31.430030478057802
 30
0.0
 11
-12.503228081401231
 21
-33.690792918440252
 31
0.0
  0
ARC
  5
1828
  8
SAPA_PROFIL
 10
-10.050959117435131
 20
-31.59187988339264
 30
0.0
 40
0.2999999999999829
 50
89.999999999988802
 51
147.35052672183659
  0
LINE
  5
1829
  8
SAPA_PROFIL
 10
-9.4999999999986926
 20
-31.291879883392649
 30
0.0
 11
-10.05095911743507
 21
-31.291879883392649
 31
0.0
  0
ARC
  5
182A
  8
SAPA_PROFIL
 10
-9.4999999999988063
 20
-31.591879883392501
 30
0.0
 40
0.2999999999998408
 50
359.99999999997829
 51
89.999999999978314
  0
LINE
  5
182B
  8
SAPA_PROFIL
 10
-9.1999999999989654
 20
-56.693485944234737
 30
0.0
 11
-9.1999999999989654
 21
-31.591879883392611
 31
0.0
  0
ARC
  5
182C
  8
SAPA_PROFIL
 10
-8.699999999998953
 20
-56.693485944234723
 30
0.0
 40
0.5000000000000142
 50
180.00000000000159
 51
269.99999999999858
  0
LINE
  5
182D
  8
SAPA_PROFIL
 10
-6.9999999999989191
 20
-57.193485944234737
 30
0.0
 11
-8.6999999999989654
 21
-57.193485944234737
 31
0.0
  0
ARC
  5
182E
  8
SAPA_PROFIL
 10
-6.999999999998896
 20
-56.693485944234759
 30
0.0
 40
0.4999999999999769
 50
269.99999999999733
 51
0.0000000000024427
  0
LINE
  5
182F
  8
SAPA_PROFIL
 10
-6.4999999999993738
 20
-43.99187988339218
 30
0.0
 11
-6.4999999999989191
 21
-56.693485944234737
 31
0.0
  0
ARC
  5
1830
  8
SAPA_PROFIL
 10
-6.1999999999994202
 20
-43.99187988339218
 30
0.0
 40
0.2999999999999545
 50
89.999999999956557
 51
180.0
  0
LINE
  5
1831
  8
SAPA_PROFIL
 10
-5.299999999999101
 20
-43.691879883392232
 30
0.0
 11
-6.1999999999991919
 21
-43.691879883392232
 31
0.0
  0
ARC
  5
1832
  8
SAPA_PROFIL
 10
-5.299999999999101
 20
-43.991879883392407
 30
0.0
 40
0.3000000000001819
 50
0.0
 51
90.0
  0
LINE
  5
1833
  8
SAPA_PROFIL
 10
-4.9999999999998286
 20
-58.39348594423501
 30
0.0
 11
-4.9999999999989191
 21
-43.991879883392407
 31
0.0
  0
ARC
  5
1834
  8
SAPA_PROFIL
 10
-5.2999999999995486
 20
-58.39348594423501
 30
0.0
 40
0.29999999999972
 50
269.99999999999869
 51
0.000000000001357
  0
LINE
  5
1835
  8
SAPA_PROFIL
 10
-14.399999999998331
 20
-58.693485944234283
 30
0.0
 11
-5.2999999999995557
 21
-58.693485944234737
 31
0.0
  0
ARC
  5
1836
  8
SAPA_PROFIL
 10
-14.550000000007859
 20
-71.454205507059214
 30
0.0
 40
12.76160114409887
 50
89.326529270287594
 51
90.673470729625507
  0
ARC
  5
1837
  8
SAPA_PROFIL
 10
-14.849999999990271
 20
-48.309870737645682
 30
0.0
 40
10.38469858775357
 50
269.17237214583753
 51
270.82762785407567
  0
LINE
  5
1838
  8
SAPA_PROFIL
 10
-17.799999999997961
 20
-58.693485944233821
 30
0.0
 11
-14.99999999999824
 21
-58.693485944233821
 31
0.0
  0
LINE
  5
1839
  8
SAPA_PROFIL
 10
-18.386384015758779
 20
-58.228562524668462
 30
0.0
 11
-17.799999999997961
 21
-58.693485944233821
 31
0.0
  0
ARC
  5
183A
  8
SAPA_PROFIL
 10
-18.199999999998049
 20
-57.99348594423364
 30
0.0
 40
0.3000000000000398
 50
90.000000000001336
 51
231.5903289366027
  0
LINE
  5
183B
  8
SAPA_PROFIL
 10
-16.499999999998241
 20
-57.693485944233828
 30
0.0
 11
-18.199999999998049
 21
-57.693485944233601
 31
0.0
  0
ARC
  5
183C
  8
SAPA_PROFIL
 10
-16.499999999998241
 20
-57.393485944233653
 30
0.0
 40
0.3000000000001819
 50
270.0
 51
0.0
  0
LINE
  5
183D
  8
SAPA_PROFIL
 10
-16.199999999998049
 20
-53.193485944233828
 30
0.0
 11
-16.199999999998049
 21
-57.393485944233653
 31
0.0
  0
ARC
  5
183E
  8
SAPA_PROFIL
 10
-16.49999999999801
 20
-53.193485944234062
 30
0.0
 40
0.2999999999999545
 50
0.0000000000434252
 51
90.000000000043414
  0
LINE
  5
183F
  8
SAPA_PROFIL
 10
-22.999999999998241
 20
-52.893485944233873
 30
0.0
 11
-16.499999999998241
 21
-52.893485944234101
 31
0.0
  0
ARC
  5
1840
  8
SAPA_PROFIL
 10
-22.999999999998241
 20
-53.193485944233601
 30
0.0
 40
0.2999999999997271
 50
90.0
 51
180.0000000000434
  0
LINE
  5
1841
  8
SAPA_PROFIL
 10
-23.299999999997969
 20
-57.393485944233873
 30
0.0
 11
-23.299999999997969
 21
-53.193485944233828
 31
0.0
  0
ARC
  5
1842
  8
SAPA_PROFIL
 10
-22.999999999998298
 20
-57.39348594423393
 30
0.0
 40
0.2999999999996703
 50
179.99999999998909
 51
270.0000000000108
  0
LINE
  5
1843
  8
SAPA_PROFIL
 10
-21.799999999997969
 20
-57.693485944233828
 30
0.0
 11
-22.999999999998241
 21
-57.693485944233601
 31
0.0
  0
ARC
  5
1844
  8
SAPA_PROFIL
 10
-21.799999999997969
 20
-57.993485944233768
 30
0.0
 40
0.2999999999999416
 50
308.40967106341247
 51
89.999999999998636
  0
LINE
  5
1845
  8
SAPA_PROFIL
 10
-22.19999999999806
 20
-58.693485944233821
 30
0.0
 11
-21.613615984237239
 21
-58.228562524668462
 31
0.0
  0
LINE
  5
1846
  8
SAPA_PROFIL
 10
-24.499999999998241
 20
-58.693485944233821
 30
0.0
 11
-22.19999999999806
 21
-58.693485944233821
 31
0.0
  0
ARC
  5
1847
  8
SAPA_PROFIL
 10
-24.49999999999801
 20
-58.393485944233881
 30
0.0
 40
0.2999999999999545
 50
179.99999999995649
 51
269.99999999995657
  0
LINE
  5
1848
  8
SAPA_PROFIL
 10
-24.799999999997969
 20
-51.193485944233821
 30
0.0
 11
-24.799999999997969
 21
-58.393485944233639
 31
0.0
  0
ARC
  5
1849
  8
SAPA_PROFIL
 10
-24.49999999999801
 20
-51.193485944233821
 30
0.0
 40
0.2999999999999545
 50
89.999999999956557
 51
180.0
  0
LINE
  5
184A
  8
SAPA_PROFIL
 10
-22.699999999998049
 20
-50.893485944233881
 30
0.0
 11
-24.49999999999779
 21
-50.893485944233881
 31
0.0
  0
LINE
  5
184B
  8
SAPA_PROFIL
 10
-22.699999999998049
 20
-51.093485944233691
 30
0.0
 11
-22.699999999998049
 21
-50.893485944233881
 31
0.0
  0
ARC
  5
184C
  8
SAPA_PROFIL
 10
-22.399999999998329
 20
-51.093485944233919
 30
0.0
 40
0.2999999999997271
 50
179.99999999995649
 51
270.0
  0
LINE
  5
184D
  8
SAPA_PROFIL
 10
-14.99999999999824
 20
-51.393485944233639
 30
0.0
 11
-22.399999999998329
 21
-51.393485944233639
 31
0.0
  0
ARC
  5
184E
  8
SAPA_PROFIL
 10
-14.99999999999824
 20
-51.693485944233821
 30
0.0
 40
0.3000000000001819
 50
0.0
 51
90.0
  0
LINE
  5
184F
  8
SAPA_PROFIL
 10
-14.699999999998051
 20
-56.693485944234283
 30
0.0
 11
-14.699999999998051
 21
-51.693485944233821
 31
0.0
  0
ARC
  5
1850
  8
SAPA_PROFIL
 10
-14.19999999999804
 20
-56.693485944234268
 30
0.0
 40
0.5000000000000142
 50
180.00000000000159
 51
269.99999999999858
  0
LINE
  5
1851
  8
SAPA_PROFIL
 10
-11.199999999998051
 20
-57.19348594423451
 30
0.0
 11
-14.199999999998051
 21
-57.193485944234283
 31
0.0
  0
ARC
  5
1852
  8
SAPA_PROFIL
 10
-11.19999999999791
 20
-56.693485944234432
 30
0.0
 40
0.5000000000000853
 50
269.9999999999838
 51
359.99999999999022
  0
LINE
  5
1853
  8
SAPA_PROFIL
 10
-10.69999999999896
 20
-34.500000000001478
 30
0.0
 11
-10.69999999999783
 21
-56.69348594423451
 31
0.0
  0
ARC
  5
1854
  8
SAPA_PROFIL
 10
-10.999999999998931
 20
-34.500000000001492
 30
0.0
 40
0.2999999999999687
 50
0.0000000000027141
 51
89.999999999997968
  0
LINE
  5
1855
  8
SAPA_PROFIL
 10
-12.28821087970692
 20
-34.200000000001531
 30
0.0
 11
-10.99999999999892
 21
-34.200000000001531
 31
0.0
  0
ARC
  5
1856
  8
SAPA_PROFIL
  6
CONTINUOUS
 62
     7
 10
-16.000000373534121
 20
-74.000000000957129
 30
0.0
 40
0.4999999999996021
 50
89.999999999955207
 51
179.999999999956
  0
LINE
  5
1857
  8
SAPA_PROFIL
  6
CONTINUOUS
 62
     7
 10
-15.00000037353373
 20
-73.500000000956732
 30
0.0
 11
-16.00000037353373
 21
-73.500000000957527
 31
0.0
  0
ARC
  5
1858
  8
SAPA_PROFIL
  6
CONTINUOUS
 62
     7
 10
-15.000000373533419
 20
-76.000000000962487
 30
0.0
 40
2.5000000000057541
 50
30.000000021253982
 51
90.000000000006892
  0
ARC
  5
1859
  8
SAPA_PROFIL
  6
CONTINUOUS
 62
     7
 10
-12.40192416273239
 20
-74.500000000004775
 30
0.0
 40
0.4999999999948131
 50
210.00000002041611
 51
269.9999999989285
  0
LINE
  5
185A
  8
SAPA_PROFIL
  6
CONTINUOUS
 62
     7
 10
-7.4000003735345281
 20
-74.999999999999588
 30
0.0
 11
-12.401924162741739
 21
-74.999999999999588
 31
0.0
  0
ARC
  5
185B
  8
SAPA_PROFIL
  6
CONTINUOUS
 62
     7
 10
-7.400000373534529
 20
-74.499999999999588
 30
0.0
 40
0.5000000000000018
 50
270.00000000000023
 51
359.99999999999352
  0
LINE
  5
185C
  8
SAPA_PROFIL
  6
CONTINUOUS
 62
     7
 10
-6.900000373534307
 20
-72.799999999999557
 30
0.0
 11
-6.9000003735345281
 21
-74.499999999999645
 31
0.0
  0
ARC
  5
185D
  8
SAPA_PROFIL
  6
CONTINUOUS
 62
     7
 10
-6.600000373534324
 20
-72.799999999999585
 30
0.0
 40
0.2999999999999841
 50
109.47122063434389
 51
179.99999999999449
  0
ARC
  5
185E
  8
SAPA_PROFIL
  6
CONTINUOUS
 62
     7
 10
-6.800000373533754
 20
-72.234314575051116
 30
0.0
 40
0.2999999999991045
 50
289.47122063458391
 51
0.0000000002062696
  0
LINE
  5
185F
  8
SAPA_PROFIL
  6
CONTINUOUS
 62
     7
 10
-6.5000003735337621
 20
-70.799999999999315
 30
0.0
 11
-6.5000003735346503
 21
-72.234314575050036
 31
0.0
  0
ARC
  5
1860
  8
SAPA_PROFIL
  6
CONTINUOUS
 62
     7
 10
-6.2000003735340492
 20
-70.799999999998875
 30
0.0
 40
0.2999999999997271
 50
90.000000000094957
 51
180.0000000000841
  0
LINE
  5
1861
  8
SAPA_PROFIL
  6
CONTINUOUS
 62
     7
 10
-5.6000003735339341
 20
-70.499999999999559
 30
0.0
 11
-6.2000003735345457
 21
-70.499999999999147
 31
0.0
  0
ARC
  5
1862
  8
SAPA_PROFIL
  6
CONTINUOUS
 62
     7
 10
-5.6000003735346349
 20
-70.799999999999557
 30
0.0
 40
0.3000000000000096
 50
0.0000000000434252
 51
89.999999999865992
  0
LINE
  5
1863
  8
SAPA_PROFIL
  6
CONTINUOUS
 62
     7
 10
-5.3000003735337371
 20
-72.19999999999942
 30
0.0
 11
-5.3000003735346262
 21
-70.799999999999329
 31
0.0
  0
ARC
  5
1864
  8
SAPA_PROFIL
  6
CONTINUOUS
 62
     7
 10
-5.0000003735340393
 20
-72.199999999999889
 30
0.0
 40
0.2999999999996987
 50
179.99999999991039
 51
269.99999999990638
  0
LINE
  5
1865
  8
SAPA_PROFIL
  6
CONTINUOUS
 62
     7
 10
4.9999996264660531
 20
-72.499999999999588
 30
0.0
 11
-5.0000003735345286
 21
-72.499999999999588
 31
0.0
  0
ARC
  5
1866
  8
SAPA_PROFIL
  6
CONTINUOUS
 62
     7
 10
4.9999996264660487
 20
-72.199999999999406
 30
0.0
 40
0.3000000000001783
 50
270.00000000000068
 51
0.0
  0
LINE
  5
1867
  8
SAPA_PROFIL
  6
CONTINUOUS
 62
     7
 10
5.299999626466235
 20
-70.799999999999329
 30
0.0
 11
5.299999626466227
 21
-72.199999999999406
 31
0.0
  0
ARC
  5
1868
  8
SAPA_PROFIL
  6
CONTINUOUS
 62
     7
 10
5.5999996264657366
 20
-70.799999999999102
 30
0.0
 40
0.2999999999994998
 50
90.000000000045262
 51
180.0000000000434
  0
LINE
  5
1869
  8
SAPA_PROFIL
  6
CONTINUOUS
 62
     7
 10
6.199999626466048
 20
-70.499999999999602
 30
0.0
 11
5.5999996264655003
 21
-70.499999999999602
 31
0.0
  0
ARC
  5
186A
  8
SAPA_PROFIL
  6
CONTINUOUS
 62
     7
 10
6.1999996264660497
 20
-70.799999999999784
 30
0.0
 40
0.3000000000001801
 50
0.0000000000868503
 51
90.000000000000327
  0
LINE
  5
186B
  8
SAPA_PROFIL
  6
CONTINUOUS
 62
     7
 10
6.4999996264653284
 20
-72.234314575049652
 30
0.0
 11
6.4999996264662299
 21
-70.799999999999329
 31
0.0
  0
ARC
  5
186C
  8
SAPA_PROFIL
  6
CONTINUOUS
 62
     7
 10
6.7999996264653273
 20
-72.234314575049837
 30
0.0
 40
0.3000000000000111
 50
179.9999999999647
 51
250.52877936565761
  0
ARC
  5
186D
  8
SAPA_PROFIL
  6
CONTINUOUS
 62
     7
 10
6.5999996264667828
 20
-72.799999999999613
 30
0.0
 40
0.2999999999999998
 50
0.0000000000081422
 51
70.528779365657485
  0
LINE
  5
186E
  8
SAPA_PROFIL
  6
CONTINUOUS
 62
     7
 10
6.8999996264676779
 20
-80.299999999999329
 30
0.0
 11
6.8999996264667827
 21
-72.799999999999571
 31
0.0
  0
ARC
  5
186F
  8
SAPA_PROFIL
  6
CONTINUOUS
 62
     7
 10
5.8999996264676779
 20
-80.299999999999329
 30
0.0
 40
1.0
 50
270.0
 51
0.0
  0
LINE
  5
1870
  8
SAPA_PROFIL
  6
CONTINUOUS
 62
     7
 10
5.0873693682906831
 20
-81.299999999999812
 30
0.0
 11
5.8999996264676779
 21
-81.299999999999329
 31
0.0
  0
ARC
  5
1871
  8
SAPA_PROFIL
  6
CONTINUOUS
 62
     7
 10
5.0873693682904984
 20
-80.999999999999801
 30
0.0
 40
0.30000000000001
 50
220.00000000000099
 51
270.00000000003541
  0
LINE
  5
1872
  8
SAPA_PROFIL
  6
CONTINUOUS
 62
     7
 10
4.2701862935302399
 20
-80.492836282905216
 30
0.0
 11
4.8575560353547997
 21
-81.192836282905773
 31
0.0
  0
ARC
  5
1873
  8
SAPA_PROFIL
  6
CONTINUOUS
 62
     7
 10
4.4999996264657671
 20
-80.2999999999994
 30
0.0
 40
0.299999999999784
 50
90.000000000083773
 51
220.00000000000119
  0
LINE
  5
1874
  8
SAPA_PROFIL
  6
CONTINUOUS
 62
     7
 10
5.299999626467315
 20
-79.999999999999105
 30
0.0
 11
4.4999996264653284
 21
-79.999999999999616
 31
0.0
  0
ARC
  5
1875
  8
SAPA_PROFIL
  6
CONTINUOUS
 62
     7
 10
5.2999996264673159
 20
-79.699999999999903
 30
0.0
 40
0.2999999999991996
 50
269.99999999999972
 51
0.0000000000949926
  0
LINE
  5
1876
  8
SAPA_PROFIL
  6
CONTINUOUS
 62
     7
 10
5.5999996264665874
 20
-75.29999999999886
 30
0.0
 11
5.5999996264665164
 21
-79.699999999999406
 31
0.0
  0
ARC
  5
1877
  8
SAPA_PROFIL
  6
CONTINUOUS
 62
     7
 10
5.29999962646664
 20
-75.299999999999102
 30
0.0
 40
0.2999999999999545
 50
0.0000000000461392
 51
90.000000000043414
  0
LINE
  5
1878
  8
SAPA_PROFIL
  6
CONTINUOUS
 62
     7
 10
-5.3000003735330337
 20
-74.999999999999133
 30
0.0
 11
5.2999996264664118
 21
-74.999999999999133
 31
0.0
  0
ARC
  5
1879
  8
SAPA_PROFIL
  6
CONTINUOUS
 62
     7
 10
-5.3000003735332308
 20
-75.299999999999116
 30
0.0
 40
0.2999999999999563
 50
89.999999999962341
 51
179.99999999995109
  0
LINE
  5
187A
  8
SAPA_PROFIL
  6
CONTINUOUS
 62
     7
 10
-5.6000003735341251
 20
-79.699999999999406
 30
0.0
 11
-5.600000373533188
 21
-75.29999999999886
 31
0.0
  0
ARC
  5
187B
  8
SAPA_PROFIL
  6
CONTINUOUS
 62
     7
 10
-5.3000003735339289
 20
-79.69999999999942
 30
0.0
 40
0.3000000000001819
 50
179.99999999999719
 51
270.0
  0
LINE
  5
187C
  8
SAPA_PROFIL
  6
CONTINUOUS
 62
     7
 10
-4.5000003735337328
 20
-79.999999999999602
 30
0.0
 11
-5.3000003735339289
 21
-79.999999999999602
 31
0.0
  0
ARC
  5
187D
  8
SAPA_PROFIL
  6
CONTINUOUS
 62
     7
 10
-4.5000003735340899
 20
-80.299999999999741
 30
0.0
 40
0.3000000000001586
 50
320.0000000001433
 51
89.999999999931802
  0
LINE
  5
187E
  8
SAPA_PROFIL
  6
CONTINUOUS
 62
     7
 10
-4.8575567824223462
 20
-81.192836282905773
 30
0.0
 11
-4.2701870405977926
 21
-80.492836282905216
 31
0.0
  0
ARC
  5
187F
  8
SAPA_PROFIL
  6
CONTINUOUS
 62
     7
 10
-5.0873701153580413
 20
-80.999999999999815
 30
0.0
 40
0.2999999999999971
 50
270.00000000000068
 51
320.00000000000068
  0
LINE
  5
1880
  8
SAPA_PROFIL
  6
CONTINUOUS
 62
     7
 10
-5.9000003735334401
 20
-81.299999999999812
 30
0.0
 11
-5.0873701153580368
 21
-81.299999999999812
 31
0.0
  0
ARC
  5
1881
  8
SAPA_PROFIL
  6
CONTINUOUS
 62
     7
 10
-5.9000003735334401
 20
-80.299999999999812
 30
0.0
 40
1.0
 50
180.0
 51
270.0
  0
LINE
  5
1882
  8
SAPA_PROFIL
  6
CONTINUOUS
 62
     7
 10
-6.9000003735334401
 20
-77.999999999999147
 30
0.0
 11
-6.9000003735334401
 21
-80.299999999999812
 31
0.0
  0
ARC
  5
1883
  8
SAPA_PROFIL
  6
CONTINUOUS
 62
     7
 10
-7.4000003735334401
 20
-77.999999999999147
 30
0.0
 40
0.5
 50
0.0
 51
90.0
  0
LINE
  5
1884
  8
SAPA_PROFIL
  6
CONTINUOUS
 62
     7
 10
-16.000000373533531
 20
-77.50000000000297
 30
0.0
 11
-7.4000003735334401
 21
-77.499999999999133
 31
0.0
  0
ARC
  5
1885
  8
SAPA_PROFIL
  6
CONTINUOUS
 62
     7
 10
-16.00000037353373
 20
-77.00000000000297
 30
0.0
 40
0.5000000000000036
 50
180.0
 51
270.0000000000224
  0
LINE
  5
1886
  8
SAPA_PROFIL
  6
CONTINUOUS
 62
     7
 10
-16.50000037353373
 20
-74.000000000956746
 30
0.0
 11
-16.50000037353373
 21
-77.00000000000297
 31
0.0
  0
LINE
  5
1887
  8
SAPA_PROFIL
 10
-24.100000373537021
 20
-70.999999999999886
 30
0.0
 11
-24.100000373537021
 21
-70.20000000095672
 31
0.0
  0
ARC
  5
1888
  8
SAPA_PROFIL
 10
-23.800000373537038
 20
-70.999999999999915
 30
0.0
 40
0.2999999999999829
 50
179.99999999999449
 51
269.99999999999528
  0
LINE
  5
1889
  8
SAPA_PROFIL
 10
-22.400000373536979
 20
-71.299999999999898
 30
0.0
 11
-23.80000037353707
 21
-71.299999999999898
 31
0.0
  0
ARC
  5
188A
  8
SAPA_PROFIL
 10
-22.400000373537029
 20
-71.600000000000023
 30
0.0
 40
0.300000000000125
 50
0.0000000000108563
 51
89.999999999989143
  0
LINE
  5
188B
  8
SAPA_PROFIL
 10
-22.100000373537021
 20
-76.89999999999992
 30
0.0
 11
-22.100000373536911
 21
-71.599999999999966
 31
0.0
  0
ARC
  5
188C
  8
SAPA_PROFIL
 10
-22.400000373536979
 20
-76.89999999999992
 30
0.0
 40
0.2999999999999545
 50
270.0
 51
0.0
  0
LINE
  5
188D
  8
SAPA_PROFIL
 10
-33.20000037353693
 20
-77.199999999999875
 30
0.0
 11
-22.400000373536979
 21
-77.199999999999875
 31
0.0
  0
ARC
  5
188E
  8
SAPA_PROFIL
 10
-33.200000373536959
 20
-76.899999999999835
 30
0.0
 40
0.3000000000000398
 50
180.0000000000162
 51
270.0000000000054
  0
LINE
  5
188F
  8
SAPA_PROFIL
 10
-33.500000373536999
 20
-71.599999999999966
 30
0.0
 11
-33.500000373536999
 21
-76.89999999999992
 31
0.0
  0
ARC
  5
1890
  8
SAPA_PROFIL
 10
-33.200000373536867
 20
-71.600000000000023
 30
0.0
 40
0.300000000000125
 50
90.000000000010829
 51
179.99999999998909
  0
LINE
  5
1891
  8
SAPA_PROFIL
 10
-31.80000037353695
 20
-71.299999999999898
 30
0.0
 11
-33.20000037353693
 21
-71.299999999999898
 31
0.0
  0
ARC
  5
1892
  8
SAPA_PROFIL
 10
-31.800000373536982
 20
-70.999999999999915
 30
0.0
 40
0.2999999999999829
 50
270.0000000000054
 51
0.0000000000054281
  0
LINE
  5
1893
  8
SAPA_PROFIL
 10
-31.500000373536999
 20
-70.20000000095672
 30
0.0
 11
-31.500000373536999
 21
-70.999999999999886
 31
0.0
  0
ARC
  5
1894
  8
SAPA_PROFIL
 10
-31.800000373536982
 20
-70.200000000956692
 30
0.0
 40
0.2999999999999829
 50
359.99999999999449
 51
89.999999999994586
  0
LINE
  5
1895
  8
SAPA_PROFIL
 10
-33.200000373537037
 20
-69.900000000956709
 30
0.0
 11
-31.80000037353695
 21
-69.900000000956709
 31
0.0
  0
ARC
  5
1896
  8
SAPA_PROFIL
 10
-33.200000373537023
 20
-69.600000000956726
 30
0.0
 40
0.2999999999999829
 50
179.99999999999449
 51
269.9999999999946
  0
LINE
  5
1897
  8
SAPA_PROFIL
 10
-33.500000373536999
 20
-67.600000000956683
 30
0.0
 11
-33.500000373536999
 21
-69.600000000956697
 31
0.0
  0
ARC
  5
1898
  8
SAPA_PROFIL
 10
-33.200000373537023
 20
-67.600000000956669
 30
0.0
 40
0.2999999999999829
 50
90.000000000005414
 51
180.0000000000054
  0
LINE
  5
1899
  8
SAPA_PROFIL
 10
-22.400000373536859
 20
-67.300000000956686
 30
0.0
 11
-33.200000373537037
 21
-67.300000000956686
 31
0.0
  0
ARC
  5
189A
  8
SAPA_PROFIL
 10
-22.400000373536891
 20
-67.600000000956669
 30
0.0
 40
0.2999999999999829
 50
359.99999999999449
 51
89.999999999994586
  0
LINE
  5
189B
  8
SAPA_PROFIL
 10
-22.100000373536911
 20
-69.600000000956697
 30
0.0
 11
-22.100000373536911
 21
-67.600000000956683
 31
0.0
  0
ARC
  5
189C
  8
SAPA_PROFIL
 10
-22.400000373536901
 20
-69.600000000956726
 30
0.0
 40
0.2999999999999829
 50
270.00000000000608
 51
0.0000000000054281
  0
LINE
  5
189D
  8
SAPA_PROFIL
 10
-23.80000037353707
 20
-69.900000000956709
 30
0.0
 11
-22.400000373536859
 21
-69.900000000956709
 31
0.0
  0
ARC
  5
189E
  8
SAPA_PROFIL
 10
-23.800000373537038
 20
-70.200000000956692
 30
0.0
 40
0.2999999999999865
 50
90.000000000006125
 51
180.0000000000054
  0
ARC
  5
189F
  8
SAPA_PROFIL
  6
CONTINUOUS
 62
     7
 10
-18.306256489123491
 20
-80.199999999999136
 30
0.0
 40
0.2999999999995566
 50
183.5833217328308
 51
269.99999999990968
  0
LINE
  5
18A0
  8
SAPA_PROFIL
  6
CONTINUOUS
 62
     7
 10
-11.30000037353695
 20
-80.499999999998579
 30
0.0
 11
-18.30625648912396
 21
-80.499999999998693
 31
0.0
  0
ARC
  5
18A1
  8
SAPA_PROFIL
  6
CONTINUOUS
 62
     7
 10
-11.30000037353695
 20
-80.799999999998647
 30
0.0
 40
0.3000000000000682
 50
0.0
 51
90.0
  0
LINE
  5
18A2
  8
SAPA_PROFIL
  6
CONTINUOUS
 62
     7
 10
-11.00000037353688
 20
-81.600000000982675
 30
0.0
 11
-11.00000037353688
 21
-80.799999999998647
 31
0.0
  0
ARC
  5
18A3
  8
SAPA_PROFIL
  6
CONTINUOUS
 62
     7
 10
-11.300000373536919
 20
-81.600000000982646
 30
0.0
 40
0.3000000000000398
 50
269.9999999999946
 51
359.99999999999449
  0
LINE
  5
18A4
  8
SAPA_PROFIL
  6
CONTINUOUS
 62
     7
 10
-19.70000037353693
 20
-81.900000000982644
 30
0.0
 11
-11.30000037353695
 21
-81.900000000982686
 31
0.0
  0
ARC
  5
18A5
  8
SAPA_PROFIL
  6
CONTINUOUS
 62
     7
 10
-19.70000037353693
 20
-81.600000000982675
 30
0.0
 40
0.2999999999999545
 50
180.0
 51
270.0
  0
LINE
  5
18A6
  8
SAPA_PROFIL
  6
CONTINUOUS
 62
     7
 10
-20.000000373536889
 20
-80.400000001917647
 30
0.0
 11
-20.000000373536889
 21
-81.600000000982675
 31
0.0
  0
ARC
  5
18A7
  8
SAPA_PROFIL
  6
CONTINUOUS
 62
     7
 10
-21.500000373536881
 20
-80.400000001917647
 30
0.0
 40
1.5
 50
0.0
 51
89.999999996717065
  0
LINE
  5
18A8
  8
SAPA_PROFIL
  6
CONTINUOUS
 62
     7
 10
-36.700000373562972
 20
-78.900000000982629
 30
0.0
 11
-21.500000373450941
 21
-78.900000001917647
 31
0.0
  0
ARC
  5
18A9
  8
SAPA_PROFIL
  6
CONTINUOUS
 62
     7
 10
-36.70000037353693
 20
-78.600000000982675
 30
0.0
 40
0.2999999999999545
 50
180.0
 51
269.99999999502779
  0
LINE
  5
18AA
  8
SAPA_PROFIL
  6
CONTINUOUS
 62
     7
 10
-37.000000373536892
 20
-77.499999999999659
 30
0.0
 11
-37.000000373536892
 21
-78.600000000982675
 31
0.0
  0
ARC
  5
18AB
  8
SAPA_PROFIL
  6
CONTINUOUS
 62
     7
 10
-36.700000373536902
 20
-77.499999999999631
 30
0.0
 40
0.2999999999999829
 50
90.000000000005414
 51
180.0000000000054
  0
LINE
  5
18AC
  8
SAPA_PROFIL
  6
CONTINUOUS
 62
     7
 10
-35.20000037353693
 20
-77.199999999999648
 30
0.0
 11
-36.70000037353693
 21
-77.199999999999648
 31
0.0
  0
ARC
  5
18AD
  8
SAPA_PROFIL
  6
CONTINUOUS
 62
     7
 10
-35.200000373536881
 20
-76.899999999999636
 30
0.0
 40
0.3000000000000114
 50
269.99999999998909
 51
359.99999999998909
  0
LINE
  5
18AE
  8
SAPA_PROFIL
  6
CONTINUOUS
 62
     7
 10
-34.900000373536869
 20
-66.200000000956663
 30
0.0
 11
-34.900000373536869
 21
-76.899999999999693
 31
0.0
  0
ARC
  5
18AF
  8
SAPA_PROFIL
  6
CONTINUOUS
 62
     7
 10
-34.600000373536879
 20
-66.200000000956635
 30
0.0
 40
0.2999999999999829
 50
90.000000000005414
 51
180.0000000000054
  0
LINE
  5
18B0
  8
SAPA_PROFIL
  6
CONTINUOUS
 62
     7
 10
-11.30000037353695
 20
-65.900000000956652
 30
0.0
 11
-34.600000373536908
 21
-65.900000000956652
 31
0.0
  0
ARC
  5
18B1
  8
SAPA_PROFIL
  6
CONTINUOUS
 62
     7
 10
-11.30000037353641
 20
-66.20000000095618
 30
0.0
 40
0.29999999999953
 50
359.9999999999078
 51
90.000000000102787
  0
LINE
  5
18B2
  8
SAPA_PROFIL
  6
CONTINUOUS
 62
     7
 10
-11.00000037353688
 20
-73.199999999998681
 30
0.0
 11
-11.00000037353688
 21
-66.200000000956663
 31
0.0
  0
ARC
  5
18B3
  8
SAPA_PROFIL
  6
CONTINUOUS
 62
     7
 10
-11.300000373536919
 20
-73.199999999998653
 30
0.0
 40
0.3000000000000398
 50
269.9999999999946
 51
359.99999999999449
  0
LINE
  5
18B4
  8
SAPA_PROFIL
  6
CONTINUOUS
 62
     7
 10
-20.30000037353695
 20
-73.499999999998693
 30
0.0
 11
-11.30000037353695
 21
-73.499999999998693
 31
0.0
  0
ARC
  5
18B5
  8
SAPA_PROFIL
  6
CONTINUOUS
 62
     7
 10
-20.30000037353696
 20
-73.79999999999967
 30
0.0
 40
0.3000000000009741
 50
89.999999999999346
 51
179.9999999998046
  0
LINE
  5
18B6
  8
SAPA_PROFIL
  6
CONTINUOUS
 62
     7
 10
-20.600000373536911
 20
-74.919615242269344
 30
0.0
 11
-20.600000373537931
 21
-73.799999999998633
 31
0.0
  0
ARC
  5
18B7
  8
SAPA_PROFIL
  6
CONTINUOUS
 62
     7
 10
-20.900000373536841
 20
-74.91961524226943
 30
0.0
 40
0.2999999999999325
 50
330.00000000001643
 51
0.0000000000162844
  0
LINE
  5
18B8
  8
SAPA_PROFIL
  6
CONTINUOUS
 62
     7
 10
-20.859807994672249
 20
-75.449999999998681
 30
0.0
 11
-20.640192752401521
 21
-75.069615242269322
 31
0.0
  0
ARC
  5
18B9
  8
SAPA_PROFIL
  6
CONTINUOUS
 62
     7
 10
-20.60000037353695
 20
-75.599999999998658
 30
0.0
 40
0.2999999999999598
 50
150.0000000000006
 51
209.9999999999994
  0
LINE
  5
18BA
  8
SAPA_PROFIL
  6
CONTINUOUS
 62
     7
 10
-20.640192752401521
 20
-76.130384757727995
 30
0.0
 11
-20.859807994672249
 21
-75.749999999998636
 31
0.0
  0
ARC
  5
18BB
  8
SAPA_PROFIL
  6
CONTINUOUS
 62
     7
 10
-20.900000373536841
 20
-76.280384757727887
 30
0.0
 40
0.2999999999999261
 50
359.99999999998369
 51
29.999999999984311
  0
LINE
  5
18BC
  8
SAPA_PROFIL
  6
CONTINUOUS
 62
     7
 10
-20.600000373536911
 20
-77.433520607080652
 30
0.0
 11
-20.600000373536911
 21
-76.280384757727973
 31
0.0
  0
ARC
  5
18BD
  8
SAPA_PROFIL
  6
CONTINUOUS
 62
     7
 10
-20.30000037353696
 20
-77.433520607080638
 30
0.0
 40
0.2999999999999472
 50
180.0000000000027
 51
247.97568716296459
  0
ARC
  5
18BE
  8
SAPA_PROFIL
  6
CONTINUOUS
 62
     7
 10
-21.50000037353642
 20
-80.400000001918286
 30
0.0
 40
2.899999999999296
 50
3.5833217329105591
 51
67.975687162962572
  0
ARC
  5
18BF
  8
SAPA_PROFIL
 10
12.28821013263058
 20
-33.900000000001597
 30
0.0
 40
0.2999999999998626
 50
268.44557377481141
 51
44.215333579229352
  0
LINE
  5
18C0
  8
SAPA_PROFIL
 10
10.303554431279791
 20
-31.430030478057802
 30
0.0
 11
12.503227334325
 21
-33.690792918440252
 31
0.0
  0
ARC
  5
18C1
  8
SAPA_PROFIL
 10
10.0509583703589
 20
-31.59187988339264
 30
0.0
 40
0.2999999999999829
 50
32.64947327816337
 51
90.000000000011198
  0
LINE
  5
18C2
  8
SAPA_PROFIL
 10
9.4999992529224642
 20
-31.291879883392649
 30
0.0
 11
10.05095837035884
 21
-31.291879883392649
 31
0.0
  0
ARC
  5
18C3
  8
SAPA_PROFIL
 10
9.4999992529225779
 20
-31.591879883392501
 30
0.0
 40
0.2999999999998408
 50
90.000000000021672
 51
180.00000000002171
  0
LINE
  5
18C4
  8
SAPA_PROFIL
 10
9.199999252922737
 20
-56.693485944234737
 30
0.0
 11
9.199999252922737
 21
-31.591879883392611
 31
0.0
  0
ARC
  5
18C5
  8
SAPA_PROFIL
 10
8.6999992529227246
 20
-56.693485944234723
 30
0.0
 40
0.5000000000000142
 50
270.00000000000142
 51
359.99999999999841
  0
LINE
  5
18C6
  8
SAPA_PROFIL
 10
6.9999992529226907
 20
-57.193485944234737
 30
0.0
 11
8.699999252922737
 21
-57.193485944234737
 31
0.0
  0
ARC
  5
18C7
  8
SAPA_PROFIL
 10
6.9999992529226676
 20
-56.693485944234759
 30
0.0
 40
0.4999999999999769
 50
179.9999999999975
 51
270.00000000000267
  0
LINE
  5
18C8
  8
SAPA_PROFIL
 10
6.4999992529231463
 20
-43.99187988339218
 30
0.0
 11
6.4999992529226907
 21
-56.693485944234737
 31
0.0
  0
ARC
  5
18C9
  8
SAPA_PROFIL
 10
6.1999992529231909
 20
-43.99187988339218
 30
0.0
 40
0.2999999999999545
 50
0.0
 51
90.000000000043414
  0
LINE
  5
18CA
  8
SAPA_PROFIL
 10
5.2999992529228734
 20
-43.691879883392232
 30
0.0
 11
6.1999992529229644
 21
-43.691879883392232
 31
0.0
  0
ARC
  5
18CB
  8
SAPA_PROFIL
 10
5.2999992529228734
 20
-43.991879883392407
 30
0.0
 40
0.3000000000001819
 50
90.0
 51
180.0
  0
LINE
  5
18CC
  8
SAPA_PROFIL
 10
4.999999252923601
 20
-58.39348594423501
 30
0.0
 11
4.9999992529226907
 21
-43.991879883392407
 31
0.0
  0
ARC
  5
18CD
  8
SAPA_PROFIL
 10
5.2999992529233211
 20
-58.39348594423501
 30
0.0
 40
0.29999999999972
 50
179.99999999999861
 51
270.00000000000131
  0
LINE
  5
18CE
  8
SAPA_PROFIL
 10
14.3999992529221
 20
-58.693485944234283
 30
0.0
 11
5.2999992529233282
 21
-58.693485944234737
 31
0.0
  0
ARC
  5
18CF
  8
SAPA_PROFIL
 10
14.549999252931631
 20
-71.454205507059214
 30
0.0
 40
12.76160114409887
 50
89.326529270374465
 51
90.673470729712392
  0
ARC
  5
18D0
  8
SAPA_PROFIL
 10
14.849999252914049
 20
-48.309870737645682
 30
0.0
 40
10.38469858775357
 50
269.17237214592433
 51
270.82762785416247
  0
LINE
  5
18D1
  8
SAPA_PROFIL
 10
17.799999252921729
 20
-58.693485944233821
 30
0.0
 11
14.999999252922009
 21
-58.693485944233821
 31
0.0
  0
LINE
  5
18D2
  8
SAPA_PROFIL
 10
18.38638326868255
 20
-58.228562524668462
 30
0.0
 11
17.799999252921729
 21
-58.693485944233821
 31
0.0
  0
ARC
  5
18D3
  8
SAPA_PROFIL
 10
18.19999925292182
 20
-57.99348594423364
 30
0.0
 40
0.3000000000000398
 50
308.4096710633973
 51
89.999999999998636
  0
LINE
  5
18D4
  8
SAPA_PROFIL
 10
16.499999252922009
 20
-57.693485944233828
 30
0.0
 11
18.199999252921831
 21
-57.693485944233601
 31
0.0
  0
ARC
  5
18D5
  8
SAPA_PROFIL
 10
16.499999252922009
 20
-57.393485944233653
 30
0.0
 40
0.3000000000001819
 50
180.0
 51
270.0
  0
LINE
  5
18D6
  8
SAPA_PROFIL
 10
16.199999252921831
 20
-53.193485944233828
 30
0.0
 11
16.199999252921831
 21
-57.393485944233653
 31
0.0
  0
ARC
  5
18D7
  8
SAPA_PROFIL
 10
16.499999252921778
 20
-53.193485944234062
 30
0.0
 40
0.2999999999999545
 50
89.999999999956557
 51
179.99999999995649
  0
LINE
  5
18D8
  8
SAPA_PROFIL
 10
22.999999252922009
 20
-52.893485944233873
 30
0.0
 11
16.499999252922009
 21
-52.893485944234101
 31
0.0
  0
ARC
  5
18D9
  8
SAPA_PROFIL
 10
22.999999252922009
 20
-53.193485944233601
 30
0.0
 40
0.2999999999997271
 50
359.99999999995657
 51
90.0
  0
LINE
  5
18DA
  8
SAPA_PROFIL
 10
23.29999925292174
 20
-57.393485944233873
 30
0.0
 11
23.29999925292174
 21
-53.193485944233828
 31
0.0
  0
ARC
  5
18DB
  8
SAPA_PROFIL
 10
22.999999252922059
 20
-57.39348594423393
 30
0.0
 40
0.2999999999996703
 50
269.99999999998909
 51
0.0000000000108563
  0
LINE
  5
18DC
  8
SAPA_PROFIL
 10
21.79999925292174
 20
-57.693485944233828
 30
0.0
 11
22.999999252922009
 21
-57.693485944233601
 31
0.0
  0
ARC
  5
18DD
  8
SAPA_PROFIL
 10
21.79999925292174
 20
-57.993485944233768
 30
0.0
 40
0.2999999999999416
 50
90.000000000001336
 51
231.5903289365875
  0
LINE
  5
18DE
  8
SAPA_PROFIL
 10
22.199999252921831
 20
-58.693485944233821
 30
0.0
 11
21.61361523716101
 21
-58.228562524668462
 31
0.0
  0
LINE
  5
18DF
  8
SAPA_PROFIL
 10
24.499999252922009
 20
-58.693485944233821
 30
0.0
 11
22.199999252921831
 21
-58.693485944233821
 31
0.0
  0
ARC
  5
18E0
  8
SAPA_PROFIL
 10
24.499999252921778
 20
-58.393485944233881
 30
0.0
 40
0.2999999999999545
 50
270.00000000004343
 51
0.0000000000434252
  0
LINE
  5
18E1
  8
SAPA_PROFIL
 10
24.79999925292174
 20
-51.193485944233821
 30
0.0
 11
24.79999925292174
 21
-58.393485944233639
 31
0.0
  0
ARC
  5
18E2
  8
SAPA_PROFIL
 10
24.499999252921778
 20
-51.193485944233821
 30
0.0
 40
0.2999999999999545
 50
0.0
 51
90.000000000043414
  0
LINE
  5
18E3
  8
SAPA_PROFIL
 10
22.699999252921831
 20
-50.893485944233881
 30
0.0
 11
24.499999252921558
 21
-50.893485944233881
 31
0.0
  0
LINE
  5
18E4
  8
SAPA_PROFIL
 10
22.699999252921831
 20
-51.093485944233691
 30
0.0
 11
22.699999252921831
 21
-50.893485944233881
 31
0.0
  0
ARC
  5
18E5
  8
SAPA_PROFIL
 10
22.3999992529221
 20
-51.093485944233919
 30
0.0
 40
0.2999999999997271
 50
270.0
 51
0.0000000000434252
  0
LINE
  5
18E6
  8
SAPA_PROFIL
 10
14.999999252922009
 20
-51.393485944233639
 30
0.0
 11
22.3999992529221
 21
-51.393485944233639
 31
0.0
  0
ARC
  5
18E7
  8
SAPA_PROFIL
 10
14.999999252922009
 20
-51.693485944233821
 30
0.0
 40
0.3000000000001819
 50
90.0
 51
180.0
  0
LINE
  5
18E8
  8
SAPA_PROFIL
 10
14.699999252921829
 20
-56.693485944234283
 30
0.0
 11
14.699999252921829
 21
-51.693485944233821
 31
0.0
  0
ARC
  5
18E9
  8
SAPA_PROFIL
 10
14.19999925292181
 20
-56.693485944234268
 30
0.0
 40
0.5000000000000142
 50
270.00000000000142
 51
359.99999999999841
  0
LINE
  5
18EA
  8
SAPA_PROFIL
 10
11.199999252921829
 20
-57.19348594423451
 30
0.0
 11
14.199999252921829
 21
-57.193485944234283
 31
0.0
  0
ARC
  5
18EB
  8
SAPA_PROFIL
 10
11.19999925292168
 20
-56.693485944234432
 30
0.0
 40
0.5000000000000853
 50
180.00000000000969
 51
270.00000000001631
  0
LINE
  5
18EC
  8
SAPA_PROFIL
 10
10.699999252922741
 20
-34.500000000001478
 30
0.0
 11
10.6999992529216
 21
-56.69348594423451
 31
0.0
  0
ARC
  5
18ED
  8
SAPA_PROFIL
 10
10.9999992529227
 20
-34.500000000001492
 30
0.0
 40
0.2999999999999687
 50
90.000000000002018
 51
179.99999999999719
  0
LINE
  5
18EE
  8
SAPA_PROFIL
 10
12.28821013263069
 20
-34.200000000001531
 30
0.0
 11
10.99999925292269
 21
-34.200000000001531
 31
0.0
  0
ARC
  5
18EF
  8
SAPA_PROFIL
  6
CONTINUOUS
 62
     7
 10
15.999999626457891
 20
-74.000000000957129
 30
0.0
 40
0.4999999999996021
 50
0.000000000043968
 51
90.000000000044764
  0
LINE
  5
18F0
  8
SAPA_PROFIL
  6
CONTINUOUS
 62
     7
 10
14.9999996264575
 20
-73.500000000956732
 30
0.0
 11
15.9999996264575
 21
-73.500000000957527
 31
0.0
  0
ARC
  5
18F1
  8
SAPA_PROFIL
  6
CONTINUOUS
 62
     7
 10
14.999999626457191
 20
-76.000000000962487
 30
0.0
 40
2.5000000000057541
 50
89.999999999993079
 51
149.99999997874599
  0
ARC
  5
18F2
  8
SAPA_PROFIL
  6
CONTINUOUS
 62
     7
 10
12.40192341565616
 20
-74.500000000004775
 30
0.0
 40
0.4999999999948131
 50
270.0000000010715
 51
329.999999979584
  0
LINE
  5
18F3
  8
SAPA_PROFIL
  6
CONTINUOUS
 62
     7
 10
7.3999996264582988
 20
-74.999999999999588
 30
0.0
 11
12.401923415665509
 21
-74.999999999999588
 31
0.0
  0
ARC
  5
18F4
  8
SAPA_PROFIL
  6
CONTINUOUS
 62
     7
 10
7.3999996264583006
 20
-74.499999999999588
 30
0.0
 40
0.5000000000000018
 50
180.00000000000651
 51
269.99999999999977
  0
LINE
  5
18F5
  8
SAPA_PROFIL
  6
CONTINUOUS
 62
     7
 10
6.8999996264580794
 20
-72.799999999999557
 30
0.0
 11
6.8999996264582988
 21
-74.499999999999645
 31
0.0
  0
ARC
  5
18F6
  8
SAPA_PROFIL
  6
CONTINUOUS
 62
     7
 10
6.5999996264580947
 20
-72.799999999999585
 30
0.0
 40
0.2999999999999841
 50
0.0000000000054281
 51
70.528779365656021
  0
ARC
  5
18F7
  8
SAPA_PROFIL
  6
CONTINUOUS
 62
     7
 10
6.7999996264575264
 20
-72.234314575051116
 30
0.0
 40
0.2999999999991045
 50
179.99999999979369
 51
250.52877936541611
  0
LINE
  5
18F8
  8
SAPA_PROFIL
  6
CONTINUOUS
 62
     7
 10
6.4999996264575328
 20
-70.799999999999315
 30
0.0
 11
6.499999626458421
 21
-72.234314575050036
 31
0.0
  0
ARC
  5
18F9
  8
SAPA_PROFIL
  6
CONTINUOUS
 62
     7
 10
6.1999996264578199
 20
-70.799999999998875
 30
0.0
 40
0.2999999999997271
 50
359.99999999991587
 51
89.999999999905015
  0
LINE
  5
18FA
  8
SAPA_PROFIL
  6
CONTINUOUS
 62
     7
 10
5.5999996264577048
 20
-70.499999999999559
 30
0.0
 11
6.1999996264583181
 21
-70.499999999999147
 31
0.0
  0
ARC
  5
18FB
  8
SAPA_PROFIL
  6
CONTINUOUS
 62
     7
 10
5.5999996264584073
 20
-70.799999999999557
 30
0.0
 40
0.3000000000000096
 50
90.000000000134023
 51
179.99999999995649
  0
LINE
  5
18FC
  8
SAPA_PROFIL
  6
CONTINUOUS
 62
     7
 10
5.2999996264575087
 20
-72.19999999999942
 30
0.0
 11
5.2999996264583968
 21
-70.799999999999329
 31
0.0
  0
ARC
  5
18FD
  8
SAPA_PROFIL
  6
CONTINUOUS
 62
     7
 10
4.9999996264578099
 20
-72.199999999999889
 30
0.0
 40
0.2999999999996987
 50
270.00000000009362
 51
0.0000000000895644
  0
LINE
  5
18FE
  8
SAPA_PROFIL
  6
CONTINUOUS
 62
     7
 10
-5.0000003735422807
 20
-72.499999999999588
 30
0.0
 11
4.9999996264583011
 21
-72.499999999999588
 31
0.0
  0
ARC
  5
18FF
  8
SAPA_PROFIL
  6
CONTINUOUS
 62
     7
 10
-5.0000003735422771
 20
-72.199999999999406
 30
0.0
 40
0.3000000000001783
 50
180.0
 51
269.99999999999932
  0
LINE
  5
1900
  8
SAPA_PROFIL
  6
CONTINUOUS
 62
     7
 10
-5.3000003735424626
 20
-70.799999999999329
 30
0.0
 11
-5.3000003735424563
 21
-72.199999999999406
 31
0.0
  0
ARC
  5
1901
  8
SAPA_PROFIL
  6
CONTINUOUS
 62
     7
 10
-5.600000373541965
 20
-70.799999999999102
 30
0.0
 40
0.2999999999994998
 50
359.99999999995657
 51
89.999999999954724
  0
LINE
  5
1902
  8
SAPA_PROFIL
  6
CONTINUOUS
 62
     7
 10
-6.2000003735422773
 20
-70.499999999999602
 30
0.0
 11
-5.6000003735417279
 21
-70.499999999999602
 31
0.0
  0
ARC
  5
1903
  8
SAPA_PROFIL
  6
CONTINUOUS
 62
     7
 10
-6.2000003735422791
 20
-70.799999999999784
 30
0.0
 40
0.3000000000001801
 50
89.999999999999673
 51
179.99999999991309
  0
LINE
  5
1904
  8
SAPA_PROFIL
  6
CONTINUOUS
 62
     7
 10
-6.5000003735415559
 20
-72.234314575049652
 30
0.0
 11
-6.5000003735424592
 21
-70.799999999999329
 31
0.0
  0
ARC
  5
1905
  8
SAPA_PROFIL
  6
CONTINUOUS
 62
     7
 10
-6.8000003735415548
 20
-72.234314575049837
 30
0.0
 40
0.3000000000000111
 50
289.47122063434227
 51
0.000000000035283
  0
ARC
  5
1906
  8
SAPA_PROFIL
  6
CONTINUOUS
 62
     7
 10
-6.6000003735430122
 20
-72.799999999999613
 30
0.0
 40
0.2999999999999998
 50
109.4712206343425
 51
179.99999999999179
  0
LINE
  5
1907
  8
SAPA_PROFIL
  6
CONTINUOUS
 62
     7
 10
-6.9000003735439073
 20
-80.299999999999329
 30
0.0
 11
-6.9000003735430111
 21
-72.799999999999571
 31
0.0
  0
ARC
  5
1908
  8
SAPA_PROFIL
  6
CONTINUOUS
 62
     7
 10
-5.9000003735439073
 20
-80.299999999999329
 30
0.0
 40
1.0
 50
180.0
 51
270.0
  0
LINE
  5
1909
  8
SAPA_PROFIL
  6
CONTINUOUS
 62
     7
 10
-5.0873701153669124
 20
-81.299999999999812
 30
0.0
 11
-5.9000003735439073
 21
-81.299999999999329
 31
0.0
  0
ARC
  5
190A
  8
SAPA_PROFIL
  6
CONTINUOUS
 62
     7
 10
-5.0873701153667259
 20
-80.999999999999801
 30
0.0
 40
0.30000000000001
 50
269.99999999996447
 51
319.99999999999898
  0
LINE
  5
190B
  8
SAPA_PROFIL
  6
CONTINUOUS
 62
     7
 10
-4.2701870406064693
 20
-80.492836282905216
 30
0.0
 11
-4.8575567824310291
 21
-81.192836282905773
 31
0.0
  0
ARC
  5
190C
  8
SAPA_PROFIL
  6
CONTINUOUS
 62
     7
 10
-4.5000003735419947
 20
-80.2999999999994
 30
0.0
 40
0.299999999999784
 50
319.99999999999881
 51
89.999999999916199
  0
LINE
  5
190D
  8
SAPA_PROFIL
  6
CONTINUOUS
 62
     7
 10
-5.3000003735435426
 20
-79.999999999999105
 30
0.0
 11
-4.5000003735415559
 21
-79.999999999999616
 31
0.0
  0
ARC
  5
190E
  8
SAPA_PROFIL
  6
CONTINUOUS
 62
     7
 10
-5.3000003735435453
 20
-79.699999999999903
 30
0.0
 40
0.2999999999991996
 50
179.99999999990499
 51
270.00000000000028
  0
LINE
  5
190F
  8
SAPA_PROFIL
  6
CONTINUOUS
 62
     7
 10
-5.600000373542815
 20
-75.29999999999886
 30
0.0
 11
-5.6000003735427439
 21
-79.699999999999406
 31
0.0
  0
ARC
  5
1910
  8
SAPA_PROFIL
  6
CONTINUOUS
 62
     7
 10
-5.3000003735428676
 20
-75.299999999999102
 30
0.0
 40
0.2999999999999545
 50
89.999999999956557
 51
179.9999999999539
  0
LINE
  5
1911
  8
SAPA_PROFIL
  6
CONTINUOUS
 62
     7
 10
5.2999996264568061
 20
-74.999999999999133
 30
0.0
 11
-5.3000003735426411
 21
-74.999999999999133
 31
0.0
  0
ARC
  5
1912
  8
SAPA_PROFIL
  6
CONTINUOUS
 62
     7
 10
5.2999996264570033
 20
-75.299999999999116
 30
0.0
 40
0.2999999999999563
 50
0.0000000000488533
 51
90.000000000037645
  0
LINE
  5
1913
  8
SAPA_PROFIL
  6
CONTINUOUS
 62
     7
 10
5.5999996264578966
 20
-79.699999999999406
 30
0.0
 11
5.5999996264569587
 21
-75.29999999999886
 31
0.0
  0
ARC
  5
1914
  8
SAPA_PROFIL
  6
CONTINUOUS
 62
     7
 10
5.2999996264577014
 20
-79.69999999999942
 30
0.0
 40
0.3000000000001819
 50
270.0
 51
0.0000000000027141
  0
LINE
  5
1915
  8
SAPA_PROFIL
  6
CONTINUOUS
 62
     7
 10
4.4999996264575053
 20
-79.999999999999602
 30
0.0
 11
5.2999996264577014
 21
-79.999999999999602
 31
0.0
  0
ARC
  5
1916
  8
SAPA_PROFIL
  6
CONTINUOUS
 62
     7
 10
4.4999996264578623
 20
-80.299999999999741
 30
0.0
 40
0.3000000000001586
 50
90.000000000068184
 51
219.9999999998567
  0
LINE
  5
1917
  8
SAPA_PROFIL
  6
CONTINUOUS
 62
     7
 10
4.8575560353461169
 20
-81.192836282905773
 30
0.0
 11
4.2701862935215651
 21
-80.492836282905216
 31
0.0
  0
ARC
  5
1918
  8
SAPA_PROFIL
  6
CONTINUOUS
 62
     7
 10
5.087369368281812
 20
-80.999999999999815
 30
0.0
 40
0.2999999999999971
 50
219.99999999999929
 51
269.99999999999932
  0
LINE
  5
1919
  8
SAPA_PROFIL
  6
CONTINUOUS
 62
     7
 10
5.8999996264572117
 20
-81.299999999999812
 30
0.0
 11
5.0873693682818093
 21
-81.299999999999812
 31
0.0
  0
ARC
  5
191A
  8
SAPA_PROFIL
  6
CONTINUOUS
 62
     7
 10
5.8999996264572117
 20
-80.299999999999812
 30
0.0
 40
1.0
 50
270.0
 51
0.0
  0
LINE
  5
191B
  8
SAPA_PROFIL
  6
CONTINUOUS
 62
     7
 10
6.8999996264572117
 20
-77.999999999999147
 30
0.0
 11
6.8999996264572117
 21
-80.299999999999812
 31
0.0
  0
ARC
  5
191C
  8
SAPA_PROFIL
  6
CONTINUOUS
 62
     7
 10
7.3999996264572117
 20
-77.999999999999147
 30
0.0
 40
0.5
 50
90.0
 51
180.0
  0
LINE
  5
191D
  8
SAPA_PROFIL
  6
CONTINUOUS
 62
     7
 10
15.999999626457299
 20
-77.50000000000297
 30
0.0
 11
7.3999996264572117
 21
-77.499999999999133
 31
0.0
  0
ARC
  5
191E
  8
SAPA_PROFIL
  6
CONTINUOUS
 62
     7
 10
15.9999996264575
 20
-77.00000000000297
 30
0.0
 40
0.5000000000000036
 50
269.9999999999776
 51
0.0
  0
LINE
  5
191F
  8
SAPA_PROFIL
  6
CONTINUOUS
 62
     7
 10
16.499999626457502
 20
-74.000000000956746
 30
0.0
 11
16.499999626457502
 21
-77.00000000000297
 31
0.0
  0
LINE
  5
1920
  8
SAPA_PROFIL
 10
24.099999626460789
 20
-70.999999999999886
 30
0.0
 11
24.099999626460789
 21
-70.20000000095672
 31
0.0
  0
ARC
  5
1921
  8
SAPA_PROFIL
 10
23.79999962646081
 20
-70.999999999999915
 30
0.0
 40
0.2999999999999829
 50
270.00000000000472
 51
0.0000000000054281
  0
LINE
  5
1922
  8
SAPA_PROFIL
 10
22.399999626460751
 20
-71.299999999999898
 30
0.0
 11
23.799999626460838
 21
-71.299999999999898
 31
0.0
  0
ARC
  5
1923
  8
SAPA_PROFIL
 10
22.399999626460811
 20
-71.600000000000023
 30
0.0
 40
0.300000000000125
 50
90.000000000010829
 51
179.99999999998909
  0
LINE
  5
1924
  8
SAPA_PROFIL
 10
22.0999996264608
 20
-76.89999999999992
 30
0.0
 11
22.099999626460679
 21
-71.599999999999966
 31
0.0
  0
ARC
  5
1925
  8
SAPA_PROFIL
 10
22.399999626460751
 20
-76.89999999999992
 30
0.0
 40
0.2999999999999545
 50
180.0
 51
270.0
  0
LINE
  5
1926
  8
SAPA_PROFIL
 10
33.199999626460709
 20
-77.199999999999875
 30
0.0
 11
22.399999626460751
 21
-77.199999999999875
 31
0.0
  0
ARC
  5
1927
  8
SAPA_PROFIL
 10
33.19999962646073
 20
-76.899999999999835
 30
0.0
 40
0.3000000000000398
 50
269.9999999999946
 51
359.99999999998369
  0
LINE
  5
1928
  8
SAPA_PROFIL
 10
33.49999962646077
 20
-71.599999999999966
 30
0.0
 11
33.49999962646077
 21
-76.89999999999992
 31
0.0
  0
ARC
  5
1929
  8
SAPA_PROFIL
 10
33.199999626460652
 20
-71.600000000000023
 30
0.0
 40
0.300000000000125
 50
0.0000000000108563
 51
89.999999999989143
  0
LINE
  5
192A
  8
SAPA_PROFIL
 10
31.799999626460728
 20
-71.299999999999898
 30
0.0
 11
33.199999626460709
 21
-71.299999999999898
 31
0.0
  0
ARC
  5
192B
  8
SAPA_PROFIL
 10
31.79999962646075
 20
-70.999999999999915
 30
0.0
 40
0.2999999999999829
 50
179.99999999999449
 51
269.9999999999946
  0
LINE
  5
192C
  8
SAPA_PROFIL
 10
31.49999962646077
 20
-70.20000000095672
 30
0.0
 11
31.49999962646077
 21
-70.999999999999886
 31
0.0
  0
ARC
  5
192D
  8
SAPA_PROFIL
 10
31.79999962646075
 20
-70.200000000956692
 30
0.0
 40
0.2999999999999829
 50
90.000000000005414
 51
180.0000000000054
  0
LINE
  5
192E
  8
SAPA_PROFIL
 10
33.199999626460823
 20
-69.900000000956709
 30
0.0
 11
31.799999626460728
 21
-69.900000000956709
 31
0.0
  0
ARC
  5
192F
  8
SAPA_PROFIL
 10
33.199999626460787
 20
-69.600000000956726
 30
0.0
 40
0.2999999999999829
 50
270.0000000000054
 51
0.0000000000054281
  0
LINE
  5
1930
  8
SAPA_PROFIL
 10
33.49999962646077
 20
-67.600000000956683
 30
0.0
 11
33.49999962646077
 21
-69.600000000956697
 31
0.0
  0
ARC
  5
1931
  8
SAPA_PROFIL
 10
33.199999626460787
 20
-67.600000000956669
 30
0.0
 40
0.2999999999999829
 50
359.99999999999449
 51
89.999999999994586
  0
LINE
  5
1932
  8
SAPA_PROFIL
 10
22.39999962646063
 20
-67.300000000956686
 30
0.0
 11
33.199999626460823
 21
-67.300000000956686
 31
0.0
  0
ARC
  5
1933
  8
SAPA_PROFIL
 10
22.399999626460659
 20
-67.600000000956669
 30
0.0
 40
0.2999999999999829
 50
90.000000000005414
 51
180.0000000000054
  0
LINE
  5
1934
  8
SAPA_PROFIL
 10
22.099999626460679
 20
-69.600000000956697
 30
0.0
 11
22.099999626460679
 21
-67.600000000956683
 31
0.0
  0
ARC
  5
1935
  8
SAPA_PROFIL
 10
22.399999626460659
 20
-69.600000000956726
 30
0.0
 40
0.2999999999999829
 50
179.99999999999449
 51
269.99999999999392
  0
LINE
  5
1936
  8
SAPA_PROFIL
 10
23.799999626460838
 20
-69.900000000956709
 30
0.0
 11
22.39999962646063
 21
-69.900000000956709
 31
0.0
  0
ARC
  5
1937
  8
SAPA_PROFIL
 10
23.79999962646081
 20
-70.200000000956692
 30
0.0
 40
0.2999999999999865
 50
359.99999999999449
 51
89.999999999993875
  0
ARC
  5
1938
  8
SAPA_PROFIL
  6
CONTINUOUS
 62
     7
 10
18.306255742047259
 20
-80.199999999999136
 30
0.0
 40
0.2999999999995566
 50
270.00000000009021
 51
356.41667826716917
  0
LINE
  5
1939
  8
SAPA_PROFIL
  6
CONTINUOUS
 62
     7
 10
11.299999626460719
 20
-80.499999999998579
 30
0.0
 11
18.306255742047728
 21
-80.499999999998693
 31
0.0
  0
ARC
  5
193A
  8
SAPA_PROFIL
  6
CONTINUOUS
 62
     7
 10
11.299999626460719
 20
-80.799999999998647
 30
0.0
 40
0.3000000000000682
 50
90.0
 51
180.0
  0
LINE
  5
193B
  8
SAPA_PROFIL
  6
CONTINUOUS
 62
     7
 10
10.999999626460649
 20
-81.600000000982675
 30
0.0
 11
10.999999626460649
 21
-80.799999999998647
 31
0.0
  0
ARC
  5
193C
  8
SAPA_PROFIL
  6
CONTINUOUS
 62
     7
 10
11.299999626460689
 20
-81.600000000982646
 30
0.0
 40
0.3000000000000398
 50
180.0000000000054
 51
270.0000000000054
  0
LINE
  5
193D
  8
SAPA_PROFIL
  6
CONTINUOUS
 62
     7
 10
19.699999626460698
 20
-81.900000000982644
 30
0.0
 11
11.299999626460719
 21
-81.900000000982686
 31
0.0
  0
ARC
  5
193E
  8
SAPA_PROFIL
  6
CONTINUOUS
 62
     7
 10
19.699999626460698
 20
-81.600000000982675
 30
0.0
 40
0.2999999999999545
 50
270.0
 51
0.0
  0
LINE
  5
193F
  8
SAPA_PROFIL
  6
CONTINUOUS
 62
     7
 10
19.99999962646066
 20
-80.400000001917647
 30
0.0
 11
19.99999962646066
 21
-81.600000000982675
 31
0.0
  0
ARC
  5
1940
  8
SAPA_PROFIL
  6
CONTINUOUS
 62
     7
 10
21.49999962646066
 20
-80.400000001917647
 30
0.0
 40
1.5
 50
90.000000003282921
 51
180.0
  0
LINE
  5
1941
  8
SAPA_PROFIL
  6
CONTINUOUS
 62
     7
 10
36.699999626486743
 20
-78.900000000982629
 30
0.0
 11
21.499999626374709
 21
-78.900000001917647
 31
0.0
  0
ARC
  5
1942
  8
SAPA_PROFIL
  6
CONTINUOUS
 62
     7
 10
36.699999626460702
 20
-78.600000000982675
 30
0.0
 40
0.2999999999999545
 50
270.00000000497221
 51
0.0
  0
LINE
  5
1943
  8
SAPA_PROFIL
  6
CONTINUOUS
 62
     7
 10
36.999999626460657
 20
-77.499999999999659
 30
0.0
 11
36.999999626460657
 21
-78.600000000982675
 31
0.0
  0
ARC
  5
1944
  8
SAPA_PROFIL
  6
CONTINUOUS
 62
     7
 10
36.699999626460666
 20
-77.499999999999631
 30
0.0
 40
0.2999999999999829
 50
359.99999999999449
 51
89.999999999994586
  0
LINE
  5
1945
  8
SAPA_PROFIL
  6
CONTINUOUS
 62
     7
 10
35.199999626460702
 20
-77.199999999999648
 30
0.0
 11
36.699999626460702
 21
-77.199999999999648
 31
0.0
  0
ARC
  5
1946
  8
SAPA_PROFIL
  6
CONTINUOUS
 62
     7
 10
35.199999626460638
 20
-76.899999999999636
 30
0.0
 40
0.3000000000000114
 50
180.0000000000108
 51
270.0000000000108
  0
LINE
  5
1947
  8
SAPA_PROFIL
  6
CONTINUOUS
 62
     7
 10
34.899999626460627
 20
-66.200000000956663
 30
0.0
 11
34.899999626460627
 21
-76.899999999999693
 31
0.0
  0
ARC
  5
1948
  8
SAPA_PROFIL
  6
CONTINUOUS
 62
     7
 10
34.599999626460651
 20
-66.200000000956635
 30
0.0
 40
0.2999999999999829
 50
359.99999999999449
 51
89.999999999994586
  0
LINE
  5
1949
  8
SAPA_PROFIL
  6
CONTINUOUS
 62
     7
 10
11.299999626460719
 20
-65.900000000956652
 30
0.0
 11
34.599999626460679
 21
-65.900000000956652
 31
0.0
  0
ARC
  5
194A
  8
SAPA_PROFIL
  6
CONTINUOUS
 62
     7
 10
11.299999626460179
 20
-66.20000000095618
 30
0.0
 40
0.29999999999953
 50
89.999999999897199
 51
180.0000000000922
  0
LINE
  5
194B
  8
SAPA_PROFIL
  6
CONTINUOUS
 62
     7
 10
10.999999626460649
 20
-73.199999999998681
 30
0.0
 11
10.999999626460649
 21
-66.200000000956663
 31
0.0
  0
ARC
  5
194C
  8
SAPA_PROFIL
  6
CONTINUOUS
 62
     7
 10
11.299999626460689
 20
-73.199999999998653
 30
0.0
 40
0.3000000000000398
 50
180.0000000000054
 51
270.0000000000054
  0
LINE
  5
194D
  8
SAPA_PROFIL
  6
CONTINUOUS
 62
     7
 10
20.299999626460728
 20
-73.499999999998693
 30
0.0
 11
11.299999626460719
 21
-73.499999999998693
 31
0.0
  0
ARC
  5
194E
  8
SAPA_PROFIL
  6
CONTINUOUS
 62
     7
 10
20.299999626460728
 20
-73.79999999999967
 30
0.0
 40
0.3000000000009741
 50
0.0000000001954133
 51
90.000000000000668
  0
LINE
  5
194F
  8
SAPA_PROFIL
  6
CONTINUOUS
 62
     7
 10
20.599999626460679
 20
-74.919615242269344
 30
0.0
 11
20.599999626461699
 21
-73.799999999998633
 31
0.0
  0
ARC
  5
1950
  8
SAPA_PROFIL
  6
CONTINUOUS
 62
     7
 10
20.899999626460609
 20
-74.91961524226943
 30
0.0
 40
0.2999999999999325
 50
179.99999999998369
 51
209.9999999999836
  0
LINE
  5
1951
  8
SAPA_PROFIL
  6
CONTINUOUS
 62
     7
 10
20.85980724759602
 20
-75.449999999998681
 30
0.0
 11
20.6401920053253
 21
-75.069615242269322
 31
0.0
  0
ARC
  5
1952
  8
SAPA_PROFIL
  6
CONTINUOUS
 62
     7
 10
20.599999626460718
 20
-75.599999999998658
 30
0.0
 40
0.2999999999999598
 50
330.00000000000063
 51
29.999999999999432
  0
LINE
  5
1953
  8
SAPA_PROFIL
  6
CONTINUOUS
 62
     7
 10
20.6401920053253
 20
-76.130384757727995
 30
0.0
 11
20.85980724759602
 21
-75.749999999998636
 31
0.0
  0
ARC
  5
1954
  8
SAPA_PROFIL
  6
CONTINUOUS
 62
     7
 10
20.899999626460609
 20
-76.280384757727887
 30
0.0
 40
0.2999999999999261
 50
150.00000000001569
 51
180.0000000000162
  0
LINE
  5
1955
  8
SAPA_PROFIL
  6
CONTINUOUS
 62
     7
 10
20.599999626460679
 20
-77.433520607080652
 30
0.0
 11
20.599999626460679
 21
-76.280384757727973
 31
0.0
  0
ARC
  5
1956
  8
SAPA_PROFIL
  6
CONTINUOUS
 62
     7
 10
20.299999626460728
 20
-77.433520607080638
 30
0.0
 40
0.2999999999999472
 50
292.02431283703538
 51
359.99999999999733
  0
ARC
  5
1957
  8
SAPA_PROFIL
  6
CONTINUOUS
 62
     7
 10
21.499999626460191
 20
-80.400000001918286
 30
0.0
 40
2.899999999999296
 50
112.0243128370374
 51
176.4166782670894
  0
POLYLINE
  5
1958
  8
SAPA_PROFIL
 66
     1
 10
0.0
 20
0.0
 30
0.0
 70
     1
  0
VERTEX
  5
1B8C
  8
SAPA_PROFIL
 10
28.699999626461931
 20
24.299999999996661
 30
0.0
  0
VERTEX
  5
1B8D
  8
SAPA_PROFIL
 10
28.699999626461931
 20
31.199999999996521
 30
0.0
  0
VERTEX
  5
1B8E
  8
SAPA_PROFIL
 10
28.39999962646198
 20
31.499999999996589
 30
0.0
  0
VERTEX
  5
1B8F
  8
SAPA_PROFIL
 10
28.699999626461931
 20
31.799999999996661
 30
0.0
  0
VERTEX
  5
1B90
  8
SAPA_PROFIL
 10
28.699999626461921
 20
41.499999999996589
 30
0.0
 42
-0.4142135623730951
  0
VERTEX
  5
1B91
  8
SAPA_PROFIL
 10
29.699999626461931
 20
42.499999999996582
 30
0.0
  0
VERTEX
  5
1B92
  8
SAPA_PROFIL
 10
42.499999626461879
 20
42.499999999996589
 30
0.0
  0
VERTEX
  5
1B93
  8
SAPA_PROFIL
 10
42.499999626461879
 20
41.599999999996612
 30
0.0
 42
0.4142135623730951
  0
VERTEX
  5
1B94
  8
SAPA_PROFIL
 10
43.099999626461802
 20
40.999999999996589
 30
0.0
  0
VERTEX
  5
1B95
  8
SAPA_PROFIL
 10
44.699999626461931
 20
40.999999999996589
 30
0.0
 42
0.4142135623730951
  0
VERTEX
  5
1B96
  8
SAPA_PROFIL
 10
44.999999626461879
 20
41.299999999996658
 30
0.0
  0
VERTEX
  5
1B97
  8
SAPA_PROFIL
 10
44.999999626461879
 20
43.699999999996521
 30
0.0
 42
0.4142135623730951
  0
VERTEX
  5
1B98
  8
SAPA_PROFIL
 10
44.699999626461917
 20
43.999999999996597
 30
0.0
  0
VERTEX
  5
1B99
  8
SAPA_PROFIL
 10
24.999999626461879
 20
43.999999999996589
 30
0.0
  0
VERTEX
  5
1B9A
  8
SAPA_PROFIL
 10
24.999999626461879
 20
41.499999999996589
 30
0.0
  0
VERTEX
  5
1B9B
  8
SAPA_PROFIL
 10
26.699999626461931
 20
41.499999999996589
 30
0.0
 42
-0.4142135623730951
  0
VERTEX
  5
1B9C
  8
SAPA_PROFIL
 10
27.199999626461931
 20
40.999999999996589
 30
0.0
  0
VERTEX
  5
1B9D
  8
SAPA_PROFIL
 10
27.199999626461931
 20
20.999999999996589
 30
0.0
 42
-0.4142135623730951
  0
VERTEX
  5
1B9E
  8
SAPA_PROFIL
 10
26.699999626461931
 20
20.499999999996589
 30
0.0
  0
VERTEX
  5
1B9F
  8
SAPA_PROFIL
 10
24.999999626461889
 20
20.499999999996589
 30
0.0
  0
VERTEX
  5
1BA0
  8
SAPA_PROFIL
 10
24.999999626461889
 20
18.999999999996589
 30
0.0
  0
VERTEX
  5
1BA1
  8
SAPA_PROFIL
 10
28.199999626461931
 20
18.999999999996589
 30
0.0
 42
0.4142135623730951
  0
VERTEX
  5
1BA2
  8
SAPA_PROFIL
 10
28.699999626461931
 20
19.499999999996589
 30
0.0
  0
VERTEX
  5
1BA3
  8
SAPA_PROFIL
 10
28.699999626461931
 20
23.699999999996638
 30
0.0
  0
VERTEX
  5
1BA4
  8
SAPA_PROFIL
 10
28.39999962646198
 20
23.999999999996589
 30
0.0
  0
SEQEND
  5
1BA5
  8
SAPA_PROFIL
  0
POLYLINE
  5
1959
  8
SAPA_PROFIL
 66
     1
 10
0.0
 20
0.0
 30
0.0
 70
     1
  0
VERTEX
  5
1BA6
  8
SAPA_PROFIL
 10
-28.70000037353816
 20
24.299999999996551
 30
0.0
  0
VERTEX
  5
1BA7
  8
SAPA_PROFIL
 10
-28.70000037353816
 20
31.199999999996411
 30
0.0
  0
VERTEX
  5
1BA8
  8
SAPA_PROFIL
 10
-28.400000373538209
 20
31.499999999996479
 30
0.0
  0
VERTEX
  5
1BA9
  8
SAPA_PROFIL
 10
-28.70000037353816
 20
31.799999999996551
 30
0.0
  0
VERTEX
  5
1BAA
  8
SAPA_PROFIL
 10
-28.70000037353816
 20
41.499999999996469
 30
0.0
 42
0.4142135623730951
  0
VERTEX
  5
1BAB
  8
SAPA_PROFIL
 10
-29.70000037353816
 20
42.499999999996469
 30
0.0
  0
VERTEX
  5
1BAC
  8
SAPA_PROFIL
 10
-42.500000373538107
 20
42.499999999996469
 30
0.0
  0
VERTEX
  5
1BAD
  8
SAPA_PROFIL
 10
-42.500000373538107
 20
41.599999999996498
 30
0.0
 42
-0.4142135623730951
  0
VERTEX
  5
1BAE
  8
SAPA_PROFIL
 10
-43.100000373538023
 20
40.999999999996469
 30
0.0
  0
VERTEX
  5
1BAF
  8
SAPA_PROFIL
 10
-44.700000373538153
 20
40.999999999996469
 30
0.0
 42
-0.4142135623730951
  0
VERTEX
  5
1BB0
  8
SAPA_PROFIL
 10
-45.000000373538107
 20
41.299999999996537
 30
0.0
  0
VERTEX
  5
1BB1
  8
SAPA_PROFIL
 10
-45.000000373538107
 20
43.699999999996407
 30
0.0
 42
-0.4142135623730951
  0
VERTEX
  5
1BB2
  8
SAPA_PROFIL
 10
-44.700000373538153
 20
43.999999999996469
 30
0.0
  0
VERTEX
  5
1BB3
  8
SAPA_PROFIL
 10
-25.000000373538121
 20
43.999999999996469
 30
0.0
  0
VERTEX
  5
1BB4
  8
SAPA_PROFIL
 10
-25.000000373538121
 20
41.499999999996469
 30
0.0
  0
VERTEX
  5
1BB5
  8
SAPA_PROFIL
 10
-26.70000037353816
 20
41.499999999996469
 30
0.0
 42
0.4142135623730951
  0
VERTEX
  5
1BB6
  8
SAPA_PROFIL
 10
-27.20000037353816
 20
40.999999999996469
 30
0.0
  0
VERTEX
  5
1BB7
  8
SAPA_PROFIL
 10
-27.20000037353816
 20
20.999999999996469
 30
0.0
 42
0.4142135623730951
  0
VERTEX
  5
1BB8
  8
SAPA_PROFIL
 10
-26.70000037353816
 20
20.499999999996479
 30
0.0
  0
VERTEX
  5
1BB9
  8
SAPA_PROFIL
 10
-25.000000373538121
 20
20.499999999996479
 30
0.0
  0
VERTEX
  5
1BBA
  8
SAPA_PROFIL
 10
-25.000000373538121
 20
18.999999999996469
 30
0.0
  0
VERTEX
  5
1BBB
  8
SAPA_PROFIL
 10
-28.20000037353816
 20
18.999999999996469
 30
0.0
 42
-0.4142135623730951
  0
VERTEX
  5
1BBC
  8
SAPA_PROFIL
 10
-28.70000037353816
 20
19.499999999996469
 30
0.0
  0
VERTEX
  5
1BBD
  8
SAPA_PROFIL
 10
-28.70000037353816
 20
23.699999999996521
 30
0.0
  0
VERTEX
  5
1BBE
  8
SAPA_PROFIL
 10
-28.400000373538209
 20
23.999999999996479
 30
0.0
  0
SEQEND
  5
1BBF
  8
SAPA_PROFIL
  0
POLYLINE
  5
195A
  8
SAPA_PROFIL
 66
     1
 10
0.0
 20
0.0
 30
0.0
 70
     1
  0
VERTEX
  5
1BC0
  8
SAPA_PROFIL
 10
-22.600000373537799
 20
-25.000000000002899
 30
0.0
 42
-0.767326987974136
  0
VERTEX
  5
1BC1
  8
SAPA_PROFIL
 10
-22.04019275240432
 20
-24.849999999999739
 30
0.0
 42
0.2679491924279902
  0
VERTEX
  5
1BC2
  8
SAPA_PROFIL
 10
-21.780385131280809
 20
-25.000000000002451
 30
0.0
  0
VERTEX
  5
1BC3
  8
SAPA_PROFIL
 10
-18.800000373537561
 20
-25.000000000001819
 30
0.0
 42
0.4142135623730395
  0
VERTEX
  5
1BC4
  8
SAPA_PROFIL
 10
-17.300000373537841
 20
-23.500000000001759
 30
0.0
  0
VERTEX
  5
1BC5
  8
SAPA_PROFIL
 10
-17.300000373537841
 20
-22.400000000002361
 30
0.0
 42
0.4142135623730951
  0
VERTEX
  5
1BC6
  8
SAPA_PROFIL
 10
-17.600000373537569
 20
-22.10000000000241
 30
0.0
  0
VERTEX
  5
1BC7
  8
SAPA_PROFIL
 10
-18.100000373537569
 20
-22.10000000000241
 30
0.0
 42
0.4142135623730948
  0
VERTEX
  5
1BC8
  8
SAPA_PROFIL
 10
-18.40000037353775
 20
-22.400000000002361
 30
0.0
  0
VERTEX
  5
1BC9
  8
SAPA_PROFIL
 10
-18.40000037353775
 20
-22.736626924636539
 30
0.0
 42
-0.5643553431119927
  0
VERTEX
  5
1BCA
  8
SAPA_PROFIL
 10
-22.72439541677204
 20
-20.87439504323947
 30
0.0
  0
VERTEX
  5
1BCB
  8
SAPA_PROFIL
 10
-22.350000373539839
 20
-20.500000000002501
 30
0.0
  0
VERTEX
  5
1BCC
  8
SAPA_PROFIL
 10
-22.72439541677295
 20
-20.125604956769621
 30
0.0
 42
-0.564355343112654
  0
VERTEX
  5
1BCD
  8
SAPA_PROFIL
 10
-18.40000037353775
 20
-18.263373075367099
 30
0.0
  0
VERTEX
  5
1BCE
  8
SAPA_PROFIL
 10
-18.40000037353775
 20
-18.600000000002641
 30
0.0
 42
0.4142135623729843
  0
VERTEX
  5
1BCF
  8
SAPA_PROFIL
 10
-18.10000037353802
 20
-18.900000000002699
 30
0.0
  0
VERTEX
  5
1BD0
  8
SAPA_PROFIL
 10
-17.600000373537569
 20
-18.900000000002589
 30
0.0
 42
0.4142135623730951
  0
VERTEX
  5
1BD1
  8
SAPA_PROFIL
 10
-17.300000373537841
 20
-18.600000000002641
 30
0.0
  0
VERTEX
  5
1BD2
  8
SAPA_PROFIL
 10
-17.300000373537841
 20
-16.300000000002679
 30
0.0
 42
0.4142135623732062
  0
VERTEX
  5
1BD3
  8
SAPA_PROFIL
 10
-17.600000373537569
 20
-16.000000000002391
 30
0.0
  0
VERTEX
  5
1BD4
  8
SAPA_PROFIL
 10
-22.00000037353772
 20
-16.000000000002501
 30
0.0
 42
-0.4142135623731117
  0
VERTEX
  5
1BD5
  8
SAPA_PROFIL
 10
-23.00000037353783
 20
-15.000000000002499
 30
0.0
  0
VERTEX
  5
1BD6
  8
SAPA_PROFIL
 10
-23.000000373538061
 20
19.999999999995559
 30
0.0
 42
-0.7673269879789009
  0
VERTEX
  5
1BD7
  8
SAPA_PROFIL
 10
-22.066987671645901
 20
20.24999999999574
 30
0.0
 42
0.2679491924311131
  0
VERTEX
  5
1BD8
  8
SAPA_PROFIL
 10
-21.633974969753641
 20
19.99999999999585
 30
0.0
  0
VERTEX
  5
1BD9
  8
SAPA_PROFIL
 10
-18.800000373537781
 20
19.999999999996639
 30
0.0
 42
0.4142135623730395
  0
VERTEX
  5
1BDA
  8
SAPA_PROFIL
 10
-17.300000373538069
 20
21.4999999999967
 30
0.0
  0
VERTEX
  5
1BDB
  8
SAPA_PROFIL
 10
-17.300000373538069
 20
22.599999999996101
 30
0.0
 42
0.4142135623730951
  0
VERTEX
  5
1BDC
  8
SAPA_PROFIL
 10
-17.600000373537789
 20
22.899999999996059
 30
0.0
  0
VERTEX
  5
1BDD
  8
SAPA_PROFIL
 10
-18.100000373537789
 20
22.899999999996059
 30
0.0
 42
0.4142135623730948
  0
VERTEX
  5
1BDE
  8
SAPA_PROFIL
 10
-18.400000373537981
 20
22.599999999996101
 30
0.0
  0
VERTEX
  5
1BDF
  8
SAPA_PROFIL
 10
-18.400000373537981
 20
22.263373075361919
 30
0.0
 42
-0.5643553431119927
  0
VERTEX
  5
1BE0
  8
SAPA_PROFIL
 10
-22.724395416772271
 20
24.125604956758991
 30
0.0
  0
VERTEX
  5
1BE1
  8
SAPA_PROFIL
 10
-22.35000037354007
 20
24.499999999995961
 30
0.0
  0
VERTEX
  5
1BE2
  8
SAPA_PROFIL
 10
-22.724395416773181
 20
24.874395043228841
 30
0.0
 42
-0.564355343112654
  0
VERTEX
  5
1BE3
  8
SAPA_PROFIL
 10
-18.400000373537981
 20
26.73662692463137
 30
0.0
  0
VERTEX
  5
1BE4
  8
SAPA_PROFIL
 10
-18.400000373537981
 20
26.399999999995831
 30
0.0
 42
0.4142135623729843
  0
VERTEX
  5
1BE5
  8
SAPA_PROFIL
 10
-18.100000373538251
 20
26.099999999995759
 30
0.0
  0
VERTEX
  5
1BE6
  8
SAPA_PROFIL
 10
-17.600000373537789
 20
26.09999999999587
 30
0.0
 42
0.4142135623730951
  0
VERTEX
  5
1BE7
  8
SAPA_PROFIL
 10
-17.300000373538069
 20
26.399999999995831
 30
0.0
  0
VERTEX
  5
1BE8
  8
SAPA_PROFIL
 10
-17.300000373538069
 20
28.699999999995779
 30
0.0
 42
0.4142135623732062
  0
VERTEX
  5
1BE9
  8
SAPA_PROFIL
 10
-17.600000373537789
 20
28.999999999996081
 30
0.0
  0
VERTEX
  5
1BEA
  8
SAPA_PROFIL
 10
-22.00000037353794
 20
28.999999999995971
 30
0.0
 42
-0.4142135623730951
  0
VERTEX
  5
1BEB
  8
SAPA_PROFIL
 10
-23.00000037353794
 20
29.999999999995971
 30
0.0
  0
VERTEX
  5
1BEC
  8
SAPA_PROFIL
 10
-23.000000373538111
 20
34.699999999996351
 30
0.0
 42
-0.4142135623730984
  0
VERTEX
  5
1BED
  8
SAPA_PROFIL
 10
-22.700000373538099
 20
34.999999999996362
 30
0.0
  0
VERTEX
  5
1BEE
  8
SAPA_PROFIL
 10
-21.400000373538091
 20
34.999999999996362
 30
0.0
 42
0.4142135623730951
  0
VERTEX
  5
1BEF
  8
SAPA_PROFIL
 10
-21.10000037353808
 20
35.299999999996373
 30
0.0
  0
VERTEX
  5
1BF0
  8
SAPA_PROFIL
 10
-21.10000037353808
 20
35.875735931284403
 30
0.0
 42
0.198912367379637
  0
VERTEX
  5
1BF1
  8
SAPA_PROFIL
 10
-21.187868339182099
 20
36.087867965640392
 30
0.0
  0
VERTEX
  5
1BF2
  8
SAPA_PROFIL
 10
-22.912132407893981
 20
37.812132034352153
 30
0.0
 42
-0.1989123673796579
  0
VERTEX
  5
1BF3
  8
SAPA_PROFIL
 10
-23.000000373538001
 20
38.024264068708142
 30
0.0
  0
VERTEX
  5
1BF4
  8
SAPA_PROFIL
 10
-23.000000373538061
 20
41.499999999996469
 30
0.0
 42
-0.4142135623730951
  0
VERTEX
  5
1BF5
  8
SAPA_PROFIL
 10
-22.000000373538061
 20
42.499999999996469
 30
0.0
  0
VERTEX
  5
1BF6
  8
SAPA_PROFIL
 10
21.999999626461829
 20
42.499999999996469
 30
0.0
 42
-0.4142135623730951
  0
VERTEX
  5
1BF7
  8
SAPA_PROFIL
 10
22.999999626461829
 20
41.499999999996469
 30
0.0
  0
VERTEX
  5
1BF8
  8
SAPA_PROFIL
 10
22.999999626461769
 20
38.024264068708078
 30
0.0
 42
-0.1989123673796579
  0
VERTEX
  5
1BF9
  8
SAPA_PROFIL
 10
22.912131660817749
 20
37.812132034352089
 30
0.0
  0
VERTEX
  5
1BFA
  8
SAPA_PROFIL
 10
21.187867592105931
 20
36.087867965640442
 30
0.0
 42
0.198912367379658
  0
VERTEX
  5
1BFB
  8
SAPA_PROFIL
 10
21.099999626461909
 20
35.875735931284453
 30
0.0
  0
VERTEX
  5
1BFC
  8
SAPA_PROFIL
 10
21.099999626461909
 20
35.299999999996373
 30
0.0
 42
0.4142135623730951
  0
VERTEX
  5
1BFD
  8
SAPA_PROFIL
 10
21.39999962646192
 20
34.999999999996362
 30
0.0
  0
VERTEX
  5
1BFE
  8
SAPA_PROFIL
 10
22.699999626461821
 20
34.999999999996362
 30
0.0
 42
-0.4142135623730984
  0
VERTEX
  5
1BFF
  8
SAPA_PROFIL
 10
22.999999626461829
 20
34.699999999996351
 30
0.0
  0
VERTEX
  5
1C00
  8
SAPA_PROFIL
 10
22.999999626461719
 20
29.999999999995971
 30
0.0
 42
-0.4142135623730951
  0
VERTEX
  5
1C01
  8
SAPA_PROFIL
 10
21.999999626461719
 20
28.999999999995971
 30
0.0
  0
VERTEX
  5
1C02
  8
SAPA_PROFIL
 10
17.599999626461571
 20
28.999999999996081
 30
0.0
 42
0.4142135623732062
  0
VERTEX
  5
1C03
  8
SAPA_PROFIL
 10
17.29999962646184
 20
28.699999999995779
 30
0.0
  0
VERTEX
  5
1C04
  8
SAPA_PROFIL
 10
17.29999962646184
 20
26.399999999995831
 30
0.0
 42
0.4142135623730951
  0
VERTEX
  5
1C05
  8
SAPA_PROFIL
 10
17.599999626461571
 20
26.09999999999587
 30
0.0
  0
VERTEX
  5
1C06
  8
SAPA_PROFIL
 10
18.099999626462019
 20
26.099999999995759
 30
0.0
 42
0.414213562372984
  0
VERTEX
  5
1C07
  8
SAPA_PROFIL
 10
18.399999626461749
 20
26.399999999995831
 30
0.0
  0
VERTEX
  5
1C08
  8
SAPA_PROFIL
 10
18.399999626461749
 20
26.73662692463137
 30
0.0
 42
-0.5643553431126542
  0
VERTEX
  5
1C09
  8
SAPA_PROFIL
 10
22.724394669696949
 20
24.874395043228841
 30
0.0
  0
VERTEX
  5
1C0A
  8
SAPA_PROFIL
 10
22.349999626463841
 20
24.499999999995961
 30
0.0
  0
VERTEX
  5
1C0B
  8
SAPA_PROFIL
 10
22.724394669696039
 20
24.125604956758991
 30
0.0
 42
-0.5643553431119927
  0
VERTEX
  5
1C0C
  8
SAPA_PROFIL
 10
18.399999626461749
 20
22.263373075361919
 30
0.0
  0
VERTEX
  5
1C0D
  8
SAPA_PROFIL
 10
18.399999626461749
 20
22.599999999996101
 30
0.0
 42
0.414213562373095
  0
VERTEX
  5
1C0E
  8
SAPA_PROFIL
 10
18.099999626461571
 20
22.899999999996059
 30
0.0
  0
VERTEX
  5
1C0F
  8
SAPA_PROFIL
 10
17.599999626461571
 20
22.899999999996059
 30
0.0
 42
0.4142135623730953
  0
VERTEX
  5
1C10
  8
SAPA_PROFIL
 10
17.29999962646184
 20
22.599999999996101
 30
0.0
  0
VERTEX
  5
1C11
  8
SAPA_PROFIL
 10
17.299999626461609
 20
21.4999999999967
 30
0.0
 42
0.4142135623730508
  0
VERTEX
  5
1C12
  8
SAPA_PROFIL
 10
18.799999626461329
 20
19.999999999996639
 30
0.0
  0
VERTEX
  5
1C13
  8
SAPA_PROFIL
 10
21.633974222677178
 20
19.999999999995911
 30
0.0
 42
0.2679491924311283
  0
VERTEX
  5
1C14
  8
SAPA_PROFIL
 10
22.066986924569449
 20
20.24999999999574
 30
0.0
 42
-0.7673269879788167
  0
VERTEX
  5
1C15
  8
SAPA_PROFIL
 10
22.999999626461602
 20
19.999999999995559
 30
0.0
  0
VERTEX
  5
1C16
  8
SAPA_PROFIL
 10
22.999999626461381
 20
-15.000000000002499
 30
0.0
 42
-0.4142135623730951
  0
VERTEX
  5
1C17
  8
SAPA_PROFIL
 10
21.999999626461371
 20
-16.000000000002501
 30
0.0
  0
VERTEX
  5
1C18
  8
SAPA_PROFIL
 10
17.599999626461219
 20
-16.000000000002391
 30
0.0
 42
0.4142135623732062
  0
VERTEX
  5
1C19
  8
SAPA_PROFIL
 10
17.299999626461499
 20
-16.300000000002679
 30
0.0
  0
VERTEX
  5
1C1A
  8
SAPA_PROFIL
 10
17.299999626461499
 20
-18.600000000002641
 30
0.0
 42
0.4142135623730951
  0
VERTEX
  5
1C1B
  8
SAPA_PROFIL
 10
17.599999626461219
 20
-18.900000000002589
 30
0.0
  0
VERTEX
  5
1C1C
  8
SAPA_PROFIL
 10
18.099999626461681
 20
-18.900000000002699
 30
0.0
 42
0.414213562372984
  0
VERTEX
  5
1C1D
  8
SAPA_PROFIL
 10
18.399999626461408
 20
-18.600000000002641
 30
0.0
  0
VERTEX
  5
1C1E
  8
SAPA_PROFIL
 10
18.399999626461408
 20
-18.263373075367099
 30
0.0
 42
-0.5643553431126542
  0
VERTEX
  5
1C1F
  8
SAPA_PROFIL
 10
22.724394669696611
 20
-20.125604956769621
 30
0.0
  0
VERTEX
  5
1C20
  8
SAPA_PROFIL
 10
22.3499996264635
 20
-20.500000000002501
 30
0.0
  0
VERTEX
  5
1C21
  8
SAPA_PROFIL
 10
22.724394669695702
 20
-20.87439504323947
 30
0.0
 42
-0.5643553431119927
  0
VERTEX
  5
1C22
  8
SAPA_PROFIL
 10
18.399999626461408
 20
-22.736626924636539
 30
0.0
  0
VERTEX
  5
1C23
  8
SAPA_PROFIL
 10
18.399999626461408
 20
-22.400000000002361
 30
0.0
 42
0.414213562373095
  0
VERTEX
  5
1C24
  8
SAPA_PROFIL
 10
18.099999626461219
 20
-22.10000000000241
 30
0.0
  0
VERTEX
  5
1C25
  8
SAPA_PROFIL
 10
17.599999626461219
 20
-22.10000000000241
 30
0.0
 42
0.4142135623730951
  0
VERTEX
  5
1C26
  8
SAPA_PROFIL
 10
17.299999626461378
 20
-22.400000000002361
 30
0.0
  0
VERTEX
  5
1C27
  8
SAPA_PROFIL
 10
17.299999626461378
 20
-23.500000000001759
 30
0.0
 42
0.4142135623730508
  0
VERTEX
  5
1C28
  8
SAPA_PROFIL
 10
18.799999626461101
 20
-25.000000000001819
 30
0.0
  0
VERTEX
  5
1C29
  8
SAPA_PROFIL
 10
21.78038438420435
 20
-25.000000000002451
 30
0.0
 42
0.2679491924279903
  0
VERTEX
  5
1C2A
  8
SAPA_PROFIL
 10
22.040192005327871
 20
-24.849999999999739
 30
0.0
 42
-0.767326987974136
  0
VERTEX
  5
1C2B
  8
SAPA_PROFIL
 10
22.5999996264614
 20
-25.000000000002899
 30
0.0
  0
VERTEX
  5
1C2C
  8
SAPA_PROFIL
 10
22.59999962646134
 20
-27.000000000001819
 30
0.0
 42
-0.4142135623730951
  0
VERTEX
  5
1C2D
  8
SAPA_PROFIL
 10
21.59999962646134
 20
-28.000000000001819
 30
0.0
  0
VERTEX
  5
1C2E
  8
SAPA_PROFIL
 10
-21.600000373537799
 20
-28.000000000001819
 30
0.0
 42
-0.4142135623731284
  0
VERTEX
  5
1C2F
  8
SAPA_PROFIL
 10
-22.60000037353791
 20
-27.000000000001819
 30
0.0
  0
SEQEND
  5
1C30
  8
SAPA_PROFIL
  0
POLYLINE
  5
195B
  8
SAPA_PROFIL
 66
     1
 10
0.0
 20
0.0
 30
0.0
 70
     1
  0
VERTEX
  5
1C31
  8
SAPA_PROFIL
 10
2.6999996264622719
 20
-30.999999999011781
 30
0.0
  0
VERTEX
  5
1C32
  8
SAPA_PROFIL
 10
2.6999996264622719
 20
-31.249999999011781
 30
0.0
  0
VERTEX
  5
1C33
  8
SAPA_PROFIL
 10
2.3499996264623628
 20
-31.24999999901183
 30
0.0
 42
0.5450207774094042
  0
VERTEX
  5
1C34
  8
SAPA_PROFIL
 10
2.076719322210351
 20
-31.67376540333731
 30
0.0
  0
VERTEX
  5
1C35
  8
SAPA_PROFIL
 10
2.6999996264622719
 20
-33.049999999011959
 30
0.0
  0
VERTEX
  5
1C36
  8
SAPA_PROFIL
 10
2.3499996264623628
 20
-33.04999999901208
 30
0.0
 42
0.5450207774090177
  0
VERTEX
  5
1C37
  8
SAPA_PROFIL
 10
2.0767193222102369
 20
-33.473765403337161
 30
0.0
  0
VERTEX
  5
1C38
  8
SAPA_PROFIL
 10
2.6999996264622719
 20
-34.849999999011906
 30
0.0
  0
VERTEX
  5
1C39
  8
SAPA_PROFIL
 10
2.3499996264623628
 20
-34.84999999901197
 30
0.0
 42
0.5450207774094042
  0
VERTEX
  5
1C3A
  8
SAPA_PROFIL
 10
2.076719322210351
 20
-35.27376540333745
 30
0.0
  0
VERTEX
  5
1C3B
  8
SAPA_PROFIL
 10
2.6999996264622719
 20
-36.649999999011868
 30
0.0
  0
VERTEX
  5
1C3C
  8
SAPA_PROFIL
 10
2.3499996264623628
 20
-36.649999999011868
 30
0.0
 42
0.545020777409516
  0
VERTEX
  5
1C3D
  8
SAPA_PROFIL
 10
2.076719322210351
 20
-37.073765403337518
 30
0.0
  0
VERTEX
  5
1C3E
  8
SAPA_PROFIL
 10
2.6999996264622719
 20
-38.44999999901205
 30
0.0
  0
VERTEX
  5
1C3F
  8
SAPA_PROFIL
 10
2.3499996264623628
 20
-38.44999999901205
 30
0.0
 42
0.545020777409516
  0
VERTEX
  5
1C40
  8
SAPA_PROFIL
 10
2.076719322210351
 20
-38.8737654033377
 30
0.0
  0
VERTEX
  5
1C41
  8
SAPA_PROFIL
 10
2.6999996264622719
 20
-40.249999999012232
 30
0.0
  0
VERTEX
  5
1C42
  8
SAPA_PROFIL
 10
2.3499996264623628
 20
-40.249999999012232
 30
0.0
 42
0.5450207774090177
  0
VERTEX
  5
1C43
  8
SAPA_PROFIL
 10
2.0767193222102369
 20
-40.67376540333742
 30
0.0
  0
VERTEX
  5
1C44
  8
SAPA_PROFIL
 10
2.4282667520477039
 20
-41.449999999012043
 30
0.0
  0
VERTEX
  5
1C45
  8
SAPA_PROFIL
 10
-1.0006707898188549
 20
-41.449999999012107
 30
0.0
  0
VERTEX
  5
1C46
  8
SAPA_PROFIL
 10
-2.7000003735378182
 20
-41.449999999012107
 30
0.0
  0
VERTEX
  5
1C47
  8
SAPA_PROFIL
 10
-2.7000003735378182
 20
-41.149999999012088
 30
0.0
  0
VERTEX
  5
1C48
  8
SAPA_PROFIL
 10
-2.0767200692854431
 20
-39.773765403337791
 30
0.0
 42
0.5450207774093642
  0
VERTEX
  5
1C49
  8
SAPA_PROFIL
 10
-2.3500003735376822
 20
-39.349999999012368
 30
0.0
  0
VERTEX
  5
1C4A
  8
SAPA_PROFIL
 10
-2.7000003735378182
 20
-39.349999999012141
 30
0.0
  0
VERTEX
  5
1C4B
  8
SAPA_PROFIL
 10
-2.0767200692856131
 20
-37.973765403337609
 30
0.0
 42
0.5450207774088696
  0
VERTEX
  5
1C4C
  8
SAPA_PROFIL
 10
-2.3500003735376822
 20
-37.549999999012421
 30
0.0
  0
VERTEX
  5
1C4D
  8
SAPA_PROFIL
 10
-2.7000003735378182
 20
-37.549999999012194
 30
0.0
  0
VERTEX
  5
1C4E
  8
SAPA_PROFIL
 10
-2.0767200692856131
 20
-36.173765403337647
 30
0.0
 42
0.5450207774094402
  0
VERTEX
  5
1C4F
  8
SAPA_PROFIL
 10
-2.3500003735376822
 20
-35.749999999012353
 30
0.0
  0
VERTEX
  5
1C50
  8
SAPA_PROFIL
 10
-2.7000003735378182
 20
-35.749999999012232
 30
0.0
  0
VERTEX
  5
1C51
  8
SAPA_PROFIL
 10
-2.0767200692854431
 20
-34.373765403337927
 30
0.0
 42
0.5450207774093642
  0
VERTEX
  5
1C52
  8
SAPA_PROFIL
 10
-2.3500003735376822
 20
-33.949999999012512
 30
0.0
  0
VERTEX
  5
1C53
  8
SAPA_PROFIL
 10
-2.7000003735378182
 20
-33.949999999012277
 30
0.0
  0
VERTEX
  5
1C54
  8
SAPA_PROFIL
 10
-2.0767200692856131
 20
-32.573765403337752
 30
0.0
 42
0.5450207774088696
  0
VERTEX
  5
1C55
  8
SAPA_PROFIL
 10
-2.3500003735376822
 20
-32.149999999012607
 30
0.0
  0
VERTEX
  5
1C56
  8
SAPA_PROFIL
 10
-2.7000003735378182
 20
-32.149999999011868
 30
0.0
  0
VERTEX
  5
1C57
  8
SAPA_PROFIL
 10
-2.7000003735378182
 20
-30.999999999011781
 30
0.0
 42
-0.4142135623730951
  0
VERTEX
  5
1C58
  8
SAPA_PROFIL
 10
-1.700000373537818
 20
-29.999999999011781
 30
0.0
  0
VERTEX
  5
1C59
  8
SAPA_PROFIL
 10
1.6999996264622721
 20
-29.999999999011781
 30
0.0
 42
-0.4142135623730951
  0
SEQEND
  5
1C5A
  8
SAPA_PROFIL
  0
POLYLINE
  5
195C
  8
SAPA_PROFIL
 66
     1
 10
0.0
 20
0.0
 30
0.0
 70
     1
  0
VERTEX
  5
1C5B
  8
SAPA_PROFIL
 10
-16.700000373538671
 20
-30.000000000001759
 30
0.0
  0
VERTEX
  5
1C5C
  8
SAPA_PROFIL
 10
-23.20000037353833
 20
-30.000000000001759
 30
0.0
 42
0.4142135623732062
  0
VERTEX
  5
1C5D
  8
SAPA_PROFIL
 10
-23.500000373538288
 20
-30.30000000000183
 30
0.0
  0
VERTEX
  5
1C5E
  8
SAPA_PROFIL
 10
-23.500000373538288
 20
-34.20000000000158
 30
0.0
 42
0.4142135623730951
  0
VERTEX
  5
1C5F
  8
SAPA_PROFIL
 10
-23.20000037353833
 20
-34.500000000001542
 30
0.0
  0
VERTEX
  5
1C60
  8
SAPA_PROFIL
 10
-22.000000373538452
 20
-34.500000000001648
 30
0.0
 42
-0.7105995015650612
  0
VERTEX
  5
1C61
  8
SAPA_PROFIL
 10
-21.813616357777619
 20
-35.03507658043651
 30
0.0
  0
VERTEX
  5
1C62
  8
SAPA_PROFIL
 10
-22.127051798357339
 20
-35.283588601450958
 30
0.0
 42
-0.169180745212488
  0
VERTEX
  5
1C63
  8
SAPA_PROFIL
 10
-22.748331850893241
 20
-35.500000000001769
 30
0.0
  0
VERTEX
  5
1C64
  8
SAPA_PROFIL
 10
-24.700000373538501
 20
-35.500000000001648
 30
0.0
 42
-0.4142135623730951
  0
VERTEX
  5
1C65
  8
SAPA_PROFIL
 10
-25.000000373538459
 20
-35.200000000001701
 30
0.0
  0
VERTEX
  5
1C66
  8
SAPA_PROFIL
 10
-25.000000373538121
 20
43.999999999996419
 30
0.0
 42
-0.4142135623730951
  0
VERTEX
  5
1C67
  8
SAPA_PROFIL
 10
-24.500000373538121
 20
44.499999999996419
 30
0.0
  0
VERTEX
  5
1C68
  8
SAPA_PROFIL
 10
24.499999626461889
 20
44.499999999996419
 30
0.0
 42
-0.4142135623730951
  0
VERTEX
  5
1C69
  8
SAPA_PROFIL
 10
24.999999626461889
 20
43.999999999996419
 30
0.0
  0
VERTEX
  5
1C6A
  8
SAPA_PROFIL
 10
24.999999626461999
 20
-35.200000000001808
 30
0.0
 42
-0.4142135623730951
  0
VERTEX
  5
1C6B
  8
SAPA_PROFIL
 10
24.699999626462048
 20
-35.500000000001769
 30
0.0
  0
VERTEX
  5
1C6C
  8
SAPA_PROFIL
 10
22.748331103816948
 20
-35.500000000001769
 30
0.0
 42
-0.1691807452125303
  0
VERTEX
  5
1C6D
  8
SAPA_PROFIL
 10
22.12705105128094
 20
-35.283588601450852
 30
0.0
  0
VERTEX
  5
1C6E
  8
SAPA_PROFIL
 10
21.81361561070128
 20
-35.035076580436403
 30
0.0
 42
-0.7105995015650845
  0
VERTEX
  5
1C6F
  8
SAPA_PROFIL
 10
21.999999626461999
 20
-34.500000000001762
 30
0.0
  0
VERTEX
  5
1C70
  8
SAPA_PROFIL
 10
23.199999626461931
 20
-34.500000000001762
 30
0.0
 42
0.4142135623732061
  0
VERTEX
  5
1C71
  8
SAPA_PROFIL
 10
23.499999626461879
 20
-34.200000000001701
 30
0.0
  0
VERTEX
  5
1C72
  8
SAPA_PROFIL
 10
23.499999626461879
 20
-30.300000000001951
 30
0.0
 42
0.4142135623732061
  0
VERTEX
  5
1C73
  8
SAPA_PROFIL
 10
23.199999626461931
 20
-30.000000000001879
 30
0.0
  0
VERTEX
  5
1C74
  8
SAPA_PROFIL
 10
16.699999626461992
 20
-30.000000000001759
 30
0.0
 42
0.4142135623730951
  0
VERTEX
  5
1C75
  8
SAPA_PROFIL
 10
16.199999626461992
 20
-30.500000000001769
 30
0.0
  0
VERTEX
  5
1C76
  8
SAPA_PROFIL
 10
16.199999626461871
 20
-34.20000000000158
 30
0.0
 42
0.4142135623733172
  0
VERTEX
  5
1C77
  8
SAPA_PROFIL
 10
16.499999626462049
 20
-34.500000000001762
 30
0.0
  0
VERTEX
  5
1C78
  8
SAPA_PROFIL
 10
18.39999962646198
 20
-34.500000000001542
 30
0.0
 42
-0.7105995015650612
  0
VERTEX
  5
1C79
  8
SAPA_PROFIL
 10
18.58638364222281
 20
-35.035076580436403
 30
0.0
  0
VERTEX
  5
1C7A
  8
SAPA_PROFIL
 10
18.27294820164326
 20
-35.283588601450852
 30
0.0
 42
-0.1691807452125303
  0
VERTEX
  5
1C7B
  8
SAPA_PROFIL
 10
17.651668149107248
 20
-35.500000000001769
 30
0.0
  0
VERTEX
  5
1C7C
  8
SAPA_PROFIL
 10
11.29999962646195
 20
-35.500000000001769
 30
0.0
 42
-0.4142135623728731
  0
VERTEX
  5
1C7D
  8
SAPA_PROFIL
 10
10.999999626461999
 20
-35.200000000001808
 30
0.0
  0
VERTEX
  5
1C7E
  8
SAPA_PROFIL
 10
10.99999962646222
 20
-34.500000000001542
 30
0.0
 42
-0.4142135623730951
  0
VERTEX
  5
1C7F
  8
SAPA_PROFIL
 10
11.29999962646218
 20
-34.20000000000158
 30
0.0
  0
VERTEX
  5
1C80
  8
SAPA_PROFIL
 10
14.199999626461761
 20
-34.20000000000158
 30
0.0
 42
0.4142135623730951
  0
VERTEX
  5
1C81
  8
SAPA_PROFIL
 10
14.699999626461761
 20
-33.70000000000158
 30
0.0
  0
VERTEX
  5
1C82
  8
SAPA_PROFIL
 10
14.699999626461979
 20
-30.500000000001769
 30
0.0
 42
0.4142135623731617
  0
VERTEX
  5
1C83
  8
SAPA_PROFIL
 10
14.19999962646199
 20
-30.000000000001759
 30
0.0
  0
VERTEX
  5
1C84
  8
SAPA_PROFIL
 10
5.999999626462567
 20
-30.00000000000199
 30
0.0
 42
0.4142135623730951
  0
VERTEX
  5
1C85
  8
SAPA_PROFIL
 10
4.999999626462567
 20
-31.00000000000199
 30
0.0
  0
VERTEX
  5
1C86
  8
SAPA_PROFIL
 10
4.9999996264623396
 20
-52.199999999011879
 30
0.0
 42
-0.4142135623730951
  0
VERTEX
  5
1C87
  8
SAPA_PROFIL
 10
4.6999996264623292
 20
-52.499999999011891
 30
0.0
  0
VERTEX
  5
1C88
  8
SAPA_PROFIL
 10
3.0750101561756078
 20
-52.499999999011827
 30
0.0
  0
VERTEX
  5
1C89
  8
SAPA_PROFIL
 10
2.21447477739133
 20
-51.535790539647849
 30
0.0
 42
-0.6264792893017398
  0
VERTEX
  5
1C8A
  8
SAPA_PROFIL
 10
2.450020685889398
 20
-51.049999999012421
 30
0.0
  0
VERTEX
  5
1C8B
  8
SAPA_PROFIL
 10
2.6999996264623292
 20
-51.049999999012179
 30
0.0
  0
VERTEX
  5
1C8C
  8
SAPA_PROFIL
 10
2.1767193222102028
 20
-49.673765403337882
 30
0.0
 42
-0.5450207774090681
  0
VERTEX
  5
1C8D
  8
SAPA_PROFIL
 10
2.4499996264623292
 20
-49.249999999012353
 30
0.0
  0
VERTEX
  5
1C8E
  8
SAPA_PROFIL
 10
2.6999996264622719
 20
-49.249999999012232
 30
0.0
  0
VERTEX
  5
1C8F
  8
SAPA_PROFIL
 10
2.1767193222103169
 20
-47.87376540333792
 30
0.0
 42
-0.545020777409516
  0
VERTEX
  5
1C90
  8
SAPA_PROFIL
 10
2.4499996264623292
 20
-47.44999999901227
 30
0.0
  0
VERTEX
  5
1C91
  8
SAPA_PROFIL
 10
2.6999996264622719
 20
-47.44999999901227
 30
0.0
  0
VERTEX
  5
1C92
  8
SAPA_PROFIL
 10
2.1767193222102028
 20
-46.073765403337617
 30
0.0
 42
-0.5450207774091295
  0
VERTEX
  5
1C93
  8
SAPA_PROFIL
 10
2.4499996264623292
 20
-45.64999999901238
 30
0.0
  0
VERTEX
  5
1C94
  8
SAPA_PROFIL
 10
2.6999996264622719
 20
-45.649999999012323
 30
0.0
  0
VERTEX
  5
1C95
  8
SAPA_PROFIL
 10
2.1767193222103169
 20
-44.273765403337791
 30
0.0
 42
-0.545020777409516
  0
VERTEX
  5
1C96
  8
SAPA_PROFIL
 10
2.4499996264623292
 20
-43.849999999012127
 30
0.0
  0
VERTEX
  5
1C97
  8
SAPA_PROFIL
 10
2.6999996264622719
 20
-43.849999999012127
 30
0.0
  0
VERTEX
  5
1C98
  8
SAPA_PROFIL
 10
2.446046474292018
 20
-43.182570825615642
 30
0.0
 42
0.3492695052203141
  0
VERTEX
  5
1C99
  8
SAPA_PROFIL
 10
2.1537224989238548
 20
-42.949999999012221
 30
0.0
  0
VERTEX
  5
1C9A
  8
SAPA_PROFIL
 10
1.2649106905294041
 20
-42.949999999012221
 30
0.0
 42
-0.3475404855924057
  0
VERTEX
  5
1C9B
  8
SAPA_PROFIL
 10
0.9730081372830454
 20
-42.71923076824293
 30
0.0
 42
0.7905694150422074
  0
VERTEX
  5
1C9C
  8
SAPA_PROFIL
 10
-0.973008884359956
 20
-42.719230768243101
 30
0.0
 42
-0.3475404855923888
  0
VERTEX
  5
1C9D
  8
SAPA_PROFIL
 10
-1.2649114376071671
 20
-42.949999999012221
 30
0.0
  0
VERTEX
  5
1C9E
  8
SAPA_PROFIL
 10
-1.8767200692856809
 20
-42.9499999990121
 30
0.0
 42
0.4142135623730951
  0
VERTEX
  5
1C9F
  8
SAPA_PROFIL
 10
-2.1767200692856932
 20
-43.249999999012111
 30
0.0
  0
VERTEX
  5
1CA0
  8
SAPA_PROFIL
 10
-2.1767200692856359
 20
-43.3737654033377
 30
0.0
  0
VERTEX
  5
1CA1
  8
SAPA_PROFIL
 10
-2.7000003735378182
 20
-44.749999999012232
 30
0.0
  0
VERTEX
  5
1CA2
  8
SAPA_PROFIL
 10
-2.4500003735376481
 20
-44.749999999012452
 30
0.0
 42
-0.5450207774088696
  0
VERTEX
  5
1CA3
  8
SAPA_PROFIL
 10
-2.176720069285579
 20
-45.173765403337647
 30
0.0
  0
VERTEX
  5
1CA4
  8
SAPA_PROFIL
 10
-2.7000003735378182
 20
-46.549999999012179
 30
0.0
  0
VERTEX
  5
1CA5
  8
SAPA_PROFIL
 10
-2.4500003735376481
 20
-46.549999999012407
 30
0.0
 42
-0.5450207774091855
  0
VERTEX
  5
1CA6
  8
SAPA_PROFIL
 10
-2.1767200692855222
 20
-46.973765403337772
 30
0.0
  0
VERTEX
  5
1CA7
  8
SAPA_PROFIL
 10
-2.7000003735378182
 20
-48.349999999012141
 30
0.0
  0
VERTEX
  5
1CA8
  8
SAPA_PROFIL
 10
-2.4500003735376481
 20
-48.349999999012141
 30
0.0
 42
-0.5450207774093374
  0
VERTEX
  5
1CA9
  8
SAPA_PROFIL
 10
-2.17672006928575
 20
-48.773765403337741
 30
0.0
  0
VERTEX
  5
1CAA
  8
SAPA_PROFIL
 10
-2.7000003735378182
 20
-50.149999999012323
 30
0.0
  0
VERTEX
  5
1CAB
  8
SAPA_PROFIL
 10
-2.1499793141106229
 20
-50.149999999011918
 30
0.0
  0
VERTEX
  5
1CAC
  8
SAPA_PROFIL
 10
-2.1499793141105661
 20
-51.347075010161461
 30
0.0
 42
-0.1681572645226206
  0
VERTEX
  5
1CAD
  8
SAPA_PROFIL
 10
-2.2141626638721159
 20
-51.532521788160693
 30
0.0
  0
VERTEX
  5
1CAE
  8
SAPA_PROFIL
 10
-3.074989843824369
 20
-52.49999999901177
 30
0.0
  0
VERTEX
  5
1CAF
  8
SAPA_PROFIL
 10
-4.7000003735403189
 20
-52.499999999011827
 30
0.0
 42
-0.4142135623730951
  0
VERTEX
  5
1CB0
  8
SAPA_PROFIL
 10
-5.0000003735403311
 20
-52.199999999011823
 30
0.0
  0
VERTEX
  5
1CB1
  8
SAPA_PROFIL
 10
-5.0000003735401597
 20
-31.000000000001879
 30
0.0
 42
0.4142135623730951
  0
VERTEX
  5
1CB2
  8
SAPA_PROFIL
 10
-6.0000003735401597
 20
-30.000000000001879
 30
0.0
  0
VERTEX
  5
1CB3
  8
SAPA_PROFIL
 10
-14.200000373538559
 20
-30.000000000001759
 30
0.0
 42
0.4142135623730951
  0
VERTEX
  5
1CB4
  8
SAPA_PROFIL
 10
-14.70000037353855
 20
-30.500000000001769
 30
0.0
  0
VERTEX
  5
1CB5
  8
SAPA_PROFIL
 10
-14.70000037353855
 20
-33.700000000001808
 30
0.0
 42
0.4142135623730951
  0
VERTEX
  5
1CB6
  8
SAPA_PROFIL
 10
-14.200000373538559
 20
-34.200000000001808
 30
0.0
  0
VERTEX
  5
1CB7
  8
SAPA_PROFIL
 10
-11.30000037353863
 20
-34.20000000000158
 30
0.0
 42
-0.4142135623730951
  0
VERTEX
  5
1CB8
  8
SAPA_PROFIL
 10
-11.000000373538681
 20
-34.500000000001542
 30
0.0
  0
VERTEX
  5
1CB9
  8
SAPA_PROFIL
 10
-11.000000373538571
 20
-35.200000000001701
 30
0.0
 42
-0.4142135623730951
  0
VERTEX
  5
1CBA
  8
SAPA_PROFIL
 10
-11.30000037353841
 20
-35.500000000001769
 30
0.0
  0
VERTEX
  5
1CBB
  8
SAPA_PROFIL
 10
-17.6516688961837
 20
-35.500000000001648
 30
0.0
 42
-0.1691807452124953
  0
VERTEX
  5
1CBC
  8
SAPA_PROFIL
 10
-18.272948948719598
 20
-35.283588601450788
 30
0.0
  0
VERTEX
  5
1CBD
  8
SAPA_PROFIL
 10
-18.586384389299269
 20
-35.035076580436403
 30
0.0
 42
-0.7105995015650612
  0
VERTEX
  5
1CBE
  8
SAPA_PROFIL
 10
-18.400000373538429
 20
-34.500000000001542
 30
0.0
  0
VERTEX
  5
1CBF
  8
SAPA_PROFIL
 10
-16.500000373538619
 20
-34.500000000001762
 30
0.0
 42
0.4142135623732061
  0
VERTEX
  5
1CC0
  8
SAPA_PROFIL
 10
-16.200000373538561
 20
-34.20000000000158
 30
0.0
  0
VERTEX
  5
1CC1
  8
SAPA_PROFIL
 10
-16.200000373538671
 20
-30.500000000001769
 30
0.0
 42
0.4142135623730951
  0
SEQEND
  5
1CC2
  8
SAPA_PROFIL
  0
LINE
  5
195D
  8
SAPA_PROFIL
 62
     0
 10
26.686989234307649
 20
40.915787332143452
 30
0.0
 11
27.17113638536242
 21
40.431640181088703
 31
0.0
  0
LINE
  5
195E
  8
SAPA_PROFIL
 62
     0
 10
24.999999626461999
 20
40.835009987022772
 30
0.0
 11
27.17113638536242
 21
38.663873228122327
 31
0.0
  0
LINE
  5
195F
  8
SAPA_PROFIL
 62
     0
 10
24.999999626461999
 20
39.067243034056389
 30
0.0
 11
27.17113638536242
 21
36.896106275155951
 31
0.0
  0
LINE
  5
1960
  8
SAPA_PROFIL
 62
     0
 10
24.999999626461999
 20
37.299476081090013
 30
0.0
 11
27.17113638536242
 21
35.128339322189618
 31
0.0
  0
LINE
  5
1961
  8
SAPA_PROFIL
 62
     0
 10
24.999999626461999
 20
35.531709128123623
 30
0.0
 11
27.17113638536242
 21
33.360572369223242
 31
0.0
  0
LINE
  5
1962
  8
SAPA_PROFIL
 62
     0
 10
24.999999626461999
 20
26.692874363291821
 30
0.0
 11
25.733806552257651
 21
25.959067437496181
 31
0.0
  0
LINE
  5
1963
  8
SAPA_PROFIL
 62
     0
 10
24.999999626461999
 20
28.460641316258151
 30
0.0
 11
27.17113638536242
 21
26.289504557357759
 31
0.0
  0
LINE
  5
1964
  8
SAPA_PROFIL
 62
     0
 10
24.999999626461999
 20
30.228408269224531
 30
0.0
 11
27.17113638536242
 21
28.057271510324139
 31
0.0
  0
LINE
  5
1965
  8
SAPA_PROFIL
 62
     0
 10
24.999999626461999
 20
31.99617522219091
 30
0.0
 11
27.17113638536242
 21
29.825038463290468
 31
0.0
  0
LINE
  5
1966
  8
SAPA_PROFIL
 62
     0
 10
24.999999626461999
 20
33.763942175157297
 30
0.0
 11
27.17113638536242
 21
31.592805416256851
 31
0.0
  0
LINE
  5
1967
  8
SAPA_PROFIL
 62
     0
 10
24.999999626461999
 20
39.686724705615688
 30
0.0
 11
26.22906225298982
 21
40.915787332143452
 31
0.0
  0
LINE
  5
1968
  8
SAPA_PROFIL
 62
     0
 10
24.999999626461999
 20
37.918957752649312
 30
0.0
 11
27.17113638536242
 21
40.090094511549751
 31
0.0
  0
LINE
  5
1969
  8
SAPA_PROFIL
 62
     0
 10
24.999999626461999
 20
36.151190799682922
 30
0.0
 11
27.17113638536242
 21
38.322327558583368
 31
0.0
  0
LINE
  5
196A
  8
SAPA_PROFIL
 62
     0
 10
24.999999626461999
 20
34.383423846716603
 30
0.0
 11
27.17113638536242
 21
36.554560605616992
 31
0.0
  0
LINE
  5
196B
  8
SAPA_PROFIL
 62
     0
 10
24.999999626461999
 20
32.61565689375022
 30
0.0
 11
27.17113638536242
 21
34.786793652650601
 31
0.0
  0
LINE
  5
196C
  8
SAPA_PROFIL
 62
     0
 10
25.414477982073471
 20
25.959067437496181
 30
0.0
 11
27.17113638536242
 21
27.715725840785129
 31
0.0
  0
LINE
  5
196D
  8
SAPA_PROFIL
 62
     0
 10
24.999999626461999
 20
27.312356034851121
 30
0.0
 11
27.17113638536242
 21
29.483492793751509
 31
0.0
  0
LINE
  5
196E
  8
SAPA_PROFIL
 62
     0
 10
24.999999626461999
 20
29.08012298781745
 30
0.0
 11
27.17113638536242
 21
31.251259746717889
 31
0.0
  0
LINE
  5
196F
  8
SAPA_PROFIL
 62
     0
 10
24.999999626461999
 20
30.84788994078383
 30
0.0
 11
27.17113638536242
 21
33.019026699684268
 31
0.0
  0
LINE
  5
1970
  8
SAPA_PROFIL
 62
     0
 10
41.091835629744807
 20
42.307694948681842
 30
0.0
 11
42.359709505869773
 21
41.039821072556947
 31
0.0
  0
LINE
  5
1971
  8
SAPA_PROFIL
 62
     0
 10
39.324068676778438
 20
42.307694948681842
 30
0.0
 11
40.674998215649786
 21
40.95676540981048
 31
0.0
  0
LINE
  5
1972
  8
SAPA_PROFIL
 62
     0
 10
37.556301723812112
 20
42.307694948681842
 30
0.0
 11
38.907231262683467
 21
40.95676540981048
 31
0.0
  0
LINE
  5
1973
  8
SAPA_PROFIL
 62
     0
 10
35.7885347708457
 20
42.307694948681842
 30
0.0
 11
37.139464309717077
 21
40.95676540981048
 31
0.0
  0
LINE
  5
1974
  8
SAPA_PROFIL
 62
     0
 10
29.27150478920851
 20
41.753657118453582
 30
0.0
 11
30.06839649785158
 21
40.95676540981048
 31
0.0
  0
LINE
  5
1975
  8
SAPA_PROFIL
 62
     0
 10
30.48523391194658
 20
42.307694948681842
 30
0.0
 11
31.836163450817939
 21
40.95676540981048
 31
0.0
  0
LINE
  5
1976
  8
SAPA_PROFIL
 62
     0
 10
32.25300086491297
 20
42.307694948681842
 30
0.0
 11
33.603930403784318
 21
40.95676540981048
 31
0.0
  0
LINE
  5
1977
  8
SAPA_PROFIL
 62
     0
 10
34.020767817879317
 20
42.307694948681842
 30
0.0
 11
35.371697356750673
 21
40.95676540981048
 31
0.0
  0
LINE
  5
1978
  8
SAPA_PROFIL
 62
     0
 10
29.803459450658039
 20
40.95676540981048
 30
0.0
 11
31.15438898952937
 21
42.307694948681842
 31
0.0
  0
LINE
  5
1979
  8
SAPA_PROFIL
 62
     0
 10
31.571226403624401
 20
40.95676540981048
 30
0.0
 11
32.922155942495749
 21
42.307694948681842
 31
0.0
  0
LINE
  5
197A
  8
SAPA_PROFIL
 62
     0
 10
33.338993356590777
 20
40.95676540981048
 30
0.0
 11
34.689922895462111
 21
42.307694948681842
 31
0.0
  0
LINE
  5
197B
  8
SAPA_PROFIL
 62
     0
 10
42.177828121422628
 20
40.95676540981048
 30
0.0
 11
42.359709505869773
 21
41.138646794257618
 31
0.0
  0
LINE
  5
197C
  8
SAPA_PROFIL
 62
     0
 10
40.410061168456252
 20
40.95676540981048
 30
0.0
 11
41.760990707327601
 21
42.307694948681842
 31
0.0
  0
LINE
  5
197D
  8
SAPA_PROFIL
 62
     0
 10
38.642294215489933
 20
40.95676540981048
 30
0.0
 11
39.993223754361217
 21
42.307694948681842
 31
0.0
  0
LINE
  5
197E
  8
SAPA_PROFIL
 62
     0
 10
36.87452726252355
 20
40.95676540981048
 30
0.0
 11
38.225456801394898
 21
42.307694948681842
 31
0.0
  0
LINE
  5
197F
  8
SAPA_PROFIL
 62
     0
 10
35.106760309557131
 20
40.95676540981048
 30
0.0
 11
36.457689848428522
 21
42.307694948681842
 31
0.0
  0
LINE
  5
1980
  8
SAPA_PROFIL
 62
     0
 10
-26.686989981383821
 20
40.915787332143502
 30
0.0
 11
-27.171137132438592
 21
40.431640181088767
 31
0.0
  0
LINE
  5
1981
  8
SAPA_PROFIL
 62
     0
 10
-25.000000373538171
 20
40.835009987022829
 30
0.0
 11
-27.171137132438592
 21
38.663873228122391
 31
0.0
  0
LINE
  5
1982
  8
SAPA_PROFIL
 62
     0
 10
-25.000000373538171
 20
39.067243034056453
 30
0.0
 11
-27.171137132438592
 21
36.896106275156001
 31
0.0
  0
LINE
  5
1983
  8
SAPA_PROFIL
 62
     0
 10
-25.000000373538171
 20
37.299476081090063
 30
0.0
 11
-27.171137132438592
 21
35.128339322189667
 31
0.0
  0
LINE
  5
1984
  8
SAPA_PROFIL
 62
     0
 10
-25.000000373538171
 20
35.53170912812368
 30
0.0
 11
-27.171137132438592
 21
33.360572369223291
 31
0.0
  0
LINE
  5
1985
  8
SAPA_PROFIL
 62
     0
 10
-25.000000373538171
 20
26.692874363291882
 30
0.0
 11
-25.733807299333819
 21
25.95906743749623
 31
0.0
  0
LINE
  5
1986
  8
SAPA_PROFIL
 62
     0
 10
-25.000000373538171
 20
28.460641316258211
 30
0.0
 11
-27.171137132438592
 21
26.289504557357819
 31
0.0
  0
LINE
  5
1987
  8
SAPA_PROFIL
 62
     0
 10
-25.000000373538171
 20
30.228408269224591
 30
0.0
 11
-27.171137132438592
 21
28.057271510324199
 31
0.0
  0
LINE
  5
1988
  8
SAPA_PROFIL
 62
     0
 10
-25.000000373538171
 20
31.996175222190971
 30
0.0
 11
-27.171137132438592
 21
29.825038463290522
 31
0.0
  0
LINE
  5
1989
  8
SAPA_PROFIL
 62
     0
 10
-25.000000373538171
 20
33.763942175157347
 30
0.0
 11
-27.171137132438592
 21
31.592805416256908
 31
0.0
  0
LINE
  5
198A
  8
SAPA_PROFIL
 62
     0
 10
-25.000000373538171
 20
39.686724705615752
 30
0.0
 11
-26.229063000065992
 21
40.915787332143502
 31
0.0
  0
LINE
  5
198B
  8
SAPA_PROFIL
 62
     0
 10
-25.000000373538171
 20
37.918957752649362
 30
0.0
 11
-27.171137132438592
 21
40.0900945115498
 31
0.0
  0
LINE
  5
198C
  8
SAPA_PROFIL
 62
     0
 10
-25.000000373538171
 20
36.151190799682979
 30
0.0
 11
-27.171137132438592
 21
38.322327558583417
 31
0.0
  0
LINE
  5
198D
  8
SAPA_PROFIL
 62
     0
 10
-25.000000373538171
 20
34.38342384671666
 30
0.0
 11
-27.171137132438592
 21
36.554560605617041
 31
0.0
  0
LINE
  5
198E
  8
SAPA_PROFIL
 62
     0
 10
-25.000000373538171
 20
32.61565689375027
 30
0.0
 11
-27.171137132438592
 21
34.786793652650658
 31
0.0
  0
LINE
  5
198F
  8
SAPA_PROFIL
 62
     0
 10
-25.414478729149639
 20
25.95906743749623
 30
0.0
 11
-27.171137132438592
 21
27.715725840785179
 31
0.0
  0
LINE
  5
1990
  8
SAPA_PROFIL
 62
     0
 10
-25.000000373538171
 20
27.312356034851181
 30
0.0
 11
-27.171137132438592
 21
29.483492793751569
 31
0.0
  0
LINE
  5
1991
  8
SAPA_PROFIL
 62
     0
 10
-25.000000373538171
 20
29.080122987817511
 30
0.0
 11
-27.171137132438592
 21
31.251259746717949
 31
0.0
  0
LINE
  5
1992
  8
SAPA_PROFIL
 62
     0
 10
-25.000000373538171
 20
30.84788994078389
 30
0.0
 11
-27.171137132438592
 21
33.019026699684332
 31
0.0
  0
LINE
  5
1993
  8
SAPA_PROFIL
 62
     0
 10
-41.091836376820957
 20
42.307694948681899
 30
0.0
 11
-42.359710252945909
 21
41.039821072556997
 31
0.0
  0
LINE
  5
1994
  8
SAPA_PROFIL
 62
     0
 10
-39.324069423854581
 20
42.307694948681899
 30
0.0
 11
-40.67499896272593
 21
40.956765409810536
 31
0.0
  0
LINE
  5
1995
  8
SAPA_PROFIL
 62
     0
 10
-37.556302470888262
 20
42.307694948681899
 30
0.0
 11
-38.90723200975961
 21
40.956765409810536
 31
0.0
  0
LINE
  5
1996
  8
SAPA_PROFIL
 62
     0
 10
-35.788535517921879
 20
42.307694948681899
 30
0.0
 11
-37.139465056793227
 21
40.956765409810536
 31
0.0
  0
LINE
  5
1997
  8
SAPA_PROFIL
 62
     0
 10
-29.271505536284678
 20
41.753657118453653
 30
0.0
 11
-30.068397244927748
 21
40.956765409810536
 31
0.0
  0
LINE
  5
1998
  8
SAPA_PROFIL
 62
     0
 10
-30.485234659022751
 20
42.307694948681899
 30
0.0
 11
-31.83616419789411
 21
40.956765409810536
 31
0.0
  0
LINE
  5
1999
  8
SAPA_PROFIL
 62
     0
 10
-32.253001611989141
 20
42.307694948681899
 30
0.0
 11
-33.60393115086049
 21
40.956765409810536
 31
0.0
  0
LINE
  5
199A
  8
SAPA_PROFIL
 62
     0
 10
-34.020768564955489
 20
42.307694948681899
 30
0.0
 11
-35.371698103826837
 21
40.956765409810536
 31
0.0
  0
LINE
  5
199B
  8
SAPA_PROFIL
 62
     0
 10
-29.803460197734211
 20
40.956765409810536
 30
0.0
 11
-31.154389736605541
 21
42.307694948681899
 31
0.0
  0
LINE
  5
199C
  8
SAPA_PROFIL
 62
     0
 10
-31.571227150700569
 20
40.956765409810536
 30
0.0
 11
-32.922156689571921
 21
42.307694948681899
 31
0.0
  0
LINE
  5
199D
  8
SAPA_PROFIL
 62
     0
 10
-33.338994103666948
 20
40.956765409810536
 30
0.0
 11
-34.689923642538282
 21
42.307694948681899
 31
0.0
  0
LINE
  5
199E
  8
SAPA_PROFIL
 62
     0
 10
-42.177828868498771
 20
40.956765409810536
 30
0.0
 11
-42.359710252945909
 21
41.138646794257681
 31
0.0
  0
LINE
  5
199F
  8
SAPA_PROFIL
 62
     0
 10
-40.410061915532388
 20
40.956765409810536
 30
0.0
 11
-41.760991454403751
 21
42.307694948681899
 31
0.0
  0
LINE
  5
19A0
  8
SAPA_PROFIL
 62
     0
 10
-38.642294962566069
 20
40.956765409810536
 30
0.0
 11
-39.993224501437368
 21
42.307694948681899
 31
0.0
  0
LINE
  5
19A1
  8
SAPA_PROFIL
 62
     0
 10
-36.874528009599693
 20
40.956765409810536
 30
0.0
 11
-38.225457548471041
 21
42.307694948681899
 31
0.0
  0
LINE
  5
19A2
  8
SAPA_PROFIL
 62
     0
 10
-35.10676105663331
 20
40.956765409810536
 30
0.0
 11
-36.457690595504658
 21
42.307694948681899
 31
0.0
  0
ARC
  5
19A3
  8
SAPA_PROFIL
 10
-0.0000003735417806
 20
-31.577137293193928
 30
0.0
 40
52.457142857141569
 50
261.05599162060639
 51
278.94400837939361
  0
LINE
  5
19A4
  8
SAPA_PROFIL
 10
8.1554688102450825
 20
-83.396440251906739
 30
0.0
 11
10.999999626460459
 21
-82.653051271135467
 31
0.0
  0
ARC
  5
19A5
  8
SAPA_PROFIL
 10
0.0152337121638748
 20
-212.48226430724671
 30
0.0
 40
121.97788989522159
 50
84.833206606892333
 51
95.166793393107667
  0
LINE
  5
19A6
  8
SAPA_PROFIL
 10
-8.1307922994614383
 20
-83.303857127465037
 30
0.0
 11
-10.98476628783658
 21
-82.700000000481324
 31
0.0
  0
LINE
  5
19A7
  8
SAPA_PROFIL
 10
-28.690616181742602
 20
31.139354961376409
 30
0.0
 11
-60.947767924945254
 21
31.139354961376419
 31
0.0
  0
LINE
  5
19A8
  8
SAPA_PROFIL
 10
-28.748247857069259
 20
30.38114633617591
 30
0.0
 11
-60.947767924945254
 21
30.38114633617587
 31
0.0
  0
LINE
  5
19A9
  8
SAPA_PROFIL
 10
-28.748247857069259
 20
29.681146336175871
 30
0.0
 11
-60.947767924945254
 21
29.681146336175821
 31
0.0
  0
LINE
  5
19AA
  8
SAPA_PROFIL
 10
-28.813308806126319
 20
40.914793209846728
 30
0.0
 11
-60.947767924945254
 21
40.914793209846799
 31
0.0
  0
LINE
  5
19AB
  8
SAPA_PROFIL
 10
28.69061543466637
 20
31.139354961376402
 30
0.0
 11
60.947767177869032
 21
31.139354961376402
 31
0.0
  0
LINE
  5
19AC
  8
SAPA_PROFIL
 10
28.748247109993031
 20
30.38114633617591
 30
0.0
 11
60.947767177869032
 21
30.381146336175849
 31
0.0
  0
LINE
  5
19AD
  8
SAPA_PROFIL
 10
28.748247109993031
 20
29.681146336175861
 30
0.0
 11
60.947767177869032
 21
29.6811463361758
 31
0.0
  0
LINE
  5
19AE
  8
SAPA_PROFIL
 10
28.81330805905009
 20
40.914793209846721
 30
0.0
 11
60.947767177869032
 21
40.914793209846771
 31
0.0
  0
INSERT
  5
19D8
  8
SAPA_FYLLNING
  6
CONTINUOUS
  2
*X54
 10
0.0
 20
0.0
 30
0.0
1001
GRADIENTCOLOR1ACI
1070
     5
1001
GRADIENTCOLOR2ACI
1070
     2
1001
ACAD
1000
HATCH
1002
{
1070
    19
1000
ANSI37
1040
0.25
1040
0.0
1000
R14_HATCH_DATA
1000
19D8
1011
1.0
1021
0.0
1031
0.0
1021
0.0
1031
0.0
1011
0.0
1021
0.0
1031
0.0
1021
1.0
1031
0.0
1011
0.0
1021
0.0
1031
0.0
1021
0.0
1031
1.0
1040
0.0
1010
0.0
1020
0.0
1030
1.0
1000
ANSI37
1070
     0
1070
     0
1071
        1
1071
        7
1070
     1
1070
     1
1071
       15
1040
10.999999626457299
1040
-91.000000000480583
1040
0.0
1040
10.999999626457299
1040
-85.000000000480611
1040
0.0
1040
10.999999626457299
1040
-83.000000000480611
1040
0.0
1040
11.315233712164369
1040
-83.000000000481293
1040
-0.4142135623731464
1040
11.01523371216444
1040
-82.70000000048131
1040
0.0
1040
8.2852482119503712
1040
-83.281470984041533
1040
-0.0268843571803847
1040
8.1801460681121192
1040
-83.303857127465065
1040
-0.0390904955897611
1040
0.0152337121346649
1040
-83.941696175928513
1040
-0.0390904955894823
1040
-8.1496786437843713
1040
-83.303857127465051
1040
-0.038828991868198
1040
-8.3005443074767751
1040
-83.267940205910236
1040
0.0
1040
-10.984766287836459
1040
-82.700000000481367
1040
-0.4142135623729894
1040
-11.284766287836391
1040
-83.00000000048118
1040
0.0
1040
-10.96953220212955
1040
-83.000000000480611
1040
0.0
1040
-10.96953220212955
1040
-85.000000000480611
1040
0.0
1040
-10.96953220212955
1040
-91.000000000480625
1040
-0.0451193582387197
1071
        0
1070
     1
1070
     1
1040
0.0
1040
0.25
1070
     0
1070
     2
1040
0.7853981633974483
1040
0.0152337121638748
1040
7.5000000015306219
1040
-0.5612660075668221
1040
0.5612660075668221
1070
     0
1040
2.3561944901923439
1040
0.0152337121638748
1040
7.5000000015306219
1040
-0.5612660075668221
1040
-0.5612660075668221
1070
     0
1040
0.0126757159549929
1071
        1
1040
-3.0693695273463399
1040
-87.922582867369144
1040
0.0
1002
}
  0
POLYLINE
  5
19E0
  8
SAPA_ISOLATOR
 66
     1
 10
0.0
 20
0.0
 30
0.0
 70
     1
  0
VERTEX
  5
1D7B
  8
SAPA_ISOLATOR
 10
-3.5000003735391938
 20
-53.699999999999527
 30
0.0
  0
VERTEX
  5
1D7C
  8
SAPA_ISOLATOR
 10
-2.6029444722293529
 20
-53.699999999999527
 30
0.0
  0
VERTEX
  5
1D7D
  8
SAPA_ISOLATOR
 10
-1.100000373537966
 20
-52.19705590130814
 30
0.0
  0
VERTEX
  5
1D7E
  8
SAPA_ISOLATOR
 10
-1.1000003735381929
 20
-46.478136728427842
 30
0.0
 42
-0.0502608893789828
  0
VERTEX
  5
1D7F
  8
SAPA_ISOLATOR
 10
-0.4230780958834544
 20
-45.495019712916417
 30
0.0
 42
-0.460955221230658
  0
VERTEX
  5
1D80
  8
SAPA_ISOLATOR
 10
0.4230766017288375
 20
-45.495019712917099
 30
0.0
 42
-0.0502609546985642
  0
VERTEX
  5
1D81
  8
SAPA_ISOLATOR
 10
1.099999626462079
 20
-46.478138087674488
 30
0.0
  0
VERTEX
  5
1D82
  8
SAPA_ISOLATOR
 10
1.099999626462079
 20
-52.197056648386649
 30
0.0
  0
VERTEX
  5
1D83
  8
SAPA_ISOLATOR
 10
2.602942978074736
 20
-53.699999999999761
 30
0.0
  0
VERTEX
  5
1D84
  8
SAPA_ISOLATOR
 10
3.4999996264608049
 20
-53.699999999999761
 30
0.0
 42
-0.4142135623728733
  0
VERTEX
  5
1D85
  8
SAPA_ISOLATOR
 10
3.7999996264607598
 20
-53.999999999999709
 30
0.0
  0
VERTEX
  5
1D86
  8
SAPA_ISOLATOR
 10
3.799999626461783
 20
-61.099999999999682
 30
0.0
 42
-0.4142135623731387
  0
VERTEX
  5
1D87
  8
SAPA_ISOLATOR
 10
3.299999626461783
 20
-61.599999999999739
 30
0.0
  0
VERTEX
  5
1D88
  8
SAPA_ISOLATOR
 10
-3.300000373538011
 20
-61.599999999999788
 30
0.0
 42
-0.4142135623730469
  0
VERTEX
  5
1D89
  8
SAPA_ISOLATOR
 10
-3.800000373538011
 20
-61.099999999999852
 30
0.0
  0
VERTEX
  5
1D8A
  8
SAPA_ISOLATOR
 10
-3.8000003735391479
 20
-53.999999999999709
 30
0.0
 42
-0.4142135623733169
  0
SEQEND
  5
1D8B
  8
SAPA_ISOLATOR
  0
POLYLINE
  5
19E1
  8
SAPA_ISOLATOR
 66
     1
 10
0.0
 20
0.0
 30
0.0
 70
     1
  0
VERTEX
  5
1D8C
  8
SAPA_ISOLATOR
 10
-6.8000003735366468
 20
-71.499999999997783
 30
0.0
 42
-0.4142135623731284
  0
VERTEX
  5
1D8D
  8
SAPA_ISOLATOR
 10
-6.3000003735366468
 20
-70.999999999997655
 30
0.0
  0
VERTEX
  5
1D8E
  8
SAPA_ISOLATOR
 10
-5.5000003735391942
 20
-70.999999999997655
 30
0.0
 42
0.4142135623730951
  0
VERTEX
  5
1D8F
  8
SAPA_ISOLATOR
 10
-5.0000003735391942
 20
-70.499999999997669
 30
0.0
  0
VERTEX
  5
1D90
  8
SAPA_ISOLATOR
 10
-5.000000373538966
 20
-52.999999999999723
 30
0.0
 42
-0.4142135623730951
  0
VERTEX
  5
1D91
  8
SAPA_ISOLATOR
 10
-4.500000373538966
 20
-52.499999999999709
 30
0.0
  0
VERTEX
  5
1D92
  8
SAPA_ISOLATOR
 10
-3.1000007470772171
 20
-52.499999999999709
 30
0.0
  0
VERTEX
  5
1D93
  8
SAPA_ISOLATOR
 10
-2.3000003735377841
 20
-51.699999626460283
 30
0.0
  0
VERTEX
  5
1D94
  8
SAPA_ISOLATOR
 10
-2.3000003735396031
 20
-47.241778772772982
 30
0.0
 42
-0.0970774689087859
  0
VERTEX
  5
1D95
  8
SAPA_ISOLATOR
 10
-1.0313590792672469
 20
-44.97541000818245
 30
0.0
 42
-0.4609552212306134
  0
VERTEX
  5
1D96
  8
SAPA_ISOLATOR
 10
1.0313575851125161
 20
-44.97541000818233
 30
0.0
 42
-0.0970775585520922
  0
VERTEX
  5
1D97
  8
SAPA_ISOLATOR
 10
2.2999996264621241
 20
-47.24178105183563
 30
0.0
  0
VERTEX
  5
1D98
  8
SAPA_ISOLATOR
 10
2.2999996264621241
 20
-51.70000037353924
 30
0.0
  0
VERTEX
  5
1D99
  8
SAPA_ISOLATOR
 10
3.0999992529223732
 20
-52.499999999999709
 30
0.0
  0
VERTEX
  5
1D9A
  8
SAPA_ISOLATOR
 10
4.4999996264605784
 20
-52.499999999999709
 30
0.0
 42
-0.4142135623730951
  0
VERTEX
  5
1D9B
  8
SAPA_ISOLATOR
 10
4.9999996264605784
 20
-52.999999999999723
 30
0.0
  0
VERTEX
  5
1D9C
  8
SAPA_ISOLATOR
 10
4.9999996264658071
 20
-70.499999999997669
 30
0.0
 42
0.4142135623730951
  0
VERTEX
  5
1D9D
  8
SAPA_ISOLATOR
 10
5.4999996264658071
 20
-70.999999999997655
 30
0.0
  0
VERTEX
  5
1D9E
  8
SAPA_ISOLATOR
 10
6.2999996264632614
 20
-70.999999999997655
 30
0.0
 42
-0.4142135623731617
  0
VERTEX
  5
1D9F
  8
SAPA_ISOLATOR
 10
6.7999996264632037
 20
-71.499999999998238
 30
0.0
  0
VERTEX
  5
1DA0
  8
SAPA_ISOLATOR
 10
6.799999626463431
 20
-80.299999999998192
 30
0.0
 42
-0.4142135623730951
  0
VERTEX
  5
1DA1
  8
SAPA_ISOLATOR
 10
5.7999996264634879
 20
-81.299999999998192
 30
0.0
  0
VERTEX
  5
1DA2
  8
SAPA_ISOLATOR
 10
5.0873716231131416
 20
-81.299999999998192
 30
0.0
 42
-0.221694662643068
  0
VERTEX
  5
1DA3
  8
SAPA_ISOLATOR
 10
4.8575582901774501
 20
-81.192836282904025
 30
0.0
  0
VERTEX
  5
1DA4
  8
SAPA_ISOLATOR
 10
4.2695332425819847
 20
-80.492055319896792
 30
0.0
 42
-0.6358782360467221
  0
VERTEX
  5
1DA5
  8
SAPA_ISOLATOR
 10
4.4999996264626239
 20
-79.999999999998238
 30
0.0
  0
VERTEX
  5
1DA6
  8
SAPA_ISOLATOR
 10
5.2999996264634879
 20
-79.99999999999801
 30
0.0
 42
0.4142135623730951
  0
VERTEX
  5
1DA7
  8
SAPA_ISOLATOR
 10
5.599999626463215
 20
-79.699999999997829
 30
0.0
  0
VERTEX
  5
1DA8
  8
SAPA_ISOLATOR
 10
5.5999996264634433
 20
-72.499999999998238
 30
0.0
 42
0.9995465490080238
  0
VERTEX
  5
1DA9
  8
SAPA_ISOLATOR
 10
4.9993419207815464
 20
-72.49999999999801
 30
0.0
  0
VERTEX
  5
1DAA
  8
SAPA_ISOLATOR
 10
0.8660250302473855
 20
-72.499999999997726
 30
0.0
  0
VERTEX
  5
1DAB
  8
SAPA_ISOLATOR
 10
-0.0000003735369205
 20
-71.99999999999784
 30
0.0
  0
VERTEX
  5
1DAC
  8
SAPA_ISOLATOR
 10
-0.8660257773215676
 20
-72.499999999997954
 30
0.0
  0
VERTEX
  5
1DAD
  8
SAPA_ISOLATOR
 10
-4.9993426678549318
 20
-72.49999999999801
 30
0.0
 42
0.9995465490087907
  0
VERTEX
  5
1DAE
  8
SAPA_ISOLATOR
 10
-5.6000003735363739
 20
-72.499999999998238
 30
0.0
  0
VERTEX
  5
1DAF
  8
SAPA_ISOLATOR
 10
-5.6000003735366022
 20
-79.699999999997829
 30
0.0
 42
0.4142135623735446
  0
VERTEX
  5
1DB0
  8
SAPA_ISOLATOR
 10
-5.300000373536875
 20
-79.999999999997783
 30
0.0
  0
VERTEX
  5
1DB1
  8
SAPA_ISOLATOR
 10
-4.5000003735369196
 20
-79.999999999998238
 30
0.0
 42
-0.6358782360470147
  0
VERTEX
  5
1DB2
  8
SAPA_ISOLATOR
 10
-4.269533989657873
 20
-80.492055319896792
 30
0.0
  0
VERTEX
  5
1DB3
  8
SAPA_ISOLATOR
 10
-4.8575590372535649
 20
-81.192836282904025
 30
0.0
 42
-0.2216946626430204
  0
VERTEX
  5
1DB4
  8
SAPA_ISOLATOR
 10
-5.087372370189029
 20
-81.299999999998192
 30
0.0
  0
VERTEX
  5
1DB5
  8
SAPA_ISOLATOR
 10
-5.8000003735373289
 20
-81.299999999998192
 30
0.0
 42
-0.4142135623731617
  0
VERTEX
  5
1DB6
  8
SAPA_ISOLATOR
 10
-6.8000003735373289
 20
-80.299999999997965
 30
0.0
  0
SEQEND
  5
1DB7
  8
SAPA_ISOLATOR
  0
POLYLINE
  5
19E2
  8
SAPA_ISOLATOR
 66
     1
 10
0.0
 20
0.0
 30
0.0
 70
     1
  0
VERTEX
  5
1DB8
  8
SAPA_ISOLATOR
 10
-3.80000037353767
 20
-63.099999999999909
 30
0.0
 42
-0.4142135623731387
  0
VERTEX
  5
1DB9
  8
SAPA_ISOLATOR
 10
-3.30000037353767
 20
-62.599999999999852
 30
0.0
  0
VERTEX
  5
1DBA
  8
SAPA_ISOLATOR
 10
3.2999996264622382
 20
-62.599999999999802
 30
0.0
 42
-0.4142135623730514
  0
VERTEX
  5
1DBB
  8
SAPA_ISOLATOR
 10
3.7999996264622382
 20
-63.099999999999731
 30
0.0
  0
VERTEX
  5
1DBC
  8
SAPA_ISOLATOR
 10
3.7999996264632609
 20
-70.199999999999875
 30
0.0
 42
-0.4142135623730951
  0
VERTEX
  5
1DBD
  8
SAPA_ISOLATOR
 10
3.2999996264632609
 20
-70.699999999999875
 30
0.0
  0
VERTEX
  5
1DBE
  8
SAPA_ISOLATOR
 10
-3.3000003735366472
 20
-70.699999999999875
 30
0.0
 42
-0.4142135623730951
  0
VERTEX
  5
1DBF
  8
SAPA_ISOLATOR
 10
-3.8000003735366472
 20
-70.199999999999875
 30
0.0
  0
SEQEND
  5
1DC0
  8
SAPA_ISOLATOR
  0
POLYLINE
  5
1A0C
  8
SAPA_FOGBAND
 66
     1
 10
0.0
 20
0.0
 30
0.0
 70
     1
  0
VERTEX
  5
1EA4
  8
SAPA_FOGBAND
 10
4.1787398056778438
 20
-80.768193081410772
 30
0.0
  0
VERTEX
  5
1EA5
  8
SAPA_FOGBAND
 10
4.1787398056778304
 20
-80.54489630615268
 30
0.0
 42
-0.3500011104185251
  0
VERTEX
  5
1EA6
  8
SAPA_FOGBAND
 10
4.8009620279000638
 20
-79.764899471717825
 30
0.0
 42
0.3500011104185275
  0
VERTEX
  5
1EA7
  8
SAPA_FOGBAND
 10
5.5787398056778361
 20
-78.789903428674251
 30
0.0
  0
VERTEX
  5
1EA8
  8
SAPA_FOGBAND
 10
5.5787398056778361
 20
-78.464899471717814
 30
0.0
 42
0.4142135623730992
  0
VERTEX
  5
1EA9
  8
SAPA_FOGBAND
 10
4.5787398056778361
 20
-77.464899471717814
 30
0.0
  0
VERTEX
  5
1EAA
  8
SAPA_FOGBAND
 10
-4.6212601943221818
 20
-77.464899471717814
 30
0.0
 42
0.4142135623730909
  0
VERTEX
  5
1EAB
  8
SAPA_FOGBAND
 10
-5.6212601943221676
 20
-78.464899471717814
 30
0.0
  0
VERTEX
  5
1EAC
  8
SAPA_FOGBAND
 10
-5.6212601943221818
 20
-78.789903428674251
 30
0.0
 42
0.3500011104185275
  0
VERTEX
  5
1EAD
  8
SAPA_FOGBAND
 10
-4.8434824165444113
 20
-79.764899471717797
 30
0.0
 42
-0.3500011104185328
  0
VERTEX
  5
1EAE
  8
SAPA_FOGBAND
 10
-4.2212601943221619
 20
-80.54489630615268
 30
0.0
  0
VERTEX
  5
1EAF
  8
SAPA_FOGBAND
 10
-4.2212601943221619
 20
-80.768193081410772
 30
0.0
 42
-0.380963100045198
  0
VERTEX
  5
1EB0
  8
SAPA_FOGBAND
 10
-4.6639648033370156
 20
-81.264899471717825
 30
0.0
 42
-0.0458039546811979
  0
VERTEX
  5
1EB1
  8
SAPA_FOGBAND
 10
-7.9530683629715826
 20
-81.341546602805195
 30
0.0
 42
0.9570085662280619
  0
VERTEX
  5
1EB2
  8
SAPA_FOGBAND
 10
-8.1767293781089503
 20
-83.327059573289063
 30
0.0
 42
0.0782100801382191
  0
VERTEX
  5
1EB3
  8
SAPA_FOGBAND
 10
8.1342089894646055
 20
-83.327059573289105
 30
0.0
 42
0.9570085662280891
  0
VERTEX
  5
1EB4
  8
SAPA_FOGBAND
 10
7.9105479743272102
 20
-81.341546602805195
 30
0.0
 42
-0.0458039546811975
  0
VERTEX
  5
1EB5
  8
SAPA_FOGBAND
 10
4.6214444146926956
 20
-81.264899471717825
 30
0.0
 42
-0.380963100045198
  0
SEQEND
  5
1EB6
  8
SAPA_FOGBAND
  0
CIRCLE
  5
1A0D
  8
SAPA_FOGBAND
 10
23.106096435492109
 20
-36.800000000001774
 30
0.0
 40
0.2549509756796394
  0
POLYLINE
  5
1A0E
  8
SAPA_FOGBAND
 66
     1
 10
0.0
 20
0.0
 30
0.0
 70
     1
  0
VERTEX
  5
1EB7
  8
SAPA_FOGBAND
 10
20.75609643549214
 20
-35.500000000001769
 30
0.0
 42
0.4142135623730951
  0
VERTEX
  5
1EB8
  8
SAPA_FOGBAND
 10
20.956096435492132
 20
-35.300000000001774
 30
0.0
  0
VERTEX
  5
1EB9
  8
SAPA_FOGBAND
 10
20.956096435492132
 20
-33.500000000001762
 30
0.0
 42
0.9999999999999998
  0
VERTEX
  5
1EBA
  8
SAPA_FOGBAND
 10
19.65609643549212
 20
-33.500000000001762
 30
0.0
  0
VERTEX
  5
1EBB
  8
SAPA_FOGBAND
 10
19.65609643549212
 20
-35.300000000001774
 30
0.0
 42
0.4142135623730951
  0
VERTEX
  5
1EBC
  8
SAPA_FOGBAND
 10
19.856096435492098
 20
-35.500000000001769
 30
0.0
  0
VERTEX
  5
1EBD
  8
SAPA_FOGBAND
 10
20.606096435492109
 20
-35.500000000001769
 30
0.0
  0
SEQEND
  5
1EBE
  8
SAPA_FOGBAND
  0
POLYLINE
  5
1A0F
  8
SAPA_FOGBAND
 66
     1
 10
0.0
 20
0.0
 30
0.0
 70
     1
  0
VERTEX
  5
1EBF
  8
SAPA_FOGBAND
 10
16.352506597005881
 20
-35.500000000001769
 30
0.0
 42
-0.267949192431121
  0
VERTEX
  5
1EC0
  8
SAPA_FOGBAND
 10
16.179301516249009
 20
-35.400000000001739
 30
0.0
 42
0.7673269879789569
  0
VERTEX
  5
1EC1
  8
SAPA_FOGBAND
 10
15.806096435492149
 20
-35.500000000001769
 30
0.0
  0
VERTEX
  5
1EC2
  8
SAPA_FOGBAND
 10
15.806096435492149
 20
-42.782887030406009
 30
0.0
 42
0.4602937089574736
  0
VERTEX
  5
1EC3
  8
SAPA_FOGBAND
 10
16.036918742832508
 20
-42.980497721843051
 30
0.0
  0
VERTEX
  5
1EC4
  8
SAPA_FOGBAND
 10
18.496254874359209
 20
-42.387406737847577
 30
0.0
 42
-0.6910703998708235
  0
VERTEX
  5
1EC5
  8
SAPA_FOGBAND
 10
18.680904591694478
 20
-42.712834204139313
 30
0.0
  0
VERTEX
  5
1EC6
  8
SAPA_FOGBAND
 10
15.98270386895174
 20
-43.008274837719739
 30
0.0
 42
0.928378177954751
  0
VERTEX
  5
1EC7
  8
SAPA_FOGBAND
 10
16.413280916485942
 20
-43.423753435875142
 30
0.0
  0
VERTEX
  5
1EC8
  8
SAPA_FOGBAND
 10
19.55852018577346
 20
-43.228542559027183
 30
0.0
 42
-0.6076316918600427
  0
VERTEX
  5
1EC9
  8
SAPA_FOGBAND
 10
19.80743455923627
 20
-43.323096729694377
 30
0.0
 42
0.38070580105552
  0
VERTEX
  5
1ECA
  8
SAPA_FOGBAND
 10
20.00609643549214
 20
-43.500000000001712
 30
0.0
  0
VERTEX
  5
1ECB
  8
SAPA_FOGBAND
 10
20.306096435492151
 20
-43.500000000001712
 30
0.0
  0
VERTEX
  5
1ECC
  8
SAPA_FOGBAND
 10
20.606096435492109
 20
-43.500000000001712
 30
0.0
 42
0.3807058010555201
  0
VERTEX
  5
1ECD
  8
SAPA_FOGBAND
 10
20.804758311747921
 20
-43.323096729694321
 30
0.0
 42
-0.6076316918600374
  0
VERTEX
  5
1ECE
  8
SAPA_FOGBAND
 10
21.053672685210781
 20
-43.228542559027183
 30
0.0
  0
VERTEX
  5
1ECF
  8
SAPA_FOGBAND
 10
24.307287601919459
 20
-43.423753435875021
 30
0.0
 42
0.9283781779547513
  0
VERTEX
  5
1ED0
  8
SAPA_FOGBAND
 10
24.737864649453659
 20
-43.008274837719561
 30
0.0
  0
VERTEX
  5
1ED1
  8
SAPA_FOGBAND
 10
21.901350425977139
 20
-42.709922924871421
 30
0.0
 42
-0.6910703998708235
  0
VERTEX
  5
1ED2
  8
SAPA_FOGBAND
 10
22.086000143312418
 20
-42.384495458579693
 30
0.0
  0
VERTEX
  5
1ED3
  8
SAPA_FOGBAND
 10
24.57527412815173
 20
-42.980497721843051
 30
0.0
 42
0.4602937089574736
  0
VERTEX
  5
1ED4
  8
SAPA_FOGBAND
 10
24.806096435492151
 20
-42.782887030406009
 30
0.0
  0
VERTEX
  5
1ED5
  8
SAPA_FOGBAND
 10
24.806096435492151
 20
-35.500000000001769
 30
0.0
 42
0.7673269879789572
  0
VERTEX
  5
1ED6
  8
SAPA_FOGBAND
 10
24.432891354735229
 20
-35.400000000001739
 30
0.0
 42
-0.267949192431121
  0
VERTEX
  5
1ED7
  8
SAPA_FOGBAND
 10
24.25968627397836
 20
-35.500000000001769
 30
0.0
  0
VERTEX
  5
1ED8
  8
SAPA_FOGBAND
 10
22.056096435492151
 20
-35.500000000001769
 30
0.0
 42
-0.4142135623730946
  0
VERTEX
  5
1ED9
  8
SAPA_FOGBAND
 10
21.956096435492132
 20
-35.400000000001739
 30
0.0
  0
VERTEX
  5
1EDA
  8
SAPA_FOGBAND
 10
21.956096435492132
 20
-34.400000000001739
 30
0.0
  0
VERTEX
  5
1EDB
  8
SAPA_FOGBAND
 10
22.314151681717959
 20
-34.291388579560873
 30
0.0
 42
0.4364998583843341
  0
VERTEX
  5
1EDC
  8
SAPA_FOGBAND
 10
22.442561771588402
 20
-34.027676570640949
 30
0.0
  0
VERTEX
  5
1EDD
  8
SAPA_FOGBAND
 10
21.903702978106789
 20
-32.638382853197591
 30
0.0
 42
0.3095538907669666
  0
VERTEX
  5
1EDE
  8
SAPA_FOGBAND
 10
20.97137629762554
 20
-32.000000000001762
 30
0.0
  0
VERTEX
  5
1EDF
  8
SAPA_FOGBAND
 10
19.640816573358698
 20
-32.000000000001762
 30
0.0
 42
0.3095538907669666
  0
VERTEX
  5
1EE0
  8
SAPA_FOGBAND
 10
18.708489892877449
 20
-32.638382853197591
 30
0.0
  0
VERTEX
  5
1EE1
  8
SAPA_FOGBAND
 10
18.1696310993959
 20
-34.027676570640949
 30
0.0
 42
0.4364998583843343
  0
VERTEX
  5
1EE2
  8
SAPA_FOGBAND
 10
18.298041189266339
 20
-34.291388579560873
 30
0.0
  0
VERTEX
  5
1EE3
  8
SAPA_FOGBAND
 10
18.65609643549212
 20
-34.400000000001739
 30
0.0
  0
VERTEX
  5
1EE4
  8
SAPA_FOGBAND
 10
18.65609643549212
 20
-35.400000000001739
 30
0.0
 42
-0.4142135623730946
  0
VERTEX
  5
1EE5
  8
SAPA_FOGBAND
 10
18.556096435492151
 20
-35.500000000001769
 30
0.0
  0
SEQEND
  5
1EE6
  8
SAPA_FOGBAND
  0
POLYLINE
  5
1A10
  8
SAPA_FOGBAND
 66
     1
 10
0.0
 20
0.0
 30
0.0
 70
     1
  0
VERTEX
  5
1EE7
  8
SAPA_FOGBAND
 10
18.482228878013899
 20
-37.800000000001774
 30
0.0
 42
0.3042268896177264
  0
VERTEX
  5
1EE8
  8
SAPA_FOGBAND
 10
18.204696401711232
 20
-37.986088961918078
 30
0.0
 42
0.2901372376591382
  0
VERTEX
  5
1EE9
  8
SAPA_FOGBAND
 10
18.254981695929441
 20
-40.213945402555062
 30
0.0
 42
0.1927175523564936
  0
VERTEX
  5
1EEA
  8
SAPA_FOGBAND
 10
18.415281675916528
 20
-40.368941574663609
 30
0.0
 42
0.1963728951991371
  0
VERTEX
  5
1EEB
  8
SAPA_FOGBAND
 10
22.19691119506771
 20
-40.368941574663609
 30
0.0
 42
0.1927175523564951
  0
VERTEX
  5
1EEC
  8
SAPA_FOGBAND
 10
22.3572111750548
 20
-40.213945402555062
 30
0.0
 42
0.2901372376591384
  0
VERTEX
  5
1EED
  8
SAPA_FOGBAND
 10
22.40749646927307
 20
-37.986088961918078
 30
0.0
 42
0.3042268896177278
  0
VERTEX
  5
1EEE
  8
SAPA_FOGBAND
 10
22.129963992970339
 20
-37.800000000001774
 30
0.0
  0
SEQEND
  5
1EEF
  8
SAPA_FOGBAND
  0
POLYLINE
  5
1A11
  8
SAPA_FOGBAND
 66
     1
 10
0.0
 20
0.0
 30
0.0
 70
     1
  0
VERTEX
  5
1EF0
  8
SAPA_FOGBAND
 10
8.6651508526603891
 20
-64.360800493659568
 30
0.0
  0
VERTEX
  5
1EF1
  8
SAPA_FOGBAND
 10
11.66647801522887
 20
-64.852752833549417
 30
0.0
 42
0.4464785874932524
  0
VERTEX
  5
1EF2
  8
SAPA_FOGBAND
 10
12.77515327218063
 20
-63.858675528443662
 30
0.0
  0
VERTEX
  5
1EF3
  8
SAPA_FOGBAND
 10
12.77515327218063
 20
-62.313435434750787
 30
0.0
 42
0.622676997742357
  0
VERTEX
  5
1EF4
  8
SAPA_FOGBAND
 10
11.164478785566841
 20
-61.52155370658739
 30
0.0
  0
VERTEX
  5
1EF5
  8
SAPA_FOGBAND
 10
8.1631516229974466
 20
-62.44077696863998
 30
0.0
 42
0.232531183213058
  0
VERTEX
  5
1EF6
  8
SAPA_FOGBAND
 10
7.7738261096103249
 20
-63.232658696803817
 30
0.0
  0
VERTEX
  5
1EF7
  8
SAPA_FOGBAND
 10
7.7738261096112353
 20
-63.36672318855382
 30
0.0
 42
0.3826682380870913
  0
SEQEND
  5
1EF8
  8
SAPA_FOGBAND
  0
POLYLINE
  5
1A12
  8
SAPA_FOGBAND
 66
     1
 10
0.0
 20
0.0
 30
0.0
 70
     1
  0
VERTEX
  5
1EF9
  8
SAPA_FOGBAND
 10
21.76213650895281
 20
-57.296201445460618
 30
0.0
 42
0.4740571810231764
  0
VERTEX
  5
1EFA
  8
SAPA_FOGBAND
 10
21.889430371316141
 20
-57.013918859822311
 30
0.0
  0
VERTEX
  5
1EFB
  8
SAPA_FOGBAND
 10
21.269329868558291
 20
-55.567712723061973
 30
0.0
 42
0.2846003776496257
  0
VERTEX
  5
1EFC
  8
SAPA_FOGBAND
 10
20.821685690097389
 20
-55.290456274014119
 30
0.0
  0
VERTEX
  5
1EFD
  8
SAPA_FOGBAND
 10
19.199059709767621
 20
-55.290456274014119
 30
0.0
 42
0.2846003776496159
  0
VERTEX
  5
1EFE
  8
SAPA_FOGBAND
 10
18.751415531306719
 20
-55.567712723062421
 30
0.0
  0
VERTEX
  5
1EFF
  8
SAPA_FOGBAND
 10
18.131315028548869
 20
-57.013918859822311
 30
0.0
 42
0.4740571810232354
  0
VERTEX
  5
1F00
  8
SAPA_FOGBAND
 10
18.25860889091129
 20
-57.296201445460618
 30
0.0
  0
VERTEX
  5
1F01
  8
SAPA_FOGBAND
 10
18.5103726999325
 20
-57.363661354771018
 30
0.0
  0
VERTEX
  5
1F02
  8
SAPA_FOGBAND
 10
18.5103726999325
 20
-58.305086771653372
 30
0.0
 42
-0.4142135623730951
  0
VERTEX
  5
1F03
  8
SAPA_FOGBAND
 10
18.0103726999325
 20
-58.805086771653357
 30
0.0
  0
VERTEX
  5
1F04
  8
SAPA_FOGBAND
 10
14.98227314919788
 20
-58.80508677165291
 30
0.0
 42
0.1657205760184635
  0
VERTEX
  5
1F05
  8
SAPA_FOGBAND
 10
14.371598662584089
 20
-59.013205043489521
 30
0.0
  0
VERTEX
  5
1F06
  8
SAPA_FOGBAND
 10
5.0037082721075601
 20
-62.407790128345383
 30
0.0
 42
0.2325311832130358
  0
VERTEX
  5
1F07
  8
SAPA_FOGBAND
 10
4.8090455154135441
 20
-62.803730992427532
 30
0.0
  0
VERTEX
  5
1F08
  8
SAPA_FOGBAND
 10
4.8090455154135441
 20
-64.034474548865106
 30
0.0
 42
0.3826682380870913
  0
VERTEX
  5
1F09
  8
SAPA_FOGBAND
 10
5.7003702584636073
 20
-65.028551853970853
 30
0.0
  0
VERTEX
  5
1F0A
  8
SAPA_FOGBAND
 10
11.30483901875979
 20
-65.805086771653365
 30
0.0
  0
VERTEX
  5
1F0B
  8
SAPA_FOGBAND
 10
25.010372677982762
 20
-65.805086771653365
 30
0.0
 42
0.4257917699693507
  0
VERTEX
  5
1F0C
  8
SAPA_FOGBAND
 10
25.310140231581698
 20
-65.49327940912282
 30
0.0
  0
VERTEX
  5
1F0D
  8
SAPA_FOGBAND
 10
24.822300416911482
 20
-59.093279409122268
 30
0.0
 42
0.4027293761437475
  0
VERTEX
  5
1F0E
  8
SAPA_FOGBAND
 10
24.52253286331436
 20
-58.80508677165291
 30
0.0
  0
VERTEX
  5
1F0F
  8
SAPA_FOGBAND
 10
22.0103726999325
 20
-58.805086771653357
 30
0.0
 42
-0.4142135623730951
  0
VERTEX
  5
1F10
  8
SAPA_FOGBAND
 10
21.5103726999325
 20
-58.305086771653372
 30
0.0
  0
VERTEX
  5
1F11
  8
SAPA_FOGBAND
 10
21.51037269993251
 20
-57.363661354771018
 30
0.0
  0
SEQEND
  5
1F12
  8
SAPA_FOGBAND
  0
POLYLINE
  5
1A13
  8
SAPA_FOGBAND
 66
     1
 10
0.0
 20
0.0
 30
0.0
 70
     1
  0
VERTEX
  5
1F13
  8
SAPA_FOGBAND
 10
19.11037269993286
 20
-56.890456274014483
 30
0.0
  0
VERTEX
  5
1F14
  8
SAPA_FOGBAND
 10
19.11037269993286
 20
-57.490456274014392
 30
0.0
 42
0.9999999999999998
  0
VERTEX
  5
1F15
  8
SAPA_FOGBAND
 10
20.91037269993214
 20
-57.490456274014392
 30
0.0
  0
VERTEX
  5
1F16
  8
SAPA_FOGBAND
 10
20.91037269993214
 20
-56.890456274014483
 30
0.0
 42
0.9999999999999998
  0
SEQEND
  5
1F17
  8
SAPA_FOGBAND
  0
POLYLINE
  5
1A14
  8
SAPA_FOGBAND
 66
     1
 10
0.0
 20
0.0
 30
0.0
  0
VERTEX
  5
1F18
  8
SAPA_FOGBAND
 10
23.610372699932871
 20
-58.80508677165291
 30
0.0
  0
VERTEX
  5
1F19
  8
SAPA_FOGBAND
 10
23.610372699932871
 20
-59.105086771653092
 30
0.0
 42
-0.4142135623730951
  0
VERTEX
  5
1F1A
  8
SAPA_FOGBAND
 10
23.110372699932871
 20
-59.605086771653092
 30
0.0
  0
VERTEX
  5
1F1B
  8
SAPA_FOGBAND
 10
15.81037269993177
 20
-59.605086771653092
 30
0.0
 42
-0.4142135623730951
  0
VERTEX
  5
1F1C
  8
SAPA_FOGBAND
 10
15.31037269993177
 20
-59.105086771653092
 30
0.0
  0
VERTEX
  5
1F1D
  8
SAPA_FOGBAND
 10
15.31037269993268
 20
-58.80508677165291
 30
0.0
  0
SEQEND
  5
1F1E
  8
SAPA_FOGBAND
  0
POLYLINE
  5
1A15
  8
SAPA_FOGBAND
 10
22.073619833769712
 20
-62.826656685502833
 30
0.0
 66
     1
 70
     8
  0
VERTEX
  8
SAPA_FOGBAND
  5
1F87
 10
22.0736
 20
-62.8267
 30
0.000000
  70
    32
  0
VERTEX
  8
SAPA_FOGBAND
  5
1F88
 10
22.0703
 20
-62.7660
 30
0.000000
  70
    32
  0
VERTEX
  8
SAPA_FOGBAND
  5
1F89
 10
22.0589
 20
-62.7055
 30
0.000000
  70
    32
  0
VERTEX
  8
SAPA_FOGBAND
  5
1F8A
 10
22.0397
 20
-62.6451
 30
0.000000
  70
    32
  0
VERTEX
  8
SAPA_FOGBAND
  5
1F8B
 10
22.0126
 20
-62.5851
 30
0.000000
  70
    32
  0
VERTEX
  8
SAPA_FOGBAND
  5
1F8C
 10
21.9778
 20
-62.5256
 30
0.000000
  70
    32
  0
VERTEX
  8
SAPA_FOGBAND
  5
1F8D
 10
21.9352
 20
-62.4668
 30
0.000000
  70
    32
  0
VERTEX
  8
SAPA_FOGBAND
  5
1F8E
 10
21.8850
 20
-62.4087
 30
0.000000
  70
    32
  0
VERTEX
  8
SAPA_FOGBAND
  5
1F8F
 10
21.8273
 20
-62.3516
 30
0.000000
  70
    32
  0
VERTEX
  8
SAPA_FOGBAND
  5
1F90
 10
21.7622
 20
-62.2955
 30
0.000000
  70
    32
  0
VERTEX
  8
SAPA_FOGBAND
  5
1F91
 10
21.6900
 20
-62.2406
 30
0.000000
  70
    32
  0
VERTEX
  8
SAPA_FOGBAND
  5
1F92
 10
21.6107
 20
-62.1871
 30
0.000000
  70
    32
  0
VERTEX
  8
SAPA_FOGBAND
  5
1F93
 10
21.5246
 20
-62.1350
 30
0.000000
  70
    32
  0
VERTEX
  8
SAPA_FOGBAND
  5
1F94
 10
21.4319
 20
-62.0846
 30
0.000000
  70
    32
  0
VERTEX
  8
SAPA_FOGBAND
  5
1F95
 10
21.3327
 20
-62.0358
 30
0.000000
  70
    32
  0
VERTEX
  8
SAPA_FOGBAND
  5
1F96
 10
21.2275
 20
-61.9888
 30
0.000000
  70
    32
  0
VERTEX
  8
SAPA_FOGBAND
  5
1F97
 10
21.1163
 20
-61.9438
 30
0.000000
  70
    32
  0
VERTEX
  8
SAPA_FOGBAND
  5
1F98
 10
20.9994
 20
-61.9009
 30
0.000000
  70
    32
  0
VERTEX
  8
SAPA_FOGBAND
  5
1F99
 10
20.8773
 20
-61.8601
 30
0.000000
  70
    32
  0
VERTEX
  8
SAPA_FOGBAND
  5
1F9A
 10
20.7500
 20
-61.8215
 30
0.000000
  70
    32
  0
VERTEX
  8
SAPA_FOGBAND
  5
1F9B
 10
20.6180
 20
-61.7853
 30
0.000000
  70
    32
  0
VERTEX
  8
SAPA_FOGBAND
  5
1F9C
 10
20.4815
 20
-61.7515
 30
0.000000
  70
    32
  0
VERTEX
  8
SAPA_FOGBAND
  5
1F9D
 10
20.3410
 20
-61.7202
 30
0.000000
  70
    32
  0
VERTEX
  8
SAPA_FOGBAND
  5
1F9E
 10
20.1967
 20
-61.6915
 30
0.000000
  70
    32
  0
VERTEX
  8
SAPA_FOGBAND
  5
1F9F
 10
20.0489
 20
-61.6655
 30
0.000000
  70
    32
  0
VERTEX
  8
SAPA_FOGBAND
  5
1FA0
 10
19.8981
 20
-61.6422
 30
0.000000
  70
    32
  0
VERTEX
  8
SAPA_FOGBAND
  5
1FA1
 10
19.7446
 20
-61.6216
 30
0.000000
  70
    32
  0
VERTEX
  8
SAPA_FOGBAND
  5
1FA2
 10
19.5887
 20
-61.6039
 30
0.000000
  70
    32
  0
VERTEX
  8
SAPA_FOGBAND
  5
1FA3
 10
19.4309
 20
-61.5891
 30
0.000000
  70
    32
  0
VERTEX
  8
SAPA_FOGBAND
  5
1FA4
 10
19.2715
 20
-61.5771
 30
0.000000
  70
    32
  0
VERTEX
  8
SAPA_FOGBAND
  5
1FA5
 10
19.1109
 20
-61.5681
 30
0.000000
  70
    32
  0
VERTEX
  8
SAPA_FOGBAND
  5
1FA6
 10
18.9495
 20
-61.5620
 30
0.000000
  70
    32
  0
VERTEX
  8
SAPA_FOGBAND
  5
1FA7
 10
18.7876
 20
-61.5589
 30
0.000000
  70
    32
  0
VERTEX
  8
SAPA_FOGBAND
  5
1FA8
 10
18.6258
 20
-61.5588
 30
0.000000
  70
    32
  0
VERTEX
  8
SAPA_FOGBAND
  5
1FA9
 10
18.4643
 20
-61.5616
 30
0.000000
  70
    32
  0
VERTEX
  8
SAPA_FOGBAND
  5
1FAA
 10
18.3036
 20
-61.5675
 30
0.000000
  70
    32
  0
VERTEX
  8
SAPA_FOGBAND
  5
1FAB
 10
18.1439
 20
-61.5762
 30
0.000000
  70
    32
  0
VERTEX
  8
SAPA_FOGBAND
  5
1FAC
 10
17.9859
 20
-61.5879
 30
0.000000
  70
    32
  0
VERTEX
  8
SAPA_FOGBAND
  5
1FAD
 10
17.8297
 20
-61.6026
 30
0.000000
  70
    32
  0
VERTEX
  8
SAPA_FOGBAND
  5
1FAE
 10
17.6758
 20
-61.6200
 30
0.000000
  70
    32
  0
VERTEX
  8
SAPA_FOGBAND
  5
1FAF
 10
17.5245
 20
-61.6404
 30
0.000000
  70
    32
  0
VERTEX
  8
SAPA_FOGBAND
  5
1FB0
 10
17.3763
 20
-61.6634
 30
0.000000
  70
    32
  0
VERTEX
  8
SAPA_FOGBAND
  5
1FB1
 10
17.2314
 20
-61.6893
 30
0.000000
  70
    32
  0
VERTEX
  8
SAPA_FOGBAND
  5
1FB2
 10
17.0902
 20
-61.7177
 30
0.000000
  70
    32
  0
VERTEX
  8
SAPA_FOGBAND
  5
1FB3
 10
16.9532
 20
-61.7488
 30
0.000000
  70
    32
  0
VERTEX
  8
SAPA_FOGBAND
  5
1FB4
 10
16.8204
 20
-61.7824
 30
0.000000
  70
    32
  0
VERTEX
  8
SAPA_FOGBAND
  5
1FB5
 10
16.6925
 20
-61.8184
 30
0.000000
  70
    32
  0
VERTEX
  8
SAPA_FOGBAND
  5
1FB6
 10
16.5695
 20
-61.8568
 30
0.000000
  70
    32
  0
VERTEX
  8
SAPA_FOGBAND
  5
1FB7
 10
16.4518
 20
-61.8974
 30
0.000000
  70
    32
  0
VERTEX
  8
SAPA_FOGBAND
  5
1FB8
 10
16.3398
 20
-61.9402
 30
0.000000
  70
    32
  0
VERTEX
  8
SAPA_FOGBAND
  5
1FB9
 10
16.2336
 20
-61.9850
 30
0.000000
  70
    32
  0
VERTEX
  8
SAPA_FOGBAND
  5
1FBA
 10
16.1335
 20
-62.0318
 30
0.000000
  70
    32
  0
VERTEX
  8
SAPA_FOGBAND
  5
1FBB
 10
16.0398
 20
-62.0805
 30
0.000000
  70
    32
  0
VERTEX
  8
SAPA_FOGBAND
  5
1FBC
 10
15.9527
 20
-62.1308
 30
0.000000
  70
    32
  0
VERTEX
  8
SAPA_FOGBAND
  5
1FBD
 10
15.8723
 20
-62.1827
 30
0.000000
  70
    32
  0
VERTEX
  8
SAPA_FOGBAND
  5
1FBE
 10
15.7990
 20
-62.2362
 30
0.000000
  70
    32
  0
VERTEX
  8
SAPA_FOGBAND
  5
1FBF
 10
15.7329
 20
-62.2909
 30
0.000000
  70
    32
  0
VERTEX
  8
SAPA_FOGBAND
  5
1FC0
 10
15.6740
 20
-62.3469
 30
0.000000
  70
    32
  0
VERTEX
  8
SAPA_FOGBAND
  5
1FC1
 10
15.6227
 20
-62.4039
 30
0.000000
  70
    32
  0
VERTEX
  8
SAPA_FOGBAND
  5
1FC2
 10
15.5789
 20
-62.4619
 30
0.000000
  70
    32
  0
VERTEX
  8
SAPA_FOGBAND
  5
1FC3
 10
15.5429
 20
-62.5207
 30
0.000000
  70
    32
  0
VERTEX
  8
SAPA_FOGBAND
  5
1FC4
 10
15.5146
 20
-62.5802
 30
0.000000
  70
    32
  0
VERTEX
  8
SAPA_FOGBAND
  5
1FC5
 10
15.4942
 20
-62.6401
 30
0.000000
  70
    32
  0
VERTEX
  8
SAPA_FOGBAND
  5
1FC6
 10
15.4817
 20
-62.7004
 30
0.000000
  70
    32
  0
VERTEX
  8
SAPA_FOGBAND
  5
1FC7
 10
15.4771
 20
-62.7610
 30
0.000000
  70
    32
  0
VERTEX
  8
SAPA_FOGBAND
  5
1FC8
 10
15.4805
 20
-62.8216
 30
0.000000
  70
    32
  0
VERTEX
  8
SAPA_FOGBAND
  5
1FC9
 10
15.4918
 20
-62.8822
 30
0.000000
  70
    32
  0
VERTEX
  8
SAPA_FOGBAND
  5
1FCA
 10
15.5110
 20
-62.9426
 30
0.000000
  70
    32
  0
VERTEX
  8
SAPA_FOGBAND
  5
1FCB
 10
15.5381
 20
-63.0025
 30
0.000000
  70
    32
  0
VERTEX
  8
SAPA_FOGBAND
  5
1FCC
 10
15.5729
 20
-63.0620
 30
0.000000
  70
    32
  0
VERTEX
  8
SAPA_FOGBAND
  5
1FCD
 10
15.6155
 20
-63.1209
 30
0.000000
  70
    32
  0
VERTEX
  8
SAPA_FOGBAND
  5
1FCE
 10
15.6657
 20
-63.1789
 30
0.000000
  70
    32
  0
VERTEX
  8
SAPA_FOGBAND
  5
1FCF
 10
15.7234
 20
-63.2361
 30
0.000000
  70
    32
  0
VERTEX
  8
SAPA_FOGBAND
  5
1FD0
 10
15.7885
 20
-63.2921
 30
0.000000
  70
    32
  0
VERTEX
  8
SAPA_FOGBAND
  5
1FD1
 10
15.8607
 20
-63.3470
 30
0.000000
  70
    32
  0
VERTEX
  8
SAPA_FOGBAND
  5
1FD2
 10
15.9400
 20
-63.4005
 30
0.000000
  70
    32
  0
VERTEX
  8
SAPA_FOGBAND
  5
1FD3
 10
16.0261
 20
-63.4526
 30
0.000000
  70
    32
  0
VERTEX
  8
SAPA_FOGBAND
  5
1FD4
 10
16.1188
 20
-63.5031
 30
0.000000
  70
    32
  0
VERTEX
  8
SAPA_FOGBAND
  5
1FD5
 10
16.2180
 20
-63.5519
 30
0.000000
  70
    32
  0
VERTEX
  8
SAPA_FOGBAND
  5
1FD6
 10
16.3232
 20
-63.5988
 30
0.000000
  70
    32
  0
VERTEX
  8
SAPA_FOGBAND
  5
1FD7
 10
16.4344
 20
-63.6438
 30
0.000000
  70
    32
  0
VERTEX
  8
SAPA_FOGBAND
  5
1FD8
 10
16.5513
 20
-63.6868
 30
0.000000
  70
    32
  0
VERTEX
  8
SAPA_FOGBAND
  5
1FD9
 10
16.6735
 20
-63.7276
 30
0.000000
  70
    32
  0
VERTEX
  8
SAPA_FOGBAND
  5
1FDA
 10
16.8007
 20
-63.7662
 30
0.000000
  70
    32
  0
VERTEX
  8
SAPA_FOGBAND
  5
1FDB
 10
16.9327
 20
-63.8024
 30
0.000000
  70
    32
  0
VERTEX
  8
SAPA_FOGBAND
  5
1FDC
 10
17.0692
 20
-63.8362
 30
0.000000
  70
    32
  0
VERTEX
  8
SAPA_FOGBAND
  5
1FDD
 10
17.2097
 20
-63.8674
 30
0.000000
  70
    32
  0
VERTEX
  8
SAPA_FOGBAND
  5
1FDE
 10
17.3540
 20
-63.8961
 30
0.000000
  70
    32
  0
VERTEX
  8
SAPA_FOGBAND
  5
1FDF
 10
17.5018
 20
-63.9222
 30
0.000000
  70
    32
  0
VERTEX
  8
SAPA_FOGBAND
  5
1FE0
 10
17.6526
 20
-63.9455
 30
0.000000
  70
    32
  0
VERTEX
  8
SAPA_FOGBAND
  5
1FE1
 10
17.8062
 20
-63.9660
 30
0.000000
  70
    32
  0
VERTEX
  8
SAPA_FOGBAND
  5
1FE2
 10
17.9620
 20
-63.9838
 30
0.000000
  70
    32
  0
VERTEX
  8
SAPA_FOGBAND
  5
1FE3
 10
18.1198
 20
-63.9986
 30
0.000000
  70
    32
  0
VERTEX
  8
SAPA_FOGBAND
  5
1FE4
 10
18.2792
 20
-64.0106
 30
0.000000
  70
    32
  0
VERTEX
  8
SAPA_FOGBAND
  5
1FE5
 10
18.4398
 20
-64.0196
 30
0.000000
  70
    32
  0
VERTEX
  8
SAPA_FOGBAND
  5
1FE6
 10
18.6012
 20
-64.0256
 30
0.000000
  70
    32
  0
VERTEX
  8
SAPA_FOGBAND
  5
1FE7
 10
18.7631
 20
-64.0287
 30
0.000000
  70
    32
  0
VERTEX
  8
SAPA_FOGBAND
  5
1FE8
 10
18.9249
 20
-64.0289
 30
0.000000
  70
    32
  0
VERTEX
  8
SAPA_FOGBAND
  5
1FE9
 10
19.0864
 20
-64.0260
 30
0.000000
  70
    32
  0
VERTEX
  8
SAPA_FOGBAND
  5
1FEA
 10
19.2471
 20
-64.0202
 30
0.000000
  70
    32
  0
VERTEX
  8
SAPA_FOGBAND
  5
1FEB
 10
19.4068
 20
-64.0114
 30
0.000000
  70
    32
  0
VERTEX
  8
SAPA_FOGBAND
  5
1FEC
 10
19.5648
 20
-63.9997
 30
0.000000
  70
    32
  0
VERTEX
  8
SAPA_FOGBAND
  5
1FED
 10
19.7210
 20
-63.9851
 30
0.000000
  70
    32
  0
VERTEX
  8
SAPA_FOGBAND
  5
1FEE
 10
19.8749
 20
-63.9676
 30
0.000000
  70
    32
  0
VERTEX
  8
SAPA_FOGBAND
  5
1FEF
 10
20.0262
 20
-63.9473
 30
0.000000
  70
    32
  0
VERTEX
  8
SAPA_FOGBAND
  5
1FF0
 10
20.1744
 20
-63.9242
 30
0.000000
  70
    32
  0
VERTEX
  8
SAPA_FOGBAND
  5
1FF1
 10
20.3193
 20
-63.8984
 30
0.000000
  70
    32
  0
VERTEX
  8
SAPA_FOGBAND
  5
1FF2
 10
20.4605
 20
-63.8699
 30
0.000000
  70
    32
  0
VERTEX
  8
SAPA_FOGBAND
  5
1FF3
 10
20.5976
 20
-63.8389
 30
0.000000
  70
    32
  0
VERTEX
  8
SAPA_FOGBAND
  5
1FF4
 10
20.7303
 20
-63.8053
 30
0.000000
  70
    32
  0
VERTEX
  8
SAPA_FOGBAND
  5
1FF5
 10
20.8582
 20
-63.7693
 30
0.000000
  70
    32
  0
VERTEX
  8
SAPA_FOGBAND
  5
1FF6
 10
20.9812
 20
-63.7309
 30
0.000000
  70
    32
  0
VERTEX
  8
SAPA_FOGBAND
  5
1FF7
 10
21.0989
 20
-63.6903
 30
0.000000
  70
    32
  0
VERTEX
  8
SAPA_FOGBAND
  5
1FF8
 10
21.2110
 20
-63.6475
 30
0.000000
  70
    32
  0
VERTEX
  8
SAPA_FOGBAND
  5
1FF9
 10
21.3171
 20
-63.6026
 30
0.000000
  70
    32
  0
VERTEX
  8
SAPA_FOGBAND
  5
1FFA
 10
21.4172
 20
-63.5558
 30
0.000000
  70
    32
  0
VERTEX
  8
SAPA_FOGBAND
  5
1FFB
 10
21.5109
 20
-63.5072
 30
0.000000
  70
    32
  0
VERTEX
  8
SAPA_FOGBAND
  5
1FFC
 10
21.5981
 20
-63.4569
 30
0.000000
  70
    32
  0
VERTEX
  8
SAPA_FOGBAND
  5
1FFD
 10
21.6784
 20
-63.4049
 30
0.000000
  70
    32
  0
VERTEX
  8
SAPA_FOGBAND
  5
1FFE
 10
21.7517
 20
-63.3515
 30
0.000000
  70
    32
  0
VERTEX
  8
SAPA_FOGBAND
  5
1FFF
 10
21.8179
 20
-63.2967
 30
0.000000
  70
    32
  0
VERTEX
  8
SAPA_FOGBAND
  5
2000
 10
21.8767
 20
-63.2408
 30
0.000000
  70
    32
  0
VERTEX
  8
SAPA_FOGBAND
  5
2001
 10
21.9280
 20
-63.1837
 30
0.000000
  70
    32
  0
VERTEX
  8
SAPA_FOGBAND
  5
2002
 10
21.9718
 20
-63.1257
 30
0.000000
  70
    32
  0
VERTEX
  8
SAPA_FOGBAND
  5
2003
 10
22.0078
 20
-63.0669
 30
0.000000
  70
    32
  0
VERTEX
  8
SAPA_FOGBAND
  5
2004
 10
22.0361
 20
-63.0075
 30
0.000000
  70
    32
  0
VERTEX
  8
SAPA_FOGBAND
  5
2005
 10
22.0565
 20
-62.9475
 30
0.000000
  70
    32
  0
VERTEX
  8
SAPA_FOGBAND
  5
2006
 10
22.0690
 20
-62.8872
 30
0.000000
  70
    32
  0
VERTEX
  8
SAPA_FOGBAND
  5
2007
 10
22.0736
 20
-62.8267
 30
0.000000
  70
    32
  0
SEQEND
  8
SAPA_FOGBAND
  5
2008
  0
CIRCLE
  5
1A16
  8
SAPA_FOGBAND
 10
-23.10609718256833
 20
-36.800000000001774
 30
0.0
 40
0.2549509756796394
  0
POLYLINE
  5
1A17
  8
SAPA_FOGBAND
 66
     1
 10
0.0
 20
0.0
 30
0.0
 70
     1
  0
VERTEX
  5
1F1F
  8
SAPA_FOGBAND
 10
-20.756097182568372
 20
-35.500000000001769
 30
0.0
 42
-0.4142135623730951
  0
VERTEX
  5
1F20
  8
SAPA_FOGBAND
 10
-20.95609718256836
 20
-35.300000000001774
 30
0.0
  0
VERTEX
  5
1F21
  8
SAPA_FOGBAND
 10
-20.95609718256836
 20
-33.500000000001762
 30
0.0
 42
-0.9999999999999998
  0
VERTEX
  5
1F22
  8
SAPA_FOGBAND
 10
-19.656097182568342
 20
-33.500000000001762
 30
0.0
  0
VERTEX
  5
1F23
  8
SAPA_FOGBAND
 10
-19.656097182568342
 20
-35.300000000001774
 30
0.0
 42
-0.4142135623730951
  0
VERTEX
  5
1F24
  8
SAPA_FOGBAND
 10
-19.85609718256833
 20
-35.500000000001769
 30
0.0
  0
VERTEX
  5
1F25
  8
SAPA_FOGBAND
 10
-20.60609718256833
 20
-35.500000000001769
 30
0.0
  0
SEQEND
  5
1F26
  8
SAPA_FOGBAND
  0
POLYLINE
  5
1A18
  8
SAPA_FOGBAND
 66
     1
 10
0.0
 20
0.0
 30
0.0
 70
     1
  0
VERTEX
  5
1F27
  8
SAPA_FOGBAND
 10
-16.35250734408211
 20
-35.500000000001769
 30
0.0
 42
0.267949192431121
  0
VERTEX
  5
1F28
  8
SAPA_FOGBAND
 10
-16.179302263325241
 20
-35.400000000001739
 30
0.0
 42
-0.7673269879789569
  0
VERTEX
  5
1F29
  8
SAPA_FOGBAND
 10
-15.806097182568379
 20
-35.500000000001769
 30
0.0
  0
VERTEX
  5
1F2A
  8
SAPA_FOGBAND
 10
-15.806097182568379
 20
-42.782887030406009
 30
0.0
 42
-0.4602937089574736
  0
VERTEX
  5
1F2B
  8
SAPA_FOGBAND
 10
-16.03691948990874
 20
-42.980497721843051
 30
0.0
  0
VERTEX
  5
1F2C
  8
SAPA_FOGBAND
 10
-18.496255621435431
 20
-42.387406737847577
 30
0.0
 42
0.6910703998708235
  0
VERTEX
  5
1F2D
  8
SAPA_FOGBAND
 10
-18.68090533877071
 20
-42.712834204139313
 30
0.0
  0
VERTEX
  5
1F2E
  8
SAPA_FOGBAND
 10
-15.98270461602797
 20
-43.008274837719739
 30
0.0
 42
-0.928378177954751
  0
VERTEX
  5
1F2F
  8
SAPA_FOGBAND
 10
-16.41328166356217
 20
-43.423753435875142
 30
0.0
  0
VERTEX
  5
1F30
  8
SAPA_FOGBAND
 10
-19.558520932849689
 20
-43.228542559027183
 30
0.0
 42
0.6076316918600427
  0
VERTEX
  5
1F31
  8
SAPA_FOGBAND
 10
-19.807435306312499
 20
-43.323096729694377
 30
0.0
 42
-0.38070580105552
  0
VERTEX
  5
1F32
  8
SAPA_FOGBAND
 10
-20.006097182568372
 20
-43.500000000001712
 30
0.0
  0
VERTEX
  5
1F33
  8
SAPA_FOGBAND
 10
-20.306097182568379
 20
-43.500000000001712
 30
0.0
  0
VERTEX
  5
1F34
  8
SAPA_FOGBAND
 10
-20.60609718256833
 20
-43.500000000001712
 30
0.0
 42
-0.3807058010555201
  0
VERTEX
  5
1F35
  8
SAPA_FOGBAND
 10
-20.80475905882415
 20
-43.323096729694321
 30
0.0
 42
0.6076316918600374
  0
VERTEX
  5
1F36
  8
SAPA_FOGBAND
 10
-21.05367343228701
 20
-43.228542559027183
 30
0.0
  0
VERTEX
  5
1F37
  8
SAPA_FOGBAND
 10
-24.30728834899568
 20
-43.423753435875021
 30
0.0
 42
-0.9283781779547513
  0
VERTEX
  5
1F38
  8
SAPA_FOGBAND
 10
-24.737865396529891
 20
-43.008274837719561
 30
0.0
  0
VERTEX
  5
1F39
  8
SAPA_FOGBAND
 10
-21.901351173053371
 20
-42.709922924871421
 30
0.0
 42
0.6910703998708235
  0
VERTEX
  5
1F3A
  8
SAPA_FOGBAND
 10
-22.08600089038865
 20
-42.384495458579693
 30
0.0
  0
VERTEX
  5
1F3B
  8
SAPA_FOGBAND
 10
-24.575274875227962
 20
-42.980497721843051
 30
0.0
 42
-0.4602937089574736
  0
VERTEX
  5
1F3C
  8
SAPA_FOGBAND
 10
-24.806097182568379
 20
-42.782887030406009
 30
0.0
  0
VERTEX
  5
1F3D
  8
SAPA_FOGBAND
 10
-24.806097182568379
 20
-35.500000000001769
 30
0.0
 42
-0.7673269879789572
  0
VERTEX
  5
1F3E
  8
SAPA_FOGBAND
 10
-24.432892101811461
 20
-35.400000000001739
 30
0.0
 42
0.267949192431121
  0
VERTEX
  5
1F3F
  8
SAPA_FOGBAND
 10
-24.259687021054589
 20
-35.500000000001769
 30
0.0
  0
VERTEX
  5
1F40
  8
SAPA_FOGBAND
 10
-22.056097182568379
 20
-35.500000000001769
 30
0.0
 42
0.4142135623730946
  0
VERTEX
  5
1F41
  8
SAPA_FOGBAND
 10
-21.95609718256836
 20
-35.400000000001739
 30
0.0
  0
VERTEX
  5
1F42
  8
SAPA_FOGBAND
 10
-21.95609718256836
 20
-34.400000000001739
 30
0.0
  0
VERTEX
  5
1F43
  8
SAPA_FOGBAND
 10
-22.314152428794191
 20
-34.291388579560873
 30
0.0
 42
-0.4364998583843341
  0
VERTEX
  5
1F44
  8
SAPA_FOGBAND
 10
-22.44256251866463
 20
-34.027676570640949
 30
0.0
  0
VERTEX
  5
1F45
  8
SAPA_FOGBAND
 10
-21.903703725183021
 20
-32.638382853197591
 30
0.0
 42
-0.3095538907669666
  0
VERTEX
  5
1F46
  8
SAPA_FOGBAND
 10
-20.971377044701772
 20
-32.000000000001762
 30
0.0
  0
VERTEX
  5
1F47
  8
SAPA_FOGBAND
 10
-19.64081732043493
 20
-32.000000000001762
 30
0.0
 42
-0.3095538907669666
  0
VERTEX
  5
1F48
  8
SAPA_FOGBAND
 10
-18.708490639953681
 20
-32.638382853197591
 30
0.0
  0
VERTEX
  5
1F49
  8
SAPA_FOGBAND
 10
-18.169631846472129
 20
-34.027676570640949
 30
0.0
 42
-0.4364998583843343
  0
VERTEX
  5
1F4A
  8
SAPA_FOGBAND
 10
-18.298041936342571
 20
-34.291388579560873
 30
0.0
  0
VERTEX
  5
1F4B
  8
SAPA_FOGBAND
 10
-18.656097182568342
 20
-34.400000000001739
 30
0.0
  0
VERTEX
  5
1F4C
  8
SAPA_FOGBAND
 10
-18.656097182568342
 20
-35.400000000001739
 30
0.0
 42
0.4142135623730946
  0
VERTEX
  5
1F4D
  8
SAPA_FOGBAND
 10
-18.556097182568379
 20
-35.500000000001769
 30
0.0
  0
SEQEND
  5
1F4E
  8
SAPA_FOGBAND
  0
POLYLINE
  5
1A19
  8
SAPA_FOGBAND
 66
     1
 10
0.0
 20
0.0
 30
0.0
 70
     1
  0
VERTEX
  5
1F4F
  8
SAPA_FOGBAND
 10
-18.48222962509012
 20
-37.800000000001774
 30
0.0
 42
-0.3042268896177264
  0
VERTEX
  5
1F50
  8
SAPA_FOGBAND
 10
-18.20469714878746
 20
-37.986088961918078
 30
0.0
 42
-0.2901372376591382
  0
VERTEX
  5
1F51
  8
SAPA_FOGBAND
 10
-18.25498244300567
 20
-40.213945402555062
 30
0.0
 42
-0.1927175523564936
  0
VERTEX
  5
1F52
  8
SAPA_FOGBAND
 10
-18.41528242299276
 20
-40.368941574663609
 30
0.0
 42
-0.1963728951991371
  0
VERTEX
  5
1F53
  8
SAPA_FOGBAND
 10
-22.196911942143942
 20
-40.368941574663609
 30
0.0
 42
-0.1927175523564951
  0
VERTEX
  5
1F54
  8
SAPA_FOGBAND
 10
-22.357211922131029
 20
-40.213945402555062
 30
0.0
 42
-0.2901372376591384
  0
VERTEX
  5
1F55
  8
SAPA_FOGBAND
 10
-22.407497216349299
 20
-37.986088961918078
 30
0.0
 42
-0.3042268896177278
  0
VERTEX
  5
1F56
  8
SAPA_FOGBAND
 10
-22.129964740046582
 20
-37.800000000001774
 30
0.0
  0
SEQEND
  5
1F57
  8
SAPA_FOGBAND
  0
POLYLINE
  5
1A1A
  8
SAPA_FOGBAND
 66
     1
 10
0.0
 20
0.0
 30
0.0
 70
     1
  0
VERTEX
  5
1F58
  8
SAPA_FOGBAND
 10
-8.6651515997366175
 20
-64.360800493659568
 30
0.0
  0
VERTEX
  5
1F59
  8
SAPA_FOGBAND
 10
-11.666478762305101
 20
-64.852752833549417
 30
0.0
 42
-0.4464785874932524
  0
VERTEX
  5
1F5A
  8
SAPA_FOGBAND
 10
-12.77515401925686
 20
-63.858675528443662
 30
0.0
  0
VERTEX
  5
1F5B
  8
SAPA_FOGBAND
 10
-12.77515401925686
 20
-62.313435434750787
 30
0.0
 42
-0.622676997742357
  0
VERTEX
  5
1F5C
  8
SAPA_FOGBAND
 10
-11.164479532643069
 20
-61.52155370658739
 30
0.0
  0
VERTEX
  5
1F5D
  8
SAPA_FOGBAND
 10
-8.1631523700736768
 20
-62.44077696863998
 30
0.0
 42
-0.232531183213058
  0
VERTEX
  5
1F5E
  8
SAPA_FOGBAND
 10
-7.7738268566865552
 20
-63.232658696803817
 30
0.0
  0
VERTEX
  5
1F5F
  8
SAPA_FOGBAND
 10
-7.7738268566874638
 20
-63.36672318855382
 30
0.0
 42
-0.3826682380870913
  0
SEQEND
  5
1F60
  8
SAPA_FOGBAND
  0
POLYLINE
  5
1A1B
  8
SAPA_FOGBAND
 66
     1
 10
0.0
 20
0.0
 30
0.0
 70
     1
  0
VERTEX
  5
1F61
  8
SAPA_FOGBAND
 10
-21.762137256029039
 20
-57.296201445460632
 30
0.0
 42
-0.4740571810231764
  0
VERTEX
  5
1F62
  8
SAPA_FOGBAND
 10
-21.88943111839237
 20
-57.013918859822319
 30
0.0
  0
VERTEX
  5
1F63
  8
SAPA_FOGBAND
 10
-21.269330615634519
 20
-55.56771272306198
 30
0.0
 42
-0.2846003776496257
  0
VERTEX
  5
1F64
  8
SAPA_FOGBAND
 10
-20.821686437173611
 20
-55.290456274014119
 30
0.0
  0
VERTEX
  5
1F65
  8
SAPA_FOGBAND
 10
-19.199060456843849
 20
-55.290456274014119
 30
0.0
 42
-0.2846003776496159
  0
VERTEX
  5
1F66
  8
SAPA_FOGBAND
 10
-18.751416278382951
 20
-55.567712723062421
 30
0.0
  0
VERTEX
  5
1F67
  8
SAPA_FOGBAND
 10
-18.131315775625101
 20
-57.013918859822311
 30
0.0
 42
-0.4740571810232354
  0
VERTEX
  5
1F68
  8
SAPA_FOGBAND
 10
-18.258609637987519
 20
-57.296201445460618
 30
0.0
  0
VERTEX
  5
1F69
  8
SAPA_FOGBAND
 10
-18.510373447008732
 20
-57.363661354771018
 30
0.0
  0
VERTEX
  5
1F6A
  8
SAPA_FOGBAND
 10
-18.510373447008732
 20
-58.305086771653372
 30
0.0
 42
0.4142135623730951
  0
VERTEX
  5
1F6B
  8
SAPA_FOGBAND
 10
-18.010373447008732
 20
-58.805086771653357
 30
0.0
  0
VERTEX
  5
1F6C
  8
SAPA_FOGBAND
 10
-14.98227389627411
 20
-58.80508677165291
 30
0.0
 42
-0.1657205760184635
  0
VERTEX
  5
1F6D
  8
SAPA_FOGBAND
 10
-14.37159940966032
 20
-59.013205043489521
 30
0.0
  0
VERTEX
  5
1F6E
  8
SAPA_FOGBAND
 10
-5.0037090191837876
 20
-62.407790128345383
 30
0.0
 42
-0.2325311832130358
  0
VERTEX
  5
1F6F
  8
SAPA_FOGBAND
 10
-4.8090462624897734
 20
-62.803730992427532
 30
0.0
  0
VERTEX
  5
1F70
  8
SAPA_FOGBAND
 10
-4.8090462624897734
 20
-64.034474548865106
 30
0.0
 42
-0.3826682380870913
  0
VERTEX
  5
1F71
  8
SAPA_FOGBAND
 10
-5.7003710055398349
 20
-65.028551853970853
 30
0.0
  0
VERTEX
  5
1F72
  8
SAPA_FOGBAND
 10
-11.30483976583602
 20
-65.805086771653365
 30
0.0
  0
VERTEX
  5
1F73
  8
SAPA_FOGBAND
 10
-25.01037342505899
 20
-65.805086771653365
 30
0.0
 42
-0.4257917699693507
  0
VERTEX
  5
1F74
  8
SAPA_FOGBAND
 10
-25.31014097865793
 20
-65.49327940912282
 30
0.0
  0
VERTEX
  5
1F75
  8
SAPA_FOGBAND
 10
-24.82230116398771
 20
-59.093279409122282
 30
0.0
 42
-0.4027293761437475
  0
VERTEX
  5
1F76
  8
SAPA_FOGBAND
 10
-24.522533610390589
 20
-58.80508677165291
 30
0.0
  0
VERTEX
  5
1F77
  8
SAPA_FOGBAND
 10
-22.010373447008732
 20
-58.805086771653372
 30
0.0
 42
0.4142135623730951
  0
VERTEX
  5
1F78
  8
SAPA_FOGBAND
 10
-21.510373447008739
 20
-58.305086771653372
 30
0.0
  0
VERTEX
  5
1F79
  8
SAPA_FOGBAND
 10
-21.510373447008739
 20
-57.363661354771033
 30
0.0
  0
SEQEND
  5
1F7A
  8
SAPA_FOGBAND
  0
POLYLINE
  5
1A1C
  8
SAPA_FOGBAND
 66
     1
 10
0.0
 20
0.0
 30
0.0
 70
     1
  0
VERTEX
  5
1F7B
  8
SAPA_FOGBAND
 10
-19.110373447009088
 20
-56.890456274014483
 30
0.0
  0
VERTEX
  5
1F7C
  8
SAPA_FOGBAND
 10
-19.110373447009088
 20
-57.490456274014392
 30
0.0
 42
-0.9999999999999998
  0
VERTEX
  5
1F7D
  8
SAPA_FOGBAND
 10
-20.910373447008372
 20
-57.490456274014392
 30
0.0
  0
VERTEX
  5
1F7E
  8
SAPA_FOGBAND
 10
-20.910373447008372
 20
-56.890456274014483
 30
0.0
 42
-0.9999999999999998
  0
SEQEND
  5
1F7F
  8
SAPA_FOGBAND
  0
POLYLINE
  5
1A1D
  8
SAPA_FOGBAND
 66
     1
 10
0.0
 20
0.0
 30
0.0
  0
VERTEX
  5
1F80
  8
SAPA_FOGBAND
 10
-23.610373447009099
 20
-58.80508677165291
 30
0.0
  0
VERTEX
  5
1F81
  8
SAPA_FOGBAND
 10
-23.610373447009099
 20
-59.105086771653092
 30
0.0
 42
0.4142135623730951
  0
VERTEX
  5
1F82
  8
SAPA_FOGBAND
 10
-23.110373447009099
 20
-59.605086771653092
 30
0.0
  0
VERTEX
  5
1F83
  8
SAPA_FOGBAND
 10
-15.810373447008001
 20
-59.605086771653092
 30
0.0
 42
0.4142135623730951
  0
VERTEX
  5
1F84
  8
SAPA_FOGBAND
 10
-15.310373447008001
 20
-59.105086771653092
 30
0.0
  0
VERTEX
  5
1F85
  8
SAPA_FOGBAND
 10
-15.31037344700891
 20
-58.80508677165291
 30
0.0
  0
SEQEND
  5
1F86
  8
SAPA_FOGBAND
  0
POLYLINE
  5
1A1E
  8
SAPA_FOGBAND
 10
-22.07362058084594
 20
-62.826656685502826
 30
0.0
 66
     1
 70
     8
  0
VERTEX
  8
SAPA_FOGBAND
  5
2009
 10
-22.0736
 20
-62.8267
 30
0.000000
  70
    32
  0
VERTEX
  8
SAPA_FOGBAND
  5
200A
 10
-22.0703
 20
-62.7660
 30
0.000000
  70
    32
  0
VERTEX
  8
SAPA_FOGBAND
  5
200B
 10
-22.0589
 20
-62.7055
 30
0.000000
  70
    32
  0
VERTEX
  8
SAPA_FOGBAND
  5
200C
 10
-22.0397
 20
-62.6451
 30
0.000000
  70
    32
  0
VERTEX
  8
SAPA_FOGBAND
  5
200D
 10
-22.0126
 20
-62.5851
 30
0.000000
  70
    32
  0
VERTEX
  8
SAPA_FOGBAND
  5
200E
 10
-21.9778
 20
-62.5256
 30
0.000000
  70
    32
  0
VERTEX
  8
SAPA_FOGBAND
  5
200F
 10
-21.9352
 20
-62.4668
 30
0.000000
  70
    32
  0
VERTEX
  8
SAPA_FOGBAND
  5
2010
 10
-21.8850
 20
-62.4087
 30
0.000000
  70
    32
  0
VERTEX
  8
SAPA_FOGBAND
  5
2011
 10
-21.8273
 20
-62.3516
 30
0.000000
  70
    32
  0
VERTEX
  8
SAPA_FOGBAND
  5
2012
 10
-21.7622
 20
-62.2955
 30
0.000000
  70
    32
  0
VERTEX
  8
SAPA_FOGBAND
  5
2013
 10
-21.6900
 20
-62.2406
 30
0.000000
  70
    32
  0
VERTEX
  8
SAPA_FOGBAND
  5
2014
 10
-21.6107
 20
-62.1871
 30
0.000000
  70
    32
  0
VERTEX
  8
SAPA_FOGBAND
  5
2015
 10
-21.5246
 20
-62.1350
 30
0.000000
  70
    32
  0
VERTEX
  8
SAPA_FOGBAND
  5
2016
 10
-21.4319
 20
-62.0846
 30
0.000000
  70
    32
  0
VERTEX
  8
SAPA_FOGBAND
  5
2017
 10
-21.3327
 20
-62.0358
 30
0.000000
  70
    32
  0
VERTEX
  8
SAPA_FOGBAND
  5
2018
 10
-21.2275
 20
-61.9888
 30
0.000000
  70
    32
  0
VERTEX
  8
SAPA_FOGBAND
  5
2019
 10
-21.1163
 20
-61.9438
 30
0.000000
  70
    32
  0
VERTEX
  8
SAPA_FOGBAND
  5
201A
 10
-20.9994
 20
-61.9009
 30
0.000000
  70
    32
  0
VERTEX
  8
SAPA_FOGBAND
  5
201B
 10
-20.8773
 20
-61.8601
 30
0.000000
  70
    32
  0
VERTEX
  8
SAPA_FOGBAND
  5
201C
 10
-20.7500
 20
-61.8215
 30
0.000000
  70
    32
  0
VERTEX
  8
SAPA_FOGBAND
  5
201D
 10
-20.6180
 20
-61.7853
 30
0.000000
  70
    32
  0
VERTEX
  8
SAPA_FOGBAND
  5
201E
 10
-20.4815
 20
-61.7515
 30
0.000000
  70
    32
  0
VERTEX
  8
SAPA_FOGBAND
  5
201F
 10
-20.3410
 20
-61.7202
 30
0.000000
  70
    32
  0
VERTEX
  8
SAPA_FOGBAND
  5
2020
 10
-20.1967
 20
-61.6915
 30
0.000000
  70
    32
  0
VERTEX
  8
SAPA_FOGBAND
  5
2021
 10
-20.0489
 20
-61.6655
 30
0.000000
  70
    32
  0
VERTEX
  8
SAPA_FOGBAND
  5
2022
 10
-19.8981
 20
-61.6422
 30
0.000000
  70
    32
  0
VERTEX
  8
SAPA_FOGBAND
  5
2023
 10
-19.7446
 20
-61.6216
 30
0.000000
  70
    32
  0
VERTEX
  8
SAPA_FOGBAND
  5
2024
 10
-19.5887
 20
-61.6039
 30
0.000000
  70
    32
  0
VERTEX
  8
SAPA_FOGBAND
  5
2025
 10
-19.4309
 20
-61.5891
 30
0.000000
  70
    32
  0
VERTEX
  8
SAPA_FOGBAND
  5
2026
 10
-19.2715
 20
-61.5771
 30
0.000000
  70
    32
  0
VERTEX
  8
SAPA_FOGBAND
  5
2027
 10
-19.1109
 20
-61.5681
 30
0.000000
  70
    32
  0
VERTEX
  8
SAPA_FOGBAND
  5
2028
 10
-18.9495
 20
-61.5620
 30
0.000000
  70
    32
  0
VERTEX
  8
SAPA_FOGBAND
  5
2029
 10
-18.7876
 20
-61.5589
 30
0.000000
  70
    32
  0
VERTEX
  8
SAPA_FOGBAND
  5
202A
 10
-18.6258
 20
-61.5588
 30
0.000000
  70
    32
  0
VERTEX
  8
SAPA_FOGBAND
  5
202B
 10
-18.4643
 20
-61.5616
 30
0.000000
  70
    32
  0
VERTEX
  8
SAPA_FOGBAND
  5
202C
 10
-18.3036
 20
-61.5675
 30
0.000000
  70
    32
  0
VERTEX
  8
SAPA_FOGBAND
  5
202D
 10
-18.1439
 20
-61.5762
 30
0.000000
  70
    32
  0
VERTEX
  8
SAPA_FOGBAND
  5
202E
 10
-17.9859
 20
-61.5879
 30
0.000000
  70
    32
  0
VERTEX
  8
SAPA_FOGBAND
  5
202F
 10
-17.8297
 20
-61.6026
 30
0.000000
  70
    32
  0
VERTEX
  8
SAPA_FOGBAND
  5
2030
 10
-17.6758
 20
-61.6200
 30
0.000000
  70
    32
  0
VERTEX
  8
SAPA_FOGBAND
  5
2031
 10
-17.5245
 20
-61.6404
 30
0.000000
  70
    32
  0
VERTEX
  8
SAPA_FOGBAND
  5
2032
 10
-17.3763
 20
-61.6634
 30
0.000000
  70
    32
  0
VERTEX
  8
SAPA_FOGBAND
  5
2033
 10
-17.2314
 20
-61.6893
 30
0.000000
  70
    32
  0
VERTEX
  8
SAPA_FOGBAND
  5
2034
 10
-17.0902
 20
-61.7177
 30
0.000000
  70
    32
  0
VERTEX
  8
SAPA_FOGBAND
  5
2035
 10
-16.9532
 20
-61.7488
 30
0.000000
  70
    32
  0
VERTEX
  8
SAPA_FOGBAND
  5
2036
 10
-16.8204
 20
-61.7824
 30
0.000000
  70
    32
  0
VERTEX
  8
SAPA_FOGBAND
  5
2037
 10
-16.6925
 20
-61.8184
 30
0.000000
  70
    32
  0
VERTEX
  8
SAPA_FOGBAND
  5
2038
 10
-16.5695
 20
-61.8568
 30
0.000000
  70
    32
  0
VERTEX
  8
SAPA_FOGBAND
  5
2039
 10
-16.4518
 20
-61.8974
 30
0.000000
  70
    32
  0
VERTEX
  8
SAPA_FOGBAND
  5
203A
 10
-16.3398
 20
-61.9402
 30
0.000000
  70
    32
  0
VERTEX
  8
SAPA_FOGBAND
  5
203B
 10
-16.2336
 20
-61.9850
 30
0.000000
  70
    32
  0
VERTEX
  8
SAPA_FOGBAND
  5
203C
 10
-16.1335
 20
-62.0318
 30
0.000000
  70
    32
  0
VERTEX
  8
SAPA_FOGBAND
  5
203D
 10
-16.0398
 20
-62.0805
 30
0.000000
  70
    32
  0
VERTEX
  8
SAPA_FOGBAND
  5
203E
 10
-15.9527
 20
-62.1308
 30
0.000000
  70
    32
  0
VERTEX
  8
SAPA_FOGBAND
  5
203F
 10
-15.8723
 20
-62.1827
 30
0.000000
  70
    32
  0
VERTEX
  8
SAPA_FOGBAND
  5
2040
 10
-15.7990
 20
-62.2362
 30
0.000000
  70
    32
  0
VERTEX
  8
SAPA_FOGBAND
  5
2041
 10
-15.7329
 20
-62.2909
 30
0.000000
  70
    32
  0
VERTEX
  8
SAPA_FOGBAND
  5
2042
 10
-15.6740
 20
-62.3469
 30
0.000000
  70
    32
  0
VERTEX
  8
SAPA_FOGBAND
  5
2043
 10
-15.6227
 20
-62.4039
 30
0.000000
  70
    32
  0
VERTEX
  8
SAPA_FOGBAND
  5
2044
 10
-15.5789
 20
-62.4619
 30
0.000000
  70
    32
  0
VERTEX
  8
SAPA_FOGBAND
  5
2045
 10
-15.5429
 20
-62.5207
 30
0.000000
  70
    32
  0
VERTEX
  8
SAPA_FOGBAND
  5
2046
 10
-15.5146
 20
-62.5802
 30
0.000000
  70
    32
  0
VERTEX
  8
SAPA_FOGBAND
  5
2047
 10
-15.4942
 20
-62.6401
 30
0.000000
  70
    32
  0
VERTEX
  8
SAPA_FOGBAND
  5
2048
 10
-15.4817
 20
-62.7004
 30
0.000000
  70
    32
  0
VERTEX
  8
SAPA_FOGBAND
  5
2049
 10
-15.4771
 20
-62.7610
 30
0.000000
  70
    32
  0
VERTEX
  8
SAPA_FOGBAND
  5
204A
 10
-15.4805
 20
-62.8216
 30
0.000000
  70
    32
  0
VERTEX
  8
SAPA_FOGBAND
  5
204B
 10
-15.4918
 20
-62.8822
 30
0.000000
  70
    32
  0
VERTEX
  8
SAPA_FOGBAND
  5
204C
 10
-15.5110
 20
-62.9426
 30
0.000000
  70
    32
  0
VERTEX
  8
SAPA_FOGBAND
  5
204D
 10
-15.5381
 20
-63.0025
 30
0.000000
  70
    32
  0
VERTEX
  8
SAPA_FOGBAND
  5
204E
 10
-15.5729
 20
-63.0620
 30
0.000000
  70
    32
  0
VERTEX
  8
SAPA_FOGBAND
  5
204F
 10
-15.6155
 20
-63.1209
 30
0.000000
  70
    32
  0
VERTEX
  8
SAPA_FOGBAND
  5
2050
 10
-15.6657
 20
-63.1789
 30
0.000000
  70
    32
  0
VERTEX
  8
SAPA_FOGBAND
  5
2051
 10
-15.7234
 20
-63.2361
 30
0.000000
  70
    32
  0
VERTEX
  8
SAPA_FOGBAND
  5
2052
 10
-15.7885
 20
-63.2921
 30
0.000000
  70
    32
  0
VERTEX
  8
SAPA_FOGBAND
  5
2053
 10
-15.8607
 20
-63.3470
 30
0.000000
  70
    32
  0
VERTEX
  8
SAPA_FOGBAND
  5
2054
 10
-15.9400
 20
-63.4005
 30
0.000000
  70
    32
  0
VERTEX
  8
SAPA_FOGBAND
  5
2055
 10
-16.0261
 20
-63.4526
 30
0.000000
  70
    32
  0
VERTEX
  8
SAPA_FOGBAND
  5
2056
 10
-16.1188
 20
-63.5031
 30
0.000000
  70
    32
  0
VERTEX
  8
SAPA_FOGBAND
  5
2057
 10
-16.2180
 20
-63.5519
 30
0.000000
  70
    32
  0
VERTEX
  8
SAPA_FOGBAND
  5
2058
 10
-16.3232
 20
-63.5988
 30
0.000000
  70
    32
  0
VERTEX
  8
SAPA_FOGBAND
  5
2059
 10
-16.4344
 20
-63.6438
 30
0.000000
  70
    32
  0
VERTEX
  8
SAPA_FOGBAND
  5
205A
 10
-16.5513
 20
-63.6868
 30
0.000000
  70
    32
  0
VERTEX
  8
SAPA_FOGBAND
  5
205B
 10
-16.6735
 20
-63.7276
 30
0.000000
  70
    32
  0
VERTEX
  8
SAPA_FOGBAND
  5
205C
 10
-16.8007
 20
-63.7662
 30
0.000000
  70
    32
  0
VERTEX
  8
SAPA_FOGBAND
  5
205D
 10
-16.9327
 20
-63.8024
 30
0.000000
  70
    32
  0
VERTEX
  8
SAPA_FOGBAND
  5
205E
 10
-17.0692
 20
-63.8362
 30
0.000000
  70
    32
  0
VERTEX
  8
SAPA_FOGBAND
  5
205F
 10
-17.2097
 20
-63.8674
 30
0.000000
  70
    32
  0
VERTEX
  8
SAPA_FOGBAND
  5
2060
 10
-17.3540
 20
-63.8961
 30
0.000000
  70
    32
  0
VERTEX
  8
SAPA_FOGBAND
  5
2061
 10
-17.5018
 20
-63.9222
 30
0.000000
  70
    32
  0
VERTEX
  8
SAPA_FOGBAND
  5
2062
 10
-17.6526
 20
-63.9455
 30
0.000000
  70
    32
  0
VERTEX
  8
SAPA_FOGBAND
  5
2063
 10
-17.8062
 20
-63.9660
 30
0.000000
  70
    32
  0
VERTEX
  8
SAPA_FOGBAND
  5
2064
 10
-17.9620
 20
-63.9838
 30
0.000000
  70
    32
  0
VERTEX
  8
SAPA_FOGBAND
  5
2065
 10
-18.1198
 20
-63.9986
 30
0.000000
  70
    32
  0
VERTEX
  8
SAPA_FOGBAND
  5
2066
 10
-18.2792
 20
-64.0106
 30
0.000000
  70
    32
  0
VERTEX
  8
SAPA_FOGBAND
  5
2067
 10
-18.4398
 20
-64.0196
 30
0.000000
  70
    32
  0
VERTEX
  8
SAPA_FOGBAND
  5
2068
 10
-18.6012
 20
-64.0256
 30
0.000000
  70
    32
  0
VERTEX
  8
SAPA_FOGBAND
  5
2069
 10
-18.7631
 20
-64.0287
 30
0.000000
  70
    32
  0
VERTEX
  8
SAPA_FOGBAND
  5
206A
 10
-18.9249
 20
-64.0289
 30
0.000000
  70
    32
  0
VERTEX
  8
SAPA_FOGBAND
  5
206B
 10
-19.0864
 20
-64.0260
 30
0.000000
  70
    32
  0
VERTEX
  8
SAPA_FOGBAND
  5
206C
 10
-19.2472
 20
-64.0202
 30
0.000000
  70
    32
  0
VERTEX
  8
SAPA_FOGBAND
  5
206D
 10
-19.4068
 20
-64.0114
 30
0.000000
  70
    32
  0
VERTEX
  8
SAPA_FOGBAND
  5
206E
 10
-19.5648
 20
-63.9997
 30
0.000000
  70
    32
  0
VERTEX
  8
SAPA_FOGBAND
  5
206F
 10
-19.7210
 20
-63.9851
 30
0.000000
  70
    32
  0
VERTEX
  8
SAPA_FOGBAND
  5
2070
 10
-19.8749
 20
-63.9676
 30
0.000000
  70
    32
  0
VERTEX
  8
SAPA_FOGBAND
  5
2071
 10
-20.0262
 20
-63.9473
 30
0.000000
  70
    32
  0
VERTEX
  8
SAPA_FOGBAND
  5
2072
 10
-20.1744
 20
-63.9242
 30
0.000000
  70
    32
  0
VERTEX
  8
SAPA_FOGBAND
  5
2073
 10
-20.3193
 20
-63.8984
 30
0.000000
  70
    32
  0
VERTEX
  8
SAPA_FOGBAND
  5
2074
 10
-20.4605
 20
-63.8699
 30
0.000000
  70
    32
  0
VERTEX
  8
SAPA_FOGBAND
  5
2075
 10
-20.5976
 20
-63.8389
 30
0.000000
  70
    32
  0
VERTEX
  8
SAPA_FOGBAND
  5
2076
 10
-20.7303
 20
-63.8053
 30
0.000000
  70
    32
  0
VERTEX
  8
SAPA_FOGBAND
  5
2077
 10
-20.8583
 20
-63.7693
 30
0.000000
  70
    32
  0
VERTEX
  8
SAPA_FOGBAND
  5
2078
 10
-20.9812
 20
-63.7309
 30
0.000000
  70
    32
  0
VERTEX
  8
SAPA_FOGBAND
  5
2079
 10
-21.0989
 20
-63.6903
 30
0.000000
  70
    32
  0
VERTEX
  8
SAPA_FOGBAND
  5
207A
 10
-21.2110
 20
-63.6475
 30
0.000000
  70
    32
  0
VERTEX
  8
SAPA_FOGBAND
  5
207B
 10
-21.3172
 20
-63.6026
 30
0.000000
  70
    32
  0
VERTEX
  8
SAPA_FOGBAND
  5
207C
 10
-21.4172
 20
-63.5558
 30
0.000000
  70
    32
  0
VERTEX
  8
SAPA_FOGBAND
  5
207D
 10
-21.5109
 20
-63.5072
 30
0.000000
  70
    32
  0
VERTEX
  8
SAPA_FOGBAND
  5
207E
 10
-21.5981
 20
-63.4569
 30
0.000000
  70
    32
  0
VERTEX
  8
SAPA_FOGBAND
  5
207F
 10
-21.6784
 20
-63.4049
 30
0.000000
  70
    32
  0
VERTEX
  8
SAPA_FOGBAND
  5
2080
 10
-21.7517
 20
-63.3515
 30
0.000000
  70
    32
  0
VERTEX
  8
SAPA_FOGBAND
  5
2081
 10
-21.8179
 20
-63.2967
 30
0.000000
  70
    32
  0
VERTEX
  8
SAPA_FOGBAND
  5
2082
 10
-21.8767
 20
-63.2408
 30
0.000000
  70
    32
  0
VERTEX
  8
SAPA_FOGBAND
  5
2083
 10
-21.9280
 20
-63.1837
 30
0.000000
  70
    32
  0
VERTEX
  8
SAPA_FOGBAND
  5
2084
 10
-21.9718
 20
-63.1257
 30
0.000000
  70
    32
  0
VERTEX
  8
SAPA_FOGBAND
  5
2085
 10
-22.0078
 20
-63.0669
 30
0.000000
  70
    32
  0
VERTEX
  8
SAPA_FOGBAND
  5
2086
 10
-22.0361
 20
-63.0075
 30
0.000000
  70
    32
  0
VERTEX
  8
SAPA_FOGBAND
  5
2087
 10
-22.0565
 20
-62.9475
 30
0.000000
  70
    32
  0
VERTEX
  8
SAPA_FOGBAND
  5
2088
 10
-22.0690
 20
-62.8872
 30
0.000000
  70
    32
  0
VERTEX
  8
SAPA_FOGBAND
  5
2089
 10
-22.0736
 20
-62.8267
 30
0.000000
  70
    32
  0
SEQEND
  8
SAPA_FOGBAND
  5
208A
  0
VIEWPORT
  5
C4
 67
     1
  8
0
 10
160.5543545598442
 20
116.00969601843509
 30
0.0
 40
404.96977709277462
 41
256.8421457311839
 68
     1
 69
     1
1001
ACAD
1000
MVIEW
1002
{
1070
    16
1010
0.0
1020
0.0
1030
0.0
1010
0.0
1020
0.0
1030
1.0
1040
0.0
1040
256.8421457311839
1040
99.206250190734863
1040
130.70624923706049
1040
50.0
1040
0.0
1040
0.0
1070
     0
1070
     0
1070
     1
1070
     1
1070
     0
1070
     0
1070
     0
1070
     0
1040
0.0
1040
0.0
1040
0.0
1040
10.0
1040
10.0
1040
10.0
1040
10.0
1070
     0
1002
{
1002
}
1002
}
  0
ENDSEC
  0
EOF
