  0
SECTION
  2
HEADER
  9
$ACADVER
  1
AC1009
  9
$INSBASE
 10
0.0
 20
0.0
 30
0.0
  9
$EXTMIN
 10
-40.999999999999602
 20
-93.378873565215713
 30
0.0
  9
$EXTMAX
 10
47.597770331070933
 20
49.450631429252319
 30
0.0
  9
$LIMMIN
 10
0.0
 20
0.0
  9
$LIMMAX
 10
790.0
 20
790.0
  9
$ORTHOMODE
 70
     1
  9
$REGENMODE
 70
     1
  9
$FILLMODE
 70
     1
  9
$QTEXTMODE
 70
     0
  9
$MIRRTEXT
 70
     1
  9
$DRAGMODE
 70
     2
  9
$LTSCALE
 40
4.0
  9
$OSMODE
 70
   167
  9
$ATTMODE
 70
     1
  9
$TEXTSIZE
 40
3.5
  9
$TRACEWID
 40
0.05
  9
$TEXTSTYLE
  7
ISO
  9
$CLAYER
  8
0
  9
$CELTYPE
  6
BYLAYER
  9
$CECOLOR
 62
   256
  9
$DIMSCALE
 40
0.0
  9
$DIMASZ
 40
3.0
  9
$DIMEXO
 40
1.5
  9
$DIMDLI
 40
10.0
  9
$DIMRND
 40
0.0
  9
$DIMDLE
 40
0.0
  9
$DIMEXE
 40
1.5
  9
$DIMTP
 40
0.0
  9
$DIMTM
 40
0.0
  9
$DIMTXT
 40
3.0
  9
$DIMCEN
 40
-5.0
  9
$DIMTSZ
 40
0.0
  9
$DIMTOL
 70
     0
  9
$DIMLIM
 70
     0
  9
$DIMTIH
 70
     0
  9
$DIMTOH
 70
     0
  9
$DIMSE1
 70
     0
  9
$DIMSE2
 70
     0
  9
$DIMTAD
 70
     1
  9
$DIMZIN
 70
     8
  9
$DIMBLK
  1

  9
$DIMASO
 70
     1
  9
$DIMSHO
 70
     1
  9
$DIMPOST
  1

  9
$DIMAPOST
  1

  9
$DIMALT
 70
     0
  9
$DIMALTD
 70
     0
  9
$DIMALTF
 40
25.399999999999999
  9
$DIMLFAC
 40
-1.0
  9
$DIMTOFL
 70
     1
  9
$DIMTVP
 40
0.0
  9
$DIMTIX
 70
     0
  9
$DIMSOXD
 70
     0
  9
$DIMSAH
 70
     0
  9
$DIMBLK1
  1

  9
$DIMBLK2
  1

  9
$DIMSTYLE
  2
MASKIN
  9
$DIMCLRD
 70
   256
  9
$DIMCLRE
 70
   256
  9
$DIMCLRT
 70
     2
  9
$DIMTFAC
 40
1.0
  9
$DIMGAP
 40
1.0
  9
$LUNITS
 70
     2
  9
$LUPREC
 70
     8
  9
$SKETCHINC
 40
0.1
  9
$FILLETRAD
 40
0.0
  9
$AUNITS
 70
     0
  9
$AUPREC
 70
     8
  9
$MENU
  1
ACAD
  9
$ELEVATION
 40
0.0
  9
$PELEVATION
 40
0.0
  9
$THICKNESS
 40
0.0
  9
$LIMCHECK
 70
     0
  9
$BLIPMODE
 70
     0
  9
$CHAMFERA
 40
0.0
  9
$CHAMFERB
 40
0.0
  9
$SKPOLY
 70
     0
  9
$TDCREATE
 40
2456239.6176051619
  9
$TDUPDATE
 40
2456577.5923546869
  9
$TDINDWG
 40
0.0141088889
  9
$TDUSRTIMER
 40
0.0141088889
  9
$USRTIMER
 70
     1
  9
$ANGBASE
 50
0.0
  9
$ANGDIR
 70
     0
  9
$PDMODE
 70
     0
  9
$PDSIZE
 40
0.0
  9
$PLINEWID
 40
0.0
  9
$COORDS
 70
     1
  9
$SPLFRAME
 70
     0
  9
$SPLINETYPE
 70
     6
  9
$SPLINESEGS
 70
     8
  9
$ATTDIA
 70
     0
  9
$ATTREQ
 70
     1
  9
$HANDLING
 70
     1
  9
$HANDSEED
  5
1A51
  9
$SURFTAB1
 70
     6
  9
$SURFTAB2
 70
     6
  9
$SURFTYPE
 70
     6
  9
$SURFU
 70
     6
  9
$SURFV
 70
     6
  9
$UCSNAME
  2

  9
$UCSORG
 10
0.0
 20
0.0
 30
0.0
  9
$UCSXDIR
 10
1.0
 20
0.0
 30
0.0
  9
$UCSYDIR
 10
0.0
 20
1.0
 30
0.0
  9
$PUCSNAME
  2

  9
$PUCSORG
 10
0.0
 20
0.0
 30
0.0
  9
$PUCSXDIR
 10
1.0
 20
0.0
 30
0.0
  9
$PUCSYDIR
 10
0.0
 20
1.0
 30
0.0
  9
$USERI1
 70
     0
  9
$USERI2
 70
     0
  9
$USERI3
 70
     0
  9
$USERI4
 70
     0
  9
$USERI5
 70
     0
  9
$USERR1
 40
0.0
  9
$USERR2
 40
0.0
  9
$USERR3
 40
0.0
  9
$USERR4
 40
0.0
  9
$USERR5
 40
0.0
  9
$WORLDVIEW
 70
     1
  9
$SHADEDGE
 70
     3
  9
$SHADEDIF
 70
    70
  9
$TILEMODE
 70
     1
  9
$MAXACTVP
 70
    16
  9
$PLIMCHECK
 70
     0
  9
$PEXTMIN
 10
1.0000000000000000E+020
 20
1.0000000000000000E+020
 30
1.0000000000000000E+020
  9
$PEXTMAX
 10
-1.0000000000000000E+020
 20
-1.0000000000000000E+020
 30
-1.0000000000000000E+020
  9
$PLIMMIN
 10
-5.069427490234375
 20
-5.8737497329711914
  9
$PLIMMAX
 10
291.89889526367187
 20
204.0995779037475
  9
$UNITMODE
 70
     0
  9
$VISRETAIN
 70
     1
  9
$PLINEGEN
 70
     0
  9
$PSLTSCALE
 70
     1
  0
ENDSEC
  0
SECTION
  2
TABLES
  0
TABLE
  2
VPORT
 70
     1
  0
VPORT
  2
*ACTIVE
 70
     0
 10
0.0
 20
0.0
 11
1.0
 21
1.0
 12
32.373298405652633
 22
15.545056124025781
 13
0.0
 23
0.0
 14
1.0
 24
1.0
 15
0.0
 25
0.0
 16
0.0
 26
0.0
 36
1.0
 17
0.0
 27
0.0
 37
0.0
 40
228.1321069847483
 41
2.112307692307692
 42
50.0
 43
0.0
 44
0.0
 50
0.0
 51
0.0
 71
     0
 72
   100
 73
     1
 74
     1
 75
     0
 76
     0
 77
     0
 78
     0
  0
ENDTAB
  0
TABLE
  2
LTYPE
 70
    42
  0
LTYPE
  2
CONTINUOUS
 70
     0
  3
Solid line
 72
    65
 73
     0
 40
0.0
  0
LTYPE
  2
NEWDOT
 70
     0
  3
____ . ____ . ____ . ____ . ____ . ____ . ____
 72
    65
 73
     4
 40
2.0
 49
1.0
 49
-0.5
 49
0.0
 49
-0.5
  0
LTYPE
  2
DASHDOT
 70
     0
  3
__ . __ . __ . __ . __ . __ . __ . __ . __ . __
 72
    65
 73
     4
 40
1.0
 49
0.5
 49
-0.25
 49
0.0
 49
-0.25
  0
LTYPE
  2
DASHED
 70
     0
  3
__ __ __ __ __ __ __ __ __ __ __ __ __ __ __
 72
    65
 73
     2
 40
0.75
 49
0.5
 49
-0.25
  0
LTYPE
  2
PHANTOM
 70
     0
  3
Phantom ______  __  __  ______  __  __  ______
 72
    65
 73
     6
 40
63.5
 49
31.75
 49
-6.3499999999999988
 49
6.3499999999999988
 49
-6.3499999999999988
 49
6.3499999999999988
 49
-6.3499999999999988
  0
LTYPE
  2
BYGG-018516$0$NEWDOT
 70
     0
  3
____ . ____ . ____ . ____ . ____ . ____ . ____
 72
    65
 73
     4
 40
2.0
 49
1.0
 49
-0.5
 49
0.0
 49
-0.5
  0
LTYPE
  2
BYGG-018516$0$ZIGZAG
 70
     0
  3
Zig zag /\/\/\/\/\/\/\/\/\/\/\/\/\/\/\/\/\/\/\/\/\/\/\/
 72
    65
 73
     4
 40
20.32254
 49
0.00254
 49
-5.0800000000000001
 49
-10.16
 49
-5.0800000000000001
  0
LTYPE
  2
BYGG-018731$0$NEWDOT
 70
     0
  3
____ . ____ . ____ . ____ . ____ . ____ . ____
 72
    65
 73
     4
 40
2.0
 49
1.0
 49
-0.5
 49
0.0
 49
-0.5
  0
LTYPE
  2
BYGG-018731$0$DASHDOT
 70
     0
  3
__ . __ . __ . __ . __ . __ . __ . __ . __ . __
 72
    65
 73
     4
 40
1.0
 49
0.5
 49
-0.25
 49
0.0
 49
-0.25
  0
LTYPE
  2
BYGG-018731$0$DASHED
 70
     0
  3
__ __ __ __ __ __ __ __ __ __ __ __ __ __ __
 72
    65
 73
     2
 40
0.75
 49
0.5
 49
-0.25
  0
LTYPE
  2
BYGG-018731$0$PHANTOM
 70
     0
  3
Phantom ______  __  __  ______  __  __  ______
 72
    65
 73
     6
 40
63.5
 49
31.75
 49
-6.3499999999999988
 49
6.3499999999999988
 49
-6.3499999999999988
 49
6.3499999999999988
 49
-6.3499999999999988
  0
LTYPE
  2
BYGG-029261$0$NEWDOT
 70
     0
  3
____ . ____ . ____ . ____ . ____ . ____ . ____
 72
    65
 73
     4
 40
2.0
 49
1.0
 49
-0.5
 49
0.0
 49
-0.5
  0
LTYPE
  2
BYGG-029261$0$DASHDOT
 70
     0
  3
__ . __ . __ . __ . __ . __ . __ . __ . __ . __
 72
    65
 73
     4
 40
1.0
 49
0.5
 49
-0.25
 49
0.0
 49
-0.25
  0
LTYPE
  2
BYGG-029261$0$DASHED
 70
     0
  3
__ __ __ __ __ __ __ __ __ __ __ __ __ __ __
 72
    65
 73
     2
 40
0.75
 49
0.5
 49
-0.25
  0
LTYPE
  2
BYGG-029261$0$PHANTOM
 70
     0
  3
Phantom ______  __  __  ______  __  __  ______
 72
    65
 73
     6
 40
63.5
 49
31.75
 49
-6.3499999999999988
 49
6.3499999999999988
 49
-6.3499999999999988
 49
6.3499999999999988
 49
-6.3499999999999988
  0
LTYPE
  2
BYGG-019653$0$NEWDOT
 70
     0
  3
____ . ____ . ____ . ____ . ____ . ____ . ____
 72
    65
 73
     4
 40
2.0
 49
1.0
 49
-0.5
 49
0.0
 49
-0.5
  0
LTYPE
  2
BYGG-019653$0$DASHDOT
 70
     0
  3
__ . __ . __ . __ . __ . __ . __ . __ . __ . __
 72
    65
 73
     4
 40
1.0
 49
0.5
 49
-0.25
 49
0.0
 49
-0.25
  0
LTYPE
  2
BYGG-019653$0$DASHED
 70
     0
  3
__ __ __ __ __ __ __ __ __ __ __ __ __ __ __
 72
    65
 73
     2
 40
0.75
 49
0.5
 49
-0.25
  0
LTYPE
  2
BYGG-019653$0$PHANTOM
 70
     0
  3
Phantom ______  __  __  ______  __  __  ______
 72
    65
 73
     6
 40
63.5
 49
31.75
 49
-6.3499999999999988
 49
6.3499999999999988
 49
-6.3499999999999988
 49
6.3499999999999988
 49
-6.3499999999999988
  0
LTYPE
  2
BYGG-019652$0$NEWDOT
 70
     0
  3
____ . ____ . ____ . ____ . ____ . ____ . ____
 72
    65
 73
     4
 40
2.0
 49
1.0
 49
-0.5
 49
0.0
 49
-0.5
  0
LTYPE
  2
BYGG-019652$0$DASHDOT
 70
     0
  3
__ . __ . __ . __ . __ . __ . __ . __ . __ . __
 72
    65
 73
     4
 40
1.0
 49
0.5
 49
-0.25
 49
0.0
 49
-0.25
  0
LTYPE
  2
BYGG-019652$0$DASHED
 70
     0
  3
__ __ __ __ __ __ __ __ __ __ __ __ __ __ __
 72
    65
 73
     2
 40
0.75
 49
0.5
 49
-0.25
  0
LTYPE
  2
BYGG-019652$0$PHANTOM
 70
     0
  3
Phantom ______  __  __  ______  __  __  ______
 72
    65
 73
     6
 40
63.5
 49
31.75
 49
-6.3499999999999988
 49
6.3499999999999988
 49
-6.3499999999999988
 49
6.3499999999999988
 49
-6.3499999999999988
  0
LTYPE
  2
PHANTOM2
 70
     0
  3
Phantom (.5x) ___ _ _ ___ _ _ ___ _ _ ___ _ _
 72
    65
 73
     6
 40
1.25
 49
0.625
 49
-0.125
 49
0.125
 49
-0.125
 49
0.125
 49
-0.125
  0
LTYPE
  2
BYGG-022089$0$NEWDOT
 70
     0
  3
____ . ____ . ____ . ____ . ____ . ____ . ____
 72
    65
 73
     4
 40
2.0
 49
1.0
 49
-0.5
 49
0.0
 49
-0.5
  0
LTYPE
  2
BYGG-022089$0$DASHDOT
 70
     0
  3
__ . __ . __ . __ . __ . __ . __ . __ . __ . __
 72
    65
 73
     4
 40
1.0
 49
0.5
 49
-0.25
 49
0.0
 49
-0.25
  0
LTYPE
  2
BYGG-022089$0$DASHED
 70
     0
  3
__ __ __ __ __ __ __ __ __ __ __ __ __ __ __
 72
    65
 73
     2
 40
0.75
 49
0.5
 49
-0.25
  0
LTYPE
  2
BYGG-022089$0$PHANTOM
 70
     0
  3
Phantom ______  __  __  ______  __  __  ______
 72
    65
 73
     6
 40
63.5
 49
31.75
 49
-6.3499999999999988
 49
6.3499999999999988
 49
-6.3499999999999988
 49
6.3499999999999988
 49
-6.3499999999999988
  0
LTYPE
  2
BYGG-019716$0$NEWDOT
 70
     0
  3
____ . ____ . ____ . ____ . ____ . ____ . ____
 72
    65
 73
     4
 40
2.0
 49
1.0
 49
-0.5
 49
0.0
 49
-0.5
  0
LTYPE
  2
BYGG-019716$0$DASHDOT
 70
     0
  3
__ . __ . __ . __ . __ . __ . __ . __ . __ . __
 72
    65
 73
     4
 40
1.0
 49
0.5
 49
-0.25
 49
0.0
 49
-0.25
  0
LTYPE
  2
BYGG-019716$0$DASHED
 70
     0
  3
__ __ __ __ __ __ __ __ __ __ __ __ __ __ __
 72
    65
 73
     2
 40
0.75
 49
0.5
 49
-0.25
  0
LTYPE
  2
BYGG-019716$0$PHANTOM
 70
     0
  3
Phantom ______  __  __  ______  __  __  ______
 72
    65
 73
     6
 40
63.5
 49
31.75
 49
-6.3499999999999988
 49
6.3499999999999988
 49
-6.3499999999999988
 49
6.3499999999999988
 49
-6.3499999999999988
  0
LTYPE
  2
BYGG-019705$0$NEWDOT
 70
     0
  3
____ . ____ . ____ . ____ . ____ . ____ . ____
 72
    65
 73
     4
 40
2.0
 49
1.0
 49
-0.5
 49
0.0
 49
-0.5
  0
LTYPE
  2
BYGG-019705$0$DASHDOT
 70
     0
  3
__ . __ . __ . __ . __ . __ . __ . __ . __ . __
 72
    65
 73
     4
 40
1.0
 49
0.5
 49
-0.25
 49
0.0
 49
-0.25
  0
LTYPE
  2
BYGG-019705$0$DASHED
 70
     0
  3
__ __ __ __ __ __ __ __ __ __ __ __ __ __ __
 72
    65
 73
     2
 40
0.75
 49
0.5
 49
-0.25
  0
LTYPE
  2
BYGG-019705$0$PHANTOM
 70
     0
  3
Phantom ______  __  __  ______  __  __  ______
 72
    65
 73
     6
 40
63.5
 49
31.75
 49
-6.3499999999999988
 49
6.3499999999999988
 49
-6.3499999999999988
 49
6.3499999999999988
 49
-6.3499999999999988
  0
LTYPE
  2
BYGG-022089$0$PHANTOM2
 70
     0
  3
Phantom (.5x) ___ _ _ ___ _ _ ___ _ _ ___ _ _
 72
    65
 73
     6
 40
1.25
 49
0.625
 49
-0.125
 49
0.125
 49
-0.125
 49
0.125
 49
-0.125
  0
LTYPE
  2
BYGG-019716$0$PHANTOM2
 70
     0
  3
Phantom (.5x) ___ _ _ ___ _ _ ___ _ _ ___ _ _
 72
    65
 73
     6
 40
1.25
 49
0.625
 49
-0.125
 49
0.125
 49
-0.125
 49
0.125
 49
-0.125
  0
LTYPE
  2
BYGG-019653$0$DOT_CENTER
 70
     0
  3
Dot_Center
 72
    65
 73
     4
 40
14.0
 49
12.0
 49
-1.0
 49
0.0
 49
-1.0
  0
LTYPE
  2
BYGG-019653$0$DASH_CENTER
 70
     0
  3
Dash_Center
 72
    65
 73
     4
 40
14.0
 49
11.0
 49
-1.0
 49
1.0
 49
-1.0
  0
LTYPE
  2
BYGG-019652$0$DOT_CENTER
 70
     0
  3
Dot_Center
 72
    65
 73
     4
 40
14.0
 49
12.0
 49
-1.0
 49
0.0
 49
-1.0
  0
LTYPE
  2
BYGG-019652$0$DASH_CENTER
 70
     0
  3
Dash_Center
 72
    65
 73
     4
 40
14.0
 49
11.0
 49
-1.0
 49
1.0
 49
-1.0
  0
ENDTAB
  0
TABLE
  2
LAYER
 70
   218
  0
LAYER
  2
0
 70
     0
 62
     7
  6
CONTINUOUS
  0
LAYER
  2
SAPA_GLAS
 70
     0
 62
     4
  6
CONTINUOUS
  0
LAYER
  2
SAPA_FYLLNING
 70
     0
 62
     4
  6
CONTINUOUS
  0
LAYER
  2
SAPA_ISOLATOR
 70
     0
 62
     4
  6
CONTINUOUS
  0
LAYER
  2
SAPA_FOGBAND
 70
     0
 62
     2
  6
CONTINUOUS
  0
LAYER
  2
SAPA_PROFIL
 70
     0
 62
     7
  6
CONTINUOUS
  0
ENDTAB
  0
TABLE
  2
STYLE
 70
    26
  0
STYLE
  2
STANDARD
 70
     0
 40
0.0
 41
1.0
 50
0.0
 71
     0
 42
0.2
  3
txt
  4

  0
STYLE
  2
ISO
 70
     0
 40
0.0
 41
1.0
 50
0.0
 71
     0
 42
3.5
  3
txt
  4

  0
STYLE
  2

 70
     1
 40
0.0
 41
1.0
 50
0.0
 71
     0
 42
0.2
  3
ltypeshp.shx
  4

  0
STYLE
  2
ANNOTATIVE
 70
     0
 40
0.0
 41
1.0
 50
0.0
 71
     0
 42
0.2
  3
txt
  4

  0
STYLE
  2
BYGG-021665$0$STANDARD
 70
     0
 40
0.0
 41
1.0
 50
0.0
 71
     0
 42
0.2
  3
txt
  4

  0
STYLE
  2
BYGG-021665$0$ISO
 70
     0
 40
0.0
 41
1.0
 50
0.0
 71
     0
 42
3.5
  3
isocp3.shx
  4

  0
STYLE
  2
BYGG-018516$0$STANDARD
 70
     0
 40
0.0
 41
1.0
 50
0.0
 71
     0
 42
0.2
  3
txt
  4

  0
STYLE
  2
BYGG-018516$0$ISO
 70
     0
 40
0.0
 41
1.0
 50
0.0
 71
     0
 42
3.5
  3
isocp3.shx
  4

  0
STYLE
  2
BYGG-022089$0$STANDARD
 70
     0
 40
0.0
 41
1.0
 50
0.0
 71
     0
 42
0.2
  3
txt
  4

  0
STYLE
  2
BYGG-022089$0$ISO
 70
     0
 40
0.0
 41
1.0
 50
0.0
 71
     0
 42
3.5
  3
txt
  4

  0
STYLE
  2
BYGG-022089$0$ANNOTATIVE
 70
     0
 40
0.0
 41
1.0
 50
0.0
 71
     0
 42
0.2
  3
txt
  4

  0
STYLE
  2
BYGG-018731$0$STANDARD
 70
     0
 40
0.0
 41
1.0
 50
0.0
 71
     0
 42
0.2
  3
txt
  4

  0
STYLE
  2
BYGG-018731$0$ISO
 70
     0
 40
0.0
 41
1.0
 50
0.0
 71
     0
 42
3.5
  3
txt
  4

  0
STYLE
  2
BYGG-029261$0$STANDARD
 70
     0
 40
0.0
 41
1.0
 50
0.0
 71
     0
 42
0.2
  3
txt
  4

  0
STYLE
  2
BYGG-029261$0$ISO
 70
     0
 40
0.0
 41
1.0
 50
0.0
 71
     0
 42
3.5
  3
txt
  4

  0
STYLE
  2
BYGG-019716$0$STANDARD
 70
     0
 40
0.0
 41
1.0
 50
0.0
 71
     0
 42
0.2
  3
txt
  4

  0
STYLE
  2
BYGG-019716$0$ISO
 70
     0
 40
0.0
 41
1.0
 50
0.0
 71
     0
 42
3.5
  3
txt
  4

  0
STYLE
  2
BYGG-019716$0$ANNOTATIVE
 70
     0
 40
0.0
 41
1.0
 50
0.0
 71
     0
 42
0.2
  3
txt
  4

  0
STYLE
  2
BYGG-019653$0$STANDARD
 70
     0
 40
0.0
 41
1.0
 50
0.0
 71
     0
 42
0.2
  3
txt
  4

  0
STYLE
  2
BYGG-019653$0$ISO
 70
     0
 40
0.0
 41
1.0
 50
0.0
 71
     0
 42
3.5
  3
txt
  4

  0
STYLE
  2
BYGG-019653$0$CONVERTER_11
 70
     0
 40
0.0
 41
0.72
 50
0.0
 71
     0
 42
0.2
  3
txt.shx
  4

  0
STYLE
  2
BYGG-019652$0$STANDARD
 70
     0
 40
0.0
 41
1.0
 50
0.0
 71
     0
 42
0.2
  3
txt
  4

  0
STYLE
  2
BYGG-019652$0$ISO
 70
     0
 40
0.0
 41
1.0
 50
0.0
 71
     0
 42
3.5
  3
txt
  4

  0
STYLE
  2
BYGG-019652$0$CONVERTER_11
 70
     0
 40
0.0
 41
0.72
 50
0.0
 71
     0
 42
0.2
  3
txt.shx
  4

  0
STYLE
  2
BYGG-019705$0$STANDARD
 70
     0
 40
0.0
 41
1.0
 50
0.0
 71
     0
 42
0.2
  3
txt
  4

  0
STYLE
  2
BYGG-019705$0$ISO
 70
     0
 40
0.0
 41
1.0
 50
0.0
 71
     0
 42
3.5
  3
txt
  4

  0
ENDTAB
  0
TABLE
  2
VIEW
 70
     0
  0
ENDTAB
  0
TABLE
  2
UCS
 70
     0
  0
ENDTAB
  0
TABLE
  2
APPID
 70
    18
  0
APPID
  2
ACAD
 70
     0
  0
APPID
  2
ACAD_DSTYLE_DIMTEXT_FILL
 70
     0
  0
APPID
  2
ACAD_DSTYLE_DIMEXT_LENGTH
 70
     0
  0
APPID
  2
ACAD_DSTYLE_DIMEXT_ENABLED
 70
     0
  0
APPID
  2
ACAD_DSTYLE_DIM_LINETYPE
 70
     0
  0
APPID
  2
ACAD_DSTYLE_DIM_EXT1_LINETYPE
 70
     0
  0
APPID
  2
ACAD_DSTYLE_DIM_EXT2_LINETYPE
 70
     0
  0
APPID
  2
ACAD_DSTYLE_DIMJOGGED_JOGA
 70
     0
  0
APPID
  2
ACAD_DSTYLE_DIMARC_LENGTH_
 70
     0
  0
APPID
  2
ACAD_PSEXT
 70
     0
  0
APPID
  2
ACAD_MLEADERVER
 70
     0
  0
APPID
  2
ACAD_NAV_VCDISPLAY
 70
     0
  0
APPID
  2
ACADANNOTATIVE
 70
     0
  0
APPID
  2
ACAECLAYERSTANDARD
 70
     0
  0
APPID
  2
ACAD_EXEMPT_FROM_CAD_STANDARDS
 70
     0
  0
APPID
  2
GRADIENTCOLOR1ACI
 70
     0
  0
APPID
  2
GRADIENTCOLOR2ACI
 70
     0
  0
APPID
  2
ACCMTRANSPARENCY
 70
     0
  0
ENDTAB
  0
TABLE
  2
DIMSTYLE
 70
    57
  0
DIMSTYLE
  2
STANDARD
 70
     0
  3

  4

  5

  6

  7

 40
1.0
 41
0.18
 42
0.0625
 43
0.38
 44
0.18
 45
0.0
 46
0.0
 47
0.0
 48
0.0
140
0.18
141
0.09
142
0.0
143
25.399999999999999
144
1.0
145
0.0
146
1.0
147
0.09
 71
     0
 72
     0
 73
     1
 74
     1
 75
     0
 76
     0
 77
     0
 78
     0
170
     0
171
     2
172
     0
173
     0
174
     0
175
     0
176
     0
177
     0
178
     0
  0
DIMSTYLE
  2
MASKIN
 70
     0
  3

  4

  5

  6

  7

 40
0.0
 41
3.0
 42
1.5
 43
10.0
 44
1.5
 45
0.0
 46
0.0
 47
0.0
 48
0.0
140
3.0
141
-5.0
142
0.0
143
25.399999999999999
144
-1.0
145
0.0
146
1.0
147
1.0
 71
     0
 72
     0
 73
     0
 74
     0
 75
     0
 76
     0
 77
     1
 78
     8
170
     0
171
     0
172
     1
173
     0
174
     0
175
     0
176
   256
177
   256
178
     2
  0
DIMSTYLE
  2
ANNOTATIVE
 70
     0
  3

  4

  5

  6

  7

 40
1.0
 41
0.18
 42
0.0625
 43
0.38
 44
0.18
 45
0.0
 46
0.0
 47
0.0
 48
0.0
140
0.18
141
0.09
142
0.0
143
25.399999999999999
144
1.0
145
0.0
146
1.0
147
0.09
 71
     0
 72
     0
 73
     1
 74
     1
 75
     0
 76
     0
 77
     0
 78
     0
170
     0
171
     2
172
     0
173
     0
174
     0
175
     0
176
     0
177
     0
178
     0
  0
DIMSTYLE
  2
BYGG-021665$0$MASKIN
 70
     0
  3

  4

  5

  6

  7

 40
0.0
 41
3.0
 42
1.5
 43
10.0
 44
1.5
 45
0.0
 46
0.0
 47
0.0
 48
0.0
140
3.0
141
-5.0
142
0.0
143
25.399999999999999
144
-1.0
145
0.0
146
1.0
147
1.0
 71
     0
 72
     0
 73
     0
 74
     0
 75
     0
 76
     0
 77
     1
 78
     8
170
     0
171
     0
172
     1
173
     0
174
     0
175
     0
176
   256
177
   256
178
   256
  0
DIMSTYLE
  2
BYGG-018516$0$STANDARD
 70
     0
  3

  4

  5

  6

  7

 40
1.0
 41
0.18
 42
0.0625
 43
0.38
 44
0.18
 45
0.0
 46
0.0
 47
0.0
 48
0.0
140
0.18
141
0.09
142
0.0
143
25.399999999999999
144
1.0
145
0.0
146
1.0
147
0.09
 71
     0
 72
     0
 73
     1
 74
     1
 75
     0
 76
     0
 77
     0
 78
     0
170
     0
171
     2
172
     0
173
     0
174
     0
175
     0
176
     0
177
     0
178
     0
  0
DIMSTYLE
  2
BYGG-018516$0$MASKIN
 70
     0
  3

  4

  5

  6

  7

 40
0.0
 41
3.0
 42
1.5
 43
10.0
 44
1.5
 45
0.0
 46
0.0
 47
0.0
 48
0.0
140
3.0
141
-5.0
142
0.0
143
25.399999999999999
144
-1.0
145
0.0
146
1.0
147
1.0
 71
     0
 72
     0
 73
     0
 74
     0
 75
     0
 76
     0
 77
     1
 78
     8
170
     0
171
     0
172
     1
173
     0
174
     0
175
     0
176
   256
177
   256
178
     2
  0
DIMSTYLE
  2
BYGG-022089$0$STANDARD
 70
     0
  3

  4

  5

  6

  7

 40
1.0
 41
0.18
 42
0.0625
 43
0.38
 44
0.18
 45
0.0
 46
0.0
 47
0.0
 48
0.0
140
0.18
141
0.09
142
0.0
143
25.399999999999999
144
1.0
145
0.0
146
1.0
147
0.09
 71
     0
 72
     0
 73
     1
 74
     1
 75
     0
 76
     0
 77
     0
 78
     0
170
     0
171
     2
172
     0
173
     0
174
     0
175
     0
176
     0
177
     0
178
     0
  0
DIMSTYLE
  2
BYGG-022089$0$MASKIN
 70
     0
  3

  4

  5

  6

  7

 40
0.0
 41
3.0
 42
1.5
 43
10.0
 44
1.5
 45
0.0
 46
0.0
 47
0.0
 48
0.0
140
3.0
141
-5.0
142
0.0
143
25.399999999999999
144
-1.0
145
0.0
146
1.0
147
1.0
 71
     0
 72
     0
 73
     0
 74
     0
 75
     0
 76
     0
 77
     1
 78
     8
170
     0
171
     0
172
     1
173
     0
174
     0
175
     0
176
   256
177
   256
178
     2
  0
DIMSTYLE
  2
BYGG-022089$0$ANNOTATIVE
 70
     0
  3

  4

  5

  6

  7

 40
1.0
 41
0.18
 42
0.0625
 43
0.38
 44
0.18
 45
0.0
 46
0.0
 47
0.0
 48
0.0
140
0.18
141
0.09
142
0.0
143
25.399999999999999
144
1.0
145
0.0
146
1.0
147
0.09
 71
     0
 72
     0
 73
     1
 74
     1
 75
     0
 76
     0
 77
     0
 78
     0
170
     0
171
     2
172
     0
173
     0
174
     0
175
     0
176
     0
177
     0
178
     0
  0
DIMSTYLE
  2
BYGG-018731$0$STANDARD
 70
     0
  3

  4

  5

  6

  7

 40
1.0
 41
0.18
 42
0.0625
 43
0.38
 44
0.18
 45
0.0
 46
0.0
 47
0.0
 48
0.0
140
0.18
141
0.09
142
0.0
143
25.399999999999999
144
1.0
145
0.0
146
1.0
147
0.09
 71
     0
 72
     0
 73
     1
 74
     1
 75
     0
 76
     0
 77
     0
 78
     0
170
     0
171
     2
172
     0
173
     0
174
     0
175
     0
176
     0
177
     0
178
     0
  0
DIMSTYLE
  2
BYGG-018731$0$MASKIN
 70
     0
  3

  4

  5

  6

  7

 40
0.0
 41
3.0
 42
1.5
 43
10.0
 44
1.5
 45
0.0
 46
0.0
 47
0.0
 48
0.0
140
3.0
141
-5.0
142
0.0
143
25.399999999999999
144
-1.0
145
0.0
146
1.0
147
1.0
 71
     0
 72
     0
 73
     0
 74
     0
 75
     0
 76
     0
 77
     1
 78
     8
170
     0
171
     0
172
     1
173
     0
174
     0
175
     0
176
   256
177
   256
178
     2
  0
DIMSTYLE
  2
BYGG-029261$0$STANDARD
 70
     0
  3

  4

  5

  6

  7

 40
1.0
 41
0.18
 42
0.0625
 43
0.38
 44
0.18
 45
0.0
 46
0.0
 47
0.0
 48
0.0
140
0.18
141
0.09
142
0.0
143
25.399999999999999
144
1.0
145
0.0
146
1.0
147
0.09
 71
     0
 72
     0
 73
     1
 74
     1
 75
     0
 76
     0
 77
     0
 78
     0
170
     0
171
     2
172
     0
173
     0
174
     0
175
     0
176
     0
177
     0
178
     0
  0
DIMSTYLE
  2
BYGG-029261$0$MASKIN
 70
     0
  3

  4

  5

  6

  7

 40
0.0
 41
3.0
 42
1.5
 43
10.0
 44
1.5
 45
0.0
 46
0.0
 47
0.0
 48
0.0
140
3.0
141
-5.0
142
0.0
143
25.399999999999999
144
-1.0
145
0.0
146
1.0
147
1.0
 71
     0
 72
     0
 73
     0
 74
     0
 75
     0
 76
     0
 77
     1
 78
     8
170
     0
171
     0
172
     1
173
     0
174
     0
175
     0
176
   256
177
   256
178
     2
  0
DIMSTYLE
  2
BYGG-029261$0$ISO-25
 70
     0
  3

  4

  5

  6

  7

 40
1.0
 41
2.5
 42
0.625
 43
3.75
 44
1.25
 45
0.0
 46
0.0
 47
0.0
 48
0.0
140
2.5
141
2.5
142
0.0
143
0.03937007874016
144
1.0
145
0.0
146
1.0
147
0.625
 71
     0
 72
     0
 73
     0
 74
     0
 75
     0
 76
     0
 77
     1
 78
     8
170
     0
171
     3
172
     1
173
     0
174
     0
175
     0
176
     0
177
     0
178
     0
  0
DIMSTYLE
  2
BYGG-019716$0$STANDARD
 70
     0
  3

  4

  5

  6

  7

 40
1.0
 41
0.18
 42
0.0625
 43
0.38
 44
0.18
 45
0.0
 46
0.0
 47
0.0
 48
0.0
140
0.18
141
0.09
142
0.0
143
25.399999999999999
144
1.0
145
0.0
146
1.0
147
0.09
 71
     0
 72
     0
 73
     1
 74
     1
 75
     0
 76
     0
 77
     0
 78
     0
170
     0
171
     2
172
     0
173
     0
174
     0
175
     0
176
     0
177
     0
178
     0
  0
DIMSTYLE
  2
BYGG-019716$0$MASKIN
 70
     0
  3

  4

  5

  6

  7

 40
0.0
 41
3.0
 42
1.5
 43
10.0
 44
1.5
 45
0.0
 46
0.0
 47
0.0
 48
0.0
140
3.0
141
-5.0
142
0.0
143
25.399999999999999
144
-1.0
145
0.0
146
1.0
147
1.0
 71
     0
 72
     0
 73
     0
 74
     0
 75
     0
 76
     0
 77
     1
 78
     8
170
     0
171
     0
172
     1
173
     0
174
     0
175
     0
176
   256
177
   256
178
     2
  0
DIMSTYLE
  2
BYGG-019716$0$ANNOTATIVE
 70
     0
  3

  4

  5

  6

  7

 40
1.0
 41
0.18
 42
0.0625
 43
0.38
 44
0.18
 45
0.0
 46
0.0
 47
0.0
 48
0.0
140
0.18
141
0.09
142
0.0
143
25.399999999999999
144
1.0
145
0.0
146
1.0
147
0.09
 71
     0
 72
     0
 73
     1
 74
     1
 75
     0
 76
     0
 77
     0
 78
     0
170
     0
171
     2
172
     0
173
     0
174
     0
175
     0
176
     0
177
     0
178
     0
  0
DIMSTYLE
  2
BYGG-019653$0$STANDARD
 70
     0
  3

  4

  5

  6

  7

 40
1.0
 41
0.18
 42
0.0625
 43
0.38
 44
0.18
 45
0.0
 46
0.0
 47
0.0
 48
0.0
140
0.18
141
0.09
142
0.0
143
25.399999999999999
144
1.0
145
0.0
146
1.0
147
0.09
 71
     0
 72
     0
 73
     1
 74
     1
 75
     0
 76
     0
 77
     0
 78
     0
170
     0
171
     2
172
     0
173
     0
174
     0
175
     0
176
     0
177
     0
178
     0
  0
DIMSTYLE
  2
BYGG-019653$0$MASKIN
 70
     0
  3

  4

  5

  6

  7

 40
0.0
 41
3.0
 42
1.5
 43
10.0
 44
1.5
 45
0.0
 46
0.0
 47
0.0
 48
0.0
140
3.0
141
-5.0
142
0.0
143
25.399999999999999
144
-1.0
145
0.0
146
1.0
147
1.0
 71
     0
 72
     0
 73
     0
 74
     0
 75
     0
 76
     0
 77
     1
 78
     8
170
     0
171
     0
172
     1
173
     0
174
     0
175
     0
176
   256
177
   256
178
     2
  0
DIMSTYLE
  2
BYGG-019653$0$ME10_DIM_10
 70
     0
  3

  4

  5

  6

  7

 40
1.0
 41
0.7
 42
0.0
 43
0.38
 44
0.4
 45
0.0
 46
0.0
 47
0.0
 48
0.0
140
0.7
141
0.09
142
0.0
143
25.399999999999999
144
1.0
145
0.0
146
1.0
147
0.4
 71
     0
 72
     0
 73
     0
 74
     0
 75
     0
 76
     0
 77
     1
 78
     8
170
     0
171
     2
172
     1
173
     1
174
     0
175
     0
176
     1
177
     1
178
     2
  0
DIMSTYLE
  2
BYGG-019653$0$ME10_DIM_11
 70
     0
  3

  4

  5

  6

  7

 40
1.0
 41
0.7
 42
0.0
 43
0.38
 44
0.4
 45
0.0
 46
0.0
 47
0.0
 48
0.0
140
0.7
141
0.09
142
0.0
143
25.399999999999999
144
1.0
145
0.0
146
1.0
147
0.4
 71
     0
 72
     0
 73
     0
 74
     0
 75
     0
 76
     0
 77
     1
 78
     8
170
     0
171
     2
172
     1
173
     1
174
     0
175
     0
176
     1
177
     1
178
     2
  0
DIMSTYLE
  2
BYGG-019653$0$ME10_DIM_12
 70
     0
  3
(<>)
  4

  5

  6

  7

 40
1.0
 41
0.7
 42
0.0
 43
0.38
 44
0.4
 45
0.0
 46
0.0
 47
0.0
 48
0.0
140
0.7
141
0.09
142
0.0
143
25.399999999999999
144
1.0
145
0.0
146
1.0
147
0.4
 71
     0
 72
     0
 73
     0
 74
     0
 75
     0
 76
     0
 77
     1
 78
     8
170
     0
171
     2
172
     1
173
     1
174
     0
175
     0
176
     1
177
     1
178
     2
  0
DIMSTYLE
  2
BYGG-019653$0$ME10_DIM_13
 70
     0
  3

  4

  5

  6

  7

 40
1.0
 41
0.7
 42
0.0
 43
0.38
 44
0.4
 45
0.0
 46
0.0
 47
0.0
 48
0.0
140
0.7
141
0.09
142
0.0
143
25.399999999999999
144
1.0
145
0.0
146
1.0
147
0.4
 71
     0
 72
     0
 73
     0
 74
     0
 75
     0
 76
     0
 77
     1
 78
     8
170
     0
171
     2
172
     1
173
     1
174
     0
175
     0
176
     1
177
     1
178
     2
  0
DIMSTYLE
  2
BYGG-019653$0$ME10_DIM_14
 70
     0
  3

  4

  5

  6

  7

 40
1.0
 41
0.7
 42
0.0
 43
0.38
 44
0.4
 45
0.0
 46
0.0
 47
0.0
 48
0.0
140
0.7
141
0.09
142
0.0
143
25.399999999999999
144
1.0
145
0.0
146
1.0
147
0.4
 71
     0
 72
     0
 73
     0
 74
     0
 75
     0
 76
     0
 77
     1
 78
     8
170
     0
171
     2
172
     1
173
     1
174
     0
175
     0
176
     1
177
     1
178
     2
  0
DIMSTYLE
  2
BYGG-019653$0$ME10_DIM_15
 70
     0
  3

  4

  5

  6

  7

 40
1.0
 41
0.7
 42
0.0
 43
0.38
 44
0.4
 45
0.0
 46
0.0
 47
0.0
 48
0.0
140
0.7
141
0.09
142
0.0
143
25.399999999999999
144
1.0
145
0.0
146
1.0
147
0.4
 71
     0
 72
     0
 73
     0
 74
     0
 75
     0
 76
     0
 77
     1
 78
     8
170
     0
171
     2
172
     1
173
     1
174
     0
175
     0
176
     1
177
     1
178
     2
  0
DIMSTYLE
  2
BYGG-019653$0$ME10_DIM_16
 70
     0
  3

  4

  5

  6

  7

 40
1.0
 41
0.7
 42
0.0
 43
0.38
 44
0.4
 45
0.0
 46
0.0
 47
0.3
 48
0.3
140
0.7
141
0.09
142
0.0
143
25.399999999999999
144
1.0
145
0.0
146
0.6
147
0.4
 71
     1
 72
     0
 73
     0
 74
     0
 75
     0
 76
     0
 77
     1
 78
     8
170
     0
171
     2
172
     1
173
     1
174
     0
175
     0
176
     1
177
     1
178
     2
  0
DIMSTYLE
  2
BYGG-019653$0$ME10_DIM_17
 70
     0
  3

  4

  5

  6

  7

 40
1.0
 41
0.7
 42
0.0
 43
0.38
 44
0.4
 45
0.0
 46
0.0
 47
0.0
 48
0.0
140
0.7
141
0.09
142
0.0
143
25.399999999999999
144
1.0
145
0.0
146
1.0
147
0.4
 71
     0
 72
     0
 73
     0
 74
     0
 75
     0
 76
     0
 77
     1
 78
     8
170
     0
171
     2
172
     1
173
     1
174
     0
175
     0
176
     1
177
     1
178
     2
  0
DIMSTYLE
  2
BYGG-019653$0$ME10_DIM_18
 70
     0
  3

  4

  5

  6

  7

 40
1.0
 41
0.7
 42
0.0
 43
0.38
 44
0.4
 45
0.0
 46
0.0
 47
0.3
 48
0.3
140
0.7
141
0.09
142
0.0
143
25.399999999999999
144
1.0
145
0.0
146
0.6
147
0.4
 71
     1
 72
     0
 73
     0
 74
     0
 75
     0
 76
     0
 77
     1
 78
     8
170
     0
171
     2
172
     1
173
     1
174
     0
175
     0
176
     1
177
     1
178
     2
  0
DIMSTYLE
  2
BYGG-019653$0$ME10_DIM_19
 70
     0
  3

  4

  5

  6

  7

 40
1.0
 41
0.7
 42
0.0
 43
0.38
 44
0.4
 45
0.0
 46
0.0
 47
0.0
 48
0.0
140
0.7
141
0.09
142
0.0
143
25.399999999999999
144
1.0
145
0.0
146
1.0
147
0.4
 71
     0
 72
     0
 73
     0
 74
     0
 75
     0
 76
     0
 77
     1
 78
     8
170
     0
171
     2
172
     1
173
     1
174
     0
175
     0
176
     1
177
     1
178
     2
  0
DIMSTYLE
  2
BYGG-019653$0$ME10_DIM_20
 70
     0
  3

  4

  5

  6

  7

 40
1.0
 41
0.7
 42
0.0
 43
0.38
 44
0.4
 45
0.0
 46
0.0
 47
0.0
 48
0.0
140
0.7
141
0.09
142
0.0
143
25.399999999999999
144
1.0
145
0.0
146
1.0
147
0.4
 71
     0
 72
     0
 73
     0
 74
     0
 75
     0
 76
     0
 77
     1
 78
     8
170
     0
171
     2
172
     1
173
     1
174
     0
175
     0
176
     1
177
     1
178
     2
  0
DIMSTYLE
  2
BYGG-019653$0$ME10_DIM_21
 70
     0
  3
(<>)
  4

  5

  6

  7

 40
1.0
 41
0.7
 42
0.0
 43
0.38
 44
0.4
 45
0.0
 46
0.0
 47
0.0
 48
0.0
140
0.7
141
0.09
142
0.0
143
25.399999999999999
144
1.0
145
0.0
146
1.0
147
0.4
 71
     0
 72
     0
 73
     0
 74
     0
 75
     0
 76
     0
 77
     1
 78
     8
170
     0
171
     2
172
     1
173
     1
174
     0
175
     0
176
     1
177
     1
178
     2
  0
DIMSTYLE
  2
BYGG-019653$0$ME10_DIM_22
 70
     0
  3

  4

  5

  6

  7

 40
1.0
 41
0.7
 42
0.0
 43
0.38
 44
0.4
 45
0.0
 46
0.0
 47
0.0
 48
0.0
140
0.7
141
0.09
142
0.0
143
25.399999999999999
144
1.0
145
0.0
146
1.0
147
0.4
 71
     0
 72
     0
 73
     0
 74
     0
 75
     0
 76
     0
 77
     1
 78
     8
170
     0
171
     2
172
     1
173
     1
174
     0
175
     0
176
     1
177
     1
178
     2
  0
DIMSTYLE
  2
BYGG-019653$0$ME10_DIM_23
 70
     0
  3

  4

  5

  6

  7

 40
1.0
 41
0.7
 42
0.0
 43
0.38
 44
0.4
 45
0.0
 46
0.0
 47
0.0
 48
0.0
140
0.7
141
0.09
142
0.0
143
25.399999999999999
144
1.0
145
0.0
146
1.0
147
0.4
 71
     0
 72
     0
 73
     0
 74
     0
 75
     0
 76
     0
 77
     1
 78
     8
170
     0
171
     2
172
     1
173
     1
174
     0
175
     0
176
     1
177
     1
178
     2
  0
DIMSTYLE
  2
BYGG-019652$0$STANDARD
 70
     0
  3

  4

  5

  6

  7

 40
1.0
 41
0.18
 42
0.0625
 43
0.38
 44
0.18
 45
0.0
 46
0.0
 47
0.0
 48
0.0
140
0.18
141
0.09
142
0.0
143
25.399999999999999
144
1.0
145
0.0
146
1.0
147
0.09
 71
     0
 72
     0
 73
     1
 74
     1
 75
     0
 76
     0
 77
     0
 78
     0
170
     0
171
     2
172
     0
173
     0
174
     0
175
     0
176
     0
177
     0
178
     0
  0
DIMSTYLE
  2
BYGG-019652$0$MASKIN
 70
     0
  3

  4

  5

  6

  7

 40
0.0
 41
3.0
 42
1.5
 43
10.0
 44
1.5
 45
0.0
 46
0.0
 47
0.0
 48
0.0
140
3.0
141
-5.0
142
0.0
143
25.399999999999999
144
-1.0
145
0.0
146
1.0
147
1.0
 71
     0
 72
     0
 73
     0
 74
     0
 75
     0
 76
     0
 77
     1
 78
     8
170
     0
171
     0
172
     1
173
     0
174
     0
175
     0
176
   256
177
   256
178
     2
  0
DIMSTYLE
  2
BYGG-019652$0$ME10_DIM_10
 70
     0
  3

  4

  5

  6

  7

 40
1.0
 41
0.35
 42
0.0
 43
0.38
 44
0.2
 45
0.0
 46
0.0
 47
0.0
 48
0.0
140
0.35
141
0.09
142
0.0
143
25.399999999999999
144
1.0
145
0.0
146
1.0
147
0.2
 71
     0
 72
     0
 73
     0
 74
     0
 75
     0
 76
     0
 77
     1
 78
     8
170
     0
171
     2
172
     1
173
     1
174
     0
175
     0
176
     1
177
     1
178
     2
  0
DIMSTYLE
  2
BYGG-019652$0$ME10_DIM_11
 70
     0
  3

  4

  5

  6

  7

 40
1.0
 41
0.35
 42
0.0
 43
0.38
 44
0.2
 45
0.0
 46
0.0
 47
0.0
 48
0.0
140
0.35
141
0.09
142
0.0
143
25.399999999999999
144
1.0
145
0.0
146
1.0
147
0.2
 71
     0
 72
     0
 73
     0
 74
     0
 75
     0
 76
     0
 77
     1
 78
     8
170
     0
171
     2
172
     1
173
     1
174
     0
175
     0
176
     1
177
     1
178
     2
  0
DIMSTYLE
  2
BYGG-019652$0$ME10_DIM_12
 70
     0
  3

  4

  5

  6

  7

 40
1.0
 41
0.35
 42
0.0
 43
0.38
 44
0.2
 45
0.0
 46
0.0
 47
0.0
 48
0.0
140
0.35
141
0.09
142
0.0
143
25.399999999999999
144
1.0
145
0.0
146
1.0
147
0.2
 71
     0
 72
     0
 73
     0
 74
     0
 75
     0
 76
     0
 77
     1
 78
     8
170
     0
171
     2
172
     1
173
     1
174
     0
175
     0
176
     1
177
     1
178
     2
  0
DIMSTYLE
  2
BYGG-019652$0$ME10_DIM_13
 70
     0
  3

  4

  5

  6

  7

 40
1.0
 41
0.35
 42
0.0
 43
0.38
 44
0.2
 45
0.0
 46
0.0
 47
0.0
 48
0.0
140
0.35
141
0.09
142
0.0
143
25.399999999999999
144
1.0
145
0.0
146
1.0
147
0.2
 71
     0
 72
     0
 73
     0
 74
     0
 75
     0
 76
     0
 77
     1
 78
     8
170
     0
171
     2
172
     1
173
     1
174
     0
175
     0
176
     1
177
     1
178
     2
  0
DIMSTYLE
  2
BYGG-019652$0$ME10_DIM_14
 70
     0
  3

  4

  5

  6

  7

 40
1.0
 41
0.35
 42
0.0
 43
0.38
 44
0.2
 45
0.0
 46
0.0
 47
0.0
 48
0.0
140
0.35
141
0.09
142
0.0
143
25.399999999999999
144
1.0
145
0.0
146
1.0
147
0.2
 71
     0
 72
     0
 73
     0
 74
     0
 75
     0
 76
     0
 77
     1
 78
     8
170
     0
171
     2
172
     1
173
     1
174
     0
175
     0
176
     1
177
     1
178
     2
  0
DIMSTYLE
  2
BYGG-019652$0$ME10_DIM_15
 70
     0
  3

  4

  5

  6

  7

 40
1.0
 41
0.35
 42
0.0
 43
0.38
 44
0.2
 45
0.0
 46
0.0
 47
0.0
 48
0.0
140
0.35
141
0.09
142
0.0
143
25.399999999999999
144
1.0
145
0.0
146
1.0
147
0.2
 71
     0
 72
     0
 73
     0
 74
     0
 75
     0
 76
     0
 77
     1
 78
     8
170
     0
171
     2
172
     1
173
     1
174
     0
175
     0
176
     1
177
     1
178
     2
  0
DIMSTYLE
  2
BYGG-019652$0$ME10_DIM_16
 70
     0
  3

  4

  5

  6

  7

 40
1.0
 41
0.35
 42
0.0
 43
0.38
 44
0.2
 45
0.0
 46
0.0
 47
0.0
 48
0.0
140
0.35
141
0.09
142
0.0
143
25.399999999999999
144
1.0
145
0.0
146
1.0
147
0.2
 71
     0
 72
     0
 73
     0
 74
     0
 75
     0
 76
     0
 77
     1
 78
     8
170
     0
171
     2
172
     1
173
     1
174
     0
175
     0
176
     1
177
     1
178
     2
  0
DIMSTYLE
  2
BYGG-019652$0$ME10_DIM_17
 70
     0
  3

  4

  5

  6

  7

 40
1.0
 41
0.7
 42
0.0
 43
0.38
 44
0.4
 45
0.0
 46
0.0
 47
0.0
 48
0.0
140
0.7
141
0.09
142
0.0
143
25.399999999999999
144
1.0
145
0.0
146
1.0
147
0.4
 71
     0
 72
     0
 73
     0
 74
     0
 75
     0
 76
     0
 77
     1
 78
     8
170
     0
171
     2
172
     1
173
     1
174
     0
175
     0
176
     1
177
     1
178
     2
  0
DIMSTYLE
  2
BYGG-019652$0$ME10_DIM_18
 70
     0
  3

  4

  5

  6

  7

 40
1.0
 41
0.7
 42
0.0
 43
0.38
 44
0.4
 45
0.0
 46
0.0
 47
0.0
 48
0.0
140
0.7
141
0.09
142
0.0
143
25.399999999999999
144
1.0
145
0.0
146
1.0
147
0.4
 71
     0
 72
     0
 73
     0
 74
     0
 75
     0
 76
     0
 77
     1
 78
     8
170
     0
171
     2
172
     1
173
     1
174
     0
175
     0
176
     1
177
     1
178
     2
  0
DIMSTYLE
  2
BYGG-019652$0$ME10_DIM_19
 70
     0
  3

  4

  5

  6

  7

 40
1.0
 41
0.7
 42
0.0
 43
0.38
 44
0.4
 45
0.0
 46
0.0
 47
0.0
 48
0.0
140
0.7
141
0.09
142
0.0
143
25.399999999999999
144
1.0
145
0.0
146
1.0
147
0.4
 71
     0
 72
     0
 73
     0
 74
     0
 75
     0
 76
     0
 77
     1
 78
     8
170
     0
171
     2
172
     1
173
     1
174
     0
175
     0
176
     1
177
     1
178
     2
  0
DIMSTYLE
  2
BYGG-019652$0$ME10_DIM_20
 70
     0
  3

  4

  5

  6

  7

 40
1.0
 41
0.7
 42
0.0
 43
0.38
 44
0.4
 45
0.0
 46
0.0
 47
0.0
 48
0.0
140
0.7
141
0.09
142
0.0
143
25.399999999999999
144
1.0
145
0.0
146
1.0
147
0.4
 71
     0
 72
     0
 73
     0
 74
     0
 75
     0
 76
     0
 77
     1
 78
     8
170
     0
171
     2
172
     1
173
     1
174
     0
175
     0
176
     1
177
     1
178
     2
  0
DIMSTYLE
  2
BYGG-019652$0$ME10_DIM_21
 70
     0
  3

  4

  5

  6

  7

 40
1.0
 41
0.7
 42
0.0
 43
0.38
 44
0.4
 45
0.0
 46
0.0
 47
0.0
 48
0.0
140
0.7
141
0.09
142
0.0
143
25.399999999999999
144
1.0
145
0.0
146
1.0
147
0.4
 71
     0
 72
     0
 73
     0
 74
     0
 75
     0
 76
     0
 77
     1
 78
     8
170
     0
171
     2
172
     1
173
     1
174
     0
175
     0
176
     1
177
     1
178
     2
  0
DIMSTYLE
  2
BYGG-019652$0$ME10_DIM_22
 70
     0
  3

  4

  5

  6

  7

 40
1.0
 41
0.7
 42
0.0
 43
0.38
 44
0.4
 45
0.0
 46
0.0
 47
0.0
 48
0.0
140
0.7
141
0.09
142
0.0
143
25.399999999999999
144
1.0
145
0.0
146
1.0
147
0.4
 71
     0
 72
     0
 73
     0
 74
     0
 75
     0
 76
     0
 77
     1
 78
     8
170
     0
171
     2
172
     1
173
     1
174
     0
175
     0
176
     1
177
     1
178
     2
  0
DIMSTYLE
  2
BYGG-019652$0$ME10_DIM_23
 70
     0
  3

  4

  5

  6

  7

 40
1.0
 41
0.7
 42
0.0
 43
0.38
 44
0.4
 45
0.0
 46
0.0
 47
0.0
 48
0.0
140
0.7
141
0.09
142
0.0
143
25.399999999999999
144
1.0
145
0.0
146
1.0
147
0.4
 71
     0
 72
     0
 73
     0
 74
     0
 75
     0
 76
     0
 77
     1
 78
     8
170
     0
171
     2
172
     1
173
     1
174
     0
175
     0
176
     1
177
     1
178
     2
  0
DIMSTYLE
  2
BYGG-019652$0$ME10_DIM_24
 70
     0
  3

  4

  5

  6

  7

 40
1.0
 41
0.7
 42
0.0
 43
0.38
 44
0.4
 45
0.0
 46
0.0
 47
0.0
 48
0.0
140
0.7
141
0.09
142
0.0
143
25.399999999999999
144
1.0
145
0.0
146
1.0
147
0.4
 71
     0
 72
     0
 73
     0
 74
     0
 75
     0
 76
     0
 77
     1
 78
     8
170
     0
171
     2
172
     1
173
     1
174
     0
175
     0
176
     1
177
     1
178
     2
  0
DIMSTYLE
  2
BYGG-019652$0$ME10_DIM_25
 70
     0
  3

  4

  5

  6

  7

 40
1.0
 41
0.7
 42
0.0
 43
0.38
 44
0.4
 45
0.0
 46
0.0
 47
0.0
 48
0.0
140
0.7
141
0.09
142
0.0
143
25.399999999999999
144
1.0
145
0.0
146
1.0
147
0.4
 71
     0
 72
     0
 73
     0
 74
     0
 75
     0
 76
     0
 77
     1
 78
     8
170
     0
171
     2
172
     1
173
     1
174
     0
175
     0
176
     1
177
     1
178
     2
  0
DIMSTYLE
  2
BYGG-019652$0$ME10_DIM_26
 70
     0
  3

  4

  5

  6

  7

 40
1.0
 41
0.7
 42
0.0
 43
0.38
 44
0.4
 45
0.0
 46
0.0
 47
0.0
 48
0.0
140
0.7
141
0.09
142
0.0
143
25.399999999999999
144
1.0
145
0.0
146
1.0
147
0.4
 71
     0
 72
     0
 73
     0
 74
     0
 75
     0
 76
     0
 77
     1
 78
     8
170
     0
171
     2
172
     1
173
     1
174
     0
175
     0
176
     1
177
     1
178
     2
  0
DIMSTYLE
  2
BYGG-019652$0$ME10_DIM_27
 70
     0
  3

  4

  5

  6

  7

 40
1.0
 41
0.7
 42
0.0
 43
0.38
 44
0.4
 45
0.0
 46
0.0
 47
0.0
 48
0.0
140
0.7
141
0.09
142
0.0
143
25.399999999999999
144
1.0
145
0.0
146
1.0
147
0.4
 71
     0
 72
     0
 73
     0
 74
     0
 75
     0
 76
     0
 77
     1
 78
     8
170
     0
171
     2
172
     1
173
     1
174
     0
175
     0
176
     1
177
     1
178
     2
  0
DIMSTYLE
  2
BYGG-019652$0$ME10_DIM_28
 70
     0
  3

  4

  5

  6

  7

 40
1.0
 41
0.7
 42
0.0
 43
0.38
 44
0.4
 45
0.0
 46
0.0
 47
0.0
 48
0.0
140
0.7
141
0.09
142
0.0
143
25.399999999999999
144
1.0
145
0.0
146
1.0
147
0.4
 71
     0
 72
     0
 73
     0
 74
     0
 75
     0
 76
     0
 77
     1
 78
     8
170
     0
171
     2
172
     1
173
     1
174
     0
175
     0
176
     1
177
     1
178
     2
  0
DIMSTYLE
  2
BYGG-019652$0$ME10_DIM_29
 70
     0
  3

  4

  5

  6

  7

 40
1.0
 41
0.7
 42
0.0
 43
0.38
 44
0.4
 45
0.0
 46
0.0
 47
0.0
 48
0.0
140
0.7
141
0.09
142
0.0
143
25.399999999999999
144
1.0
145
0.0
146
1.0
147
0.4
 71
     0
 72
     0
 73
     0
 74
     0
 75
     0
 76
     0
 77
     1
 78
     8
170
     0
171
     2
172
     1
173
     1
174
     0
175
     0
176
     1
177
     1
178
     2
  0
DIMSTYLE
  2
BYGG-019705$0$STANDARD
 70
     0
  3

  4

  5

  6

  7

 40
1.0
 41
0.18
 42
0.0625
 43
0.38
 44
0.18
 45
0.0
 46
0.0
 47
0.0
 48
0.0
140
0.18
141
0.09
142
0.0
143
25.399999999999999
144
1.0
145
0.0
146
1.0
147
0.09
 71
     0
 72
     0
 73
     1
 74
     1
 75
     0
 76
     0
 77
     0
 78
     0
170
     0
171
     2
172
     0
173
     0
174
     0
175
     0
176
     0
177
     0
178
     0
  0
DIMSTYLE
  2
BYGG-019705$0$MASKIN
 70
     0
  3

  4

  5

  6

  7

 40
0.0
 41
3.0
 42
1.5
 43
10.0
 44
1.5
 45
0.0
 46
0.0
 47
0.0
 48
0.0
140
3.0
141
-5.0
142
0.0
143
25.399999999999999
144
-1.0
145
0.0
146
1.0
147
1.0
 71
     0
 72
     0
 73
     0
 74
     0
 75
     0
 76
     0
 77
     1
 78
     8
170
     0
171
     0
172
     1
173
     0
174
     0
175
     0
176
   256
177
   256
178
     2
  0
ENDTAB
  0
ENDSEC
  0
SECTION
  2
BLOCKS
  0
BLOCK
  8
0
  2
$MODEL_SPACE
 70
     0
 10
0.0
 20
0.0
 30
0.0
  3
$MODEL_SPACE
  1

  0
ENDBLK
  5
37
  8
0
  0
BLOCK
 67
     1
  8
0
  2
$PAPER_SPACE
 70
     0
 10
0.0
 20
0.0
 30
0.0
  3
$PAPER_SPACE
  1

  0
ENDBLK
  5
35
 67
     1
  8
0
  0
BLOCK
  8
0
  2
*X52
 70
     1
 10
0.0
 20
0.0
 30
0.0
  3
*X52
  1

  0
LINE
  5
14B5
  8
0
 62
     0
 10
-10.99999999999959
 20
-69.822305089622773
 30
0.0
 11
-11.822305089622891
 21
-68.999999999999474
 31
0.0
  0
LINE
  5
14B6
  8
0
 62
     0
 10
-10.9999999999996
 20
-70.944837104756417
 30
0.0
 11
-12.944837104756539
 21
-68.999999999999474
 31
0.0
  0
LINE
  5
14B7
  8
0
 62
     0
 10
-11.06736911989019
 20
-71.999999999999474
 30
0.0
 11
-14.06736911989019
 21
-68.999999999999474
 31
0.0
  0
LINE
  5
14B8
  8
0
 62
     0
 10
-12.189901135023829
 20
-71.999999999999488
 30
0.0
 11
-15.189901135023829
 21
-68.999999999999474
 31
0.0
  0
LINE
  5
14B9
  8
0
 62
     0
 10
-13.312433150157471
 20
-71.999999999999488
 30
0.0
 11
-16.312433150157471
 21
-68.999999999999474
 31
0.0
  0
LINE
  5
14BA
  8
0
 62
     0
 10
-14.434965165291111
 20
-71.999999999999488
 30
0.0
 11
-17.434965165291111
 21
-68.999999999999474
 31
0.0
  0
LINE
  5
14BB
  8
0
 62
     0
 10
-15.557497180424759
 20
-71.999999999999488
 30
0.0
 11
-18.557497180424761
 21
-68.999999999999474
 31
0.0
  0
LINE
  5
14BC
  8
0
 62
     0
 10
-16.680029195558401
 20
-71.999999999999488
 30
0.0
 11
-19.680029195558401
 21
-68.999999999999474
 31
0.0
  0
LINE
  5
14BD
  8
0
 62
     0
 10
-17.802561210692051
 20
-71.999999999999488
 30
0.0
 11
-20.802561210692051
 21
-68.999999999999474
 31
0.0
  0
LINE
  5
14BE
  8
0
 62
     0
 10
-18.925093225825691
 20
-71.999999999999488
 30
0.0
 11
-21.925093225825691
 21
-68.999999999999474
 31
0.0
  0
LINE
  5
14BF
  8
0
 62
     0
 10
-20.047625240959341
 20
-71.999999999999488
 30
0.0
 11
-23.047625240959331
 21
-68.999999999999474
 31
0.0
  0
LINE
  5
14C0
  8
0
 62
     0
 10
-20.979402139361039
 20
-72.190755116731424
 30
0.0
 11
-24.170157256092981
 21
-68.999999999999474
 31
0.0
  0
LINE
  5
14C1
  8
0
 62
     0
 10
-10.99999999999959
 20
-82.170157256092864
 30
0.0
 11
-11.170157256092979
 21
-81.999999999999488
 31
0.0
  0
LINE
  5
14C2
  8
0
 62
     0
 10
-20.999999999999599
 20
-73.292689271226507
 30
0.0
 11
-25.292689271226621
 21
-68.999999999999474
 31
0.0
  0
LINE
  5
14C3
  8
0
 62
     0
 10
-10.99999999999959
 20
-83.292689271226536
 30
0.0
 11
-12.29268927122663
 21
-81.999999999999474
 31
0.0
  0
LINE
  5
14C4
  8
0
 62
     0
 10
-20.999999999999591
 20
-74.415221286360151
 30
0.0
 11
-25.999999999999599
 21
-69.415221286360151
 31
0.0
  0
LINE
  5
14C5
  8
0
 62
     0
 10
-10.99999999999959
 20
-84.415221286360136
 30
0.0
 11
-13.41522128636027
 21
-81.999999999999488
 31
0.0
  0
LINE
  5
14C6
  8
0
 62
     0
 10
-20.999999999999591
 20
-75.537753301493808
 30
0.0
 11
-25.999999999999609
 21
-70.537753301493794
 31
0.0
  0
LINE
  5
14C7
  8
0
 62
     0
 10
-11.537753301493909
 20
-84.999999999999474
 30
0.0
 11
-14.537753301493909
 21
-81.999999999999474
 31
0.0
  0
LINE
  5
14C8
  8
0
 62
     0
 10
-20.999999999999591
 20
-76.660285316627423
 30
0.0
 11
-25.999999999999609
 21
-71.660285316627423
 31
0.0
  0
LINE
  5
14C9
  8
0
 62
     0
 10
-12.66028531662756
 20
-84.999999999999474
 30
0.0
 11
-15.660285316627551
 21
-81.999999999999488
 31
0.0
  0
LINE
  5
14CA
  8
0
 62
     0
 10
-20.999999999999599
 20
-77.782817331761095
 30
0.0
 11
-25.999999999999609
 21
-72.78281733176108
 31
0.0
  0
LINE
  5
14CB
  8
0
 62
     0
 10
-13.78281733176121
 20
-84.999999999999474
 30
0.0
 11
-16.782817331761208
 21
-81.999999999999488
 31
0.0
  0
LINE
  5
14CC
  8
0
 62
     0
 10
-20.999999999999599
 20
-78.905349346894724
 30
0.0
 11
-25.999999999999609
 21
-73.905349346894724
 31
0.0
  0
LINE
  5
14CD
  8
0
 62
     0
 10
-14.90534934689485
 20
-84.999999999999474
 30
0.0
 11
-17.905349346894852
 21
-81.999999999999488
 31
0.0
  0
LINE
  5
14CE
  8
0
 62
     0
 10
-20.999999999999599
 20
-80.027881362028381
 30
0.0
 11
-25.999999999999609
 21
-75.027881362028367
 31
0.0
  0
LINE
  5
14CF
  8
0
 62
     0
 10
-16.027881362028491
 20
-84.999999999999474
 30
0.0
 11
-19.027881362028491
 21
-81.999999999999474
 31
0.0
  0
LINE
  5
14D0
  8
0
 62
     0
 10
-20.999999999999599
 20
-81.15041337716201
 30
0.0
 11
-25.999999999999599
 21
-76.15041337716201
 31
0.0
  0
LINE
  5
14D1
  8
0
 62
     0
 10
-17.150413377162138
 20
-84.999999999999474
 30
0.0
 11
-20.150413377162138
 21
-81.999999999999474
 31
0.0
  0
LINE
  5
14D2
  8
0
 62
     0
 10
-18.272945392295782
 20
-84.999999999999474
 30
0.0
 11
-25.999999999999599
 21
-77.272945392295668
 31
0.0
  0
LINE
  5
14D3
  8
0
 62
     0
 10
-19.395477407429428
 20
-84.999999999999474
 30
0.0
 11
-25.999999999999609
 21
-78.395477407429297
 31
0.0
  0
LINE
  5
14D4
  8
0
 62
     0
 10
-20.518009422563068
 20
-84.999999999999474
 30
0.0
 11
-25.999999999999609
 21
-79.51800942256294
 31
0.0
  0
LINE
  5
14D5
  8
0
 62
     0
 10
-21.640541437696712
 20
-84.999999999999474
 30
0.0
 11
-25.999999999999599
 21
-80.640541437696584
 31
0.0
  0
LINE
  5
14D6
  8
0
 62
     0
 10
-22.763073452830358
 20
-84.999999999999474
 30
0.0
 11
-25.999999999999599
 21
-81.763073452830241
 31
0.0
  0
LINE
  5
14D7
  8
0
 62
     0
 10
-23.885605467964002
 20
-84.999999999999474
 30
0.0
 11
-25.999999999999609
 21
-82.885605467963885
 31
0.0
  0
LINE
  5
14D8
  8
0
 62
     0
 10
-25.008137483097649
 20
-84.999999999999474
 30
0.0
 11
-25.999999999999609
 21
-84.008137483097528
 31
0.0
  0
LINE
  5
14D9
  8
0
 62
     0
 10
-12.03541901631263
 20
-84.999999999999474
 30
0.0
 11
-10.99999999999959
 21
-83.964580983686446
 31
0.0
  0
LINE
  5
14DA
  8
0
 62
     0
 10
-13.15795103144627
 20
-84.999999999999474
 30
0.0
 11
-10.99999999999959
 21
-82.842048968552803
 31
0.0
  0
LINE
  5
14DB
  8
0
 62
     0
 10
-14.28048304657991
 20
-84.999999999999474
 30
0.0
 11
-11.28048304657991
 21
-81.999999999999488
 31
0.0
  0
LINE
  5
14DC
  8
0
 62
     0
 10
-15.40301506171356
 20
-84.999999999999474
 30
0.0
 11
-12.40301506171356
 21
-81.999999999999488
 31
0.0
  0
LINE
  5
14DD
  8
0
 62
     0
 10
-16.5255470768472
 20
-84.999999999999474
 30
0.0
 11
-13.525547076847211
 21
-81.999999999999488
 31
0.0
  0
LINE
  5
14DE
  8
0
 62
     0
 10
-17.648079091980851
 20
-84.999999999999474
 30
0.0
 11
-14.648079091980851
 21
-81.999999999999488
 31
0.0
  0
LINE
  5
14DF
  8
0
 62
     0
 10
-18.77061110711449
 20
-84.999999999999474
 30
0.0
 11
-15.770611107114499
 21
-81.999999999999488
 31
0.0
  0
LINE
  5
14E0
  8
0
 62
     0
 10
-19.893143122248141
 20
-84.999999999999474
 30
0.0
 11
-16.89314312224813
 21
-81.999999999999488
 31
0.0
  0
LINE
  5
14E1
  8
0
 62
     0
 10
-21.015675137381781
 20
-84.999999999999474
 30
0.0
 11
-18.015675137381791
 21
-81.999999999999488
 31
0.0
  0
LINE
  5
14E2
  8
0
 62
     0
 10
-22.138207152515431
 20
-84.999999999999474
 30
0.0
 11
-19.138207152515431
 21
-81.999999999999488
 31
0.0
  0
LINE
  5
14E3
  8
0
 62
     0
 10
-23.260739167649071
 20
-84.999999999999474
 30
0.0
 11
-20.260739167649071
 21
-81.999999999999488
 31
0.0
  0
LINE
  5
14E4
  8
0
 62
     0
 10
-11.38327118278271
 20
-71.999999999999503
 30
0.0
 11
-10.9999999999996
 21
-71.616728817216369
 31
0.0
  0
LINE
  5
14E5
  8
0
 62
     0
 10
-24.383271182782721
 20
-84.999999999999474
 30
0.0
 11
-20.999999999999591
 21
-81.616728817216369
 31
0.0
  0
LINE
  5
14E6
  8
0
 62
     0
 10
-12.505803197916361
 20
-71.999999999999488
 30
0.0
 11
-10.9999999999996
 21
-70.49419680208274
 31
0.0
  0
LINE
  5
14E7
  8
0
 62
     0
 10
-25.50580319791635
 20
-84.999999999999474
 30
0.0
 11
-20.999999999999599
 21
-80.494196802082726
 31
0.0
  0
LINE
  5
14E8
  8
0
 62
     0
 10
-13.628335213050001
 20
-71.999999999999488
 30
0.0
 11
-10.9999999999996
 21
-69.371664786949083
 31
0.0
  0
LINE
  5
14E9
  8
0
 62
     0
 10
-25.999999999999609
 20
-84.371664786949083
 30
0.0
 11
-20.999999999999599
 21
-79.371664786949083
 31
0.0
  0
LINE
  5
14EA
  8
0
 62
     0
 10
-14.750867228183649
 20
-71.999999999999488
 30
0.0
 11
-11.75086722818364
 21
-68.999999999999474
 31
0.0
  0
LINE
  5
14EB
  8
0
 62
     0
 10
-25.999999999999609
 20
-83.249132771815454
 30
0.0
 11
-20.999999999999599
 21
-78.249132771815425
 31
0.0
  0
LINE
  5
14EC
  8
0
 62
     0
 10
-15.873399243317291
 20
-71.999999999999488
 30
0.0
 11
-12.873399243317291
 21
-68.999999999999474
 31
0.0
  0
LINE
  5
14ED
  8
0
 62
     0
 10
-25.999999999999609
 20
-82.126600756681796
 30
0.0
 11
-20.999999999999591
 21
-77.126600756681796
 31
0.0
  0
LINE
  5
14EE
  8
0
 62
     0
 10
-16.995931258450931
 20
-71.999999999999488
 30
0.0
 11
-13.995931258450931
 21
-68.999999999999474
 31
0.0
  0
LINE
  5
14EF
  8
0
 62
     0
 10
-25.999999999999609
 20
-81.004068741548153
 30
0.0
 11
-20.999999999999599
 21
-76.004068741548153
 31
0.0
  0
LINE
  5
14F0
  8
0
 62
     0
 10
-18.118463273584581
 20
-71.999999999999488
 30
0.0
 11
-15.118463273584579
 21
-68.999999999999474
 31
0.0
  0
LINE
  5
14F1
  8
0
 62
     0
 10
-25.999999999999609
 20
-79.88153672641451
 30
0.0
 11
-20.999999999999599
 21
-74.88153672641451
 31
0.0
  0
LINE
  5
14F2
  8
0
 62
     0
 10
-19.240995288718221
 20
-71.999999999999488
 30
0.0
 11
-16.240995288718221
 21
-68.999999999999474
 31
0.0
  0
LINE
  5
14F3
  8
0
 62
     0
 10
-25.999999999999609
 20
-78.759004711280866
 30
0.0
 11
-20.999999999999599
 21
-73.759004711280866
 31
0.0
  0
LINE
  5
14F4
  8
0
 62
     0
 10
-20.363527303851871
 20
-71.999999999999488
 30
0.0
 11
-17.363527303851871
 21
-68.999999999999474
 31
0.0
  0
LINE
  5
14F5
  8
0
 62
     0
 10
-25.999999999999609
 20
-77.636472696147223
 30
0.0
 11
-20.999999999999599
 21
-72.636472696147223
 31
0.0
  0
LINE
  5
14F6
  8
0
 62
     0
 10
-25.999999999999609
 20
-76.51394068101358
 30
0.0
 11
-18.486059318985511
 21
-68.999999999999474
 31
0.0
  0
LINE
  5
14F7
  8
0
 62
     0
 10
-25.999999999999609
 20
-75.391408665879936
 30
0.0
 11
-19.608591334119151
 21
-68.999999999999474
 31
0.0
  0
LINE
  5
14F8
  8
0
 62
     0
 10
-25.999999999999609
 20
-74.268876650746293
 30
0.0
 11
-20.731123349252801
 21
-68.999999999999474
 31
0.0
  0
LINE
  5
14F9
  8
0
 62
     0
 10
-25.999999999999609
 20
-73.146344635612635
 30
0.0
 11
-21.853655364386452
 21
-68.999999999999474
 31
0.0
  0
LINE
  5
14FA
  8
0
 62
     0
 10
-25.999999999999599
 20
-72.023812620478992
 30
0.0
 11
-22.976187379520081
 21
-68.999999999999474
 31
0.0
  0
LINE
  5
14FB
  8
0
 62
     0
 10
-25.999999999999599
 20
-70.901280605345349
 30
0.0
 11
-24.098719394653731
 21
-68.999999999999474
 31
0.0
  0
LINE
  5
14FC
  8
0
 62
     0
 10
-25.999999999999591
 20
-69.778748590211706
 30
0.0
 11
-25.221251409787381
 21
-68.999999999999474
 31
0.0
  0
ENDBLK
  5
14FE
  8
0
  0
BLOCK
  8
0
  2
*X53
 70
     1
 10
0.0
 20
0.0
 30
0.0
  3
*X53
  1

  0
LINE
  5
1517
  8
0
 62
     0
 10
25.999999999999609
 20
-69.778748590211734
 30
0.0
 11
25.221251409787349
 21
-68.999999999999474
 31
0.0
  0
LINE
  5
1518
  8
0
 62
     0
 10
25.999999999999609
 20
-70.901280605345391
 30
0.0
 11
24.09871939465371
 21
-68.999999999999474
 31
0.0
  0
LINE
  5
1519
  8
0
 62
     0
 10
25.999999999999609
 20
-72.023812620479021
 30
0.0
 11
22.976187379520059
 21
-68.999999999999474
 31
0.0
  0
LINE
  5
151A
  8
0
 62
     0
 10
25.999999999999609
 20
-73.146344635612664
 30
0.0
 11
21.85365536438643
 21
-68.999999999999474
 31
0.0
  0
LINE
  5
151B
  8
0
 62
     0
 10
25.999999999999609
 20
-74.268876650746293
 30
0.0
 11
20.73112334925278
 21
-68.999999999999474
 31
0.0
  0
LINE
  5
151C
  8
0
 62
     0
 10
25.999999999999609
 20
-75.391408665879965
 30
0.0
 11
19.608591334119129
 21
-68.999999999999474
 31
0.0
  0
LINE
  5
151D
  8
0
 62
     0
 10
25.999999999999609
 20
-76.513940681013594
 30
0.0
 11
18.48605931898549
 21
-68.999999999999474
 31
0.0
  0
LINE
  5
151E
  8
0
 62
     0
 10
20.36352730385185
 20
-71.999999999999488
 30
0.0
 11
17.363527303851839
 21
-68.999999999999474
 31
0.0
  0
LINE
  5
151F
  8
0
 62
     0
 10
25.999999999999609
 20
-77.636472696147237
 30
0.0
 11
20.999999999999599
 21
-72.636472696147237
 31
0.0
  0
LINE
  5
1520
  8
0
 62
     0
 10
19.240995288718199
 20
-71.999999999999488
 30
0.0
 11
16.240995288718199
 21
-68.999999999999474
 31
0.0
  0
LINE
  5
1521
  8
0
 62
     0
 10
25.999999999999609
 20
-78.75900471128088
 30
0.0
 11
20.999999999999609
 21
-73.75900471128088
 31
0.0
  0
LINE
  5
1522
  8
0
 62
     0
 10
18.11846327358456
 20
-71.999999999999488
 30
0.0
 11
15.11846327358456
 21
-68.999999999999474
 31
0.0
  0
LINE
  5
1523
  8
0
 62
     0
 10
25.999999999999609
 20
-79.881536726414538
 30
0.0
 11
20.999999999999609
 21
-74.881536726414538
 31
0.0
  0
LINE
  5
1524
  8
0
 62
     0
 10
16.995931258450909
 20
-71.999999999999488
 30
0.0
 11
13.995931258450909
 21
-68.999999999999474
 31
0.0
  0
LINE
  5
1525
  8
0
 62
     0
 10
25.999999999999609
 20
-81.004068741548195
 30
0.0
 11
20.999999999999609
 21
-76.004068741548181
 31
0.0
  0
LINE
  5
1526
  8
0
 62
     0
 10
15.873399243317269
 20
-71.999999999999488
 30
0.0
 11
12.873399243317261
 21
-68.999999999999474
 31
0.0
  0
LINE
  5
1527
  8
0
 62
     0
 10
25.999999999999609
 20
-82.126600756681796
 30
0.0
 11
20.999999999999599
 21
-77.12660075668181
 31
0.0
  0
LINE
  5
1528
  8
0
 62
     0
 10
14.75086722818363
 20
-71.999999999999488
 30
0.0
 11
11.75086722818363
 21
-68.999999999999474
 31
0.0
  0
LINE
  5
1529
  8
0
 62
     0
 10
25.999999999999609
 20
-83.249132771815468
 30
0.0
 11
20.999999999999609
 21
-78.249132771815468
 31
0.0
  0
LINE
  5
152A
  8
0
 62
     0
 10
13.628335213049979
 20
-71.999999999999488
 30
0.0
 11
10.999999999999609
 21
-69.371664786949111
 31
0.0
  0
LINE
  5
152B
  8
0
 62
     0
 10
25.999999999999609
 20
-84.371664786949097
 30
0.0
 11
20.999999999999609
 21
-79.371664786949111
 31
0.0
  0
LINE
  5
152C
  8
0
 62
     0
 10
12.50580319791634
 20
-71.999999999999488
 30
0.0
 11
10.9999999999996
 21
-70.494196802082755
 31
0.0
  0
LINE
  5
152D
  8
0
 62
     0
 10
25.505803197916329
 20
-84.999999999999474
 30
0.0
 11
20.999999999999609
 21
-80.494196802082755
 31
0.0
  0
LINE
  5
152E
  8
0
 62
     0
 10
11.383271182782689
 20
-71.999999999999488
 30
0.0
 11
10.9999999999996
 21
-71.616728817216384
 31
0.0
  0
LINE
  5
152F
  8
0
 62
     0
 10
24.383271182782689
 20
-84.999999999999474
 30
0.0
 11
20.999999999999609
 21
-81.616728817216398
 31
0.0
  0
LINE
  5
1530
  8
0
 62
     0
 10
23.260739167649039
 20
-84.999999999999474
 30
0.0
 11
20.260739167649039
 21
-81.999999999999474
 31
0.0
  0
LINE
  5
1531
  8
0
 62
     0
 10
22.13820715251541
 20
-84.999999999999474
 30
0.0
 11
19.138207152515399
 21
-81.999999999999474
 31
0.0
  0
LINE
  5
1532
  8
0
 62
     0
 10
21.01567513738177
 20
-84.999999999999474
 30
0.0
 11
18.015675137381759
 21
-81.999999999999474
 31
0.0
  0
LINE
  5
1533
  8
0
 62
     0
 10
19.893143122248109
 20
-84.999999999999474
 30
0.0
 11
16.893143122248109
 21
-81.999999999999488
 31
0.0
  0
LINE
  5
1534
  8
0
 62
     0
 10
18.770611107114469
 20
-84.999999999999474
 30
0.0
 11
15.770611107114471
 21
-81.999999999999488
 31
0.0
  0
LINE
  5
1535
  8
0
 62
     0
 10
17.648079091980819
 20
-84.999999999999474
 30
0.0
 11
14.64807909198082
 21
-81.999999999999488
 31
0.0
  0
LINE
  5
1536
  8
0
 62
     0
 10
16.525547076847172
 20
-84.999999999999474
 30
0.0
 11
13.525547076847181
 21
-81.999999999999488
 31
0.0
  0
LINE
  5
1537
  8
0
 62
     0
 10
15.40301506171353
 20
-84.999999999999474
 30
0.0
 11
12.403015061713541
 21
-81.999999999999488
 31
0.0
  0
LINE
  5
1538
  8
0
 62
     0
 10
14.28048304657989
 20
-84.999999999999474
 30
0.0
 11
11.28048304657989
 21
-81.999999999999474
 31
0.0
  0
LINE
  5
1539
  8
0
 62
     0
 10
13.157951031446251
 20
-84.999999999999474
 30
0.0
 11
10.999999999999609
 21
-82.842048968552845
 31
0.0
  0
LINE
  5
153A
  8
0
 62
     0
 10
12.0354190163126
 20
-84.999999999999474
 30
0.0
 11
10.9999999999996
 21
-83.964580983686474
 31
0.0
  0
LINE
  5
153B
  8
0
 62
     0
 10
25.008137483097631
 20
-84.999999999999474
 30
0.0
 11
25.999999999999609
 21
-84.008137483097514
 31
0.0
  0
LINE
  5
153C
  8
0
 62
     0
 10
23.885605467963991
 20
-84.999999999999474
 30
0.0
 11
25.999999999999609
 21
-82.885605467963885
 31
0.0
  0
LINE
  5
153D
  8
0
 62
     0
 10
22.763073452830341
 20
-84.999999999999474
 30
0.0
 11
25.999999999999599
 21
-81.763073452830227
 31
0.0
  0
LINE
  5
153E
  8
0
 62
     0
 10
21.640541437696701
 20
-84.999999999999474
 30
0.0
 11
25.999999999999591
 21
-80.640541437696584
 31
0.0
  0
LINE
  5
153F
  8
0
 62
     0
 10
20.51800942256305
 20
-84.999999999999474
 30
0.0
 11
25.999999999999599
 21
-79.51800942256294
 31
0.0
  0
LINE
  5
1540
  8
0
 62
     0
 10
19.3954774074294
 20
-84.999999999999474
 30
0.0
 11
25.999999999999599
 21
-78.395477407429297
 31
0.0
  0
LINE
  5
1541
  8
0
 62
     0
 10
18.27294539229576
 20
-84.999999999999474
 30
0.0
 11
25.999999999999599
 21
-77.272945392295654
 31
0.0
  0
LINE
  5
1542
  8
0
 62
     0
 10
20.999999999999599
 20
-81.15041337716201
 30
0.0
 11
25.999999999999591
 21
-76.15041337716201
 31
0.0
  0
LINE
  5
1543
  8
0
 62
     0
 10
17.15041337716211
 20
-84.999999999999474
 30
0.0
 11
20.150413377162121
 21
-81.999999999999488
 31
0.0
  0
LINE
  5
1544
  8
0
 62
     0
 10
20.999999999999599
 20
-80.027881362028353
 30
0.0
 11
25.999999999999599
 21
-75.027881362028367
 31
0.0
  0
LINE
  5
1545
  8
0
 62
     0
 10
16.02788136202847
 20
-84.999999999999474
 30
0.0
 11
19.027881362028481
 21
-81.999999999999488
 31
0.0
  0
LINE
  5
1546
  8
0
 62
     0
 10
20.999999999999599
 20
-78.905349346894724
 30
0.0
 11
25.999999999999599
 21
-73.905349346894724
 31
0.0
  0
LINE
  5
1547
  8
0
 62
     0
 10
14.90534934689483
 20
-84.999999999999474
 30
0.0
 11
17.90534934689483
 21
-81.999999999999488
 31
0.0
  0
LINE
  5
1548
  8
0
 62
     0
 10
20.999999999999599
 20
-77.78281733176108
 30
0.0
 11
25.999999999999599
 21
-72.78281733176108
 31
0.0
  0
LINE
  5
1549
  8
0
 62
     0
 10
13.782817331761191
 20
-84.999999999999474
 30
0.0
 11
16.782817331761191
 21
-81.999999999999488
 31
0.0
  0
LINE
  5
154A
  8
0
 62
     0
 10
20.999999999999599
 20
-76.660285316627423
 30
0.0
 11
25.999999999999609
 21
-71.660285316627423
 31
0.0
  0
LINE
  5
154B
  8
0
 62
     0
 10
12.66028531662754
 20
-84.999999999999474
 30
0.0
 11
15.66028531662754
 21
-81.999999999999488
 31
0.0
  0
LINE
  5
154C
  8
0
 62
     0
 10
20.999999999999599
 20
-75.537753301493765
 30
0.0
 11
25.999999999999599
 21
-70.537753301493794
 31
0.0
  0
LINE
  5
154D
  8
0
 62
     0
 10
11.5377533014939
 20
-84.999999999999474
 30
0.0
 11
14.5377533014939
 21
-81.999999999999488
 31
0.0
  0
LINE
  5
154E
  8
0
 62
     0
 10
20.999999999999599
 20
-74.415221286360136
 30
0.0
 11
25.999999999999599
 21
-69.415221286360151
 31
0.0
  0
LINE
  5
154F
  8
0
 62
     0
 10
10.9999999999996
 20
-84.415221286360136
 30
0.0
 11
13.41522128636025
 21
-81.999999999999488
 31
0.0
  0
LINE
  5
1550
  8
0
 62
     0
 10
20.999999999999599
 20
-73.292689271226493
 30
0.0
 11
25.292689271226621
 21
-68.999999999999474
 31
0.0
  0
LINE
  5
1551
  8
0
 62
     0
 10
10.999999999999609
 20
-83.292689271226493
 30
0.0
 11
12.29268927122661
 21
-81.999999999999488
 31
0.0
  0
LINE
  5
1552
  8
0
 62
     0
 10
20.979402139361031
 20
-72.190755116731424
 30
0.0
 11
24.170157256092981
 21
-68.999999999999474
 31
0.0
  0
LINE
  5
1553
  8
0
 62
     0
 10
10.9999999999996
 20
-82.170157256092835
 30
0.0
 11
11.17015725609297
 21
-81.999999999999488
 31
0.0
  0
LINE
  5
1554
  8
0
 62
     0
 10
20.04762524095932
 20
-71.999999999999488
 30
0.0
 11
23.047625240959331
 21
-68.999999999999474
 31
0.0
  0
LINE
  5
1555
  8
0
 62
     0
 10
18.92509322582568
 20
-71.999999999999488
 30
0.0
 11
21.925093225825691
 21
-68.999999999999474
 31
0.0
  0
LINE
  5
1556
  8
0
 62
     0
 10
17.802561210692041
 20
-71.999999999999488
 30
0.0
 11
20.802561210692041
 21
-68.999999999999474
 31
0.0
  0
LINE
  5
1557
  8
0
 62
     0
 10
16.68002919555839
 20
-71.999999999999488
 30
0.0
 11
19.68002919555839
 21
-68.999999999999474
 31
0.0
  0
LINE
  5
1558
  8
0
 62
     0
 10
15.55749718042475
 20
-71.999999999999488
 30
0.0
 11
18.55749718042475
 21
-68.999999999999474
 31
0.0
  0
LINE
  5
1559
  8
0
 62
     0
 10
14.4349651652911
 20
-71.999999999999488
 30
0.0
 11
17.4349651652911
 21
-68.999999999999474
 31
0.0
  0
LINE
  5
155A
  8
0
 62
     0
 10
13.31243315015746
 20
-71.999999999999488
 30
0.0
 11
16.31243315015746
 21
-68.999999999999474
 31
0.0
  0
LINE
  5
155B
  8
0
 62
     0
 10
12.18990113502381
 20
-71.999999999999488
 30
0.0
 11
15.18990113502382
 21
-68.999999999999474
 31
0.0
  0
LINE
  5
155C
  8
0
 62
     0
 10
11.06736911989017
 20
-71.999999999999488
 30
0.0
 11
14.06736911989017
 21
-68.999999999999474
 31
0.0
  0
LINE
  5
155D
  8
0
 62
     0
 10
10.9999999999996
 20
-70.944837104756417
 30
0.0
 11
12.94483710475652
 21
-68.999999999999474
 31
0.0
  0
LINE
  5
155E
  8
0
 62
     0
 10
10.9999999999996
 20
-69.822305089622759
 30
0.0
 11
11.82230508962288
 21
-68.999999999999474
 31
0.0
  0
ENDBLK
  5
1560
  8
0
  0
BLOCK
  8
0
  2
*X54
 70
     1
 10
0.0
 20
0.0
 30
0.0
  3
*X54
  1

  0
LINE
  5
1579
  8
0
 62
     0
 10
-10.99999999999959
 20
-69.822305089622773
 30
0.0
 11
-11.822305089622891
 21
-68.999999999999474
 31
0.0
  0
LINE
  5
157A
  8
0
 62
     0
 10
-10.9999999999996
 20
-70.944837104756417
 30
0.0
 11
-12.944837104756539
 21
-68.999999999999474
 31
0.0
  0
LINE
  5
157B
  8
0
 62
     0
 10
-11.06736911989019
 20
-71.999999999999474
 30
0.0
 11
-14.06736911989019
 21
-68.999999999999474
 31
0.0
  0
LINE
  5
157C
  8
0
 62
     0
 10
-12.189901135023829
 20
-71.999999999999488
 30
0.0
 11
-15.189901135023829
 21
-68.999999999999474
 31
0.0
  0
LINE
  5
157D
  8
0
 62
     0
 10
-13.312433150157471
 20
-71.999999999999488
 30
0.0
 11
-16.312433150157471
 21
-68.999999999999474
 31
0.0
  0
LINE
  5
157E
  8
0
 62
     0
 10
-14.434965165291111
 20
-71.999999999999488
 30
0.0
 11
-17.434965165291111
 21
-68.999999999999474
 31
0.0
  0
LINE
  5
157F
  8
0
 62
     0
 10
-15.557497180424759
 20
-71.999999999999488
 30
0.0
 11
-18.557497180424761
 21
-68.999999999999474
 31
0.0
  0
LINE
  5
1580
  8
0
 62
     0
 10
-16.680029195558401
 20
-71.999999999999488
 30
0.0
 11
-19.680029195558401
 21
-68.999999999999474
 31
0.0
  0
LINE
  5
1581
  8
0
 62
     0
 10
-17.802561210692051
 20
-71.999999999999488
 30
0.0
 11
-20.802561210692051
 21
-68.999999999999474
 31
0.0
  0
LINE
  5
1582
  8
0
 62
     0
 10
-18.925093225825691
 20
-71.999999999999488
 30
0.0
 11
-21.925093225825691
 21
-68.999999999999474
 31
0.0
  0
LINE
  5
1583
  8
0
 62
     0
 10
-20.047625240959341
 20
-71.999999999999488
 30
0.0
 11
-23.047625240959331
 21
-68.999999999999474
 31
0.0
  0
LINE
  5
1584
  8
0
 62
     0
 10
-20.979402139361039
 20
-72.190755116731424
 30
0.0
 11
-24.170157256092981
 21
-68.999999999999474
 31
0.0
  0
LINE
  5
1585
  8
0
 62
     0
 10
-10.99999999999959
 20
-82.170157256092864
 30
0.0
 11
-11.170157256092979
 21
-81.999999999999488
 31
0.0
  0
LINE
  5
1586
  8
0
 62
     0
 10
-20.999999999999599
 20
-73.292689271226507
 30
0.0
 11
-25.292689271226621
 21
-68.999999999999474
 31
0.0
  0
LINE
  5
1587
  8
0
 62
     0
 10
-10.99999999999959
 20
-83.292689271226536
 30
0.0
 11
-12.29268927122663
 21
-81.999999999999474
 31
0.0
  0
LINE
  5
1588
  8
0
 62
     0
 10
-20.999999999999591
 20
-74.415221286360151
 30
0.0
 11
-25.999999999999599
 21
-69.415221286360151
 31
0.0
  0
LINE
  5
1589
  8
0
 62
     0
 10
-10.99999999999959
 20
-84.415221286360136
 30
0.0
 11
-13.41522128636027
 21
-81.999999999999488
 31
0.0
  0
LINE
  5
158A
  8
0
 62
     0
 10
-20.999999999999591
 20
-75.537753301493808
 30
0.0
 11
-25.999999999999609
 21
-70.537753301493794
 31
0.0
  0
LINE
  5
158B
  8
0
 62
     0
 10
-11.537753301493909
 20
-84.999999999999474
 30
0.0
 11
-14.537753301493909
 21
-81.999999999999474
 31
0.0
  0
LINE
  5
158C
  8
0
 62
     0
 10
-20.999999999999591
 20
-76.660285316627423
 30
0.0
 11
-25.999999999999609
 21
-71.660285316627423
 31
0.0
  0
LINE
  5
158D
  8
0
 62
     0
 10
-12.66028531662756
 20
-84.999999999999474
 30
0.0
 11
-15.660285316627551
 21
-81.999999999999488
 31
0.0
  0
LINE
  5
158E
  8
0
 62
     0
 10
-20.999999999999599
 20
-77.782817331761095
 30
0.0
 11
-25.999999999999609
 21
-72.78281733176108
 31
0.0
  0
LINE
  5
158F
  8
0
 62
     0
 10
-13.78281733176121
 20
-84.999999999999474
 30
0.0
 11
-16.782817331761208
 21
-81.999999999999488
 31
0.0
  0
LINE
  5
1590
  8
0
 62
     0
 10
-20.999999999999599
 20
-78.905349346894724
 30
0.0
 11
-25.999999999999609
 21
-73.905349346894724
 31
0.0
  0
LINE
  5
1591
  8
0
 62
     0
 10
-14.90534934689485
 20
-84.999999999999474
 30
0.0
 11
-17.905349346894852
 21
-81.999999999999488
 31
0.0
  0
LINE
  5
1592
  8
0
 62
     0
 10
-20.999999999999599
 20
-80.027881362028381
 30
0.0
 11
-25.999999999999609
 21
-75.027881362028367
 31
0.0
  0
LINE
  5
1593
  8
0
 62
     0
 10
-16.027881362028491
 20
-84.999999999999474
 30
0.0
 11
-19.027881362028491
 21
-81.999999999999474
 31
0.0
  0
LINE
  5
1594
  8
0
 62
     0
 10
-20.999999999999599
 20
-81.15041337716201
 30
0.0
 11
-25.999999999999599
 21
-76.15041337716201
 31
0.0
  0
LINE
  5
1595
  8
0
 62
     0
 10
-17.150413377162138
 20
-84.999999999999474
 30
0.0
 11
-20.150413377162138
 21
-81.999999999999474
 31
0.0
  0
LINE
  5
1596
  8
0
 62
     0
 10
-18.272945392295782
 20
-84.999999999999474
 30
0.0
 11
-25.999999999999599
 21
-77.272945392295668
 31
0.0
  0
LINE
  5
1597
  8
0
 62
     0
 10
-19.395477407429428
 20
-84.999999999999474
 30
0.0
 11
-25.999999999999609
 21
-78.395477407429297
 31
0.0
  0
LINE
  5
1598
  8
0
 62
     0
 10
-20.518009422563068
 20
-84.999999999999474
 30
0.0
 11
-25.999999999999609
 21
-79.51800942256294
 31
0.0
  0
LINE
  5
1599
  8
0
 62
     0
 10
-21.640541437696712
 20
-84.999999999999474
 30
0.0
 11
-25.999999999999599
 21
-80.640541437696584
 31
0.0
  0
LINE
  5
159A
  8
0
 62
     0
 10
-22.763073452830358
 20
-84.999999999999474
 30
0.0
 11
-25.999999999999599
 21
-81.763073452830241
 31
0.0
  0
LINE
  5
159B
  8
0
 62
     0
 10
-23.885605467964002
 20
-84.999999999999474
 30
0.0
 11
-25.999999999999609
 21
-82.885605467963885
 31
0.0
  0
LINE
  5
159C
  8
0
 62
     0
 10
-25.008137483097649
 20
-84.999999999999474
 30
0.0
 11
-25.999999999999609
 21
-84.008137483097528
 31
0.0
  0
LINE
  5
159D
  8
0
 62
     0
 10
-12.03541901631263
 20
-84.999999999999474
 30
0.0
 11
-10.99999999999959
 21
-83.964580983686446
 31
0.0
  0
LINE
  5
159E
  8
0
 62
     0
 10
-13.15795103144627
 20
-84.999999999999474
 30
0.0
 11
-10.99999999999959
 21
-82.842048968552803
 31
0.0
  0
LINE
  5
159F
  8
0
 62
     0
 10
-14.28048304657991
 20
-84.999999999999474
 30
0.0
 11
-11.28048304657991
 21
-81.999999999999488
 31
0.0
  0
LINE
  5
15A0
  8
0
 62
     0
 10
-15.40301506171356
 20
-84.999999999999474
 30
0.0
 11
-12.40301506171356
 21
-81.999999999999488
 31
0.0
  0
LINE
  5
15A1
  8
0
 62
     0
 10
-16.5255470768472
 20
-84.999999999999474
 30
0.0
 11
-13.525547076847211
 21
-81.999999999999488
 31
0.0
  0
LINE
  5
15A2
  8
0
 62
     0
 10
-17.648079091980851
 20
-84.999999999999474
 30
0.0
 11
-14.648079091980851
 21
-81.999999999999488
 31
0.0
  0
LINE
  5
15A3
  8
0
 62
     0
 10
-18.77061110711449
 20
-84.999999999999474
 30
0.0
 11
-15.770611107114499
 21
-81.999999999999488
 31
0.0
  0
LINE
  5
15A4
  8
0
 62
     0
 10
-19.893143122248141
 20
-84.999999999999474
 30
0.0
 11
-16.89314312224813
 21
-81.999999999999488
 31
0.0
  0
LINE
  5
15A5
  8
0
 62
     0
 10
-21.015675137381781
 20
-84.999999999999474
 30
0.0
 11
-18.015675137381791
 21
-81.999999999999488
 31
0.0
  0
LINE
  5
15A6
  8
0
 62
     0
 10
-22.138207152515431
 20
-84.999999999999474
 30
0.0
 11
-19.138207152515431
 21
-81.999999999999488
 31
0.0
  0
LINE
  5
15A7
  8
0
 62
     0
 10
-23.260739167649071
 20
-84.999999999999474
 30
0.0
 11
-20.260739167649071
 21
-81.999999999999488
 31
0.0
  0
LINE
  5
15A8
  8
0
 62
     0
 10
-11.38327118278271
 20
-71.999999999999503
 30
0.0
 11
-10.9999999999996
 21
-71.616728817216369
 31
0.0
  0
LINE
  5
15A9
  8
0
 62
     0
 10
-24.383271182782721
 20
-84.999999999999474
 30
0.0
 11
-20.999999999999591
 21
-81.616728817216369
 31
0.0
  0
LINE
  5
15AA
  8
0
 62
     0
 10
-12.505803197916361
 20
-71.999999999999488
 30
0.0
 11
-10.9999999999996
 21
-70.49419680208274
 31
0.0
  0
LINE
  5
15AB
  8
0
 62
     0
 10
-25.50580319791635
 20
-84.999999999999474
 30
0.0
 11
-20.999999999999599
 21
-80.494196802082726
 31
0.0
  0
LINE
  5
15AC
  8
0
 62
     0
 10
-13.628335213050001
 20
-71.999999999999488
 30
0.0
 11
-10.9999999999996
 21
-69.371664786949083
 31
0.0
  0
LINE
  5
15AD
  8
0
 62
     0
 10
-25.999999999999609
 20
-84.371664786949083
 30
0.0
 11
-20.999999999999599
 21
-79.371664786949083
 31
0.0
  0
LINE
  5
15AE
  8
0
 62
     0
 10
-14.750867228183649
 20
-71.999999999999488
 30
0.0
 11
-11.75086722818364
 21
-68.999999999999474
 31
0.0
  0
LINE
  5
15AF
  8
0
 62
     0
 10
-25.999999999999609
 20
-83.249132771815454
 30
0.0
 11
-20.999999999999599
 21
-78.249132771815425
 31
0.0
  0
LINE
  5
15B0
  8
0
 62
     0
 10
-15.873399243317291
 20
-71.999999999999488
 30
0.0
 11
-12.873399243317291
 21
-68.999999999999474
 31
0.0
  0
LINE
  5
15B1
  8
0
 62
     0
 10
-25.999999999999609
 20
-82.126600756681796
 30
0.0
 11
-20.999999999999591
 21
-77.126600756681796
 31
0.0
  0
LINE
  5
15B2
  8
0
 62
     0
 10
-16.995931258450931
 20
-71.999999999999488
 30
0.0
 11
-13.995931258450931
 21
-68.999999999999474
 31
0.0
  0
LINE
  5
15B3
  8
0
 62
     0
 10
-25.999999999999609
 20
-81.004068741548153
 30
0.0
 11
-20.999999999999599
 21
-76.004068741548153
 31
0.0
  0
LINE
  5
15B4
  8
0
 62
     0
 10
-18.118463273584581
 20
-71.999999999999488
 30
0.0
 11
-15.118463273584579
 21
-68.999999999999474
 31
0.0
  0
LINE
  5
15B5
  8
0
 62
     0
 10
-25.999999999999609
 20
-79.88153672641451
 30
0.0
 11
-20.999999999999599
 21
-74.88153672641451
 31
0.0
  0
LINE
  5
15B6
  8
0
 62
     0
 10
-19.240995288718221
 20
-71.999999999999488
 30
0.0
 11
-16.240995288718221
 21
-68.999999999999474
 31
0.0
  0
LINE
  5
15B7
  8
0
 62
     0
 10
-25.999999999999609
 20
-78.759004711280866
 30
0.0
 11
-20.999999999999599
 21
-73.759004711280866
 31
0.0
  0
LINE
  5
15B8
  8
0
 62
     0
 10
-20.363527303851871
 20
-71.999999999999488
 30
0.0
 11
-17.363527303851871
 21
-68.999999999999474
 31
0.0
  0
LINE
  5
15B9
  8
0
 62
     0
 10
-25.999999999999609
 20
-77.636472696147223
 30
0.0
 11
-20.999999999999599
 21
-72.636472696147223
 31
0.0
  0
LINE
  5
15BA
  8
0
 62
     0
 10
-25.999999999999609
 20
-76.51394068101358
 30
0.0
 11
-18.486059318985511
 21
-68.999999999999474
 31
0.0
  0
LINE
  5
15BB
  8
0
 62
     0
 10
-25.999999999999609
 20
-75.391408665879936
 30
0.0
 11
-19.608591334119151
 21
-68.999999999999474
 31
0.0
  0
LINE
  5
15BC
  8
0
 62
     0
 10
-25.999999999999609
 20
-74.268876650746293
 30
0.0
 11
-20.731123349252801
 21
-68.999999999999474
 31
0.0
  0
LINE
  5
15BD
  8
0
 62
     0
 10
-25.999999999999609
 20
-73.146344635612635
 30
0.0
 11
-21.853655364386452
 21
-68.999999999999474
 31
0.0
  0
LINE
  5
15BE
  8
0
 62
     0
 10
-25.999999999999599
 20
-72.023812620478992
 30
0.0
 11
-22.976187379520081
 21
-68.999999999999474
 31
0.0
  0
LINE
  5
15BF
  8
0
 62
     0
 10
-25.999999999999599
 20
-70.901280605345349
 30
0.0
 11
-24.098719394653731
 21
-68.999999999999474
 31
0.0
  0
LINE
  5
15C0
  8
0
 62
     0
 10
-25.999999999999591
 20
-69.778748590211706
 30
0.0
 11
-25.221251409787381
 21
-68.999999999999474
 31
0.0
  0
ENDBLK
  5
15C2
  8
0
  0
BLOCK
  8
0
  2
*X55
 70
     1
 10
0.0
 20
0.0
 30
0.0
  3
*X55
  1

  0
LINE
  5
15DB
  8
0
 62
     0
 10
25.999999999999609
 20
-69.778748590211734
 30
0.0
 11
25.221251409787349
 21
-68.999999999999474
 31
0.0
  0
LINE
  5
15DC
  8
0
 62
     0
 10
25.999999999999609
 20
-70.901280605345391
 30
0.0
 11
24.09871939465371
 21
-68.999999999999474
 31
0.0
  0
LINE
  5
15DD
  8
0
 62
     0
 10
25.999999999999609
 20
-72.023812620479021
 30
0.0
 11
22.976187379520059
 21
-68.999999999999474
 31
0.0
  0
LINE
  5
15DE
  8
0
 62
     0
 10
25.999999999999609
 20
-73.146344635612664
 30
0.0
 11
21.85365536438643
 21
-68.999999999999474
 31
0.0
  0
LINE
  5
15DF
  8
0
 62
     0
 10
25.999999999999609
 20
-74.268876650746293
 30
0.0
 11
20.73112334925278
 21
-68.999999999999474
 31
0.0
  0
LINE
  5
15E0
  8
0
 62
     0
 10
25.999999999999609
 20
-75.391408665879965
 30
0.0
 11
19.608591334119129
 21
-68.999999999999474
 31
0.0
  0
LINE
  5
15E1
  8
0
 62
     0
 10
25.999999999999609
 20
-76.513940681013594
 30
0.0
 11
18.48605931898549
 21
-68.999999999999474
 31
0.0
  0
LINE
  5
15E2
  8
0
 62
     0
 10
20.36352730385185
 20
-71.999999999999488
 30
0.0
 11
17.363527303851839
 21
-68.999999999999474
 31
0.0
  0
LINE
  5
15E3
  8
0
 62
     0
 10
25.999999999999609
 20
-77.636472696147237
 30
0.0
 11
20.999999999999599
 21
-72.636472696147237
 31
0.0
  0
LINE
  5
15E4
  8
0
 62
     0
 10
19.240995288718199
 20
-71.999999999999488
 30
0.0
 11
16.240995288718199
 21
-68.999999999999474
 31
0.0
  0
LINE
  5
15E5
  8
0
 62
     0
 10
25.999999999999609
 20
-78.75900471128088
 30
0.0
 11
20.999999999999609
 21
-73.75900471128088
 31
0.0
  0
LINE
  5
15E6
  8
0
 62
     0
 10
18.11846327358456
 20
-71.999999999999488
 30
0.0
 11
15.11846327358456
 21
-68.999999999999474
 31
0.0
  0
LINE
  5
15E7
  8
0
 62
     0
 10
25.999999999999609
 20
-79.881536726414538
 30
0.0
 11
20.999999999999609
 21
-74.881536726414538
 31
0.0
  0
LINE
  5
15E8
  8
0
 62
     0
 10
16.995931258450909
 20
-71.999999999999488
 30
0.0
 11
13.995931258450909
 21
-68.999999999999474
 31
0.0
  0
LINE
  5
15E9
  8
0
 62
     0
 10
25.999999999999609
 20
-81.004068741548195
 30
0.0
 11
20.999999999999609
 21
-76.004068741548181
 31
0.0
  0
LINE
  5
15EA
  8
0
 62
     0
 10
15.873399243317269
 20
-71.999999999999488
 30
0.0
 11
12.873399243317261
 21
-68.999999999999474
 31
0.0
  0
LINE
  5
15EB
  8
0
 62
     0
 10
25.999999999999609
 20
-82.126600756681796
 30
0.0
 11
20.999999999999599
 21
-77.12660075668181
 31
0.0
  0
LINE
  5
15EC
  8
0
 62
     0
 10
14.75086722818363
 20
-71.999999999999488
 30
0.0
 11
11.75086722818363
 21
-68.999999999999474
 31
0.0
  0
LINE
  5
15ED
  8
0
 62
     0
 10
25.999999999999609
 20
-83.249132771815468
 30
0.0
 11
20.999999999999609
 21
-78.249132771815468
 31
0.0
  0
LINE
  5
15EE
  8
0
 62
     0
 10
13.628335213049979
 20
-71.999999999999488
 30
0.0
 11
10.999999999999609
 21
-69.371664786949111
 31
0.0
  0
LINE
  5
15EF
  8
0
 62
     0
 10
25.999999999999609
 20
-84.371664786949097
 30
0.0
 11
20.999999999999609
 21
-79.371664786949111
 31
0.0
  0
LINE
  5
15F0
  8
0
 62
     0
 10
12.50580319791634
 20
-71.999999999999488
 30
0.0
 11
10.9999999999996
 21
-70.494196802082755
 31
0.0
  0
LINE
  5
15F1
  8
0
 62
     0
 10
25.505803197916329
 20
-84.999999999999474
 30
0.0
 11
20.999999999999609
 21
-80.494196802082755
 31
0.0
  0
LINE
  5
15F2
  8
0
 62
     0
 10
11.383271182782689
 20
-71.999999999999488
 30
0.0
 11
10.9999999999996
 21
-71.616728817216384
 31
0.0
  0
LINE
  5
15F3
  8
0
 62
     0
 10
24.383271182782689
 20
-84.999999999999474
 30
0.0
 11
20.999999999999609
 21
-81.616728817216398
 31
0.0
  0
LINE
  5
15F4
  8
0
 62
     0
 10
23.260739167649039
 20
-84.999999999999474
 30
0.0
 11
20.260739167649039
 21
-81.999999999999474
 31
0.0
  0
LINE
  5
15F5
  8
0
 62
     0
 10
22.13820715251541
 20
-84.999999999999474
 30
0.0
 11
19.138207152515399
 21
-81.999999999999474
 31
0.0
  0
LINE
  5
15F6
  8
0
 62
     0
 10
21.01567513738177
 20
-84.999999999999474
 30
0.0
 11
18.015675137381759
 21
-81.999999999999474
 31
0.0
  0
LINE
  5
15F7
  8
0
 62
     0
 10
19.893143122248109
 20
-84.999999999999474
 30
0.0
 11
16.893143122248109
 21
-81.999999999999488
 31
0.0
  0
LINE
  5
15F8
  8
0
 62
     0
 10
18.770611107114469
 20
-84.999999999999474
 30
0.0
 11
15.770611107114471
 21
-81.999999999999488
 31
0.0
  0
LINE
  5
15F9
  8
0
 62
     0
 10
17.648079091980819
 20
-84.999999999999474
 30
0.0
 11
14.64807909198082
 21
-81.999999999999488
 31
0.0
  0
LINE
  5
15FA
  8
0
 62
     0
 10
16.525547076847172
 20
-84.999999999999474
 30
0.0
 11
13.525547076847181
 21
-81.999999999999488
 31
0.0
  0
LINE
  5
15FB
  8
0
 62
     0
 10
15.40301506171353
 20
-84.999999999999474
 30
0.0
 11
12.403015061713541
 21
-81.999999999999488
 31
0.0
  0
LINE
  5
15FC
  8
0
 62
     0
 10
14.28048304657989
 20
-84.999999999999474
 30
0.0
 11
11.28048304657989
 21
-81.999999999999474
 31
0.0
  0
LINE
  5
15FD
  8
0
 62
     0
 10
13.157951031446251
 20
-84.999999999999474
 30
0.0
 11
10.999999999999609
 21
-82.842048968552845
 31
0.0
  0
LINE
  5
15FE
  8
0
 62
     0
 10
12.0354190163126
 20
-84.999999999999474
 30
0.0
 11
10.9999999999996
 21
-83.964580983686474
 31
0.0
  0
LINE
  5
15FF
  8
0
 62
     0
 10
25.008137483097631
 20
-84.999999999999474
 30
0.0
 11
25.999999999999609
 21
-84.008137483097514
 31
0.0
  0
LINE
  5
1600
  8
0
 62
     0
 10
23.885605467963991
 20
-84.999999999999474
 30
0.0
 11
25.999999999999609
 21
-82.885605467963885
 31
0.0
  0
LINE
  5
1601
  8
0
 62
     0
 10
22.763073452830341
 20
-84.999999999999474
 30
0.0
 11
25.999999999999599
 21
-81.763073452830227
 31
0.0
  0
LINE
  5
1602
  8
0
 62
     0
 10
21.640541437696701
 20
-84.999999999999474
 30
0.0
 11
25.999999999999591
 21
-80.640541437696584
 31
0.0
  0
LINE
  5
1603
  8
0
 62
     0
 10
20.51800942256305
 20
-84.999999999999474
 30
0.0
 11
25.999999999999599
 21
-79.51800942256294
 31
0.0
  0
LINE
  5
1604
  8
0
 62
     0
 10
19.3954774074294
 20
-84.999999999999474
 30
0.0
 11
25.999999999999599
 21
-78.395477407429297
 31
0.0
  0
LINE
  5
1605
  8
0
 62
     0
 10
18.27294539229576
 20
-84.999999999999474
 30
0.0
 11
25.999999999999599
 21
-77.272945392295654
 31
0.0
  0
LINE
  5
1606
  8
0
 62
     0
 10
20.999999999999599
 20
-81.15041337716201
 30
0.0
 11
25.999999999999591
 21
-76.15041337716201
 31
0.0
  0
LINE
  5
1607
  8
0
 62
     0
 10
17.15041337716211
 20
-84.999999999999474
 30
0.0
 11
20.150413377162121
 21
-81.999999999999488
 31
0.0
  0
LINE
  5
1608
  8
0
 62
     0
 10
20.999999999999599
 20
-80.027881362028353
 30
0.0
 11
25.999999999999599
 21
-75.027881362028367
 31
0.0
  0
LINE
  5
1609
  8
0
 62
     0
 10
16.02788136202847
 20
-84.999999999999474
 30
0.0
 11
19.027881362028481
 21
-81.999999999999488
 31
0.0
  0
LINE
  5
160A
  8
0
 62
     0
 10
20.999999999999599
 20
-78.905349346894724
 30
0.0
 11
25.999999999999599
 21
-73.905349346894724
 31
0.0
  0
LINE
  5
160B
  8
0
 62
     0
 10
14.90534934689483
 20
-84.999999999999474
 30
0.0
 11
17.90534934689483
 21
-81.999999999999488
 31
0.0
  0
LINE
  5
160C
  8
0
 62
     0
 10
20.999999999999599
 20
-77.78281733176108
 30
0.0
 11
25.999999999999599
 21
-72.78281733176108
 31
0.0
  0
LINE
  5
160D
  8
0
 62
     0
 10
13.782817331761191
 20
-84.999999999999474
 30
0.0
 11
16.782817331761191
 21
-81.999999999999488
 31
0.0
  0
LINE
  5
160E
  8
0
 62
     0
 10
20.999999999999599
 20
-76.660285316627423
 30
0.0
 11
25.999999999999609
 21
-71.660285316627423
 31
0.0
  0
LINE
  5
160F
  8
0
 62
     0
 10
12.66028531662754
 20
-84.999999999999474
 30
0.0
 11
15.66028531662754
 21
-81.999999999999488
 31
0.0
  0
LINE
  5
1610
  8
0
 62
     0
 10
20.999999999999599
 20
-75.537753301493765
 30
0.0
 11
25.999999999999599
 21
-70.537753301493794
 31
0.0
  0
LINE
  5
1611
  8
0
 62
     0
 10
11.5377533014939
 20
-84.999999999999474
 30
0.0
 11
14.5377533014939
 21
-81.999999999999488
 31
0.0
  0
LINE
  5
1612
  8
0
 62
     0
 10
20.999999999999599
 20
-74.415221286360136
 30
0.0
 11
25.999999999999599
 21
-69.415221286360151
 31
0.0
  0
LINE
  5
1613
  8
0
 62
     0
 10
10.9999999999996
 20
-84.415221286360136
 30
0.0
 11
13.41522128636025
 21
-81.999999999999488
 31
0.0
  0
LINE
  5
1614
  8
0
 62
     0
 10
20.999999999999599
 20
-73.292689271226493
 30
0.0
 11
25.292689271226621
 21
-68.999999999999474
 31
0.0
  0
LINE
  5
1615
  8
0
 62
     0
 10
10.999999999999609
 20
-83.292689271226493
 30
0.0
 11
12.29268927122661
 21
-81.999999999999488
 31
0.0
  0
LINE
  5
1616
  8
0
 62
     0
 10
20.979402139361031
 20
-72.190755116731424
 30
0.0
 11
24.170157256092981
 21
-68.999999999999474
 31
0.0
  0
LINE
  5
1617
  8
0
 62
     0
 10
10.9999999999996
 20
-82.170157256092835
 30
0.0
 11
11.17015725609297
 21
-81.999999999999488
 31
0.0
  0
LINE
  5
1618
  8
0
 62
     0
 10
20.04762524095932
 20
-71.999999999999488
 30
0.0
 11
23.047625240959331
 21
-68.999999999999474
 31
0.0
  0
LINE
  5
1619
  8
0
 62
     0
 10
18.92509322582568
 20
-71.999999999999488
 30
0.0
 11
21.925093225825691
 21
-68.999999999999474
 31
0.0
  0
LINE
  5
161A
  8
0
 62
     0
 10
17.802561210692041
 20
-71.999999999999488
 30
0.0
 11
20.802561210692041
 21
-68.999999999999474
 31
0.0
  0
LINE
  5
161B
  8
0
 62
     0
 10
16.68002919555839
 20
-71.999999999999488
 30
0.0
 11
19.68002919555839
 21
-68.999999999999474
 31
0.0
  0
LINE
  5
161C
  8
0
 62
     0
 10
15.55749718042475
 20
-71.999999999999488
 30
0.0
 11
18.55749718042475
 21
-68.999999999999474
 31
0.0
  0
LINE
  5
161D
  8
0
 62
     0
 10
14.4349651652911
 20
-71.999999999999488
 30
0.0
 11
17.4349651652911
 21
-68.999999999999474
 31
0.0
  0
LINE
  5
161E
  8
0
 62
     0
 10
13.31243315015746
 20
-71.999999999999488
 30
0.0
 11
16.31243315015746
 21
-68.999999999999474
 31
0.0
  0
LINE
  5
161F
  8
0
 62
     0
 10
12.18990113502381
 20
-71.999999999999488
 30
0.0
 11
15.18990113502382
 21
-68.999999999999474
 31
0.0
  0
LINE
  5
1620
  8
0
 62
     0
 10
11.06736911989017
 20
-71.999999999999488
 30
0.0
 11
14.06736911989017
 21
-68.999999999999474
 31
0.0
  0
LINE
  5
1621
  8
0
 62
     0
 10
10.9999999999996
 20
-70.944837104756417
 30
0.0
 11
12.94483710475652
 21
-68.999999999999474
 31
0.0
  0
LINE
  5
1622
  8
0
 62
     0
 10
10.9999999999996
 20
-69.822305089622759
 30
0.0
 11
11.82230508962288
 21
-68.999999999999474
 31
0.0
  0
ENDBLK
  5
1624
  8
0
  0
BLOCK
  8
0
  2
*X56
 70
     1
 10
0.0
 20
0.0
 30
0.0
  3
*X56
  1

  0
LINE
  5
1626
  8
0
 62
     0
 10
10.999999999999609
 20
-82.842048968552845
 30
0.0
 11
10.426555351354541
 21
-82.268604319907766
 31
0.0
  0
LINE
  5
1627
  8
0
 62
     0
 10
10.9999999999996
 20
-83.964580983686474
 30
0.0
 11
9.662098649843422
 21
-82.626679633530287
 31
0.0
  0
LINE
  5
1628
  8
0
 62
     0
 10
10.9999999999996
 20
-85.087112998820118
 30
0.0
 11
8.897641948332307
 21
-82.984754947152808
 31
0.0
  0
LINE
  5
1629
  8
0
 62
     0
 10
10.99999999999959
 20
-86.209645013953747
 30
0.0
 11
8.1271900792251941
 21
-83.33683509317936
 31
0.0
  0
LINE
  5
162A
  8
0
 62
     0
 10
10.9999999999996
 20
-87.332177029087404
 30
0.0
 11
7.148674402239088
 21
-83.480851431326897
 31
0.0
  0
LINE
  5
162B
  8
0
 62
     0
 10
10.9999999999996
 20
-88.454709044221048
 30
0.0
 11
6.1533693807914167
 21
-83.608078425012849
 31
0.0
  0
LINE
  5
162C
  8
0
 62
     0
 10
10.9999999999996
 20
-89.577241059354691
 30
0.0
 11
5.1405125653755661
 21
-83.717753624730634
 31
0.0
  0
LINE
  5
162D
  8
0
 62
     0
 10
10.999999999999609
 20
-90.699773074488348
 30
0.0
 11
4.10926083057862
 21
-83.809033905067366
 31
0.0
  0
LINE
  5
162E
  8
0
 62
     0
 10
10.05605014480547
 20
-90.878355234427858
 30
0.0
 11
3.0586783216406062
 21
-83.880983411262974
 31
0.0
  0
LINE
  5
162F
  8
0
 62
     0
 10
8.7874547181970044
 20
-90.732291822953044
 30
0.0
 11
1.987721939093994
 21
-83.93255904385002
 31
0.0
  0
LINE
  5
1630
  8
0
 62
     0
 10
7.540744964998062
 20
-90.608114084887717
 30
0.0
 11
0.895223716715165
 21
-83.962592836604841
 31
0.0
  0
LINE
  5
1631
  8
0
 62
     0
 10
6.3147336732354873
 20
-90.504634808258814
 30
0.0
 11
-0.2201307620823201
 21
-83.969770372940985
 31
0.0
  0
LINE
  5
1632
  8
0
 62
     0
 10
5.1083501609722504
 20
-90.420783311129213
 30
0.0
 11
-1.3598290576715251
 21
-83.952604092485444
 31
0.0
  0
LINE
  5
1633
  8
0
 62
     0
 10
3.9206248647084081
 20
-90.355590029999007
 30
0.0
 11
-2.5255652419479508
 21
-83.909399923342647
 31
0.0
  0
LINE
  5
1634
  8
0
 62
     0
 10
2.7506764647427242
 20
-90.308173645166974
 30
0.0
 11
-3.7192821057712271
 21
-83.838215074653021
 31
0.0
  0
LINE
  5
1635
  8
0
 62
     0
 10
1.597701054333448
 20
-90.277730249891334
 30
0.0
 11
-4.9432252558869152
 21
-83.736803939670963
 31
0.0
  0
LINE
  5
1636
  8
0
 62
     0
 10
0.4609629690350588
 20
-90.263524179726602
 30
0.0
 11
-6.2000134809186056
 21
-83.602547729772937
 31
0.0
  0
LINE
  5
1637
  8
0
 62
     0
 10
-0.6602130250358798
 20
-90.264880200789293
 30
0.0
 11
-7.4927318142264951
 21
-83.432361411598677
 31
0.0
  0
LINE
  5
1638
  8
0
 62
     0
 10
-1.766448422647513
 20
-90.281176818311309
 30
0.0
 11
-9.2084581415444333
 21
-82.839167099414396
 31
0.0
  0
LINE
  5
1639
  8
0
 62
     0
 10
-2.8583167412044679
 20
-90.311840514887976
 30
0.0
 11
-10.99999999999959
 21
-82.170157256092864
 31
0.0
  0
LINE
  5
163A
  8
0
 62
     0
 10
-3.9363485061832568
 20
-90.356340765042845
 30
0.0
 11
-10.99999999999959
 21
-83.292689271226536
 31
0.0
  0
LINE
  5
163B
  8
0
 62
     0
 10
-5.0010355845605607
 20
-90.414185701799184
 30
0.0
 11
-10.99999999999959
 21
-84.415221286360136
 31
0.0
  0
LINE
  5
163C
  8
0
 62
     0
 10
-6.0528349676561239
 20
-90.484918333837257
 30
0.0
 11
-10.99999999999959
 21
-85.537753301493808
 31
0.0
  0
LINE
  5
163D
  8
0
 62
     0
 10
-7.0921720866557294
 20
-90.568113229971317
 30
0.0
 11
-10.99999999999959
 21
-86.660285316627437
 31
0.0
  0
LINE
  5
163E
  8
0
 62
     0
 10
-8.1194437295761404
 20
-90.663373602184535
 30
0.0
 11
-10.99999999999959
 21
-87.782817331761095
 31
0.0
  0
LINE
  5
163F
  8
0
 62
     0
 10
-9.1350206167712482
 20
-90.770328730123083
 30
0.0
 11
-10.9999999999996
 21
-88.905349346894724
 31
0.0
  0
LINE
  5
1640
  8
0
 62
     0
 10
-10.139249682642189
 20
-90.888631679385782
 30
0.0
 11
-10.9999999999996
 21
-90.027881362028381
 31
0.0
  0
LINE
  5
1641
  8
0
 62
     0
 10
10.139249682642181
 20
-90.888631679385782
 30
0.0
 11
10.99999999999959
 21
-90.027881362028353
 31
0.0
  0
LINE
  5
1642
  8
0
 62
     0
 10
9.1350206167712482
 20
-90.770328730123055
 30
0.0
 11
10.9999999999996
 21
-88.905349346894724
 31
0.0
  0
LINE
  5
1643
  8
0
 62
     0
 10
8.1194437295761404
 20
-90.663373602184535
 30
0.0
 11
10.99999999999959
 21
-87.78281733176108
 31
0.0
  0
LINE
  5
1644
  8
0
 62
     0
 10
7.0921720866557356
 20
-90.568113229971289
 30
0.0
 11
10.9999999999996
 21
-86.660285316627423
 31
0.0
  0
LINE
  5
1645
  8
0
 62
     0
 10
6.0528349676561239
 20
-90.484918333837257
 30
0.0
 11
10.99999999999959
 21
-85.537753301493765
 31
0.0
  0
LINE
  5
1646
  8
0
 62
     0
 10
5.0010355845605536
 20
-90.414185701799184
 30
0.0
 11
10.9999999999996
 21
-84.415221286360136
 31
0.0
  0
LINE
  5
1647
  8
0
 62
     0
 10
3.9363485061832568
 20
-90.35634076504283
 30
0.0
 11
10.999999999999609
 21
-83.292689271226493
 31
0.0
  0
LINE
  5
1648
  8
0
 62
     0
 10
2.8583167412044679
 20
-90.311840514887976
 30
0.0
 11
10.9999999999996
 21
-82.170157256092835
 31
0.0
  0
LINE
  5
1649
  8
0
 62
     0
 10
1.766448422647499
 20
-90.281176818311309
 30
0.0
 11
9.2084581415472897
 21
-82.839167099411526
 31
0.0
  0
LINE
  5
164A
  8
0
 62
     0
 10
0.6602130250358727
 20
-90.264880200789293
 30
0.0
 11
7.4927318142264658
 21
-83.432361411598677
 31
0.0
  0
LINE
  5
164B
  8
0
 62
     0
 10
-0.460962969035073
 20
-90.263524179726602
 30
0.0
 11
6.2000134809185923
 21
-83.602547729772937
 31
0.0
  0
LINE
  5
164C
  8
0
 62
     0
 10
-1.597701054333462
 20
-90.277730249891334
 30
0.0
 11
4.943225255886893
 21
-83.736803939670963
 31
0.0
  0
LINE
  5
164D
  8
0
 62
     0
 10
-2.7506764647427531
 20
-90.308173645166974
 30
0.0
 11
3.7192821057712129
 21
-83.838215074653021
 31
0.0
  0
LINE
  5
164E
  8
0
 62
     0
 10
-3.9206248647084361
 20
-90.355590029999036
 30
0.0
 11
2.5255652419479371
 21
-83.909399923342647
 31
0.0
  0
LINE
  5
164F
  8
0
 62
     0
 10
-5.1083501609722779
 20
-90.420783311129227
 30
0.0
 11
1.3598290576715111
 21
-83.952604092485444
 31
0.0
  0
LINE
  5
1650
  8
0
 62
     0
 10
-6.3147336732355219
 20
-90.504634808258814
 30
0.0
 11
0.2201307620823059
 21
-83.969770372940985
 31
0.0
  0
LINE
  5
1651
  8
0
 62
     0
 10
-7.5407449649981038
 20
-90.60811408488776
 30
0.0
 11
-0.8952237167151793
 21
-83.962592836604841
 31
0.0
  0
LINE
  5
1652
  8
0
 62
     0
 10
-8.7874547181970613
 20
-90.732291822953073
 30
0.0
 11
-1.987721939094008
 21
-83.93255904385002
 31
0.0
  0
LINE
  5
1653
  8
0
 62
     0
 10
-10.056050144805511
 20
-90.878355234427886
 30
0.0
 11
-3.0586783216406062
 21
-83.880983411262974
 31
0.0
  0
LINE
  5
1654
  8
0
 62
     0
 10
-10.9999999999996
 20
-90.69977307448832
 30
0.0
 11
-4.1092608305786271
 21
-83.809033905067338
 31
0.0
  0
LINE
  5
1655
  8
0
 62
     0
 10
-10.9999999999996
 20
-89.577241059354677
 30
0.0
 11
-5.1405125653755732
 21
-83.717753624730634
 31
0.0
  0
LINE
  5
1656
  8
0
 62
     0
 10
-10.99999999999959
 20
-88.454709044221033
 30
0.0
 11
-6.1533693807914238
 21
-83.608078425012849
 31
0.0
  0
LINE
  5
1657
  8
0
 62
     0
 10
-10.9999999999996
 20
-87.332177029087376
 30
0.0
 11
-7.148674402239088
 21
-83.480851431326869
 31
0.0
  0
LINE
  5
1658
  8
0
 62
     0
 10
-10.9999999999996
 20
-86.209645013953747
 30
0.0
 11
-8.1271900792251941
 21
-83.336835093179346
 31
0.0
  0
LINE
  5
1659
  8
0
 62
     0
 10
-10.9999999999996
 20
-85.087112998820103
 30
0.0
 11
-8.8976419483335434
 21
-82.984754947154045
 31
0.0
  0
LINE
  5
165A
  8
0
 62
     0
 10
-10.99999999999959
 20
-83.964580983686446
 30
0.0
 11
-9.6620986498442178
 21
-82.626679633531069
 31
0.0
  0
LINE
  5
165B
  8
0
 62
     0
 10
-10.99999999999959
 20
-82.842048968552803
 30
0.0
 11
-10.426555351354891
 21
-82.268604319908107
 31
0.0
  0
ENDBLK
  5
165D
  8
0
  0
BLOCK
  8
0
  2
*X57
 70
     1
 10
0.0
 20
0.0
 30
0.0
  3
*X57
  1

  0
LINE
  5
165F
  8
0
 62
     0
 10
10.999999999999609
 20
-82.842048968552845
 30
0.0
 11
10.426555351354541
 21
-82.268604319907766
 31
0.0
  0
LINE
  5
1660
  8
0
 62
     0
 10
10.9999999999996
 20
-83.964580983686474
 30
0.0
 11
9.662098649843422
 21
-82.626679633530287
 31
0.0
  0
LINE
  5
1661
  8
0
 62
     0
 10
10.9999999999996
 20
-85.087112998820118
 30
0.0
 11
8.897641948332307
 21
-82.984754947152808
 31
0.0
  0
LINE
  5
1662
  8
0
 62
     0
 10
10.99999999999959
 20
-86.209645013953747
 30
0.0
 11
8.1271900792251941
 21
-83.33683509317936
 31
0.0
  0
LINE
  5
1663
  8
0
 62
     0
 10
10.9999999999996
 20
-87.332177029087404
 30
0.0
 11
7.148674402239088
 21
-83.480851431326897
 31
0.0
  0
LINE
  5
1664
  8
0
 62
     0
 10
10.9999999999996
 20
-88.454709044221048
 30
0.0
 11
6.1533693807914167
 21
-83.608078425012849
 31
0.0
  0
LINE
  5
1665
  8
0
 62
     0
 10
10.9999999999996
 20
-89.577241059354691
 30
0.0
 11
5.1405125653755661
 21
-83.717753624730634
 31
0.0
  0
LINE
  5
1666
  8
0
 62
     0
 10
10.999999999999609
 20
-90.699773074488348
 30
0.0
 11
4.10926083057862
 21
-83.809033905067366
 31
0.0
  0
LINE
  5
1667
  8
0
 62
     0
 10
10.05605014480547
 20
-90.878355234427858
 30
0.0
 11
3.0586783216406062
 21
-83.880983411262974
 31
0.0
  0
LINE
  5
1668
  8
0
 62
     0
 10
8.7874547181970044
 20
-90.732291822953044
 30
0.0
 11
1.987721939093994
 21
-83.93255904385002
 31
0.0
  0
LINE
  5
1669
  8
0
 62
     0
 10
7.540744964998062
 20
-90.608114084887717
 30
0.0
 11
0.895223716715165
 21
-83.962592836604841
 31
0.0
  0
LINE
  5
166A
  8
0
 62
     0
 10
6.3147336732354873
 20
-90.504634808258814
 30
0.0
 11
-0.2201307620823201
 21
-83.969770372940985
 31
0.0
  0
LINE
  5
166B
  8
0
 62
     0
 10
5.1083501609722504
 20
-90.420783311129213
 30
0.0
 11
-1.3598290576715251
 21
-83.952604092485444
 31
0.0
  0
LINE
  5
166C
  8
0
 62
     0
 10
3.9206248647084081
 20
-90.355590029999007
 30
0.0
 11
-2.5255652419479508
 21
-83.909399923342647
 31
0.0
  0
LINE
  5
166D
  8
0
 62
     0
 10
2.7506764647427242
 20
-90.308173645166974
 30
0.0
 11
-3.7192821057712271
 21
-83.838215074653021
 31
0.0
  0
LINE
  5
166E
  8
0
 62
     0
 10
1.597701054333448
 20
-90.277730249891334
 30
0.0
 11
-4.9432252558869152
 21
-83.736803939670963
 31
0.0
  0
LINE
  5
166F
  8
0
 62
     0
 10
0.4609629690350588
 20
-90.263524179726602
 30
0.0
 11
-6.2000134809186056
 21
-83.602547729772937
 31
0.0
  0
LINE
  5
1670
  8
0
 62
     0
 10
-0.6602130250358798
 20
-90.264880200789293
 30
0.0
 11
-7.4927318142264951
 21
-83.432361411598677
 31
0.0
  0
LINE
  5
1671
  8
0
 62
     0
 10
-1.766448422647513
 20
-90.281176818311309
 30
0.0
 11
-9.2084581415444333
 21
-82.839167099414396
 31
0.0
  0
LINE
  5
1672
  8
0
 62
     0
 10
-2.8583167412044679
 20
-90.311840514887976
 30
0.0
 11
-10.99999999999959
 21
-82.170157256092864
 31
0.0
  0
LINE
  5
1673
  8
0
 62
     0
 10
-3.9363485061832568
 20
-90.356340765042845
 30
0.0
 11
-10.99999999999959
 21
-83.292689271226536
 31
0.0
  0
LINE
  5
1674
  8
0
 62
     0
 10
-5.0010355845605607
 20
-90.414185701799184
 30
0.0
 11
-10.99999999999959
 21
-84.415221286360136
 31
0.0
  0
LINE
  5
1675
  8
0
 62
     0
 10
-6.0528349676561239
 20
-90.484918333837257
 30
0.0
 11
-10.99999999999959
 21
-85.537753301493808
 31
0.0
  0
LINE
  5
1676
  8
0
 62
     0
 10
-7.0921720866557294
 20
-90.568113229971317
 30
0.0
 11
-10.99999999999959
 21
-86.660285316627437
 31
0.0
  0
LINE
  5
1677
  8
0
 62
     0
 10
-8.1194437295761404
 20
-90.663373602184535
 30
0.0
 11
-10.99999999999959
 21
-87.782817331761095
 31
0.0
  0
LINE
  5
1678
  8
0
 62
     0
 10
-9.1350206167712482
 20
-90.770328730123083
 30
0.0
 11
-10.9999999999996
 21
-88.905349346894724
 31
0.0
  0
LINE
  5
1679
  8
0
 62
     0
 10
-10.139249682642189
 20
-90.888631679385782
 30
0.0
 11
-10.9999999999996
 21
-90.027881362028381
 31
0.0
  0
LINE
  5
167A
  8
0
 62
     0
 10
10.139249682642181
 20
-90.888631679385782
 30
0.0
 11
10.99999999999959
 21
-90.027881362028353
 31
0.0
  0
LINE
  5
167B
  8
0
 62
     0
 10
9.1350206167712482
 20
-90.770328730123055
 30
0.0
 11
10.9999999999996
 21
-88.905349346894724
 31
0.0
  0
LINE
  5
167C
  8
0
 62
     0
 10
8.1194437295761404
 20
-90.663373602184535
 30
0.0
 11
10.99999999999959
 21
-87.78281733176108
 31
0.0
  0
LINE
  5
167D
  8
0
 62
     0
 10
7.0921720866557356
 20
-90.568113229971289
 30
0.0
 11
10.9999999999996
 21
-86.660285316627423
 31
0.0
  0
LINE
  5
167E
  8
0
 62
     0
 10
6.0528349676561239
 20
-90.484918333837257
 30
0.0
 11
10.99999999999959
 21
-85.537753301493765
 31
0.0
  0
LINE
  5
167F
  8
0
 62
     0
 10
5.0010355845605536
 20
-90.414185701799184
 30
0.0
 11
10.9999999999996
 21
-84.415221286360136
 31
0.0
  0
LINE
  5
1680
  8
0
 62
     0
 10
3.9363485061832568
 20
-90.35634076504283
 30
0.0
 11
10.999999999999609
 21
-83.292689271226493
 31
0.0
  0
LINE
  5
1681
  8
0
 62
     0
 10
2.8583167412044679
 20
-90.311840514887976
 30
0.0
 11
10.9999999999996
 21
-82.170157256092835
 31
0.0
  0
LINE
  5
1682
  8
0
 62
     0
 10
1.766448422647499
 20
-90.281176818311309
 30
0.0
 11
9.2084581415472897
 21
-82.839167099411526
 31
0.0
  0
LINE
  5
1683
  8
0
 62
     0
 10
0.6602130250358727
 20
-90.264880200789293
 30
0.0
 11
7.4927318142264658
 21
-83.432361411598677
 31
0.0
  0
LINE
  5
1684
  8
0
 62
     0
 10
-0.460962969035073
 20
-90.263524179726602
 30
0.0
 11
6.2000134809185923
 21
-83.602547729772937
 31
0.0
  0
LINE
  5
1685
  8
0
 62
     0
 10
-1.597701054333462
 20
-90.277730249891334
 30
0.0
 11
4.943225255886893
 21
-83.736803939670963
 31
0.0
  0
LINE
  5
1686
  8
0
 62
     0
 10
-2.7506764647427531
 20
-90.308173645166974
 30
0.0
 11
3.7192821057712129
 21
-83.838215074653021
 31
0.0
  0
LINE
  5
1687
  8
0
 62
     0
 10
-3.9206248647084361
 20
-90.355590029999036
 30
0.0
 11
2.5255652419479371
 21
-83.909399923342647
 31
0.0
  0
LINE
  5
1688
  8
0
 62
     0
 10
-5.1083501609722779
 20
-90.420783311129227
 30
0.0
 11
1.3598290576715111
 21
-83.952604092485444
 31
0.0
  0
LINE
  5
1689
  8
0
 62
     0
 10
-6.3147336732355219
 20
-90.504634808258814
 30
0.0
 11
0.2201307620823059
 21
-83.969770372940985
 31
0.0
  0
LINE
  5
168A
  8
0
 62
     0
 10
-7.5407449649981038
 20
-90.60811408488776
 30
0.0
 11
-0.8952237167151793
 21
-83.962592836604841
 31
0.0
  0
LINE
  5
168B
  8
0
 62
     0
 10
-8.7874547181970613
 20
-90.732291822953073
 30
0.0
 11
-1.987721939094008
 21
-83.93255904385002
 31
0.0
  0
LINE
  5
168C
  8
0
 62
     0
 10
-10.056050144805511
 20
-90.878355234427886
 30
0.0
 11
-3.0586783216406062
 21
-83.880983411262974
 31
0.0
  0
LINE
  5
168D
  8
0
 62
     0
 10
-10.9999999999996
 20
-90.69977307448832
 30
0.0
 11
-4.1092608305786271
 21
-83.809033905067338
 31
0.0
  0
LINE
  5
168E
  8
0
 62
     0
 10
-10.9999999999996
 20
-89.577241059354677
 30
0.0
 11
-5.1405125653755732
 21
-83.717753624730634
 31
0.0
  0
LINE
  5
168F
  8
0
 62
     0
 10
-10.99999999999959
 20
-88.454709044221033
 30
0.0
 11
-6.1533693807914238
 21
-83.608078425012849
 31
0.0
  0
LINE
  5
1690
  8
0
 62
     0
 10
-10.9999999999996
 20
-87.332177029087376
 30
0.0
 11
-7.148674402239088
 21
-83.480851431326869
 31
0.0
  0
LINE
  5
1691
  8
0
 62
     0
 10
-10.9999999999996
 20
-86.209645013953747
 30
0.0
 11
-8.1271900792251941
 21
-83.336835093179346
 31
0.0
  0
LINE
  5
1692
  8
0
 62
     0
 10
-10.9999999999996
 20
-85.087112998820103
 30
0.0
 11
-8.8976419483335434
 21
-82.984754947154045
 31
0.0
  0
LINE
  5
1693
  8
0
 62
     0
 10
-10.99999999999959
 20
-83.964580983686446
 30
0.0
 11
-9.6620986498442178
 21
-82.626679633531069
 31
0.0
  0
LINE
  5
1694
  8
0
 62
     0
 10
-10.99999999999959
 20
-82.842048968552803
 30
0.0
 11
-10.426555351354891
 21
-82.268604319908107
 31
0.0
  0
ENDBLK
  5
1696
  8
0
  0
BLOCK
  8
0
  2
*X58
 70
     1
 10
0.0
 20
0.0
 30
0.0
  3
*X58
  1

  0
LINE
  5
1724
  8
0
 62
     0
 10
21.456464576061339
 20
-40.47283468383354
 30
0.0
 11
23.39655640849595
 21
-38.53274285139895
 31
0.0
  0
LINE
  5
1725
  8
0
 62
     0
 10
20.750864645641659
 20
-40.055902599119598
 30
0.0
 11
23.494381190161629
 21
-37.312386054599628
 31
0.0
  0
LINE
  5
1726
  8
0
 62
     0
 10
20.29397284113276
 20
-39.390262388494811
 30
0.0
 11
23.343497845916531
 21
-36.340737383711051
 31
0.0
  0
LINE
  5
1727
  8
0
 62
     0
 10
20.008020349324809
 20
-38.553682865169129
 30
0.0
 11
23.02167518897047
 21
-35.540028025523469
 31
0.0
  0
LINE
  5
1728
  8
0
 62
     0
 10
19.900004318014179
 20
-37.539166881346127
 30
0.0
 11
22.522309100741271
 21
-34.916862098619042
 31
0.0
  0
LINE
  5
1729
  8
0
 62
     0
 10
20.08906895187037
 20
-36.227570232356321
 30
0.0
 11
21.72507628891691
 21
-34.591562895309771
 31
0.0
  0
LINE
  5
172A
  8
0
 62
     0
 10
23.264657396549751
 20
-36.085103348434927
 30
0.0
 11
21.773279490638629
 21
-34.593725442523812
 31
0.0
  0
LINE
  5
172B
  8
0
 62
     0
 10
23.498889292698841
 20
-37.44186725971764
 30
0.0
 11
20.931272445735829
 21
-34.874250412754627
 31
0.0
  0
LINE
  5
172C
  8
0
 62
     0
 10
23.408766122814772
 20
-38.474276104967203
 30
0.0
 11
20.413620466866231
 21
-35.479130449018669
 31
0.0
  0
LINE
  5
172D
  8
0
 62
     0
 10
23.136924279194378
 20
-39.324966276480488
 30
0.0
 11
20.077687161732861
 21
-36.265729159018981
 31
0.0
  0
LINE
  5
172E
  8
0
 62
     0
 10
22.695966080120851
 20
-40.006540092540597
 30
0.0
 11
19.910870212052661
 21
-37.221444224472407
 31
0.0
  0
LINE
  5
172F
  8
0
 62
     0
 10
22.019871110546831
 20
-40.452977138100259
 30
0.0
 11
19.979190032873021
 21
-38.412296060426449
 31
0.0
  0
ENDBLK
  5
1731
  8
0
  0
BLOCK
  8
0
  2
*X59
 70
     1
 10
0.0
 20
0.0
 30
0.0
  3
*X59
  1

  0
LINE
  5
1733
  8
0
 62
     0
 10
-22.109570128551638
 20
-40.422504033822342
 30
0.0
 11
-19.954556089638189
 21
-38.267489994908892
 31
0.0
  0
LINE
  5
1734
  8
0
 62
     0
 10
-22.752231428458138
 20
-39.942633318595213
 30
0.0
 11
-19.919669938485409
 21
-37.11007182862248
 31
0.0
  0
LINE
  5
1735
  8
0
 62
     0
 10
-23.173829513854351
 20
-39.241699388857789
 30
0.0
 11
-20.105847001842911
 21
-36.173716876846349
 31
0.0
  0
LINE
  5
1736
  8
0
 62
     0
 10
-23.42792779005579
 20
-38.373265649925493
 30
0.0
 11
-20.459523874395298
 21
-35.404861734264991
 31
0.0
  0
LINE
  5
1737
  8
0
 62
     0
 10
-23.494621819963982
 20
-37.317427664700048
 30
0.0
 11
-21.00060499324081
 21
-34.82341083797688
 31
0.0
  0
LINE
  5
1738
  8
0
 62
     0
 10
-23.191542204342461
 20
-35.891816033944892
 30
0.0
 11
-21.913057178780271
 21
-34.613331008382701
 31
0.0
  0
LINE
  5
1739
  8
0
 62
     0
 10
-19.989658054542641
 20
-36.624848162348137
 30
0.0
 11
-21.980192234694702
 21
-34.63431398219609
 31
0.0
  0
LINE
  5
173A
  8
0
 62
     0
 10
-19.908284087493989
 20
-37.828754144530421
 30
0.0
 11
-22.674911150020929
 21
-35.062127082003492
 31
0.0
  0
LINE
  5
173B
  8
0
 62
     0
 10
-20.06792074919872
 20
-38.791649497959327
 30
0.0
 11
-23.12304963707021
 21
-35.736520610087837
 31
0.0
  0
LINE
  5
173C
  8
0
 62
     0
 10
-20.39744128165086
 20
-39.58466098064082
 30
0.0
 11
-23.401304253372128
 21
-36.580798008919537
 31
0.0
  0
LINE
  5
173D
  8
0
 62
     0
 10
-20.906884046476758
 20
-40.197750230948543
 30
0.0
 11
-23.499636637300231
 21
-37.604997640125077
 31
0.0
  0
LINE
  5
173E
  8
0
 62
     0
 10
-21.727511421715569
 20
-40.499654870843351
 30
0.0
 11
-23.286784410815361
 21
-38.940381881743583
 31
0.0
  0
ENDBLK
  5
1740
  8
0
  0
BLOCK
  8
0
  2
*X60
 70
     1
 10
0.0
 20
0.0
 30
0.0
  3
*X60
  1

  0
LINE
  5
17B7
  8
0
 62
     0
 10
21.456464576061339
 20
-40.47283468383354
 30
0.0
 11
23.39655640849595
 21
-38.53274285139895
 31
0.0
  0
LINE
  5
17B8
  8
0
 62
     0
 10
20.750864645641659
 20
-40.055902599119598
 30
0.0
 11
23.494381190161629
 21
-37.312386054599628
 31
0.0
  0
LINE
  5
17B9
  8
0
 62
     0
 10
20.29397284113276
 20
-39.390262388494811
 30
0.0
 11
23.343497845916531
 21
-36.340737383711051
 31
0.0
  0
LINE
  5
17BA
  8
0
 62
     0
 10
20.008020349324809
 20
-38.553682865169129
 30
0.0
 11
23.02167518897047
 21
-35.540028025523469
 31
0.0
  0
LINE
  5
17BB
  8
0
 62
     0
 10
19.900004318014179
 20
-37.539166881346127
 30
0.0
 11
22.522309100741271
 21
-34.916862098619042
 31
0.0
  0
LINE
  5
17BC
  8
0
 62
     0
 10
20.08906895187037
 20
-36.227570232356321
 30
0.0
 11
21.72507628891691
 21
-34.591562895309771
 31
0.0
  0
LINE
  5
17BD
  8
0
 62
     0
 10
23.264657396549751
 20
-36.085103348434927
 30
0.0
 11
21.773279490638629
 21
-34.593725442523812
 31
0.0
  0
LINE
  5
17BE
  8
0
 62
     0
 10
23.498889292698841
 20
-37.44186725971764
 30
0.0
 11
20.931272445735829
 21
-34.874250412754627
 31
0.0
  0
LINE
  5
17BF
  8
0
 62
     0
 10
23.408766122814772
 20
-38.474276104967203
 30
0.0
 11
20.413620466866231
 21
-35.479130449018669
 31
0.0
  0
LINE
  5
17C0
  8
0
 62
     0
 10
23.136924279194378
 20
-39.324966276480488
 30
0.0
 11
20.077687161732861
 21
-36.265729159018981
 31
0.0
  0
LINE
  5
17C1
  8
0
 62
     0
 10
22.695966080120851
 20
-40.006540092540597
 30
0.0
 11
19.910870212052661
 21
-37.221444224472407
 31
0.0
  0
LINE
  5
17C2
  8
0
 62
     0
 10
22.019871110546831
 20
-40.452977138100259
 30
0.0
 11
19.979190032873021
 21
-38.412296060426449
 31
0.0
  0
ENDBLK
  5
17C4
  8
0
  0
BLOCK
  8
0
  2
*X61
 70
     1
 10
0.0
 20
0.0
 30
0.0
  3
*X61
  1

  0
LINE
  5
17C6
  8
0
 62
     0
 10
-22.109570128551638
 20
-40.422504033822342
 30
0.0
 11
-19.954556089638189
 21
-38.267489994908892
 31
0.0
  0
LINE
  5
17C7
  8
0
 62
     0
 10
-22.752231428458138
 20
-39.942633318595213
 30
0.0
 11
-19.919669938485409
 21
-37.11007182862248
 31
0.0
  0
LINE
  5
17C8
  8
0
 62
     0
 10
-23.173829513854351
 20
-39.241699388857789
 30
0.0
 11
-20.105847001842911
 21
-36.173716876846349
 31
0.0
  0
LINE
  5
17C9
  8
0
 62
     0
 10
-23.42792779005579
 20
-38.373265649925493
 30
0.0
 11
-20.459523874395298
 21
-35.404861734264991
 31
0.0
  0
LINE
  5
17CA
  8
0
 62
     0
 10
-23.494621819963982
 20
-37.317427664700048
 30
0.0
 11
-21.00060499324081
 21
-34.82341083797688
 31
0.0
  0
LINE
  5
17CB
  8
0
 62
     0
 10
-23.191542204342461
 20
-35.891816033944892
 30
0.0
 11
-21.913057178780271
 21
-34.613331008382701
 31
0.0
  0
LINE
  5
17CC
  8
0
 62
     0
 10
-19.989658054542641
 20
-36.624848162348137
 30
0.0
 11
-21.980192234694702
 21
-34.63431398219609
 31
0.0
  0
LINE
  5
17CD
  8
0
 62
     0
 10
-19.908284087493989
 20
-37.828754144530421
 30
0.0
 11
-22.674911150020929
 21
-35.062127082003492
 31
0.0
  0
LINE
  5
17CE
  8
0
 62
     0
 10
-20.06792074919872
 20
-38.791649497959327
 30
0.0
 11
-23.12304963707021
 21
-35.736520610087837
 31
0.0
  0
LINE
  5
17CF
  8
0
 62
     0
 10
-20.39744128165086
 20
-39.58466098064082
 30
0.0
 11
-23.401304253372128
 21
-36.580798008919537
 31
0.0
  0
LINE
  5
17D0
  8
0
 62
     0
 10
-20.906884046476758
 20
-40.197750230948543
 30
0.0
 11
-23.499636637300231
 21
-37.604997640125077
 31
0.0
  0
LINE
  5
17D1
  8
0
 62
     0
 10
-21.727511421715569
 20
-40.499654870843351
 30
0.0
 11
-23.286784410815361
 21
-38.940381881743583
 31
0.0
  0
ENDBLK
  5
17D3
  8
0
  0
ENDSEC
  0
SECTION
  2
ENTITIES
  0
POLYLINE
  5
100F
  8
SAPA_PROFIL
  6
CONTINUOUS
 62
     7
 66
     1
 10
0.0
 20
0.0
 30
0.0
 70
     1
  0
VERTEX
  5
12B0
  8
SAPA_PROFIL
  6
CONTINUOUS
 62
     7
 10
16.499999999997009
 20
-74.000000000956746
 30
0.0
  0
VERTEX
  5
12B1
  8
SAPA_PROFIL
  6
CONTINUOUS
 62
     7
 10
16.499999999997009
 20
-77.00000000000297
 30
0.0
 42
-0.4142135623732074
  0
VERTEX
  5
12B2
  8
SAPA_PROFIL
  6
CONTINUOUS
 62
     7
 10
15.99999999999681
 20
-77.50000000000297
 30
0.0
  0
VERTEX
  5
12B3
  8
SAPA_PROFIL
  6
CONTINUOUS
 62
     7
 10
7.3999999999967194
 20
-77.499999999999133
 30
0.0
 42
0.4142135623730951
  0
VERTEX
  5
12B4
  8
SAPA_PROFIL
  6
CONTINUOUS
 62
     7
 10
6.8999999999967194
 20
-77.999999999999147
 30
0.0
  0
VERTEX
  5
12B5
  8
SAPA_PROFIL
  6
CONTINUOUS
 62
     7
 10
6.8999999999967194
 20
-80.299999999999812
 30
0.0
 42
-0.4142135623730951
  0
VERTEX
  5
12B6
  8
SAPA_PROFIL
  6
CONTINUOUS
 62
     7
 10
5.8999999999967194
 20
-81.299999999999812
 30
0.0
  0
VERTEX
  5
12B7
  8
SAPA_PROFIL
  6
CONTINUOUS
 62
     7
 10
5.0873697418213162
 20
-81.299999999999812
 30
0.0
 42
-0.2216946626429368
  0
VERTEX
  5
12B8
  8
SAPA_PROFIL
  6
CONTINUOUS
 62
     7
 10
4.8575564088856238
 20
-81.192836282905773
 30
0.0
  0
VERTEX
  5
12B9
  8
SAPA_PROFIL
  6
CONTINUOUS
 62
     7
 10
4.2701866670610711
 20
-80.492836282905216
 30
0.0
 42
-0.6370702608061857
  0
VERTEX
  5
12BA
  8
SAPA_PROFIL
  6
CONTINUOUS
 62
     7
 10
4.4999999999970122
 20
-79.999999999999602
 30
0.0
  0
VERTEX
  5
12BB
  8
SAPA_PROFIL
  6
CONTINUOUS
 62
     7
 10
5.2999999999972083
 20
-79.999999999999602
 30
0.0
 42
0.4142135623730951
  0
VERTEX
  5
12BC
  8
SAPA_PROFIL
  6
CONTINUOUS
 62
     7
 10
5.5999999999974044
 20
-79.699999999999406
 30
0.0
  0
VERTEX
  5
12BD
  8
SAPA_PROFIL
  6
CONTINUOUS
 62
     7
 10
5.5999999999964656
 20
-75.29999999999886
 30
0.0
 42
0.4142135623730504
  0
VERTEX
  5
12BE
  8
SAPA_PROFIL
  6
CONTINUOUS
 62
     7
 10
5.2999999999963121
 20
-74.999999999999133
 30
0.0
  0
VERTEX
  5
12BF
  8
SAPA_PROFIL
  6
CONTINUOUS
 62
     7
 10
-5.3000000000031342
 20
-74.999999999999133
 30
0.0
 42
0.4142135623730878
  0
VERTEX
  5
12C0
  8
SAPA_PROFIL
  6
CONTINUOUS
 62
     7
 10
-5.6000000000033081
 20
-75.29999999999886
 30
0.0
  0
VERTEX
  5
12C1
  8
SAPA_PROFIL
  6
CONTINUOUS
 62
     7
 10
-5.6000000000032371
 20
-79.699999999999406
 30
0.0
 42
0.4142135623735842
  0
VERTEX
  5
12C2
  8
SAPA_PROFIL
  6
CONTINUOUS
 62
     7
 10
-5.3000000000040357
 20
-79.999999999999105
 30
0.0
  0
VERTEX
  5
12C3
  8
SAPA_PROFIL
  6
CONTINUOUS
 62
     7
 10
-4.500000000002049
 20
-79.999999999999616
 30
0.0
 42
-0.6370702608069853
  0
VERTEX
  5
12C4
  8
SAPA_PROFIL
  6
CONTINUOUS
 62
     7
 10
-4.2701866670669624
 20
-80.492836282905216
 30
0.0
  0
VERTEX
  5
12C5
  8
SAPA_PROFIL
  6
CONTINUOUS
 62
     7
 10
-4.8575564088915222
 20
-81.192836282905773
 30
0.0
 42
-0.2216946626431
  0
VERTEX
  5
12C6
  8
SAPA_PROFIL
  6
CONTINUOUS
 62
     7
 10
-5.0873697418274046
 20
-81.299999999999812
 30
0.0
  0
VERTEX
  5
12C7
  8
SAPA_PROFIL
  6
CONTINUOUS
 62
     7
 10
-5.9000000000044004
 20
-81.299999999999329
 30
0.0
 42
-0.4142135623730951
  0
VERTEX
  5
12C8
  8
SAPA_PROFIL
  6
CONTINUOUS
 62
     7
 10
-6.9000000000044004
 20
-80.299999999999329
 30
0.0
  0
VERTEX
  5
12C9
  8
SAPA_PROFIL
  6
CONTINUOUS
 62
     7
 10
-6.9000000000035051
 20
-72.799999999999571
 30
0.0
 42
-0.3178372451964626
  0
VERTEX
  5
12CA
  8
SAPA_PROFIL
  6
CONTINUOUS
 62
     7
 10
-6.7000000000027766
 20
-72.517157287524725
 30
0.0
 42
0.3178372451966722
  0
VERTEX
  5
12CB
  8
SAPA_PROFIL
  6
CONTINUOUS
 62
     7
 10
-6.500000000002049
 20
-72.234314575049652
 30
0.0
  0
VERTEX
  5
12CC
  8
SAPA_PROFIL
  6
CONTINUOUS
 62
     7
 10
-6.5000000000029523
 20
-70.799999999999329
 30
0.0
 42
-0.4142135623726539
  0
VERTEX
  5
12CD
  8
SAPA_PROFIL
  6
CONTINUOUS
 62
     7
 10
-6.2000000000027704
 20
-70.499999999999602
 30
0.0
  0
VERTEX
  5
12CE
  8
SAPA_PROFIL
  6
CONTINUOUS
 62
     7
 10
-5.600000000002221
 20
-70.499999999999602
 30
0.0
 42
-0.4142135623730836
  0
VERTEX
  5
12CF
  8
SAPA_PROFIL
  6
CONTINUOUS
 62
     7
 10
-5.3000000000029557
 20
-70.799999999999329
 30
0.0
  0
VERTEX
  5
12D0
  8
SAPA_PROFIL
  6
CONTINUOUS
 62
     7
 10
-5.3000000000029486
 20
-72.199999999999406
 30
0.0
 42
0.4142135623730951
  0
VERTEX
  5
12D1
  8
SAPA_PROFIL
  6
CONTINUOUS
 62
     7
 10
-5.0000000000027738
 20
-72.499999999999588
 30
0.0
  0
VERTEX
  5
12D2
  8
SAPA_PROFIL
  6
CONTINUOUS
 62
     7
 10
4.9999999999978071
 20
-72.499999999999588
 30
0.0
 42
0.4142135623730743
  0
VERTEX
  5
12D3
  8
SAPA_PROFIL
  6
CONTINUOUS
 62
     7
 10
5.2999999999970164
 20
-72.19999999999942
 30
0.0
  0
VERTEX
  5
12D4
  8
SAPA_PROFIL
  6
CONTINUOUS
 62
     7
 10
5.2999999999979037
 20
-70.799999999999329
 30
0.0
 42
-0.4142135623721762
  0
VERTEX
  5
12D5
  8
SAPA_PROFIL
  6
CONTINUOUS
 62
     7
 10
5.5999999999972117
 20
-70.499999999999559
 30
0.0
  0
VERTEX
  5
12D6
  8
SAPA_PROFIL
  6
CONTINUOUS
 62
     7
 10
6.199999999997825
 20
-70.499999999999147
 30
0.0
 42
-0.4142135623730534
  0
VERTEX
  5
12D7
  8
SAPA_PROFIL
  6
CONTINUOUS
 62
     7
 10
6.4999999999970397
 20
-70.799999999999315
 30
0.0
  0
VERTEX
  5
12D8
  8
SAPA_PROFIL
  6
CONTINUOUS
 62
     7
 10
6.4999999999979279
 20
-72.234314575050036
 30
0.0
 42
0.3178372451963242
  0
VERTEX
  5
12D9
  8
SAPA_PROFIL
  6
CONTINUOUS
 62
     7
 10
6.699999999996872
 20
-72.517157287524725
 30
0.0
 42
-0.3178372451964607
  0
VERTEX
  5
12DA
  8
SAPA_PROFIL
  6
CONTINUOUS
 62
     7
 10
6.8999999999975863
 20
-72.799999999999557
 30
0.0
  0
VERTEX
  5
12DB
  8
SAPA_PROFIL
  6
CONTINUOUS
 62
     7
 10
6.8999999999978057
 20
-74.499999999999645
 30
0.0
 42
0.4142135623730597
  0
VERTEX
  5
12DC
  8
SAPA_PROFIL
  6
CONTINUOUS
 62
     7
 10
7.3999999999978057
 20
-74.999999999999588
 30
0.0
  0
VERTEX
  5
12DD
  8
SAPA_PROFIL
  6
CONTINUOUS
 62
     7
 10
12.40192378920502
 20
-74.999999999999588
 30
0.0
 42
0.2679491923306345
  0
VERTEX
  5
12DE
  8
SAPA_PROFIL
  6
CONTINUOUS
 62
     7
 10
12.834936490994311
 20
-74.750000000156476
 30
0.0
 42
-0.2679491923317589
  0
VERTEX
  5
12DF
  8
SAPA_PROFIL
  6
CONTINUOUS
 62
     7
 10
14.999999999997
 20
-73.500000000956732
 30
0.0
  0
VERTEX
  5
12E0
  8
SAPA_PROFIL
  6
CONTINUOUS
 62
     7
 10
15.99999999999701
 20
-73.500000000957527
 30
0.0
 42
-0.4142135623730951
  0
SEQEND
  5
12E1
  8
SAPA_PROFIL
  6
CONTINUOUS
 62
     7
  0
POLYLINE
  5
1010
  8
SAPA_PROFIL
  6
CONTINUOUS
 62
     7
 66
     1
 10
0.0
 20
0.0
 30
0.0
 70
     1
  0
VERTEX
  5
12E2
  8
SAPA_PROFIL
  6
CONTINUOUS
 62
     7
 10
23.200000000001729
 20
-43.000000000000441
 30
0.0
  0
VERTEX
  5
12E3
  8
SAPA_PROFIL
  6
CONTINUOUS
 62
     7
 10
20.499999999991321
 20
-43.000000000000441
 30
0.0
 42
0.4142135623730951
  0
VERTEX
  5
12E4
  8
SAPA_PROFIL
  6
CONTINUOUS
 62
     7
 10
20.199999999991341
 20
-43.300000000000431
 30
0.0
  0
VERTEX
  5
12E5
  8
SAPA_PROFIL
  6
CONTINUOUS
 62
     7
 10
20.199999999991341
 20
-44.500000000000853
 30
0.0
 42
-0.4142135623730931
  0
VERTEX
  5
12E6
  8
SAPA_PROFIL
  6
CONTINUOUS
 62
     7
 10
19.199999999991348
 20
-45.500000000000853
 30
0.0
  0
VERTEX
  5
12E7
  8
SAPA_PROFIL
  6
CONTINUOUS
 62
     7
 10
16.70000000000158
 20
-45.500000000000881
 30
0.0
 42
0.4142135623739343
  0
VERTEX
  5
12E8
  8
SAPA_PROFIL
  6
CONTINUOUS
 62
     7
 10
16.400000000000709
 20
-45.800000000000843
 30
0.0
  0
VERTEX
  5
12E9
  8
SAPA_PROFIL
  6
CONTINUOUS
 62
     7
 10
16.400000000000709
 20
-50.20000000000087
 30
0.0
 42
0.4142135623730951
  0
VERTEX
  5
12EA
  8
SAPA_PROFIL
  6
CONTINUOUS
 62
     7
 10
16.700000000001729
 20
-50.500000000000881
 30
0.0
  0
VERTEX
  5
12EB
  8
SAPA_PROFIL
  6
CONTINUOUS
 62
     7
 10
18.400000000000698
 20
-50.500000000000469
 30
0.0
 42
-0.7105995015650853
  0
VERTEX
  5
12EC
  8
SAPA_PROFIL
  6
CONTINUOUS
 62
     7
 10
18.586384015761691
 20
-51.035076580435863
 30
0.0
  0
VERTEX
  5
12ED
  8
SAPA_PROFIL
  6
CONTINUOUS
 62
     7
 10
18.068237143795969
 20
-51.44589715036318
 30
0.0
 42
-0.1691807452123823
  0
VERTEX
  5
12EE
  8
SAPA_PROFIL
  6
CONTINUOUS
 62
     7
 10
17.912917130662091
 20
-51.500000000000831
 30
0.0
  0
VERTEX
  5
12EF
  8
SAPA_PROFIL
  6
CONTINUOUS
 62
     7
 10
10.099999999992709
 20
-51.500000000000881
 30
0.0
 42
-0.4142135623760433
  0
VERTEX
  5
12F0
  8
SAPA_PROFIL
  6
CONTINUOUS
 62
     7
 10
9.7999999999927052
 20
-51.19999999999785
 30
0.0
  0
VERTEX
  5
12F1
  8
SAPA_PROFIL
  6
CONTINUOUS
 62
     7
 10
9.7999999999911225
 20
-33.000000000004242
 30
0.0
 42
-0.5773502691893336
  0
VERTEX
  5
12F2
  8
SAPA_PROFIL
  6
CONTINUOUS
 62
     7
 10
10.24999999999174
 20
-32.740192378868279
 30
0.0
  0
VERTEX
  5
12F3
  8
SAPA_PROFIL
  6
CONTINUOUS
 62
     7
 10
11.24999999999465
 20
-33.317542648061419
 30
0.0
 42
-0.6629740412223103
  0
VERTEX
  5
12F4
  8
SAPA_PROFIL
  6
CONTINUOUS
 62
     7
 10
11.18181818181217
 20
-33.865977684948867
 30
0.0
 42
0.3354367396460152
  0
VERTEX
  5
12F5
  8
SAPA_PROFIL
  6
CONTINUOUS
 62
     7
 10
10.999999999991781
 20
-34.106500531409431
 30
0.0
  0
VERTEX
  5
12F6
  8
SAPA_PROFIL
  6
CONTINUOUS
 62
     7
 10
10.999999999991671
 20
-35.199999999994951
 30
0.0
 42
0.4142135623741014
  0
VERTEX
  5
12F7
  8
SAPA_PROFIL
  6
CONTINUOUS
 62
     7
 10
11.2999999999917
 20
-35.499999999995993
 30
0.0
  0
VERTEX
  5
12F8
  8
SAPA_PROFIL
  6
CONTINUOUS
 62
     7
 10
11.7999999999927
 20
-35.499999999996007
 30
0.0
 42
-0.4142135623730466
  0
VERTEX
  5
12F9
  8
SAPA_PROFIL
  6
CONTINUOUS
 62
     7
 10
12.09999999999272
 20
-35.799999999995961
 30
0.0
  0
VERTEX
  5
12FA
  8
SAPA_PROFIL
  6
CONTINUOUS
 62
     7
 10
12.09999999999167
 20
-36.399999999997007
 30
0.0
 42
-0.4142135623730951
  0
VERTEX
  5
12FB
  8
SAPA_PROFIL
  6
CONTINUOUS
 62
     7
 10
11.799999999992711
 20
-36.699999999995967
 30
0.0
  0
VERTEX
  5
12FC
  8
SAPA_PROFIL
  6
CONTINUOUS
 62
     7
 10
11.399999999991479
 20
-36.699999999994972
 30
0.0
 42
0.4142135623731088
  0
VERTEX
  5
12FD
  8
SAPA_PROFIL
  6
CONTINUOUS
 62
     7
 10
11.099999999991489
 20
-36.999999999994969
 30
0.0
  0
VERTEX
  5
12FE
  8
SAPA_PROFIL
  6
CONTINUOUS
 62
     7
 10
11.099999999991489
 20
-49.699999999995342
 30
0.0
 42
0.4142135623730847
  0
VERTEX
  5
12FF
  8
SAPA_PROFIL
  6
CONTINUOUS
 62
     7
 10
11.39999999999147
 20
-49.999999999996028
 30
0.0
  0
VERTEX
  5
1300
  8
SAPA_PROFIL
  6
CONTINUOUS
 62
     7
 10
14.600000000000721
 20
-49.999999999996028
 30
0.0
 42
0.4142135623730951
  0
VERTEX
  5
1301
  8
SAPA_PROFIL
  6
CONTINUOUS
 62
     7
 10
14.900000000000951
 20
-49.699999999995327
 30
0.0
  0
VERTEX
  5
1302
  8
SAPA_PROFIL
  6
CONTINUOUS
 62
     7
 10
14.90000000000078
 20
-45.500000000000931
 30
0.0
 42
-0.4142135623731122
  0
VERTEX
  5
1303
  8
SAPA_PROFIL
  6
CONTINUOUS
 62
     7
 10
16.400000000000809
 20
-44.000000000000881
 30
0.0
  0
VERTEX
  5
1304
  8
SAPA_PROFIL
  6
CONTINUOUS
 62
     7
 10
18.39999999999171
 20
-44.000000000000917
 30
0.0
 42
0.4142135623730951
  0
VERTEX
  5
1305
  8
SAPA_PROFIL
  6
CONTINUOUS
 62
     7
 10
18.699999999991721
 20
-43.700000000000919
 30
0.0
  0
VERTEX
  5
1306
  8
SAPA_PROFIL
  6
CONTINUOUS
 62
     7
 10
18.699999999991729
 20
-36.999999999998842
 30
0.0
 42
0.4142135623731017
  0
VERTEX
  5
1307
  8
SAPA_PROFIL
  6
CONTINUOUS
 62
     7
 10
18.399999999992669
 20
-36.699999999999783
 30
0.0
  0
VERTEX
  5
1308
  8
SAPA_PROFIL
  6
CONTINUOUS
 62
     7
 10
17.79999999999572
 20
-36.699999999997871
 30
0.0
 42
-0.4142135623730951
  0
VERTEX
  5
1309
  8
SAPA_PROFIL
  6
CONTINUOUS
 62
     7
 10
17.499999999995719
 20
-36.399999999997888
 30
0.0
  0
VERTEX
  5
130A
  8
SAPA_PROFIL
  6
CONTINUOUS
 62
     7
 10
17.499999999994682
 20
-35.79999999999886
 30
0.0
 42
-0.4142135623740693
  0
VERTEX
  5
130B
  8
SAPA_PROFIL
  6
CONTINUOUS
 62
     7
 10
17.79999999999368
 20
-35.499999999998828
 30
0.0
  0
VERTEX
  5
130C
  8
SAPA_PROFIL
  6
CONTINUOUS
 62
     7
 10
18.399999999994691
 20
-35.499999999998828
 30
0.0
 42
0.4142135623730951
  0
VERTEX
  5
130D
  8
SAPA_PROFIL
  6
CONTINUOUS
 62
     7
 10
18.699999999994692
 20
-35.199999999998838
 30
0.0
  0
VERTEX
  5
130E
  8
SAPA_PROFIL
  6
CONTINUOUS
 62
     7
 10
18.699999999993612
 20
-34.239949493650208
 30
0.0
 42
0.2360679774982354
  0
VERTEX
  5
130F
  8
SAPA_PROFIL
  6
CONTINUOUS
 62
     7
 10
18.599999999994559
 20
-34.039949493651193
 30
0.0
 42
-0.4564120107634379
  0
VERTEX
  5
1310
  8
SAPA_PROFIL
  6
CONTINUOUS
 62
     7
 10
18.492893218808089
 20
-32.532842712472487
 30
0.0
  0
VERTEX
  5
1311
  8
SAPA_PROFIL
  6
CONTINUOUS
 62
     7
 10
19.38786796563571
 20
-31.637867965644858
 30
0.0
 42
-0.6681786379193021
  0
VERTEX
  5
1312
  8
SAPA_PROFIL
  6
CONTINUOUS
 62
     7
 10
19.899999999991699
 20
-31.85000000000084
 30
0.0
  0
VERTEX
  5
1313
  8
SAPA_PROFIL
  6
CONTINUOUS
 62
     7
 10
19.899999999994691
 20
-40.199999999999953
 30
0.0
 42
0.4142135623730951
  0
VERTEX
  5
1314
  8
SAPA_PROFIL
  6
CONTINUOUS
 62
     7
 10
20.199999999994692
 20
-40.499999999999943
 30
0.0
  0
VERTEX
  5
1315
  8
SAPA_PROFIL
  6
CONTINUOUS
 62
     7
 10
23.199999999994699
 20
-40.500000000000981
 30
0.0
 42
0.4142135623730951
  0
VERTEX
  5
1316
  8
SAPA_PROFIL
  6
CONTINUOUS
 62
     7
 10
23.499999999994699
 20
-40.200000000000983
 30
0.0
  0
VERTEX
  5
1317
  8
SAPA_PROFIL
  6
CONTINUOUS
 62
     7
 10
23.49999999999471
 20
-35.80000000000166
 30
0.0
 42
-0.4142135623730951
  0
VERTEX
  5
1318
  8
SAPA_PROFIL
  6
CONTINUOUS
 62
     7
 10
23.7999999999947
 20
-35.50000000000167
 30
0.0
  0
VERTEX
  5
1319
  8
SAPA_PROFIL
  6
CONTINUOUS
 62
     7
 10
24.750000000000711
 20
-35.50000000000167
 30
0.0
 42
-0.4142135623730951
  0
VERTEX
  5
131A
  8
SAPA_PROFIL
  6
CONTINUOUS
 62
     7
 10
25.000000000000711
 20
-35.75000000000167
 30
0.0
  0
VERTEX
  5
131B
  8
SAPA_PROFIL
  6
CONTINUOUS
 62
     7
 10
25.000000000000711
 20
-51.199999999997857
 30
0.0
 42
-0.4142135623750965
  0
VERTEX
  5
131C
  8
SAPA_PROFIL
  6
CONTINUOUS
 62
     7
 10
24.69999999999467
 20
-51.500000000001847
 30
0.0
  0
VERTEX
  5
131D
  8
SAPA_PROFIL
  6
CONTINUOUS
 62
     7
 10
22.487082869339371
 20
-51.500000000000867
 30
0.0
 42
-0.1691807452124803
  0
VERTEX
  5
131E
  8
SAPA_PROFIL
  6
CONTINUOUS
 62
     7
 10
22.33176285620544
 20
-51.445897150363102
 30
0.0
  0
VERTEX
  5
131F
  8
SAPA_PROFIL
  6
CONTINUOUS
 62
     7
 10
21.81361598424072
 20
-51.035076580435863
 30
0.0
 42
-0.7105995015660667
  0
VERTEX
  5
1320
  8
SAPA_PROFIL
  6
CONTINUOUS
 62
     7
 10
22.000000000000711
 20
-50.500000000000831
 30
0.0
  0
VERTEX
  5
1321
  8
SAPA_PROFIL
  6
CONTINUOUS
 62
     7
 10
23.200000000000731
 20
-50.500000000000881
 30
0.0
 42
0.4142135623730951
  0
VERTEX
  5
1322
  8
SAPA_PROFIL
  6
CONTINUOUS
 62
     7
 10
23.500000000000739
 20
-50.20000000000087
 30
0.0
  0
VERTEX
  5
1323
  8
SAPA_PROFIL
  6
CONTINUOUS
 62
     7
 10
23.500000000000711
 20
-43.300000000000452
 30
0.0
 42
0.4142135623731053
  0
SEQEND
  5
1324
  8
SAPA_PROFIL
  6
CONTINUOUS
 62
     7
  0
POLYLINE
  5
1011
  8
SAPA_PROFIL
  6
CONTINUOUS
 62
     7
 66
     1
 10
0.0
 20
0.0
 30
0.0
 70
     1
  0
VERTEX
  5
1325
  8
SAPA_PROFIL
  6
CONTINUOUS
 62
     7
 10
-16.499999999997009
 20
-74.000000000956746
 30
0.0
  0
VERTEX
  5
1326
  8
SAPA_PROFIL
  6
CONTINUOUS
 62
     7
 10
-16.499999999997009
 20
-77.00000000000297
 30
0.0
 42
0.4142135623732074
  0
VERTEX
  5
1327
  8
SAPA_PROFIL
  6
CONTINUOUS
 62
     7
 10
-15.99999999999681
 20
-77.50000000000297
 30
0.0
  0
VERTEX
  5
1328
  8
SAPA_PROFIL
  6
CONTINUOUS
 62
     7
 10
-7.3999999999967194
 20
-77.499999999999133
 30
0.0
 42
-0.4142135623730951
  0
VERTEX
  5
1329
  8
SAPA_PROFIL
  6
CONTINUOUS
 62
     7
 10
-6.8999999999967194
 20
-77.999999999999147
 30
0.0
  0
VERTEX
  5
132A
  8
SAPA_PROFIL
  6
CONTINUOUS
 62
     7
 10
-6.8999999999967194
 20
-80.299999999999812
 30
0.0
 42
0.4142135623730951
  0
VERTEX
  5
132B
  8
SAPA_PROFIL
  6
CONTINUOUS
 62
     7
 10
-5.8999999999967194
 20
-81.299999999999812
 30
0.0
  0
VERTEX
  5
132C
  8
SAPA_PROFIL
  6
CONTINUOUS
 62
     7
 10
-5.0873697418213162
 20
-81.299999999999812
 30
0.0
 42
0.2216946626429368
  0
VERTEX
  5
132D
  8
SAPA_PROFIL
  6
CONTINUOUS
 62
     7
 10
-4.8575564088856238
 20
-81.192836282905773
 30
0.0
  0
VERTEX
  5
132E
  8
SAPA_PROFIL
  6
CONTINUOUS
 62
     7
 10
-4.2701866670610711
 20
-80.492836282905216
 30
0.0
 42
0.6370702608061857
  0
VERTEX
  5
132F
  8
SAPA_PROFIL
  6
CONTINUOUS
 62
     7
 10
-4.4999999999970122
 20
-79.999999999999602
 30
0.0
  0
VERTEX
  5
1330
  8
SAPA_PROFIL
  6
CONTINUOUS
 62
     7
 10
-5.2999999999972083
 20
-79.999999999999602
 30
0.0
 42
-0.4142135623730951
  0
VERTEX
  5
1331
  8
SAPA_PROFIL
  6
CONTINUOUS
 62
     7
 10
-5.5999999999974044
 20
-79.699999999999406
 30
0.0
  0
VERTEX
  5
1332
  8
SAPA_PROFIL
  6
CONTINUOUS
 62
     7
 10
-5.5999999999964656
 20
-75.29999999999886
 30
0.0
 42
-0.4142135623730504
  0
VERTEX
  5
1333
  8
SAPA_PROFIL
  6
CONTINUOUS
 62
     7
 10
-5.2999999999963121
 20
-74.999999999999133
 30
0.0
  0
VERTEX
  5
1334
  8
SAPA_PROFIL
  6
CONTINUOUS
 62
     7
 10
5.3000000000031342
 20
-74.999999999999133
 30
0.0
 42
-0.4142135623730878
  0
VERTEX
  5
1335
  8
SAPA_PROFIL
  6
CONTINUOUS
 62
     7
 10
5.6000000000033081
 20
-75.29999999999886
 30
0.0
  0
VERTEX
  5
1336
  8
SAPA_PROFIL
  6
CONTINUOUS
 62
     7
 10
5.6000000000032371
 20
-79.699999999999406
 30
0.0
 42
-0.4142135623735842
  0
VERTEX
  5
1337
  8
SAPA_PROFIL
  6
CONTINUOUS
 62
     7
 10
5.3000000000040357
 20
-79.999999999999105
 30
0.0
  0
VERTEX
  5
1338
  8
SAPA_PROFIL
  6
CONTINUOUS
 62
     7
 10
4.500000000002049
 20
-79.999999999999616
 30
0.0
 42
0.6370702608069853
  0
VERTEX
  5
1339
  8
SAPA_PROFIL
  6
CONTINUOUS
 62
     7
 10
4.2701866670669624
 20
-80.492836282905216
 30
0.0
  0
VERTEX
  5
133A
  8
SAPA_PROFIL
  6
CONTINUOUS
 62
     7
 10
4.8575564088915222
 20
-81.192836282905773
 30
0.0
 42
0.2216946626431
  0
VERTEX
  5
133B
  8
SAPA_PROFIL
  6
CONTINUOUS
 62
     7
 10
5.0873697418274046
 20
-81.299999999999812
 30
0.0
  0
VERTEX
  5
133C
  8
SAPA_PROFIL
  6
CONTINUOUS
 62
     7
 10
5.9000000000044004
 20
-81.299999999999329
 30
0.0
 42
0.4142135623730951
  0
VERTEX
  5
133D
  8
SAPA_PROFIL
  6
CONTINUOUS
 62
     7
 10
6.9000000000044004
 20
-80.299999999999329
 30
0.0
  0
VERTEX
  5
133E
  8
SAPA_PROFIL
  6
CONTINUOUS
 62
     7
 10
6.9000000000035051
 20
-72.799999999999571
 30
0.0
 42
0.3178372451964626
  0
VERTEX
  5
133F
  8
SAPA_PROFIL
  6
CONTINUOUS
 62
     7
 10
6.7000000000027766
 20
-72.517157287524725
 30
0.0
 42
-0.3178372451966722
  0
VERTEX
  5
1340
  8
SAPA_PROFIL
  6
CONTINUOUS
 62
     7
 10
6.500000000002049
 20
-72.234314575049652
 30
0.0
  0
VERTEX
  5
1341
  8
SAPA_PROFIL
  6
CONTINUOUS
 62
     7
 10
6.5000000000029523
 20
-70.799999999999329
 30
0.0
 42
0.4142135623726539
  0
VERTEX
  5
1342
  8
SAPA_PROFIL
  6
CONTINUOUS
 62
     7
 10
6.2000000000027704
 20
-70.499999999999602
 30
0.0
  0
VERTEX
  5
1343
  8
SAPA_PROFIL
  6
CONTINUOUS
 62
     7
 10
5.600000000002221
 20
-70.499999999999602
 30
0.0
 42
0.4142135623730836
  0
VERTEX
  5
1344
  8
SAPA_PROFIL
  6
CONTINUOUS
 62
     7
 10
5.3000000000029557
 20
-70.799999999999329
 30
0.0
  0
VERTEX
  5
1345
  8
SAPA_PROFIL
  6
CONTINUOUS
 62
     7
 10
5.3000000000029486
 20
-72.199999999999406
 30
0.0
 42
-0.4142135623730951
  0
VERTEX
  5
1346
  8
SAPA_PROFIL
  6
CONTINUOUS
 62
     7
 10
5.0000000000027738
 20
-72.499999999999588
 30
0.0
  0
VERTEX
  5
1347
  8
SAPA_PROFIL
  6
CONTINUOUS
 62
     7
 10
-4.9999999999978071
 20
-72.499999999999588
 30
0.0
 42
-0.4142135623730743
  0
VERTEX
  5
1348
  8
SAPA_PROFIL
  6
CONTINUOUS
 62
     7
 10
-5.2999999999970164
 20
-72.19999999999942
 30
0.0
  0
VERTEX
  5
1349
  8
SAPA_PROFIL
  6
CONTINUOUS
 62
     7
 10
-5.2999999999979037
 20
-70.799999999999329
 30
0.0
 42
0.4142135623721762
  0
VERTEX
  5
134A
  8
SAPA_PROFIL
  6
CONTINUOUS
 62
     7
 10
-5.5999999999972117
 20
-70.499999999999559
 30
0.0
  0
VERTEX
  5
134B
  8
SAPA_PROFIL
  6
CONTINUOUS
 62
     7
 10
-6.199999999997825
 20
-70.499999999999147
 30
0.0
 42
0.4142135623730534
  0
VERTEX
  5
134C
  8
SAPA_PROFIL
  6
CONTINUOUS
 62
     7
 10
-6.4999999999970397
 20
-70.799999999999315
 30
0.0
  0
VERTEX
  5
134D
  8
SAPA_PROFIL
  6
CONTINUOUS
 62
     7
 10
-6.4999999999979279
 20
-72.234314575050036
 30
0.0
 42
-0.3178372451963242
  0
VERTEX
  5
134E
  8
SAPA_PROFIL
  6
CONTINUOUS
 62
     7
 10
-6.699999999996872
 20
-72.517157287524725
 30
0.0
 42
0.3178372451964607
  0
VERTEX
  5
134F
  8
SAPA_PROFIL
  6
CONTINUOUS
 62
     7
 10
-6.8999999999975863
 20
-72.799999999999557
 30
0.0
  0
VERTEX
  5
1350
  8
SAPA_PROFIL
  6
CONTINUOUS
 62
     7
 10
-6.8999999999978057
 20
-74.499999999999645
 30
0.0
 42
-0.4142135623730597
  0
VERTEX
  5
1351
  8
SAPA_PROFIL
  6
CONTINUOUS
 62
     7
 10
-7.3999999999978057
 20
-74.999999999999588
 30
0.0
  0
VERTEX
  5
1352
  8
SAPA_PROFIL
  6
CONTINUOUS
 62
     7
 10
-12.40192378920502
 20
-74.999999999999588
 30
0.0
 42
-0.2679491923306345
  0
VERTEX
  5
1353
  8
SAPA_PROFIL
  6
CONTINUOUS
 62
     7
 10
-12.834936490994311
 20
-74.750000000156476
 30
0.0
 42
0.2679491923317589
  0
VERTEX
  5
1354
  8
SAPA_PROFIL
  6
CONTINUOUS
 62
     7
 10
-14.999999999997
 20
-73.500000000956732
 30
0.0
  0
VERTEX
  5
1355
  8
SAPA_PROFIL
  6
CONTINUOUS
 62
     7
 10
-15.99999999999701
 20
-73.500000000957527
 30
0.0
 42
0.4142135623730951
  0
SEQEND
  5
1356
  8
SAPA_PROFIL
  6
CONTINUOUS
 62
     7
  0
POLYLINE
  5
1012
  8
SAPA_PROFIL
  6
CONTINUOUS
 62
     7
 66
     1
 10
0.0
 20
0.0
 30
0.0
 70
     1
  0
VERTEX
  5
1357
  8
SAPA_PROFIL
  6
CONTINUOUS
 62
     7
 10
-23.200000000001729
 20
-43.000000000000441
 30
0.0
  0
VERTEX
  5
1358
  8
SAPA_PROFIL
  6
CONTINUOUS
 62
     7
 10
-20.499999999991321
 20
-43.000000000000441
 30
0.0
 42
-0.4142135623730951
  0
VERTEX
  5
1359
  8
SAPA_PROFIL
  6
CONTINUOUS
 62
     7
 10
-20.199999999991341
 20
-43.300000000000431
 30
0.0
  0
VERTEX
  5
135A
  8
SAPA_PROFIL
  6
CONTINUOUS
 62
     7
 10
-20.199999999991341
 20
-44.500000000000853
 30
0.0
 42
0.4142135623730931
  0
VERTEX
  5
135B
  8
SAPA_PROFIL
  6
CONTINUOUS
 62
     7
 10
-19.199999999991348
 20
-45.500000000000853
 30
0.0
  0
VERTEX
  5
135C
  8
SAPA_PROFIL
  6
CONTINUOUS
 62
     7
 10
-16.70000000000158
 20
-45.500000000000881
 30
0.0
 42
-0.4142135623739343
  0
VERTEX
  5
135D
  8
SAPA_PROFIL
  6
CONTINUOUS
 62
     7
 10
-16.400000000000709
 20
-45.80000000000085
 30
0.0
  0
VERTEX
  5
135E
  8
SAPA_PROFIL
  6
CONTINUOUS
 62
     7
 10
-16.400000000000709
 20
-50.20000000000087
 30
0.0
 42
-0.4142135623730951
  0
VERTEX
  5
135F
  8
SAPA_PROFIL
  6
CONTINUOUS
 62
     7
 10
-16.700000000001729
 20
-50.500000000000881
 30
0.0
  0
VERTEX
  5
1360
  8
SAPA_PROFIL
  6
CONTINUOUS
 62
     7
 10
-18.400000000000709
 20
-50.500000000000469
 30
0.0
 42
0.7105995015650853
  0
VERTEX
  5
1361
  8
SAPA_PROFIL
  6
CONTINUOUS
 62
     7
 10
-18.586384015761698
 20
-51.035076580435863
 30
0.0
  0
VERTEX
  5
1362
  8
SAPA_PROFIL
  6
CONTINUOUS
 62
     7
 10
-18.068237143795979
 20
-51.44589715036318
 30
0.0
 42
0.1691807452123823
  0
VERTEX
  5
1363
  8
SAPA_PROFIL
  6
CONTINUOUS
 62
     7
 10
-17.912917130662098
 20
-51.500000000000831
 30
0.0
  0
VERTEX
  5
1364
  8
SAPA_PROFIL
  6
CONTINUOUS
 62
     7
 10
-10.09999999999272
 20
-51.500000000000881
 30
0.0
 42
0.4142135623760433
  0
VERTEX
  5
1365
  8
SAPA_PROFIL
  6
CONTINUOUS
 62
     7
 10
-9.7999999999927088
 20
-51.199999999997857
 30
0.0
  0
VERTEX
  5
1366
  8
SAPA_PROFIL
  6
CONTINUOUS
 62
     7
 10
-9.7999999999911225
 20
-33.000000000004242
 30
0.0
 42
0.5773502691893336
  0
VERTEX
  5
1367
  8
SAPA_PROFIL
  6
CONTINUOUS
 62
     7
 10
-10.24999999999174
 20
-32.740192378868279
 30
0.0
  0
VERTEX
  5
1368
  8
SAPA_PROFIL
  6
CONTINUOUS
 62
     7
 10
-11.24999999999465
 20
-33.317542648061419
 30
0.0
 42
0.6629740412223103
  0
VERTEX
  5
1369
  8
SAPA_PROFIL
  6
CONTINUOUS
 62
     7
 10
-11.18181818181217
 20
-33.865977684948867
 30
0.0
 42
-0.3354367396460152
  0
VERTEX
  5
136A
  8
SAPA_PROFIL
  6
CONTINUOUS
 62
     7
 10
-10.999999999991781
 20
-34.106500531409431
 30
0.0
  0
VERTEX
  5
136B
  8
SAPA_PROFIL
  6
CONTINUOUS
 62
     7
 10
-10.999999999991671
 20
-35.199999999994951
 30
0.0
 42
-0.4142135623741014
  0
VERTEX
  5
136C
  8
SAPA_PROFIL
  6
CONTINUOUS
 62
     7
 10
-11.2999999999917
 20
-35.499999999995993
 30
0.0
  0
VERTEX
  5
136D
  8
SAPA_PROFIL
  6
CONTINUOUS
 62
     7
 10
-11.7999999999927
 20
-35.499999999996007
 30
0.0
 42
0.4142135623730466
  0
VERTEX
  5
136E
  8
SAPA_PROFIL
  6
CONTINUOUS
 62
     7
 10
-12.09999999999272
 20
-35.799999999995961
 30
0.0
  0
VERTEX
  5
136F
  8
SAPA_PROFIL
  6
CONTINUOUS
 62
     7
 10
-12.09999999999167
 20
-36.399999999997007
 30
0.0
 42
0.4142135623730951
  0
VERTEX
  5
1370
  8
SAPA_PROFIL
  6
CONTINUOUS
 62
     7
 10
-11.799999999992711
 20
-36.699999999995967
 30
0.0
  0
VERTEX
  5
1371
  8
SAPA_PROFIL
  6
CONTINUOUS
 62
     7
 10
-11.399999999991479
 20
-36.699999999994972
 30
0.0
 42
-0.4142135623731088
  0
VERTEX
  5
1372
  8
SAPA_PROFIL
  6
CONTINUOUS
 62
     7
 10
-11.099999999991489
 20
-36.999999999994969
 30
0.0
  0
VERTEX
  5
1373
  8
SAPA_PROFIL
  6
CONTINUOUS
 62
     7
 10
-11.0999999999915
 20
-49.699999999995342
 30
0.0
 42
-0.4142135623730847
  0
VERTEX
  5
1374
  8
SAPA_PROFIL
  6
CONTINUOUS
 62
     7
 10
-11.399999999991479
 20
-49.999999999996028
 30
0.0
  0
VERTEX
  5
1375
  8
SAPA_PROFIL
  6
CONTINUOUS
 62
     7
 10
-14.600000000000721
 20
-49.999999999996028
 30
0.0
 42
-0.4142135623730951
  0
VERTEX
  5
1376
  8
SAPA_PROFIL
  6
CONTINUOUS
 62
     7
 10
-14.90000000000096
 20
-49.699999999995327
 30
0.0
  0
VERTEX
  5
1377
  8
SAPA_PROFIL
  6
CONTINUOUS
 62
     7
 10
-14.900000000000791
 20
-45.500000000000938
 30
0.0
 42
0.4142135623731122
  0
VERTEX
  5
1378
  8
SAPA_PROFIL
  6
CONTINUOUS
 62
     7
 10
-16.400000000000809
 20
-44.000000000000888
 30
0.0
  0
VERTEX
  5
1379
  8
SAPA_PROFIL
  6
CONTINUOUS
 62
     7
 10
-18.39999999999171
 20
-44.000000000000917
 30
0.0
 42
-0.4142135623730951
  0
VERTEX
  5
137A
  8
SAPA_PROFIL
  6
CONTINUOUS
 62
     7
 10
-18.699999999991721
 20
-43.700000000000919
 30
0.0
  0
VERTEX
  5
137B
  8
SAPA_PROFIL
  6
CONTINUOUS
 62
     7
 10
-18.699999999991729
 20
-36.999999999998842
 30
0.0
 42
-0.4142135623731017
  0
VERTEX
  5
137C
  8
SAPA_PROFIL
  6
CONTINUOUS
 62
     7
 10
-18.399999999992669
 20
-36.699999999999783
 30
0.0
  0
VERTEX
  5
137D
  8
SAPA_PROFIL
  6
CONTINUOUS
 62
     7
 10
-17.79999999999572
 20
-36.699999999997871
 30
0.0
 42
0.4142135623730951
  0
VERTEX
  5
137E
  8
SAPA_PROFIL
  6
CONTINUOUS
 62
     7
 10
-17.499999999995719
 20
-36.399999999997888
 30
0.0
  0
VERTEX
  5
137F
  8
SAPA_PROFIL
  6
CONTINUOUS
 62
     7
 10
-17.499999999994682
 20
-35.79999999999886
 30
0.0
 42
0.4142135623740693
  0
VERTEX
  5
1380
  8
SAPA_PROFIL
  6
CONTINUOUS
 62
     7
 10
-17.79999999999368
 20
-35.499999999998828
 30
0.0
  0
VERTEX
  5
1381
  8
SAPA_PROFIL
  6
CONTINUOUS
 62
     7
 10
-18.399999999994691
 20
-35.499999999998828
 30
0.0
 42
-0.4142135623730951
  0
VERTEX
  5
1382
  8
SAPA_PROFIL
  6
CONTINUOUS
 62
     7
 10
-18.699999999994692
 20
-35.199999999998838
 30
0.0
  0
VERTEX
  5
1383
  8
SAPA_PROFIL
  6
CONTINUOUS
 62
     7
 10
-18.699999999993612
 20
-34.239949493650208
 30
0.0
 42
-0.2360679774982354
  0
VERTEX
  5
1384
  8
SAPA_PROFIL
  6
CONTINUOUS
 62
     7
 10
-18.599999999994559
 20
-34.039949493651193
 30
0.0
 42
0.4564120107634379
  0
VERTEX
  5
1385
  8
SAPA_PROFIL
  6
CONTINUOUS
 62
     7
 10
-18.492893218808089
 20
-32.532842712472487
 30
0.0
  0
VERTEX
  5
1386
  8
SAPA_PROFIL
  6
CONTINUOUS
 62
     7
 10
-19.38786796563571
 20
-31.637867965644858
 30
0.0
 42
0.6681786379193021
  0
VERTEX
  5
1387
  8
SAPA_PROFIL
  6
CONTINUOUS
 62
     7
 10
-19.899999999991699
 20
-31.85000000000084
 30
0.0
  0
VERTEX
  5
1388
  8
SAPA_PROFIL
  6
CONTINUOUS
 62
     7
 10
-19.899999999994691
 20
-40.199999999999953
 30
0.0
 42
-0.4142135623730951
  0
VERTEX
  5
1389
  8
SAPA_PROFIL
  6
CONTINUOUS
 62
     7
 10
-20.199999999994692
 20
-40.499999999999943
 30
0.0
  0
VERTEX
  5
138A
  8
SAPA_PROFIL
  6
CONTINUOUS
 62
     7
 10
-23.199999999994699
 20
-40.500000000000981
 30
0.0
 42
-0.4142135623730951
  0
VERTEX
  5
138B
  8
SAPA_PROFIL
  6
CONTINUOUS
 62
     7
 10
-23.499999999994699
 20
-40.200000000000983
 30
0.0
  0
VERTEX
  5
138C
  8
SAPA_PROFIL
  6
CONTINUOUS
 62
     7
 10
-23.49999999999471
 20
-35.80000000000166
 30
0.0
 42
0.4142135623730951
  0
VERTEX
  5
138D
  8
SAPA_PROFIL
  6
CONTINUOUS
 62
     7
 10
-23.7999999999947
 20
-35.50000000000167
 30
0.0
  0
VERTEX
  5
138E
  8
SAPA_PROFIL
  6
CONTINUOUS
 62
     7
 10
-24.750000000000711
 20
-35.50000000000167
 30
0.0
 42
0.4142135623730951
  0
VERTEX
  5
138F
  8
SAPA_PROFIL
  6
CONTINUOUS
 62
     7
 10
-25.000000000000711
 20
-35.75000000000167
 30
0.0
  0
VERTEX
  5
1390
  8
SAPA_PROFIL
  6
CONTINUOUS
 62
     7
 10
-25.000000000000711
 20
-51.199999999997857
 30
0.0
 42
0.4142135623750965
  0
VERTEX
  5
1391
  8
SAPA_PROFIL
  6
CONTINUOUS
 62
     7
 10
-24.699999999994681
 20
-51.500000000001847
 30
0.0
  0
VERTEX
  5
1392
  8
SAPA_PROFIL
  6
CONTINUOUS
 62
     7
 10
-22.487082869339378
 20
-51.500000000000867
 30
0.0
 42
0.1691807452124803
  0
VERTEX
  5
1393
  8
SAPA_PROFIL
  6
CONTINUOUS
 62
     7
 10
-22.331762856205451
 20
-51.445897150363102
 30
0.0
  0
VERTEX
  5
1394
  8
SAPA_PROFIL
  6
CONTINUOUS
 62
     7
 10
-21.81361598424073
 20
-51.035076580435863
 30
0.0
 42
0.7105995015660667
  0
VERTEX
  5
1395
  8
SAPA_PROFIL
  6
CONTINUOUS
 62
     7
 10
-22.000000000000721
 20
-50.500000000000831
 30
0.0
  0
VERTEX
  5
1396
  8
SAPA_PROFIL
  6
CONTINUOUS
 62
     7
 10
-23.200000000000731
 20
-50.500000000000881
 30
0.0
 42
-0.4142135623730951
  0
VERTEX
  5
1397
  8
SAPA_PROFIL
  6
CONTINUOUS
 62
     7
 10
-23.500000000000739
 20
-50.20000000000087
 30
0.0
  0
VERTEX
  5
1398
  8
SAPA_PROFIL
  6
CONTINUOUS
 62
     7
 10
-23.500000000000711
 20
-43.300000000000452
 30
0.0
 42
-0.4142135623731053
  0
SEQEND
  5
1399
  8
SAPA_PROFIL
  6
CONTINUOUS
 62
     7
  0
POLYLINE
  5
1013
  8
SAPA_PROFIL
 66
     1
 10
0.0
 20
0.0
 30
0.0
 70
     1
  0
VERTEX
  5
139A
  8
SAPA_PROFIL
 10
-22.600000373537799
 20
-25.000000000002899
 30
0.0
 42
-0.767326987974136
  0
VERTEX
  5
139B
  8
SAPA_PROFIL
 10
-22.04019275240432
 20
-24.849999999999739
 30
0.0
 42
0.2679491924279902
  0
VERTEX
  5
139C
  8
SAPA_PROFIL
 10
-21.780385131280809
 20
-25.000000000002451
 30
0.0
  0
VERTEX
  5
139D
  8
SAPA_PROFIL
 10
-18.800000373537561
 20
-25.000000000001819
 30
0.0
 42
0.4142135623730395
  0
VERTEX
  5
139E
  8
SAPA_PROFIL
 10
-17.300000373537841
 20
-23.500000000001759
 30
0.0
  0
VERTEX
  5
139F
  8
SAPA_PROFIL
 10
-17.300000373537841
 20
-22.400000000002361
 30
0.0
 42
0.4142135623730951
  0
VERTEX
  5
13A0
  8
SAPA_PROFIL
 10
-17.600000373537569
 20
-22.10000000000241
 30
0.0
  0
VERTEX
  5
13A1
  8
SAPA_PROFIL
 10
-18.100000373537569
 20
-22.10000000000241
 30
0.0
 42
0.4142135623730948
  0
VERTEX
  5
13A2
  8
SAPA_PROFIL
 10
-18.40000037353775
 20
-22.400000000002361
 30
0.0
  0
VERTEX
  5
13A3
  8
SAPA_PROFIL
 10
-18.40000037353775
 20
-22.736626924636539
 30
0.0
 42
-0.5643553431119927
  0
VERTEX
  5
13A4
  8
SAPA_PROFIL
 10
-22.72439541677204
 20
-20.87439504323947
 30
0.0
  0
VERTEX
  5
13A5
  8
SAPA_PROFIL
 10
-22.350000373539839
 20
-20.500000000002501
 30
0.0
  0
VERTEX
  5
13A6
  8
SAPA_PROFIL
 10
-22.72439541677295
 20
-20.125604956769621
 30
0.0
 42
-0.564355343112654
  0
VERTEX
  5
13A7
  8
SAPA_PROFIL
 10
-18.40000037353775
 20
-18.263373075367099
 30
0.0
  0
VERTEX
  5
13A8
  8
SAPA_PROFIL
 10
-18.40000037353775
 20
-18.600000000002641
 30
0.0
 42
0.4142135623729843
  0
VERTEX
  5
13A9
  8
SAPA_PROFIL
 10
-18.10000037353802
 20
-18.900000000002699
 30
0.0
  0
VERTEX
  5
13AA
  8
SAPA_PROFIL
 10
-17.600000373537569
 20
-18.900000000002589
 30
0.0
 42
0.4142135623730951
  0
VERTEX
  5
13AB
  8
SAPA_PROFIL
 10
-17.300000373537841
 20
-18.600000000002641
 30
0.0
  0
VERTEX
  5
13AC
  8
SAPA_PROFIL
 10
-17.300000373537841
 20
-16.300000000002679
 30
0.0
 42
0.4142135623732062
  0
VERTEX
  5
13AD
  8
SAPA_PROFIL
 10
-17.600000373537569
 20
-16.000000000002391
 30
0.0
  0
VERTEX
  5
13AE
  8
SAPA_PROFIL
 10
-22.00000037353772
 20
-16.000000000002501
 30
0.0
 42
-0.4142135623731117
  0
VERTEX
  5
13AF
  8
SAPA_PROFIL
 10
-23.00000037353783
 20
-15.000000000002499
 30
0.0
  0
VERTEX
  5
13B0
  8
SAPA_PROFIL
 10
-23.000000373538061
 20
19.999999999995559
 30
0.0
 42
-0.7673269879789009
  0
VERTEX
  5
13B1
  8
SAPA_PROFIL
 10
-22.066987671645901
 20
20.24999999999574
 30
0.0
 42
0.2679491924311131
  0
VERTEX
  5
13B2
  8
SAPA_PROFIL
 10
-21.633974969753641
 20
19.99999999999585
 30
0.0
  0
VERTEX
  5
13B3
  8
SAPA_PROFIL
 10
-18.800000373537781
 20
19.999999999996639
 30
0.0
 42
0.4142135623730395
  0
VERTEX
  5
13B4
  8
SAPA_PROFIL
 10
-17.300000373538069
 20
21.4999999999967
 30
0.0
  0
VERTEX
  5
13B5
  8
SAPA_PROFIL
 10
-17.300000373538069
 20
22.599999999996101
 30
0.0
 42
0.4142135623730951
  0
VERTEX
  5
13B6
  8
SAPA_PROFIL
 10
-17.600000373537789
 20
22.899999999996059
 30
0.0
  0
VERTEX
  5
13B7
  8
SAPA_PROFIL
 10
-18.100000373537789
 20
22.899999999996059
 30
0.0
 42
0.4142135623730948
  0
VERTEX
  5
13B8
  8
SAPA_PROFIL
 10
-18.400000373537981
 20
22.599999999996101
 30
0.0
  0
VERTEX
  5
13B9
  8
SAPA_PROFIL
 10
-18.400000373537981
 20
22.263373075361919
 30
0.0
 42
-0.5643553431119927
  0
VERTEX
  5
13BA
  8
SAPA_PROFIL
 10
-22.724395416772271
 20
24.125604956758991
 30
0.0
  0
VERTEX
  5
13BB
  8
SAPA_PROFIL
 10
-22.35000037354007
 20
24.499999999995961
 30
0.0
  0
VERTEX
  5
13BC
  8
SAPA_PROFIL
 10
-22.724395416773181
 20
24.874395043228841
 30
0.0
 42
-0.564355343112654
  0
VERTEX
  5
13BD
  8
SAPA_PROFIL
 10
-18.400000373537981
 20
26.73662692463137
 30
0.0
  0
VERTEX
  5
13BE
  8
SAPA_PROFIL
 10
-18.400000373537981
 20
26.399999999995831
 30
0.0
 42
0.4142135623729843
  0
VERTEX
  5
13BF
  8
SAPA_PROFIL
 10
-18.100000373538251
 20
26.099999999995759
 30
0.0
  0
VERTEX
  5
13C0
  8
SAPA_PROFIL
 10
-17.600000373537789
 20
26.09999999999587
 30
0.0
 42
0.4142135623730951
  0
VERTEX
  5
13C1
  8
SAPA_PROFIL
 10
-17.300000373538069
 20
26.399999999995831
 30
0.0
  0
VERTEX
  5
13C2
  8
SAPA_PROFIL
 10
-17.300000373538069
 20
28.699999999995779
 30
0.0
 42
0.4142135623732062
  0
VERTEX
  5
13C3
  8
SAPA_PROFIL
 10
-17.600000373537789
 20
28.999999999996081
 30
0.0
  0
VERTEX
  5
13C4
  8
SAPA_PROFIL
 10
-22.00000037353794
 20
28.999999999995971
 30
0.0
 42
-0.4142135623730951
  0
VERTEX
  5
13C5
  8
SAPA_PROFIL
 10
-23.00000037353794
 20
29.999999999995971
 30
0.0
  0
VERTEX
  5
13C6
  8
SAPA_PROFIL
 10
-23.000000373538111
 20
34.699999999996351
 30
0.0
 42
-0.4142135623730984
  0
VERTEX
  5
13C7
  8
SAPA_PROFIL
 10
-22.700000373538099
 20
34.999999999996362
 30
0.0
  0
VERTEX
  5
13C8
  8
SAPA_PROFIL
 10
-21.400000373538091
 20
34.999999999996362
 30
0.0
 42
0.4142135623730951
  0
VERTEX
  5
13C9
  8
SAPA_PROFIL
 10
-21.10000037353808
 20
35.299999999996373
 30
0.0
  0
VERTEX
  5
13CA
  8
SAPA_PROFIL
 10
-21.10000037353808
 20
35.875735931284403
 30
0.0
 42
0.198912367379637
  0
VERTEX
  5
13CB
  8
SAPA_PROFIL
 10
-21.187868339182099
 20
36.087867965640392
 30
0.0
  0
VERTEX
  5
13CC
  8
SAPA_PROFIL
 10
-22.912132407893981
 20
37.812132034352153
 30
0.0
 42
-0.1989123673796579
  0
VERTEX
  5
13CD
  8
SAPA_PROFIL
 10
-23.000000373538001
 20
38.024264068708142
 30
0.0
  0
VERTEX
  5
13CE
  8
SAPA_PROFIL
 10
-23.000000373538061
 20
41.499999999996469
 30
0.0
 42
-0.4142135623730951
  0
VERTEX
  5
13CF
  8
SAPA_PROFIL
 10
-22.000000373538061
 20
42.499999999996469
 30
0.0
  0
VERTEX
  5
13D0
  8
SAPA_PROFIL
 10
21.999999626461829
 20
42.499999999996469
 30
0.0
 42
-0.4142135623730951
  0
VERTEX
  5
13D1
  8
SAPA_PROFIL
 10
22.999999626461829
 20
41.499999999996469
 30
0.0
  0
VERTEX
  5
13D2
  8
SAPA_PROFIL
 10
22.999999626461769
 20
38.024264068708078
 30
0.0
 42
-0.1989123673796579
  0
VERTEX
  5
13D3
  8
SAPA_PROFIL
 10
22.912131660817749
 20
37.812132034352089
 30
0.0
  0
VERTEX
  5
13D4
  8
SAPA_PROFIL
 10
21.187867592105931
 20
36.087867965640442
 30
0.0
 42
0.198912367379658
  0
VERTEX
  5
13D5
  8
SAPA_PROFIL
 10
21.099999626461909
 20
35.875735931284453
 30
0.0
  0
VERTEX
  5
13D6
  8
SAPA_PROFIL
 10
21.099999626461909
 20
35.299999999996373
 30
0.0
 42
0.4142135623730951
  0
VERTEX
  5
13D7
  8
SAPA_PROFIL
 10
21.39999962646192
 20
34.999999999996362
 30
0.0
  0
VERTEX
  5
13D8
  8
SAPA_PROFIL
 10
22.699999626461821
 20
34.999999999996362
 30
0.0
 42
-0.4142135623730984
  0
VERTEX
  5
13D9
  8
SAPA_PROFIL
 10
22.999999626461829
 20
34.699999999996351
 30
0.0
  0
VERTEX
  5
13DA
  8
SAPA_PROFIL
 10
22.999999626461719
 20
29.999999999995971
 30
0.0
 42
-0.4142135623730951
  0
VERTEX
  5
13DB
  8
SAPA_PROFIL
 10
21.999999626461719
 20
28.999999999995971
 30
0.0
  0
VERTEX
  5
13DC
  8
SAPA_PROFIL
 10
17.599999626461571
 20
28.999999999996081
 30
0.0
 42
0.4142135623732062
  0
VERTEX
  5
13DD
  8
SAPA_PROFIL
 10
17.29999962646184
 20
28.699999999995779
 30
0.0
  0
VERTEX
  5
13DE
  8
SAPA_PROFIL
 10
17.29999962646184
 20
26.399999999995831
 30
0.0
 42
0.4142135623730951
  0
VERTEX
  5
13DF
  8
SAPA_PROFIL
 10
17.599999626461571
 20
26.09999999999587
 30
0.0
  0
VERTEX
  5
13E0
  8
SAPA_PROFIL
 10
18.099999626462019
 20
26.099999999995759
 30
0.0
 42
0.414213562372984
  0
VERTEX
  5
13E1
  8
SAPA_PROFIL
 10
18.399999626461749
 20
26.399999999995831
 30
0.0
  0
VERTEX
  5
13E2
  8
SAPA_PROFIL
 10
18.399999626461749
 20
26.73662692463137
 30
0.0
 42
-0.5643553431126542
  0
VERTEX
  5
13E3
  8
SAPA_PROFIL
 10
22.724394669696949
 20
24.874395043228841
 30
0.0
  0
VERTEX
  5
13E4
  8
SAPA_PROFIL
 10
22.349999626463841
 20
24.499999999995961
 30
0.0
  0
VERTEX
  5
13E5
  8
SAPA_PROFIL
 10
22.724394669696039
 20
24.125604956758991
 30
0.0
 42
-0.5643553431119927
  0
VERTEX
  5
13E6
  8
SAPA_PROFIL
 10
18.399999626461749
 20
22.263373075361919
 30
0.0
  0
VERTEX
  5
13E7
  8
SAPA_PROFIL
 10
18.399999626461749
 20
22.599999999996101
 30
0.0
 42
0.414213562373095
  0
VERTEX
  5
13E8
  8
SAPA_PROFIL
 10
18.099999626461571
 20
22.899999999996059
 30
0.0
  0
VERTEX
  5
13E9
  8
SAPA_PROFIL
 10
17.599999626461571
 20
22.899999999996059
 30
0.0
 42
0.4142135623730953
  0
VERTEX
  5
13EA
  8
SAPA_PROFIL
 10
17.29999962646184
 20
22.599999999996101
 30
0.0
  0
VERTEX
  5
13EB
  8
SAPA_PROFIL
 10
17.299999626461609
 20
21.4999999999967
 30
0.0
 42
0.4142135623730508
  0
VERTEX
  5
13EC
  8
SAPA_PROFIL
 10
18.799999626461329
 20
19.999999999996639
 30
0.0
  0
VERTEX
  5
13ED
  8
SAPA_PROFIL
 10
21.633974222677178
 20
19.999999999995911
 30
0.0
 42
0.2679491924311283
  0
VERTEX
  5
13EE
  8
SAPA_PROFIL
 10
22.066986924569449
 20
20.24999999999574
 30
0.0
 42
-0.7673269879788167
  0
VERTEX
  5
13EF
  8
SAPA_PROFIL
 10
22.999999626461602
 20
19.999999999995559
 30
0.0
  0
VERTEX
  5
13F0
  8
SAPA_PROFIL
 10
22.999999626461381
 20
-15.000000000002499
 30
0.0
 42
-0.4142135623730951
  0
VERTEX
  5
13F1
  8
SAPA_PROFIL
 10
21.999999626461371
 20
-16.000000000002501
 30
0.0
  0
VERTEX
  5
13F2
  8
SAPA_PROFIL
 10
17.599999626461219
 20
-16.000000000002391
 30
0.0
 42
0.4142135623732062
  0
VERTEX
  5
13F3
  8
SAPA_PROFIL
 10
17.299999626461499
 20
-16.300000000002679
 30
0.0
  0
VERTEX
  5
13F4
  8
SAPA_PROFIL
 10
17.299999626461499
 20
-18.600000000002641
 30
0.0
 42
0.4142135623730951
  0
VERTEX
  5
13F5
  8
SAPA_PROFIL
 10
17.599999626461219
 20
-18.900000000002589
 30
0.0
  0
VERTEX
  5
13F6
  8
SAPA_PROFIL
 10
18.099999626461681
 20
-18.900000000002699
 30
0.0
 42
0.414213562372984
  0
VERTEX
  5
13F7
  8
SAPA_PROFIL
 10
18.399999626461408
 20
-18.600000000002641
 30
0.0
  0
VERTEX
  5
13F8
  8
SAPA_PROFIL
 10
18.399999626461408
 20
-18.263373075367099
 30
0.0
 42
-0.5643553431126542
  0
VERTEX
  5
13F9
  8
SAPA_PROFIL
 10
22.724394669696611
 20
-20.125604956769621
 30
0.0
  0
VERTEX
  5
13FA
  8
SAPA_PROFIL
 10
22.3499996264635
 20
-20.500000000002501
 30
0.0
  0
VERTEX
  5
13FB
  8
SAPA_PROFIL
 10
22.724394669695702
 20
-20.87439504323947
 30
0.0
 42
-0.5643553431119927
  0
VERTEX
  5
13FC
  8
SAPA_PROFIL
 10
18.399999626461408
 20
-22.736626924636539
 30
0.0
  0
VERTEX
  5
13FD
  8
SAPA_PROFIL
 10
18.399999626461408
 20
-22.400000000002361
 30
0.0
 42
0.414213562373095
  0
VERTEX
  5
13FE
  8
SAPA_PROFIL
 10
18.099999626461219
 20
-22.10000000000241
 30
0.0
  0
VERTEX
  5
13FF
  8
SAPA_PROFIL
 10
17.599999626461219
 20
-22.10000000000241
 30
0.0
 42
0.4142135623730951
  0
VERTEX
  5
1400
  8
SAPA_PROFIL
 10
17.299999626461378
 20
-22.400000000002361
 30
0.0
  0
VERTEX
  5
1401
  8
SAPA_PROFIL
 10
17.299999626461378
 20
-23.500000000001759
 30
0.0
 42
0.4142135623730508
  0
VERTEX
  5
1402
  8
SAPA_PROFIL
 10
18.799999626461101
 20
-25.000000000001819
 30
0.0
  0
VERTEX
  5
1403
  8
SAPA_PROFIL
 10
21.78038438420435
 20
-25.000000000002451
 30
0.0
 42
0.2679491924279903
  0
VERTEX
  5
1404
  8
SAPA_PROFIL
 10
22.040192005327871
 20
-24.849999999999739
 30
0.0
 42
-0.767326987974136
  0
VERTEX
  5
1405
  8
SAPA_PROFIL
 10
22.5999996264614
 20
-25.000000000002899
 30
0.0
  0
VERTEX
  5
1406
  8
SAPA_PROFIL
 10
22.59999962646134
 20
-27.000000000001819
 30
0.0
 42
-0.4142135623730951
  0
VERTEX
  5
1407
  8
SAPA_PROFIL
 10
21.59999962646134
 20
-28.000000000001819
 30
0.0
  0
VERTEX
  5
1408
  8
SAPA_PROFIL
 10
-21.600000373537799
 20
-28.000000000001819
 30
0.0
 42
-0.4142135623731284
  0
VERTEX
  5
1409
  8
SAPA_PROFIL
 10
-22.60000037353791
 20
-27.000000000001819
 30
0.0
  0
SEQEND
  5
140A
  8
SAPA_PROFIL
  0
POLYLINE
  5
1014
  8
SAPA_PROFIL
 66
     1
 10
0.0
 20
0.0
 30
0.0
 70
     1
  0
VERTEX
  5
140B
  8
SAPA_PROFIL
 10
2.6999996264622719
 20
-30.999999999011781
 30
0.0
  0
VERTEX
  5
140C
  8
SAPA_PROFIL
 10
2.6999996264622719
 20
-31.249999999011781
 30
0.0
  0
VERTEX
  5
140D
  8
SAPA_PROFIL
 10
2.3499996264623628
 20
-31.24999999901183
 30
0.0
 42
0.5450207774094042
  0
VERTEX
  5
140E
  8
SAPA_PROFIL
 10
2.076719322210351
 20
-31.67376540333731
 30
0.0
  0
VERTEX
  5
140F
  8
SAPA_PROFIL
 10
2.6999996264622719
 20
-33.049999999011959
 30
0.0
  0
VERTEX
  5
1410
  8
SAPA_PROFIL
 10
2.3499996264623628
 20
-33.04999999901208
 30
0.0
 42
0.5450207774090177
  0
VERTEX
  5
1411
  8
SAPA_PROFIL
 10
2.0767193222102369
 20
-33.473765403337161
 30
0.0
  0
VERTEX
  5
1412
  8
SAPA_PROFIL
 10
2.6999996264622719
 20
-34.849999999011906
 30
0.0
  0
VERTEX
  5
1413
  8
SAPA_PROFIL
 10
2.3499996264623628
 20
-34.84999999901197
 30
0.0
 42
0.5450207774094042
  0
VERTEX
  5
1414
  8
SAPA_PROFIL
 10
2.076719322210351
 20
-35.27376540333745
 30
0.0
  0
VERTEX
  5
1415
  8
SAPA_PROFIL
 10
2.6999996264622719
 20
-36.649999999011868
 30
0.0
  0
VERTEX
  5
1416
  8
SAPA_PROFIL
 10
2.3499996264623628
 20
-36.649999999011868
 30
0.0
 42
0.545020777409516
  0
VERTEX
  5
1417
  8
SAPA_PROFIL
 10
2.076719322210351
 20
-37.073765403337518
 30
0.0
  0
VERTEX
  5
1418
  8
SAPA_PROFIL
 10
2.6999996264622719
 20
-38.44999999901205
 30
0.0
  0
VERTEX
  5
1419
  8
SAPA_PROFIL
 10
2.3499996264623628
 20
-38.44999999901205
 30
0.0
 42
0.545020777409516
  0
VERTEX
  5
141A
  8
SAPA_PROFIL
 10
2.076719322210351
 20
-38.8737654033377
 30
0.0
  0
VERTEX
  5
141B
  8
SAPA_PROFIL
 10
2.6999996264622719
 20
-40.249999999012232
 30
0.0
  0
VERTEX
  5
141C
  8
SAPA_PROFIL
 10
2.3499996264623628
 20
-40.249999999012232
 30
0.0
 42
0.5450207774090177
  0
VERTEX
  5
141D
  8
SAPA_PROFIL
 10
2.0767193222102369
 20
-40.67376540333742
 30
0.0
  0
VERTEX
  5
141E
  8
SAPA_PROFIL
 10
2.4282667520477039
 20
-41.449999999012043
 30
0.0
  0
VERTEX
  5
141F
  8
SAPA_PROFIL
 10
-1.0006707898188549
 20
-41.449999999012107
 30
0.0
  0
VERTEX
  5
1420
  8
SAPA_PROFIL
 10
-2.7000003735378182
 20
-41.449999999012107
 30
0.0
  0
VERTEX
  5
1421
  8
SAPA_PROFIL
 10
-2.7000003735378182
 20
-41.149999999012088
 30
0.0
  0
VERTEX
  5
1422
  8
SAPA_PROFIL
 10
-2.0767200692854431
 20
-39.773765403337791
 30
0.0
 42
0.5450207774093642
  0
VERTEX
  5
1423
  8
SAPA_PROFIL
 10
-2.3500003735376822
 20
-39.349999999012368
 30
0.0
  0
VERTEX
  5
1424
  8
SAPA_PROFIL
 10
-2.7000003735378182
 20
-39.349999999012141
 30
0.0
  0
VERTEX
  5
1425
  8
SAPA_PROFIL
 10
-2.0767200692856131
 20
-37.973765403337609
 30
0.0
 42
0.5450207774088696
  0
VERTEX
  5
1426
  8
SAPA_PROFIL
 10
-2.3500003735376822
 20
-37.549999999012421
 30
0.0
  0
VERTEX
  5
1427
  8
SAPA_PROFIL
 10
-2.7000003735378182
 20
-37.549999999012194
 30
0.0
  0
VERTEX
  5
1428
  8
SAPA_PROFIL
 10
-2.0767200692856131
 20
-36.173765403337647
 30
0.0
 42
0.5450207774094402
  0
VERTEX
  5
1429
  8
SAPA_PROFIL
 10
-2.3500003735376822
 20
-35.749999999012353
 30
0.0
  0
VERTEX
  5
142A
  8
SAPA_PROFIL
 10
-2.7000003735378182
 20
-35.749999999012232
 30
0.0
  0
VERTEX
  5
142B
  8
SAPA_PROFIL
 10
-2.0767200692854431
 20
-34.373765403337927
 30
0.0
 42
0.5450207774093642
  0
VERTEX
  5
142C
  8
SAPA_PROFIL
 10
-2.3500003735376822
 20
-33.949999999012512
 30
0.0
  0
VERTEX
  5
142D
  8
SAPA_PROFIL
 10
-2.7000003735378182
 20
-33.949999999012277
 30
0.0
  0
VERTEX
  5
142E
  8
SAPA_PROFIL
 10
-2.0767200692856131
 20
-32.573765403337752
 30
0.0
 42
0.5450207774088696
  0
VERTEX
  5
142F
  8
SAPA_PROFIL
 10
-2.3500003735376822
 20
-32.149999999012607
 30
0.0
  0
VERTEX
  5
1430
  8
SAPA_PROFIL
 10
-2.7000003735378182
 20
-32.149999999011868
 30
0.0
  0
VERTEX
  5
1431
  8
SAPA_PROFIL
 10
-2.7000003735378182
 20
-30.999999999011781
 30
0.0
 42
-0.4142135623730951
  0
VERTEX
  5
1432
  8
SAPA_PROFIL
 10
-1.700000373537818
 20
-29.999999999011781
 30
0.0
  0
VERTEX
  5
1433
  8
SAPA_PROFIL
 10
1.6999996264622721
 20
-29.999999999011781
 30
0.0
 42
-0.4142135623730951
  0
SEQEND
  5
1434
  8
SAPA_PROFIL
  0
POLYLINE
  5
1015
  8
SAPA_PROFIL
 66
     1
 10
0.0
 20
0.0
 30
0.0
 70
     1
  0
VERTEX
  5
1435
  8
SAPA_PROFIL
 10
-16.700000373538671
 20
-30.000000000001759
 30
0.0
  0
VERTEX
  5
1436
  8
SAPA_PROFIL
 10
-23.20000037353833
 20
-30.000000000001759
 30
0.0
 42
0.4142135623732062
  0
VERTEX
  5
1437
  8
SAPA_PROFIL
 10
-23.500000373538288
 20
-30.30000000000183
 30
0.0
  0
VERTEX
  5
1438
  8
SAPA_PROFIL
 10
-23.500000373538288
 20
-34.20000000000158
 30
0.0
 42
0.4142135623730951
  0
VERTEX
  5
1439
  8
SAPA_PROFIL
 10
-23.20000037353833
 20
-34.500000000001542
 30
0.0
  0
VERTEX
  5
143A
  8
SAPA_PROFIL
 10
-22.000000373538452
 20
-34.500000000001648
 30
0.0
 42
-0.7105995015650612
  0
VERTEX
  5
143B
  8
SAPA_PROFIL
 10
-21.813616357777619
 20
-35.03507658043651
 30
0.0
  0
VERTEX
  5
143C
  8
SAPA_PROFIL
 10
-22.127051798357339
 20
-35.283588601450958
 30
0.0
 42
-0.169180745212488
  0
VERTEX
  5
143D
  8
SAPA_PROFIL
 10
-22.748331850893241
 20
-35.500000000001769
 30
0.0
  0
VERTEX
  5
143E
  8
SAPA_PROFIL
 10
-24.700000373538501
 20
-35.500000000001648
 30
0.0
 42
-0.4142135623730951
  0
VERTEX
  5
143F
  8
SAPA_PROFIL
 10
-25.000000373538459
 20
-35.200000000001701
 30
0.0
  0
VERTEX
  5
1440
  8
SAPA_PROFIL
 10
-25.000000373538121
 20
43.999999999996419
 30
0.0
 42
-0.4142135623730951
  0
VERTEX
  5
1441
  8
SAPA_PROFIL
 10
-24.500000373538121
 20
44.499999999996419
 30
0.0
  0
VERTEX
  5
1442
  8
SAPA_PROFIL
 10
24.499999626461889
 20
44.499999999996419
 30
0.0
 42
-0.4142135623730951
  0
VERTEX
  5
1443
  8
SAPA_PROFIL
 10
24.999999626461889
 20
43.999999999996419
 30
0.0
  0
VERTEX
  5
1444
  8
SAPA_PROFIL
 10
24.999999626461999
 20
-35.200000000001808
 30
0.0
 42
-0.4142135623730951
  0
VERTEX
  5
1445
  8
SAPA_PROFIL
 10
24.699999626462048
 20
-35.500000000001769
 30
0.0
  0
VERTEX
  5
1446
  8
SAPA_PROFIL
 10
22.748331103816948
 20
-35.500000000001769
 30
0.0
 42
-0.1691807452125303
  0
VERTEX
  5
1447
  8
SAPA_PROFIL
 10
22.12705105128094
 20
-35.283588601450852
 30
0.0
  0
VERTEX
  5
1448
  8
SAPA_PROFIL
 10
21.81361561070128
 20
-35.035076580436403
 30
0.0
 42
-0.7105995015650845
  0
VERTEX
  5
1449
  8
SAPA_PROFIL
 10
21.999999626461999
 20
-34.500000000001762
 30
0.0
  0
VERTEX
  5
144A
  8
SAPA_PROFIL
 10
23.199999626461931
 20
-34.500000000001762
 30
0.0
 42
0.4142135623732061
  0
VERTEX
  5
144B
  8
SAPA_PROFIL
 10
23.499999626461879
 20
-34.200000000001701
 30
0.0
  0
VERTEX
  5
144C
  8
SAPA_PROFIL
 10
23.499999626461879
 20
-30.300000000001951
 30
0.0
 42
0.4142135623732061
  0
VERTEX
  5
144D
  8
SAPA_PROFIL
 10
23.199999626461931
 20
-30.000000000001879
 30
0.0
  0
VERTEX
  5
144E
  8
SAPA_PROFIL
 10
16.699999626461992
 20
-30.000000000001759
 30
0.0
 42
0.4142135623730951
  0
VERTEX
  5
144F
  8
SAPA_PROFIL
 10
16.199999626461992
 20
-30.500000000001769
 30
0.0
  0
VERTEX
  5
1450
  8
SAPA_PROFIL
 10
16.199999626461871
 20
-34.20000000000158
 30
0.0
 42
0.4142135623733172
  0
VERTEX
  5
1451
  8
SAPA_PROFIL
 10
16.499999626462049
 20
-34.500000000001762
 30
0.0
  0
VERTEX
  5
1452
  8
SAPA_PROFIL
 10
18.39999962646198
 20
-34.500000000001542
 30
0.0
 42
-0.7105995015650612
  0
VERTEX
  5
1453
  8
SAPA_PROFIL
 10
18.58638364222281
 20
-35.035076580436403
 30
0.0
  0
VERTEX
  5
1454
  8
SAPA_PROFIL
 10
18.27294820164326
 20
-35.283588601450852
 30
0.0
 42
-0.1691807452125303
  0
VERTEX
  5
1455
  8
SAPA_PROFIL
 10
17.651668149107248
 20
-35.500000000001769
 30
0.0
  0
VERTEX
  5
1456
  8
SAPA_PROFIL
 10
11.29999962646195
 20
-35.500000000001769
 30
0.0
 42
-0.4142135623728731
  0
VERTEX
  5
1457
  8
SAPA_PROFIL
 10
10.999999626461999
 20
-35.200000000001808
 30
0.0
  0
VERTEX
  5
1458
  8
SAPA_PROFIL
 10
10.99999962646222
 20
-34.500000000001542
 30
0.0
 42
-0.4142135623730951
  0
VERTEX
  5
1459
  8
SAPA_PROFIL
 10
11.29999962646218
 20
-34.20000000000158
 30
0.0
  0
VERTEX
  5
145A
  8
SAPA_PROFIL
 10
14.199999626461761
 20
-34.20000000000158
 30
0.0
 42
0.4142135623730951
  0
VERTEX
  5
145B
  8
SAPA_PROFIL
 10
14.699999626461761
 20
-33.70000000000158
 30
0.0
  0
VERTEX
  5
145C
  8
SAPA_PROFIL
 10
14.699999626461979
 20
-30.500000000001769
 30
0.0
 42
0.4142135623731617
  0
VERTEX
  5
145D
  8
SAPA_PROFIL
 10
14.19999962646199
 20
-30.000000000001759
 30
0.0
  0
VERTEX
  5
145E
  8
SAPA_PROFIL
 10
5.999999626462567
 20
-30.00000000000199
 30
0.0
 42
0.4142135623730951
  0
VERTEX
  5
145F
  8
SAPA_PROFIL
 10
4.999999626462567
 20
-31.00000000000199
 30
0.0
  0
VERTEX
  5
1460
  8
SAPA_PROFIL
 10
4.9999996264623396
 20
-52.199999999011879
 30
0.0
 42
-0.4142135623730951
  0
VERTEX
  5
1461
  8
SAPA_PROFIL
 10
4.6999996264623292
 20
-52.499999999011891
 30
0.0
  0
VERTEX
  5
1462
  8
SAPA_PROFIL
 10
3.0750101561756078
 20
-52.499999999011827
 30
0.0
  0
VERTEX
  5
1463
  8
SAPA_PROFIL
 10
2.21447477739133
 20
-51.535790539647849
 30
0.0
 42
-0.6264792893017398
  0
VERTEX
  5
1464
  8
SAPA_PROFIL
 10
2.450020685889398
 20
-51.049999999012421
 30
0.0
  0
VERTEX
  5
1465
  8
SAPA_PROFIL
 10
2.6999996264623292
 20
-51.049999999012179
 30
0.0
  0
VERTEX
  5
1466
  8
SAPA_PROFIL
 10
2.1767193222102028
 20
-49.673765403337882
 30
0.0
 42
-0.5450207774090681
  0
VERTEX
  5
1467
  8
SAPA_PROFIL
 10
2.4499996264623292
 20
-49.249999999012353
 30
0.0
  0
VERTEX
  5
1468
  8
SAPA_PROFIL
 10
2.6999996264622719
 20
-49.249999999012232
 30
0.0
  0
VERTEX
  5
1469
  8
SAPA_PROFIL
 10
2.1767193222103169
 20
-47.87376540333792
 30
0.0
 42
-0.545020777409516
  0
VERTEX
  5
146A
  8
SAPA_PROFIL
 10
2.4499996264623292
 20
-47.44999999901227
 30
0.0
  0
VERTEX
  5
146B
  8
SAPA_PROFIL
 10
2.6999996264622719
 20
-47.44999999901227
 30
0.0
  0
VERTEX
  5
146C
  8
SAPA_PROFIL
 10
2.1767193222102028
 20
-46.073765403337617
 30
0.0
 42
-0.5450207774091295
  0
VERTEX
  5
146D
  8
SAPA_PROFIL
 10
2.4499996264623292
 20
-45.64999999901238
 30
0.0
  0
VERTEX
  5
146E
  8
SAPA_PROFIL
 10
2.6999996264622719
 20
-45.649999999012323
 30
0.0
  0
VERTEX
  5
146F
  8
SAPA_PROFIL
 10
2.1767193222103169
 20
-44.273765403337791
 30
0.0
 42
-0.545020777409516
  0
VERTEX
  5
1470
  8
SAPA_PROFIL
 10
2.4499996264623292
 20
-43.849999999012127
 30
0.0
  0
VERTEX
  5
1471
  8
SAPA_PROFIL
 10
2.6999996264622719
 20
-43.849999999012127
 30
0.0
  0
VERTEX
  5
1472
  8
SAPA_PROFIL
 10
2.446046474292018
 20
-43.182570825615642
 30
0.0
 42
0.3492695052203141
  0
VERTEX
  5
1473
  8
SAPA_PROFIL
 10
2.1537224989238548
 20
-42.949999999012221
 30
0.0
  0
VERTEX
  5
1474
  8
SAPA_PROFIL
 10
1.2649106905294041
 20
-42.949999999012221
 30
0.0
 42
-0.3475404855924057
  0
VERTEX
  5
1475
  8
SAPA_PROFIL
 10
0.9730081372830454
 20
-42.71923076824293
 30
0.0
 42
0.7905694150422074
  0
VERTEX
  5
1476
  8
SAPA_PROFIL
 10
-0.973008884359956
 20
-42.719230768243101
 30
0.0
 42
-0.3475404855923888
  0
VERTEX
  5
1477
  8
SAPA_PROFIL
 10
-1.2649114376071671
 20
-42.949999999012221
 30
0.0
  0
VERTEX
  5
1478
  8
SAPA_PROFIL
 10
-1.8767200692856809
 20
-42.9499999990121
 30
0.0
 42
0.4142135623730951
  0
VERTEX
  5
1479
  8
SAPA_PROFIL
 10
-2.1767200692856932
 20
-43.249999999012111
 30
0.0
  0
VERTEX
  5
147A
  8
SAPA_PROFIL
 10
-2.1767200692856359
 20
-43.3737654033377
 30
0.0
  0
VERTEX
  5
147B
  8
SAPA_PROFIL
 10
-2.7000003735378182
 20
-44.749999999012232
 30
0.0
  0
VERTEX
  5
147C
  8
SAPA_PROFIL
 10
-2.4500003735376481
 20
-44.749999999012452
 30
0.0
 42
-0.5450207774088696
  0
VERTEX
  5
147D
  8
SAPA_PROFIL
 10
-2.176720069285579
 20
-45.173765403337647
 30
0.0
  0
VERTEX
  5
147E
  8
SAPA_PROFIL
 10
-2.7000003735378182
 20
-46.549999999012179
 30
0.0
  0
VERTEX
  5
147F
  8
SAPA_PROFIL
 10
-2.4500003735376481
 20
-46.549999999012407
 30
0.0
 42
-0.5450207774091855
  0
VERTEX
  5
1480
  8
SAPA_PROFIL
 10
-2.1767200692855222
 20
-46.973765403337772
 30
0.0
  0
VERTEX
  5
1481
  8
SAPA_PROFIL
 10
-2.7000003735378182
 20
-48.349999999012141
 30
0.0
  0
VERTEX
  5
1482
  8
SAPA_PROFIL
 10
-2.4500003735376481
 20
-48.349999999012141
 30
0.0
 42
-0.5450207774093374
  0
VERTEX
  5
1483
  8
SAPA_PROFIL
 10
-2.17672006928575
 20
-48.773765403337741
 30
0.0
  0
VERTEX
  5
1484
  8
SAPA_PROFIL
 10
-2.7000003735378182
 20
-50.149999999012323
 30
0.0
  0
VERTEX
  5
1485
  8
SAPA_PROFIL
 10
-2.1499793141106229
 20
-50.149999999011918
 30
0.0
  0
VERTEX
  5
1486
  8
SAPA_PROFIL
 10
-2.1499793141105661
 20
-51.347075010161461
 30
0.0
 42
-0.1681572645226206
  0
VERTEX
  5
1487
  8
SAPA_PROFIL
 10
-2.2141626638721159
 20
-51.532521788160693
 30
0.0
  0
VERTEX
  5
1488
  8
SAPA_PROFIL
 10
-3.074989843824369
 20
-52.49999999901177
 30
0.0
  0
VERTEX
  5
1489
  8
SAPA_PROFIL
 10
-4.7000003735403189
 20
-52.499999999011827
 30
0.0
 42
-0.4142135623730951
  0
VERTEX
  5
148A
  8
SAPA_PROFIL
 10
-5.0000003735403311
 20
-52.199999999011823
 30
0.0
  0
VERTEX
  5
148B
  8
SAPA_PROFIL
 10
-5.0000003735401597
 20
-31.000000000001879
 30
0.0
 42
0.4142135623730951
  0
VERTEX
  5
148C
  8
SAPA_PROFIL
 10
-6.0000003735401597
 20
-30.000000000001879
 30
0.0
  0
VERTEX
  5
148D
  8
SAPA_PROFIL
 10
-14.200000373538559
 20
-30.000000000001759
 30
0.0
 42
0.4142135623730951
  0
VERTEX
  5
148E
  8
SAPA_PROFIL
 10
-14.70000037353855
 20
-30.500000000001769
 30
0.0
  0
VERTEX
  5
148F
  8
SAPA_PROFIL
 10
-14.70000037353855
 20
-33.700000000001808
 30
0.0
 42
0.4142135623730951
  0
VERTEX
  5
1490
  8
SAPA_PROFIL
 10
-14.200000373538559
 20
-34.200000000001808
 30
0.0
  0
VERTEX
  5
1491
  8
SAPA_PROFIL
 10
-11.30000037353863
 20
-34.20000000000158
 30
0.0
 42
-0.4142135623730951
  0
VERTEX
  5
1492
  8
SAPA_PROFIL
 10
-11.000000373538681
 20
-34.500000000001542
 30
0.0
  0
VERTEX
  5
1493
  8
SAPA_PROFIL
 10
-11.000000373538571
 20
-35.200000000001701
 30
0.0
 42
-0.4142135623730951
  0
VERTEX
  5
1494
  8
SAPA_PROFIL
 10
-11.30000037353841
 20
-35.500000000001769
 30
0.0
  0
VERTEX
  5
1495
  8
SAPA_PROFIL
 10
-17.6516688961837
 20
-35.500000000001648
 30
0.0
 42
-0.1691807452124953
  0
VERTEX
  5
1496
  8
SAPA_PROFIL
 10
-18.272948948719598
 20
-35.283588601450788
 30
0.0
  0
VERTEX
  5
1497
  8
SAPA_PROFIL
 10
-18.586384389299269
 20
-35.035076580436403
 30
0.0
 42
-0.7105995015650612
  0
VERTEX
  5
1498
  8
SAPA_PROFIL
 10
-18.400000373538429
 20
-34.500000000001542
 30
0.0
  0
VERTEX
  5
1499
  8
SAPA_PROFIL
 10
-16.500000373538619
 20
-34.500000000001762
 30
0.0
 42
0.4142135623732061
  0
VERTEX
  5
149A
  8
SAPA_PROFIL
 10
-16.200000373538561
 20
-34.20000000000158
 30
0.0
  0
VERTEX
  5
149B
  8
SAPA_PROFIL
 10
-16.200000373538671
 20
-30.500000000001769
 30
0.0
 42
0.4142135623730951
  0
SEQEND
  5
149C
  8
SAPA_PROFIL
  0
LINE
  5
1016
  8
SAPA_PROFIL
 10
-8.1554699308606828
 20
-83.332392354088142
 30
0.0
 11
-11.00000074707606
 21
-81.999999999999488
 31
0.0
  0
ARC
  5
1017
  8
SAPA_PROFIL
 10
0.0
 20
-172.6354815713868
 30
0.0
 40
82.373247182518654
 50
82.325882993155247
 51
97.674117006844753
  0
LINE
  5
1018
  8
SAPA_PROFIL
 10
8.1554691837842181
 20
-83.332392354088142
 30
0.0
 11
10.9999999999996
 21
-81.999999999999488
 31
0.0
  0
LINE
  5
1019
  8
SAPA_PROFIL
 10
-8.1554691837893412
 20
-83.332392354088157
 30
0.0
 11
-10.9999999999996
 21
-81.999999999999488
 31
0.0
  0
LINE
  5
1040
  8
SAPA_GLAS
 10
-37.999999999999602
 20
-84.999999999999474
 30
0.0
 11
-37.999999999999602
 21
-68.999999999999474
 31
0.0
  0
LINE
  5
1041
  8
SAPA_GLAS
 10
-25.999999999999609
 20
-84.999999999999474
 30
0.0
 11
-25.999999999999609
 21
-68.999999999999474
 31
0.0
1001
ACAD
1000
ASC_BOUNDS
1002
{
1070
    19
1005
1047
1002
}
  0
LINE
  5
1042
  8
SAPA_GLAS
 10
-10.9999999999996
 20
-81.999999999999488
 30
0.0
 11
-10.9999999999996
 21
-84.999999999999474
 31
0.0
1001
ACAD
1000
ASC_BOUNDS
1002
{
1070
    19
1005
1047
1002
}
  0
LINE
  5
1043
  8
SAPA_GLAS
 10
-10.9999999999996
 20
-68.999999999999474
 30
0.0
 11
-10.9999999999996
 21
-71.999999999999488
 31
0.0
1001
ACAD
1000
ASC_BOUNDS
1002
{
1070
    19
1005
1047
1002
}
  0
POLYLINE
  5
1044
  8
SAPA_GLAS
 66
     1
 10
0.0
 20
0.0
 30
0.0
1001
ACAD
1000
ASC_BOUNDS
1002
{
1070
    19
1005
1047
1002
}
  0
VERTEX
  5
1561
  8
SAPA_GLAS
 10
-40.999999999999602
 20
-90.999999999999488
 30
0.0
  0
VERTEX
  5
1562
  8
SAPA_GLAS
 10
-10.9999999999996
 20
-90.999999999999488
 30
0.0
  0
VERTEX
  5
1563
  8
SAPA_GLAS
 10
-10.9999999999996
 20
-84.999999999999474
 30
0.0
  0
VERTEX
  5
1564
  8
SAPA_GLAS
 10
-40.999999999999602
 20
-84.999999999999474
 30
0.0
  0
SEQEND
  5
1565
  8
SAPA_GLAS
  0
POLYLINE
  5
1045
  8
SAPA_GLAS
 66
     1
 10
0.0
 20
0.0
 30
0.0
1001
ACAD
1000
ASC_BOUNDS
1002
{
1070
    19
1005
1047
1002
}
  0
VERTEX
  5
1566
  8
SAPA_GLAS
 10
-40.999999999999602
 20
-68.999999999999474
 30
0.0
  0
VERTEX
  5
1567
  8
SAPA_GLAS
 10
-10.9999999999996
 20
-68.999999999999474
 30
0.0
  0
VERTEX
  5
1568
  8
SAPA_GLAS
 10
-10.9999999999996
 20
-62.999999999999488
 30
0.0
  0
VERTEX
  5
1569
  8
SAPA_GLAS
 10
-40.999999999999602
 20
-62.999999999999488
 30
0.0
  0
SEQEND
  5
156A
  8
SAPA_GLAS
  0
POLYLINE
  5
1046
  8
SAPA_GLAS
 66
     1
 10
0.0
 20
0.0
 30
0.0
 70
     1
1001
ACAD
1000
ASC_BOUNDS
1002
{
1070
    19
1005
1047
1002
}
  0
VERTEX
  5
156B
  8
SAPA_GLAS
 10
-18.999999999999599
 20
-80.199999999999477
 30
0.0
  0
VERTEX
  5
156C
  8
SAPA_GLAS
 10
-18.999999999999599
 20
-73.7999999999995
 30
0.0
 42
-0.4142135623730951
  0
VERTEX
  5
156D
  8
SAPA_GLAS
 10
-18.699999999999591
 20
-73.499999999999488
 30
0.0
  0
VERTEX
  5
156E
  8
SAPA_GLAS
 10
-10.9999999999996
 20
-73.499999999999488
 30
0.0
  0
VERTEX
  5
156F
  8
SAPA_GLAS
 10
-10.9999999999996
 20
-71.999999999999488
 30
0.0
  0
VERTEX
  5
1570
  8
SAPA_GLAS
 10
-20.699999999999591
 20
-71.999999999999488
 30
0.0
 42
0.4142135623730951
  0
VERTEX
  5
1571
  8
SAPA_GLAS
 10
-20.999999999999599
 20
-72.2999999999995
 30
0.0
  0
VERTEX
  5
1572
  8
SAPA_GLAS
 10
-20.999999999999599
 20
-81.699999999999477
 30
0.0
 42
0.4142135623730951
  0
VERTEX
  5
1573
  8
SAPA_GLAS
 10
-20.699999999999591
 20
-81.999999999999488
 30
0.0
  0
VERTEX
  5
1574
  8
SAPA_GLAS
 10
-10.9999999999996
 20
-81.999999999999488
 30
0.0
  0
VERTEX
  5
1575
  8
SAPA_GLAS
 10
-10.9999999999996
 20
-80.499999999999488
 30
0.0
  0
VERTEX
  5
1576
  8
SAPA_GLAS
 10
-18.699999999999591
 20
-80.499999999999488
 30
0.0
 42
-0.4142135623730951
  0
SEQEND
  5
1577
  8
SAPA_GLAS
  0
INSERT
  5
1047
  8
SAPA_GLAS
  6
CONTINUOUS
  2
*X54
 10
0.0
 20
0.0
 30
0.0
1001
GRADIENTCOLOR1ACI
1070
     5
1001
GRADIENTCOLOR2ACI
1070
     2
1001
ACAD
1000
HATCH
1002
{
1070
    19
1000
ANSI37
1040
0.25
1040
0.0
1000
ASC_BOUNDS
1070
     1
1070
     1
1070
     6
1005
1042
1005
1044
1005
1041
1005
1045
1005
1043
1005
1046
1000
ASC_SEEDPOINT
1011
-21.804617272266121
1021
0.0
1031
-0.0
1021
-79.450586921254398
1031
0.0
1000
R14_HATCH_DATA
1000
1047
1011
1.0
1021
0.0
1031
-0.0
1021
0.0
1031
0.0
1011
0.0
1021
0.0
1031
-0.0
1021
1.0
1031
0.0
1011
0.0
1021
0.0
1031
-0.0
1021
0.0
1031
1.0
1040
0.0
1010
0.0
1020
0.0
1030
1.0
1000
ANSI37
1070
     0
1070
     1
1071
        1
1071
        7
1070
     1
1070
     1
1071
       10
1040
-20.999999999999599
1040
-72.2999999999995
1040
-0.4142135623730951
1040
-20.699999999999591
1040
-71.999999999999488
1040
0.0
1040
-10.9999999999996
1040
-71.999999999999488
1040
0.0
1040
-10.9999999999996
1040
-68.999999999999474
1040
0.0
1040
-25.999999999999609
1040
-68.999999999999474
1040
0.0
1040
-25.999999999999609
1040
-84.999999999999474
1040
0.0
1040
-10.9999999999996
1040
-84.999999999999474
1040
0.0
1040
-10.9999999999996
1040
-81.999999999999488
1040
0.0
1040
-20.699999999999591
1040
-81.999999999999488
1040
-0.4142135623730951
1040
-20.999999999999599
1040
-81.699999999999477
1040
0.0
1071
        6
1005
1046
1005
1043
1005
1045
1005
1041
1005
1044
1005
1042
1070
     1
1070
     1
1040
0.0
1040
0.25
1070
     0
1070
     2
1040
0.7853981633974483
1040
0.0
1040
0.0
1040
-0.5612660075668221
1040
0.5612660075668221
1070
     0
1040
2.3561944901923439
1040
0.0
1040
0.0
1040
-0.5612660075668221
1040
-0.5612660075668221
1070
     0
1040
0.1332406017304326
1071
        1
1040
-21.804617272266121
1040
-79.450586921254398
1040
0.0
1002
}
  0
LINE
  5
1048
  8
SAPA_GLAS
 10
37.999999999999602
 20
-84.999999999999474
 30
0.0
 11
37.999999999999602
 21
-68.999999999999474
 31
0.0
  0
LINE
  5
1049
  8
SAPA_GLAS
 10
25.999999999999609
 20
-84.999999999999474
 30
0.0
 11
25.999999999999609
 21
-68.999999999999474
 31
0.0
1001
ACAD
1000
ASC_BOUNDS
1002
{
1070
    19
1005
104F
1002
}
  0
LINE
  5
104A
  8
SAPA_GLAS
 10
10.9999999999996
 20
-81.999999999999488
 30
0.0
 11
10.9999999999996
 21
-84.999999999999474
 31
0.0
1001
ACAD
1000
ASC_BOUNDS
1002
{
1070
    19
1005
104F
1002
}
  0
LINE
  5
104B
  8
SAPA_GLAS
 10
10.9999999999996
 20
-68.999999999999474
 30
0.0
 11
10.9999999999996
 21
-71.999999999999488
 31
0.0
1001
ACAD
1000
ASC_BOUNDS
1002
{
1070
    19
1005
104F
1002
}
  0
POLYLINE
  5
104C
  8
SAPA_GLAS
 66
     1
 10
0.0
 20
0.0
 30
0.0
1001
ACAD
1000
ASC_BOUNDS
1002
{
1070
    19
1005
104F
1002
}
  0
VERTEX
  5
15C3
  8
SAPA_GLAS
 10
40.999999999999602
 20
-90.999999999999488
 30
0.0
  0
VERTEX
  5
15C4
  8
SAPA_GLAS
 10
10.9999999999996
 20
-90.999999999999488
 30
0.0
  0
VERTEX
  5
15C5
  8
SAPA_GLAS
 10
10.9999999999996
 20
-84.999999999999474
 30
0.0
  0
VERTEX
  5
15C6
  8
SAPA_GLAS
 10
40.999999999999602
 20
-84.999999999999474
 30
0.0
  0
SEQEND
  5
15C7
  8
SAPA_GLAS
  0
POLYLINE
  5
104D
  8
SAPA_GLAS
 66
     1
 10
0.0
 20
0.0
 30
0.0
1001
ACAD
1000
ASC_BOUNDS
1002
{
1070
    19
1005
104F
1002
}
  0
VERTEX
  5
15C8
  8
SAPA_GLAS
 10
40.999999999999602
 20
-68.999999999999474
 30
0.0
  0
VERTEX
  5
15C9
  8
SAPA_GLAS
 10
10.9999999999996
 20
-68.999999999999474
 30
0.0
  0
VERTEX
  5
15CA
  8
SAPA_GLAS
 10
10.9999999999996
 20
-62.999999999999488
 30
0.0
  0
VERTEX
  5
15CB
  8
SAPA_GLAS
 10
40.999999999999602
 20
-62.999999999999488
 30
0.0
  0
SEQEND
  5
15CC
  8
SAPA_GLAS
  0
POLYLINE
  5
104E
  8
SAPA_GLAS
 66
     1
 10
0.0
 20
0.0
 30
0.0
 70
     1
1001
ACAD
1000
ASC_BOUNDS
1002
{
1070
    19
1005
104F
1002
}
  0
VERTEX
  5
15CD
  8
SAPA_GLAS
 10
18.999999999999599
 20
-80.199999999999477
 30
0.0
  0
VERTEX
  5
15CE
  8
SAPA_GLAS
 10
18.999999999999599
 20
-73.7999999999995
 30
0.0
 42
0.4142135623730951
  0
VERTEX
  5
15CF
  8
SAPA_GLAS
 10
18.699999999999591
 20
-73.499999999999488
 30
0.0
  0
VERTEX
  5
15D0
  8
SAPA_GLAS
 10
10.9999999999996
 20
-73.499999999999488
 30
0.0
  0
VERTEX
  5
15D1
  8
SAPA_GLAS
 10
10.9999999999996
 20
-71.999999999999488
 30
0.0
  0
VERTEX
  5
15D2
  8
SAPA_GLAS
 10
20.699999999999591
 20
-71.999999999999488
 30
0.0
 42
-0.4142135623730951
  0
VERTEX
  5
15D3
  8
SAPA_GLAS
 10
20.999999999999599
 20
-72.2999999999995
 30
0.0
  0
VERTEX
  5
15D4
  8
SAPA_GLAS
 10
20.999999999999599
 20
-81.699999999999477
 30
0.0
 42
-0.4142135623730951
  0
VERTEX
  5
15D5
  8
SAPA_GLAS
 10
20.699999999999591
 20
-81.999999999999488
 30
0.0
  0
VERTEX
  5
15D6
  8
SAPA_GLAS
 10
10.9999999999996
 20
-81.999999999999488
 30
0.0
  0
VERTEX
  5
15D7
  8
SAPA_GLAS
 10
10.9999999999996
 20
-80.499999999999488
 30
0.0
  0
VERTEX
  5
15D8
  8
SAPA_GLAS
 10
18.699999999999591
 20
-80.499999999999488
 30
0.0
 42
0.4142135623730951
  0
SEQEND
  5
15D9
  8
SAPA_GLAS
  0
INSERT
  5
104F
  8
SAPA_GLAS
  6
CONTINUOUS
  2
*X55
 10
0.0
 20
0.0
 30
0.0
1001
GRADIENTCOLOR1ACI
1070
     5
1001
GRADIENTCOLOR2ACI
1070
     2
1001
ACAD
1000
HATCH
1002
{
1070
    19
1000
ANSI37
1040
0.25
1040
0.0
1000
ASC_BOUNDS
1070
     1
1070
     1
1070
     6
1005
104A
1005
104C
1005
1049
1005
104D
1005
104B
1005
104E
1000
ASC_SEEDPOINT
1011
21.804617272266121
1021
0.0
1031
-0.0
1021
-79.450586921254398
1031
0.0
1000
R14_HATCH_DATA
1000
104F
1011
1.0
1021
0.0
1031
-0.0
1021
0.0
1031
0.0
1011
0.0
1021
0.0
1031
-0.0
1021
1.0
1031
0.0
1011
0.0
1021
0.0
1031
-0.0
1021
0.0
1031
1.0
1040
0.0
1010
0.0
1020
0.0
1030
1.0
1000
ANSI37
1070
     0
1070
     1
1071
        1
1071
        7
1070
     1
1070
     1
1071
       10
1040
20.999999999999599
1040
-72.2999999999995
1040
0.4142135623730951
1040
20.699999999999591
1040
-71.999999999999488
1040
0.0
1040
10.9999999999996
1040
-71.999999999999488
1040
0.0
1040
10.9999999999996
1040
-68.999999999999474
1040
0.0
1040
25.999999999999609
1040
-68.999999999999474
1040
0.0
1040
25.999999999999609
1040
-84.999999999999474
1040
0.0
1040
10.9999999999996
1040
-84.999999999999474
1040
0.0
1040
10.9999999999996
1040
-81.999999999999488
1040
0.0
1040
20.699999999999591
1040
-81.999999999999488
1040
0.4142135623730951
1040
20.999999999999599
1040
-81.699999999999477
1040
0.0
1071
        6
1005
104E
1005
104B
1005
104D
1005
1049
1005
104C
1005
104A
1070
     1
1070
     1
1040
0.0
1040
0.25
1070
     0
1070
     2
1040
0.7853981633974483
1040
0.0
1040
0.0
1040
-0.5612660075668221
1040
0.5612660075668221
1070
     0
1040
2.3561944901923439
1040
0.0
1040
0.0
1040
-0.5612660075668221
1040
-0.5612660075668221
1070
     0
1040
0.1332406017304326
1071
        1
1040
21.804617272266121
1040
-79.450586921254398
1040
0.0
1002
}
  0
INSERT
  5
1055
  8
SAPA_FYLLNING
  6
CONTINUOUS
  2
*X57
 10
0.0
 20
0.0
 30
0.0
1001
GRADIENTCOLOR1ACI
1070
     5
1001
GRADIENTCOLOR2ACI
1070
     2
1001
ACAD
1000
HATCH
1002
{
1070
    19
1000
ANSI37
1040
0.25
1040
0.0
1000
R14_HATCH_DATA
1000
1055
1011
1.0
1021
0.0
1031
-0.0
1021
0.0
1031
0.0
1011
0.0
1021
0.0
1031
-0.0
1021
1.0
1031
0.0
1011
0.0
1021
0.0
1031
-0.0
1021
0.0
1031
1.0
1040
0.0
1010
0.0
1020
0.0
1030
1.0
1000
ANSI37
1070
     0
1070
     0
1071
        1
1071
        7
1070
     1
1070
     1
1071
       10
1040
10.9999999999996
1040
-90.999999999999488
1040
0.0
1040
10.9999999999996
1040
-84.999999999999474
1040
0.0
1040
10.9999999999996
1040
-81.999999999999488
1040
0.0
1040
8.6593883485198084
1040
-83.096354115955862
1040
-0.14191703096683
1040
8.1554691837893181
1040
-83.332392354087347
1040
-0.0782100801382185
1040
-8.1554691837841151
1040
-83.332392354088157
1040
-0.1419170309632624
1040
-8.6593883485038248
1040
-83.096354115965354
1040
0.0
1040
-10.9999999999996
1040
-81.999999999999488
1040
0.0
1040
-10.9999999999996
1040
-84.999999999999474
1040
0.0
1040
-10.9999999999996
1040
-90.999999999999517
1040
-0.0670696010119378
1071
        0
1070
     1
1070
     1
1040
0.0
1040
0.25
1070
     0
1070
     2
1040
0.7853981633974483
1040
0.0
1040
0.0
1040
-0.5612660075668221
1040
0.5612660075668221
1070
     0
1040
2.3561944901923439
1040
0.0
1040
0.0
1040
-0.5612660075668221
1040
-0.5612660075668221
1070
     0
1040
0.0243851215238776
1071
        1
1040
-1.060341990365486
1040
-87.848372678597798
1040
0.0
1002
}
  0
POLYLINE
  5
105D
  8
SAPA_ISOLATOR
 66
     1
 10
0.0
 20
0.0
 30
0.0
 70
     1
  0
VERTEX
  5
16DD
  8
SAPA_ISOLATOR
 10
-3.500000000000056
 20
-53.699999999999761
 30
0.0
  0
VERTEX
  5
16DE
  8
SAPA_ISOLATOR
 10
-2.602944098690215
 20
-53.699999999999761
 30
0.0
  0
VERTEX
  5
16DF
  8
SAPA_ISOLATOR
 10
-1.099999999998829
 20
-52.197055901308367
 30
0.0
  0
VERTEX
  5
16E0
  8
SAPA_ISOLATOR
 10
-1.099999999999056
 20
-46.478136728428069
 30
0.0
 42
-0.0502608893789828
  0
VERTEX
  5
16E1
  8
SAPA_ISOLATOR
 10
-0.423077722344317
 20
-45.495019712916637
 30
0.0
 42
-0.460955221230658
  0
VERTEX
  5
16E2
  8
SAPA_ISOLATOR
 10
0.4230769752679749
 20
-45.495019712917319
 30
0.0
 42
-0.0502609546985642
  0
VERTEX
  5
16E3
  8
SAPA_ISOLATOR
 10
1.100000000001216
 20
-46.478138087674722
 30
0.0
  0
VERTEX
  5
16E4
  8
SAPA_ISOLATOR
 10
1.100000000001216
 20
-52.197056648386877
 30
0.0
  0
VERTEX
  5
16E5
  8
SAPA_ISOLATOR
 10
2.6029433516138729
 20
-53.699999999999989
 30
0.0
  0
VERTEX
  5
16E6
  8
SAPA_ISOLATOR
 10
3.4999999999999432
 20
-53.699999999999989
 30
0.0
 42
-0.4142135623728733
  0
VERTEX
  5
16E7
  8
SAPA_ISOLATOR
 10
3.7999999999998968
 20
-53.99999999999995
 30
0.0
  0
VERTEX
  5
16E8
  8
SAPA_ISOLATOR
 10
3.80000000000092
 20
-61.099999999999909
 30
0.0
 42
-0.4142135623731387
  0
VERTEX
  5
16E9
  8
SAPA_ISOLATOR
 10
3.30000000000092
 20
-61.599999999999959
 30
0.0
  0
VERTEX
  5
16EA
  8
SAPA_ISOLATOR
 10
-3.2999999999988741
 20
-61.600000000000023
 30
0.0
 42
-0.4142135623730469
  0
VERTEX
  5
16EB
  8
SAPA_ISOLATOR
 10
-3.7999999999988741
 20
-61.10000000000008
 30
0.0
  0
VERTEX
  5
16EC
  8
SAPA_ISOLATOR
 10
-3.8000000000000109
 20
-53.99999999999995
 30
0.0
 42
-0.4142135623733169
  0
SEQEND
  5
16ED
  8
SAPA_ISOLATOR
  0
POLYLINE
  5
105E
  8
SAPA_ISOLATOR
 66
     1
 10
0.0
 20
0.0
 30
0.0
 70
     1
  0
VERTEX
  5
16EE
  8
SAPA_ISOLATOR
 10
-6.7999999999975103
 20
-71.49999999999801
 30
0.0
 42
-0.4142135623731284
  0
VERTEX
  5
16EF
  8
SAPA_ISOLATOR
 10
-6.2999999999975103
 20
-70.999999999997897
 30
0.0
  0
VERTEX
  5
16F0
  8
SAPA_ISOLATOR
 10
-5.500000000000056
 20
-70.999999999997897
 30
0.0
 42
0.4142135623730951
  0
VERTEX
  5
16F1
  8
SAPA_ISOLATOR
 10
-5.000000000000056
 20
-70.499999999997897
 30
0.0
  0
VERTEX
  5
16F2
  8
SAPA_ISOLATOR
 10
-4.9999999999998286
 20
-52.999999999999943
 30
0.0
 42
-0.4142135623730951
  0
VERTEX
  5
16F3
  8
SAPA_ISOLATOR
 10
-4.4999999999998286
 20
-52.499999999999943
 30
0.0
  0
VERTEX
  5
16F4
  8
SAPA_ISOLATOR
 10
-3.1000003735380801
 20
-52.499999999999943
 30
0.0
  0
VERTEX
  5
16F5
  8
SAPA_ISOLATOR
 10
-2.2999999999986471
 20
-51.69999962646051
 30
0.0
  0
VERTEX
  5
16F6
  8
SAPA_ISOLATOR
 10
-2.3000000000004661
 20
-47.241778772773209
 30
0.0
 42
-0.0970774689087859
  0
VERTEX
  5
16F7
  8
SAPA_ISOLATOR
 10
-1.0313587057281091
 20
-44.975410008182678
 30
0.0
 42
-0.4609552212306134
  0
VERTEX
  5
16F8
  8
SAPA_ISOLATOR
 10
1.031357958651653
 20
-44.975410008182557
 30
0.0
 42
-0.0970775585520922
  0
VERTEX
  5
16F9
  8
SAPA_ISOLATOR
 10
2.300000000001261
 20
-47.241781051835851
 30
0.0
  0
VERTEX
  5
16FA
  8
SAPA_ISOLATOR
 10
2.300000000001261
 20
-51.700000373539467
 30
0.0
  0
VERTEX
  5
16FB
  8
SAPA_ISOLATOR
 10
3.0999996264615102
 20
-52.499999999999943
 30
0.0
  0
VERTEX
  5
16FC
  8
SAPA_ISOLATOR
 10
4.4999999999997149
 20
-52.499999999999943
 30
0.0
 42
-0.4142135623730951
  0
VERTEX
  5
16FD
  8
SAPA_ISOLATOR
 10
4.9999999999997149
 20
-52.999999999999943
 30
0.0
  0
VERTEX
  5
16FE
  8
SAPA_ISOLATOR
 10
5.0000000000049454
 20
-70.499999999997897
 30
0.0
 42
0.4142135623730951
  0
VERTEX
  5
16FF
  8
SAPA_ISOLATOR
 10
5.5000000000049454
 20
-70.999999999997897
 30
0.0
  0
VERTEX
  5
1700
  8
SAPA_ISOLATOR
 10
6.3000000000023979
 20
-70.999999999997897
 30
0.0
 42
-0.4142135623731617
  0
VERTEX
  5
1701
  8
SAPA_ISOLATOR
 10
6.8000000000023411
 20
-71.499999999998465
 30
0.0
  0
VERTEX
  5
1702
  8
SAPA_ISOLATOR
 10
6.8000000000025693
 20
-80.299999999998434
 30
0.0
 42
-0.4142135623730951
  0
VERTEX
  5
1703
  8
SAPA_ISOLATOR
 10
5.8000000000026262
 20
-81.29999999999842
 30
0.0
  0
VERTEX
  5
1704
  8
SAPA_ISOLATOR
 10
5.087371996652279
 20
-81.29999999999842
 30
0.0
 42
-0.221694662643068
  0
VERTEX
  5
1705
  8
SAPA_ISOLATOR
 10
4.8575586637165884
 20
-81.192836282904224
 30
0.0
  0
VERTEX
  5
1706
  8
SAPA_ISOLATOR
 10
4.269533616121123
 20
-80.49205531989702
 30
0.0
 42
-0.6358782360467221
  0
VERTEX
  5
1707
  8
SAPA_ISOLATOR
 10
4.5000000000017621
 20
-79.999999999998465
 30
0.0
  0
VERTEX
  5
1708
  8
SAPA_ISOLATOR
 10
5.3000000000026262
 20
-79.999999999998238
 30
0.0
 42
0.4142135623730951
  0
VERTEX
  5
1709
  8
SAPA_ISOLATOR
 10
5.6000000000023533
 20
-79.699999999998056
 30
0.0
  0
VERTEX
  5
170A
  8
SAPA_ISOLATOR
 10
5.6000000000025798
 20
-72.499999999998465
 30
0.0
 42
0.9995465490080238
  0
VERTEX
  5
170B
  8
SAPA_ISOLATOR
 10
4.9993422943206829
 20
-72.499999999998238
 30
0.0
  0
VERTEX
  5
170C
  8
SAPA_ISOLATOR
 10
0.8660254037865229
 20
-72.499999999997954
 30
0.0
  0
VERTEX
  5
170D
  8
SAPA_ISOLATOR
 10
0.0000000000022169
 20
-71.999999999998067
 30
0.0
  0
VERTEX
  5
170E
  8
SAPA_ISOLATOR
 10
-0.8660254037824302
 20
-72.499999999998181
 30
0.0
  0
VERTEX
  5
170F
  8
SAPA_ISOLATOR
 10
-4.9993422943157952
 20
-72.499999999998238
 30
0.0
 42
0.9995465490087907
  0
VERTEX
  5
1710
  8
SAPA_ISOLATOR
 10
-5.5999999999972374
 20
-72.499999999998465
 30
0.0
  0
VERTEX
  5
1711
  8
SAPA_ISOLATOR
 10
-5.5999999999974639
 20
-79.699999999998056
 30
0.0
 42
0.4142135623735446
  0
VERTEX
  5
1712
  8
SAPA_ISOLATOR
 10
-5.2999999999977367
 20
-79.99999999999801
 30
0.0
  0
VERTEX
  5
1713
  8
SAPA_ISOLATOR
 10
-4.4999999999977831
 20
-79.999999999998465
 30
0.0
 42
-0.6358782360470147
  0
VERTEX
  5
1714
  8
SAPA_ISOLATOR
 10
-4.2695336161187347
 20
-80.49205531989702
 30
0.0
  0
VERTEX
  5
1715
  8
SAPA_ISOLATOR
 10
-4.8575586637144283
 20
-81.192836282904224
 30
0.0
 42
-0.2216946626430204
  0
VERTEX
  5
1716
  8
SAPA_ISOLATOR
 10
-5.0873719966498916
 20
-81.29999999999842
 30
0.0
  0
VERTEX
  5
1717
  8
SAPA_ISOLATOR
 10
-5.7999999999981924
 20
-81.29999999999842
 30
0.0
 42
-0.4142135623731617
  0
VERTEX
  5
1718
  8
SAPA_ISOLATOR
 10
-6.7999999999981924
 20
-80.299999999998192
 30
0.0
  0
SEQEND
  5
1719
  8
SAPA_ISOLATOR
  0
POLYLINE
  5
105F
  8
SAPA_ISOLATOR
 66
     1
 10
0.0
 20
0.0
 30
0.0
 70
     1
  0
VERTEX
  5
171A
  8
SAPA_ISOLATOR
 10
-3.799999999998533
 20
-63.100000000000129
 30
0.0
 42
-0.4142135623731387
  0
VERTEX
  5
171B
  8
SAPA_ISOLATOR
 10
-3.299999999998533
 20
-62.60000000000008
 30
0.0
  0
VERTEX
  5
171C
  8
SAPA_ISOLATOR
 10
3.3000000000013752
 20
-62.600000000000023
 30
0.0
 42
-0.4142135623730514
  0
VERTEX
  5
171D
  8
SAPA_ISOLATOR
 10
3.8000000000013752
 20
-63.099999999999959
 30
0.0
  0
VERTEX
  5
171E
  8
SAPA_ISOLATOR
 10
3.8000000000023979
 20
-70.200000000000102
 30
0.0
 42
-0.4142135623730951
  0
VERTEX
  5
171F
  8
SAPA_ISOLATOR
 10
3.3000000000023979
 20
-70.700000000000102
 30
0.0
  0
VERTEX
  5
1720
  8
SAPA_ISOLATOR
 10
-3.2999999999975098
 20
-70.700000000000102
 30
0.0
 42
-0.4142135623730951
  0
VERTEX
  5
1721
  8
SAPA_ISOLATOR
 10
-3.7999999999975098
 20
-70.200000000000102
 30
0.0
  0
SEQEND
  5
1722
  8
SAPA_ISOLATOR
  0
POLYLINE
  5
1085
  8
SAPA_FOGBAND
 10
21.699999999993114
 20
-40.499999966998288
 30
0.0
 66
     1
 70
     8
  0
VERTEX
  8
SAPA_FOGBAND
  5
1849
 10
21.7000
 20
-40.5000
 30
0.000000
  70
    32
  0
VERTEX
  8
SAPA_FOGBAND
  5
184A
 10
21.6117
 20
-40.4964
 30
0.000000
  70
    32
  0
VERTEX
  8
SAPA_FOGBAND
  5
184B
 10
21.5236
 20
-40.4858
 30
0.000000
  70
    32
  0
VERTEX
  8
SAPA_FOGBAND
  5
184C
 10
21.4359
 20
-40.4680
 30
0.000000
  70
    32
  0
VERTEX
  8
SAPA_FOGBAND
  5
184D
 10
21.3488
 20
-40.4432
 30
0.000000
  70
    32
  0
VERTEX
  8
SAPA_FOGBAND
  5
184E
 10
21.2626
 20
-40.4115
 30
0.000000
  70
    32
  0
VERTEX
  8
SAPA_FOGBAND
  5
184F
 10
21.1775
 20
-40.3728
 30
0.000000
  70
    32
  0
VERTEX
  8
SAPA_FOGBAND
  5
1850
 10
21.0936
 20
-40.3273
 30
0.000000
  70
    32
  0
VERTEX
  8
SAPA_FOGBAND
  5
1851
 10
21.0112
 20
-40.2751
 30
0.000000
  70
    32
  0
VERTEX
  8
SAPA_FOGBAND
  5
1852
 10
20.9304
 20
-40.2163
 30
0.000000
  70
    32
  0
VERTEX
  8
SAPA_FOGBAND
  5
1853
 10
20.8515
 20
-40.1512
 30
0.000000
  70
    32
  0
VERTEX
  8
SAPA_FOGBAND
  5
1854
 10
20.7746
 20
-40.0797
 30
0.000000
  70
    32
  0
VERTEX
  8
SAPA_FOGBAND
  5
1855
 10
20.7000
 20
-40.0021
 30
0.000000
  70
    32
  0
VERTEX
  8
SAPA_FOGBAND
  5
1856
 10
20.6277
 20
-39.9186
 30
0.000000
  70
    32
  0
VERTEX
  8
SAPA_FOGBAND
  5
1857
 10
20.5581
 20
-39.8294
 30
0.000000
  70
    32
  0
VERTEX
  8
SAPA_FOGBAND
  5
1858
 10
20.4912
 20
-39.7347
 30
0.000000
  70
    32
  0
VERTEX
  8
SAPA_FOGBAND
  5
1859
 10
20.4272
 20
-39.6347
 30
0.000000
  70
    32
  0
VERTEX
  8
SAPA_FOGBAND
  5
185A
 10
20.3663
 20
-39.5297
 30
0.000000
  70
    32
  0
VERTEX
  8
SAPA_FOGBAND
  5
185B
 10
20.3086
 20
-39.4199
 30
0.000000
  70
    32
  0
VERTEX
  8
SAPA_FOGBAND
  5
185C
 10
20.2542
 20
-39.3055
 30
0.000000
  70
    32
  0
VERTEX
  8
SAPA_FOGBAND
  5
185D
 10
20.2034
 20
-39.1870
 30
0.000000
  70
    32
  0
VERTEX
  8
SAPA_FOGBAND
  5
185E
 10
20.1561
 20
-39.0645
 30
0.000000
  70
    32
  0
VERTEX
  8
SAPA_FOGBAND
  5
185F
 10
20.1125
 20
-38.9383
 30
0.000000
  70
    32
  0
VERTEX
  8
SAPA_FOGBAND
  5
1860
 10
20.0728
 20
-38.8088
 30
0.000000
  70
    32
  0
VERTEX
  8
SAPA_FOGBAND
  5
1861
 10
20.0370
 20
-38.6762
 30
0.000000
  70
    32
  0
VERTEX
  8
SAPA_FOGBAND
  5
1862
 10
20.0052
 20
-38.5409
 30
0.000000
  70
    32
  0
VERTEX
  8
SAPA_FOGBAND
  5
1863
 10
19.9775
 20
-38.4032
 30
0.000000
  70
    32
  0
VERTEX
  8
SAPA_FOGBAND
  5
1864
 10
19.9539
 20
-38.2635
 30
0.000000
  70
    32
  0
VERTEX
  8
SAPA_FOGBAND
  5
1865
 10
19.9346
 20
-38.1220
 30
0.000000
  70
    32
  0
VERTEX
  8
SAPA_FOGBAND
  5
1866
 10
19.9195
 20
-37.9791
 30
0.000000
  70
    32
  0
VERTEX
  8
SAPA_FOGBAND
  5
1867
 10
19.9087
 20
-37.8352
 30
0.000000
  70
    32
  0
VERTEX
  8
SAPA_FOGBAND
  5
1868
 10
19.9022
 20
-37.6906
 30
0.000000
  70
    32
  0
VERTEX
  8
SAPA_FOGBAND
  5
1869
 10
19.9000
 20
-37.5456
 30
0.000000
  70
    32
  0
VERTEX
  8
SAPA_FOGBAND
  5
186A
 10
19.9022
 20
-37.4007
 30
0.000000
  70
    32
  0
VERTEX
  8
SAPA_FOGBAND
  5
186B
 10
19.9087
 20
-37.2561
 30
0.000000
  70
    32
  0
VERTEX
  8
SAPA_FOGBAND
  5
186C
 10
19.9195
 20
-37.1121
 30
0.000000
  70
    32
  0
VERTEX
  8
SAPA_FOGBAND
  5
186D
 10
19.9346
 20
-36.9693
 30
0.000000
  70
    32
  0
VERTEX
  8
SAPA_FOGBAND
  5
186E
 10
19.9539
 20
-36.8278
 30
0.000000
  70
    32
  0
VERTEX
  8
SAPA_FOGBAND
  5
186F
 10
19.9775
 20
-36.6880
 30
0.000000
  70
    32
  0
VERTEX
  8
SAPA_FOGBAND
  5
1870
 10
20.0052
 20
-36.5503
 30
0.000000
  70
    32
  0
VERTEX
  8
SAPA_FOGBAND
  5
1871
 10
20.0370
 20
-36.4151
 30
0.000000
  70
    32
  0
VERTEX
  8
SAPA_FOGBAND
  5
1872
 10
20.0728
 20
-36.2825
 30
0.000000
  70
    32
  0
VERTEX
  8
SAPA_FOGBAND
  5
1873
 10
20.1125
 20
-36.1530
 30
0.000000
  70
    32
  0
VERTEX
  8
SAPA_FOGBAND
  5
1874
 10
20.1561
 20
-36.0268
 30
0.000000
  70
    32
  0
VERTEX
  8
SAPA_FOGBAND
  5
1875
 10
20.2034
 20
-35.9043
 30
0.000000
  70
    32
  0
VERTEX
  8
SAPA_FOGBAND
  5
1876
 10
20.2542
 20
-35.7857
 30
0.000000
  70
    32
  0
VERTEX
  8
SAPA_FOGBAND
  5
1877
 10
20.3086
 20
-35.6714
 30
0.000000
  70
    32
  0
VERTEX
  8
SAPA_FOGBAND
  5
1878
 10
20.3663
 20
-35.5616
 30
0.000000
  70
    32
  0
VERTEX
  8
SAPA_FOGBAND
  5
1879
 10
20.4272
 20
-35.4566
 30
0.000000
  70
    32
  0
VERTEX
  8
SAPA_FOGBAND
  5
187A
 10
20.4912
 20
-35.3566
 30
0.000000
  70
    32
  0
VERTEX
  8
SAPA_FOGBAND
  5
187B
 10
20.5581
 20
-35.2619
 30
0.000000
  70
    32
  0
VERTEX
  8
SAPA_FOGBAND
  5
187C
 10
20.6277
 20
-35.1727
 30
0.000000
  70
    32
  0
VERTEX
  8
SAPA_FOGBAND
  5
187D
 10
20.7000
 20
-35.0892
 30
0.000000
  70
    32
  0
VERTEX
  8
SAPA_FOGBAND
  5
187E
 10
20.7746
 20
-35.0116
 30
0.000000
  70
    32
  0
VERTEX
  8
SAPA_FOGBAND
  5
187F
 10
20.8515
 20
-34.9401
 30
0.000000
  70
    32
  0
VERTEX
  8
SAPA_FOGBAND
  5
1880
 10
20.9304
 20
-34.8749
 30
0.000000
  70
    32
  0
VERTEX
  8
SAPA_FOGBAND
  5
1881
 10
21.0112
 20
-34.8162
 30
0.000000
  70
    32
  0
VERTEX
  8
SAPA_FOGBAND
  5
1882
 10
21.0936
 20
-34.7640
 30
0.000000
  70
    32
  0
VERTEX
  8
SAPA_FOGBAND
  5
1883
 10
21.1775
 20
-34.7185
 30
0.000000
  70
    32
  0
VERTEX
  8
SAPA_FOGBAND
  5
1884
 10
21.2626
 20
-34.6798
 30
0.000000
  70
    32
  0
VERTEX
  8
SAPA_FOGBAND
  5
1885
 10
21.3488
 20
-34.6480
 30
0.000000
  70
    32
  0
VERTEX
  8
SAPA_FOGBAND
  5
1886
 10
21.4359
 20
-34.6233
 30
0.000000
  70
    32
  0
VERTEX
  8
SAPA_FOGBAND
  5
1887
 10
21.5236
 20
-34.6055
 30
0.000000
  70
    32
  0
VERTEX
  8
SAPA_FOGBAND
  5
1888
 10
21.6117
 20
-34.5948
 30
0.000000
  70
    32
  0
VERTEX
  8
SAPA_FOGBAND
  5
1889
 10
21.7000
 20
-34.5913
 30
0.000000
  70
    32
  0
VERTEX
  8
SAPA_FOGBAND
  5
188A
 10
21.7883
 20
-34.5948
 30
0.000000
  70
    32
  0
VERTEX
  8
SAPA_FOGBAND
  5
188B
 10
21.8764
 20
-34.6055
 30
0.000000
  70
    32
  0
VERTEX
  8
SAPA_FOGBAND
  5
188C
 10
21.9641
 20
-34.6233
 30
0.000000
  70
    32
  0
VERTEX
  8
SAPA_FOGBAND
  5
188D
 10
22.0512
 20
-34.6480
 30
0.000000
  70
    32
  0
VERTEX
  8
SAPA_FOGBAND
  5
188E
 10
22.1374
 20
-34.6798
 30
0.000000
  70
    32
  0
VERTEX
  8
SAPA_FOGBAND
  5
188F
 10
22.2225
 20
-34.7185
 30
0.000000
  70
    32
  0
VERTEX
  8
SAPA_FOGBAND
  5
1890
 10
22.3064
 20
-34.7640
 30
0.000000
  70
    32
  0
VERTEX
  8
SAPA_FOGBAND
  5
1891
 10
22.3888
 20
-34.8162
 30
0.000000
  70
    32
  0
VERTEX
  8
SAPA_FOGBAND
  5
1892
 10
22.4696
 20
-34.8749
 30
0.000000
  70
    32
  0
VERTEX
  8
SAPA_FOGBAND
  5
1893
 10
22.5485
 20
-34.9401
 30
0.000000
  70
    32
  0
VERTEX
  8
SAPA_FOGBAND
  5
1894
 10
22.6254
 20
-35.0116
 30
0.000000
  70
    32
  0
VERTEX
  8
SAPA_FOGBAND
  5
1895
 10
22.7000
 20
-35.0892
 30
0.000000
  70
    32
  0
VERTEX
  8
SAPA_FOGBAND
  5
1896
 10
22.7723
 20
-35.1727
 30
0.000000
  70
    32
  0
VERTEX
  8
SAPA_FOGBAND
  5
1897
 10
22.8419
 20
-35.2619
 30
0.000000
  70
    32
  0
VERTEX
  8
SAPA_FOGBAND
  5
1898
 10
22.9088
 20
-35.3566
 30
0.000000
  70
    32
  0
VERTEX
  8
SAPA_FOGBAND
  5
1899
 10
22.9728
 20
-35.4566
 30
0.000000
  70
    32
  0
VERTEX
  8
SAPA_FOGBAND
  5
189A
 10
23.0337
 20
-35.5616
 30
0.000000
  70
    32
  0
VERTEX
  8
SAPA_FOGBAND
  5
189B
 10
23.0914
 20
-35.6714
 30
0.000000
  70
    32
  0
VERTEX
  8
SAPA_FOGBAND
  5
189C
 10
23.1458
 20
-35.7857
 30
0.000000
  70
    32
  0
VERTEX
  8
SAPA_FOGBAND
  5
189D
 10
23.1966
 20
-35.9043
 30
0.000000
  70
    32
  0
VERTEX
  8
SAPA_FOGBAND
  5
189E
 10
23.2439
 20
-36.0268
 30
0.000000
  70
    32
  0
VERTEX
  8
SAPA_FOGBAND
  5
189F
 10
23.2875
 20
-36.1530
 30
0.000000
  70
    32
  0
VERTEX
  8
SAPA_FOGBAND
  5
18A0
 10
23.3272
 20
-36.2825
 30
0.000000
  70
    32
  0
VERTEX
  8
SAPA_FOGBAND
  5
18A1
 10
23.3630
 20
-36.4151
 30
0.000000
  70
    32
  0
VERTEX
  8
SAPA_FOGBAND
  5
18A2
 10
23.3948
 20
-36.5503
 30
0.000000
  70
    32
  0
VERTEX
  8
SAPA_FOGBAND
  5
18A3
 10
23.4225
 20
-36.6880
 30
0.000000
  70
    32
  0
VERTEX
  8
SAPA_FOGBAND
  5
18A4
 10
23.4461
 20
-36.8278
 30
0.000000
  70
    32
  0
VERTEX
  8
SAPA_FOGBAND
  5
18A5
 10
23.4654
 20
-36.9693
 30
0.000000
  70
    32
  0
VERTEX
  8
SAPA_FOGBAND
  5
18A6
 10
23.4805
 20
-37.1121
 30
0.000000
  70
    32
  0
VERTEX
  8
SAPA_FOGBAND
  5
18A7
 10
23.4913
 20
-37.2561
 30
0.000000
  70
    32
  0
VERTEX
  8
SAPA_FOGBAND
  5
18A8
 10
23.4978
 20
-37.4007
 30
0.000000
  70
    32
  0
VERTEX
  8
SAPA_FOGBAND
  5
18A9
 10
23.5000
 20
-37.5456
 30
0.000000
  70
    32
  0
VERTEX
  8
SAPA_FOGBAND
  5
18AA
 10
23.4978
 20
-37.6906
 30
0.000000
  70
    32
  0
VERTEX
  8
SAPA_FOGBAND
  5
18AB
 10
23.4913
 20
-37.8352
 30
0.000000
  70
    32
  0
VERTEX
  8
SAPA_FOGBAND
  5
18AC
 10
23.4805
 20
-37.9791
 30
0.000000
  70
    32
  0
VERTEX
  8
SAPA_FOGBAND
  5
18AD
 10
23.4654
 20
-38.1220
 30
0.000000
  70
    32
  0
VERTEX
  8
SAPA_FOGBAND
  5
18AE
 10
23.4461
 20
-38.2635
 30
0.000000
  70
    32
  0
VERTEX
  8
SAPA_FOGBAND
  5
18AF
 10
23.4225
 20
-38.4032
 30
0.000000
  70
    32
  0
VERTEX
  8
SAPA_FOGBAND
  5
18B0
 10
23.3948
 20
-38.5409
 30
0.000000
  70
    32
  0
VERTEX
  8
SAPA_FOGBAND
  5
18B1
 10
23.3630
 20
-38.6762
 30
0.000000
  70
    32
  0
VERTEX
  8
SAPA_FOGBAND
  5
18B2
 10
23.3272
 20
-38.8088
 30
0.000000
  70
    32
  0
VERTEX
  8
SAPA_FOGBAND
  5
18B3
 10
23.2875
 20
-38.9383
 30
0.000000
  70
    32
  0
VERTEX
  8
SAPA_FOGBAND
  5
18B4
 10
23.2439
 20
-39.0645
 30
0.000000
  70
    32
  0
VERTEX
  8
SAPA_FOGBAND
  5
18B5
 10
23.1966
 20
-39.1870
 30
0.000000
  70
    32
  0
VERTEX
  8
SAPA_FOGBAND
  5
18B6
 10
23.1458
 20
-39.3055
 30
0.000000
  70
    32
  0
VERTEX
  8
SAPA_FOGBAND
  5
18B7
 10
23.0914
 20
-39.4199
 30
0.000000
  70
    32
  0
VERTEX
  8
SAPA_FOGBAND
  5
18B8
 10
23.0337
 20
-39.5297
 30
0.000000
  70
    32
  0
VERTEX
  8
SAPA_FOGBAND
  5
18B9
 10
22.9728
 20
-39.6347
 30
0.000000
  70
    32
  0
VERTEX
  8
SAPA_FOGBAND
  5
18BA
 10
22.9088
 20
-39.7347
 30
0.000000
  70
    32
  0
VERTEX
  8
SAPA_FOGBAND
  5
18BB
 10
22.8419
 20
-39.8294
 30
0.000000
  70
    32
  0
VERTEX
  8
SAPA_FOGBAND
  5
18BC
 10
22.7723
 20
-39.9186
 30
0.000000
  70
    32
  0
VERTEX
  8
SAPA_FOGBAND
  5
18BD
 10
22.7000
 20
-40.0021
 30
0.000000
  70
    32
  0
VERTEX
  8
SAPA_FOGBAND
  5
18BE
 10
22.6254
 20
-40.0797
 30
0.000000
  70
    32
  0
VERTEX
  8
SAPA_FOGBAND
  5
18BF
 10
22.5485
 20
-40.1512
 30
0.000000
  70
    32
  0
VERTEX
  8
SAPA_FOGBAND
  5
18C0
 10
22.4696
 20
-40.2163
 30
0.000000
  70
    32
  0
VERTEX
  8
SAPA_FOGBAND
  5
18C1
 10
22.3888
 20
-40.2751
 30
0.000000
  70
    32
  0
VERTEX
  8
SAPA_FOGBAND
  5
18C2
 10
22.3064
 20
-40.3273
 30
0.000000
  70
    32
  0
VERTEX
  8
SAPA_FOGBAND
  5
18C3
 10
22.2225
 20
-40.3728
 30
0.000000
  70
    32
  0
VERTEX
  8
SAPA_FOGBAND
  5
18C4
 10
22.1374
 20
-40.4115
 30
0.000000
  70
    32
  0
VERTEX
  8
SAPA_FOGBAND
  5
18C5
 10
22.0512
 20
-40.4432
 30
0.000000
  70
    32
  0
VERTEX
  8
SAPA_FOGBAND
  5
18C6
 10
21.9641
 20
-40.4680
 30
0.000000
  70
    32
  0
VERTEX
  8
SAPA_FOGBAND
  5
18C7
 10
21.8764
 20
-40.4858
 30
0.000000
  70
    32
  0
VERTEX
  8
SAPA_FOGBAND
  5
18C8
 10
21.7883
 20
-40.4964
 30
0.000000
  70
    32
  0
VERTEX
  8
SAPA_FOGBAND
  5
18C9
 10
21.7000
 20
-40.5000
 30
0.000000
  70
    32
  0
SEQEND
  8
SAPA_FOGBAND
  5
18CA
  0
INSERT
  5
1086
  8
SAPA_FOGBAND
  6
CONTINUOUS
  2
*X60
 10
0.0
 20
0.0
 30
0.0
1001
ACAD
1000
HATCH
1002
{
1070
    19
1000
ANSI37
1040
0.25
1040
-0.0000000000000002
1000
R14_HATCH_DATA
1000
1086
1011
1.0
1021
0.0
1031
-0.0
1021
0.0
1031
0.0
1011
0.0
1021
0.0
1031
-0.0
1021
1.0
1031
0.0
1011
0.0
1021
0.0
1031
-0.0
1021
0.0
1031
1.0
1040
0.0
1010
0.0
1020
0.0
1030
1.0
1000
ANSI37
1070
     0
1070
     0
1071
        1
1071
        1
1071
        3
1070
     3
1040
21.69999999999218
1040
-37.545638078316287
1040
0.0000000000009323
1040
-2.9543618886820009
1040
0.6092686230810487
1040
3.0288543565674959
1040
8.8961375621551824
1070
     1
1070
     2
1040
21.528106314816711
1040
-36.097247745463861
1040
1.5432917594600579
1040
7.0790947523609491
1040
7.4257213147405778
1070
     1
1070
     1
1040
22.169018193595772
1040
-34.693331288384869
1040
21.90249933918561
1040
-34.610031169442713
1071
        0
1070
     0
1070
     1
1040
-0.0000000000000002
1040
0.25
1070
     0
1070
     2
1040
2.3561944901923439
1040
444.38140031398763
1040
-362.90915699464682
1040
0.5612660075668219
1040
0.5612660075668222
1070
     0
1040
0.785398163397449
1040
444.38140031398763
1040
-362.90915699464682
1040
0.5612660075668222
1040
-0.5612660075668219
1070
     0
1071
        1
1040
21.851617139245931
1040
-37.788408381380343
1040
0.0
1002
}
  0
POLYLINE
  5
1087
  8
SAPA_FOGBAND
 10
-21.699999999993111
 20
-40.499999966998288
 30
0.0
 66
     1
 70
     8
  0
VERTEX
  8
SAPA_FOGBAND
  5
18CB
 10
-21.7000
 20
-40.5000
 30
0.000000
  70
    32
  0
VERTEX
  8
SAPA_FOGBAND
  5
18CC
 10
-21.6117
 20
-40.4964
 30
0.000000
  70
    32
  0
VERTEX
  8
SAPA_FOGBAND
  5
18CD
 10
-21.5236
 20
-40.4858
 30
0.000000
  70
    32
  0
VERTEX
  8
SAPA_FOGBAND
  5
18CE
 10
-21.4359
 20
-40.4680
 30
0.000000
  70
    32
  0
VERTEX
  8
SAPA_FOGBAND
  5
18CF
 10
-21.3488
 20
-40.4432
 30
0.000000
  70
    32
  0
VERTEX
  8
SAPA_FOGBAND
  5
18D0
 10
-21.2626
 20
-40.4115
 30
0.000000
  70
    32
  0
VERTEX
  8
SAPA_FOGBAND
  5
18D1
 10
-21.1775
 20
-40.3728
 30
0.000000
  70
    32
  0
VERTEX
  8
SAPA_FOGBAND
  5
18D2
 10
-21.0936
 20
-40.3273
 30
0.000000
  70
    32
  0
VERTEX
  8
SAPA_FOGBAND
  5
18D3
 10
-21.0112
 20
-40.2751
 30
0.000000
  70
    32
  0
VERTEX
  8
SAPA_FOGBAND
  5
18D4
 10
-20.9304
 20
-40.2163
 30
0.000000
  70
    32
  0
VERTEX
  8
SAPA_FOGBAND
  5
18D5
 10
-20.8515
 20
-40.1512
 30
0.000000
  70
    32
  0
VERTEX
  8
SAPA_FOGBAND
  5
18D6
 10
-20.7746
 20
-40.0797
 30
0.000000
  70
    32
  0
VERTEX
  8
SAPA_FOGBAND
  5
18D7
 10
-20.7000
 20
-40.0021
 30
0.000000
  70
    32
  0
VERTEX
  8
SAPA_FOGBAND
  5
18D8
 10
-20.6277
 20
-39.9186
 30
0.000000
  70
    32
  0
VERTEX
  8
SAPA_FOGBAND
  5
18D9
 10
-20.5581
 20
-39.8294
 30
0.000000
  70
    32
  0
VERTEX
  8
SAPA_FOGBAND
  5
18DA
 10
-20.4912
 20
-39.7347
 30
0.000000
  70
    32
  0
VERTEX
  8
SAPA_FOGBAND
  5
18DB
 10
-20.4272
 20
-39.6347
 30
0.000000
  70
    32
  0
VERTEX
  8
SAPA_FOGBAND
  5
18DC
 10
-20.3663
 20
-39.5297
 30
0.000000
  70
    32
  0
VERTEX
  8
SAPA_FOGBAND
  5
18DD
 10
-20.3086
 20
-39.4199
 30
0.000000
  70
    32
  0
VERTEX
  8
SAPA_FOGBAND
  5
18DE
 10
-20.2542
 20
-39.3055
 30
0.000000
  70
    32
  0
VERTEX
  8
SAPA_FOGBAND
  5
18DF
 10
-20.2034
 20
-39.1870
 30
0.000000
  70
    32
  0
VERTEX
  8
SAPA_FOGBAND
  5
18E0
 10
-20.1561
 20
-39.0645
 30
0.000000
  70
    32
  0
VERTEX
  8
SAPA_FOGBAND
  5
18E1
 10
-20.1125
 20
-38.9383
 30
0.000000
  70
    32
  0
VERTEX
  8
SAPA_FOGBAND
  5
18E2
 10
-20.0728
 20
-38.8088
 30
0.000000
  70
    32
  0
VERTEX
  8
SAPA_FOGBAND
  5
18E3
 10
-20.0370
 20
-38.6762
 30
0.000000
  70
    32
  0
VERTEX
  8
SAPA_FOGBAND
  5
18E4
 10
-20.0052
 20
-38.5409
 30
0.000000
  70
    32
  0
VERTEX
  8
SAPA_FOGBAND
  5
18E5
 10
-19.9775
 20
-38.4032
 30
0.000000
  70
    32
  0
VERTEX
  8
SAPA_FOGBAND
  5
18E6
 10
-19.9539
 20
-38.2635
 30
0.000000
  70
    32
  0
VERTEX
  8
SAPA_FOGBAND
  5
18E7
 10
-19.9346
 20
-38.1220
 30
0.000000
  70
    32
  0
VERTEX
  8
SAPA_FOGBAND
  5
18E8
 10
-19.9195
 20
-37.9791
 30
0.000000
  70
    32
  0
VERTEX
  8
SAPA_FOGBAND
  5
18E9
 10
-19.9087
 20
-37.8352
 30
0.000000
  70
    32
  0
VERTEX
  8
SAPA_FOGBAND
  5
18EA
 10
-19.9022
 20
-37.6906
 30
0.000000
  70
    32
  0
VERTEX
  8
SAPA_FOGBAND
  5
18EB
 10
-19.9000
 20
-37.5456
 30
0.000000
  70
    32
  0
VERTEX
  8
SAPA_FOGBAND
  5
18EC
 10
-19.9022
 20
-37.4007
 30
0.000000
  70
    32
  0
VERTEX
  8
SAPA_FOGBAND
  5
18ED
 10
-19.9087
 20
-37.2561
 30
0.000000
  70
    32
  0
VERTEX
  8
SAPA_FOGBAND
  5
18EE
 10
-19.9195
 20
-37.1121
 30
0.000000
  70
    32
  0
VERTEX
  8
SAPA_FOGBAND
  5
18EF
 10
-19.9346
 20
-36.9693
 30
0.000000
  70
    32
  0
VERTEX
  8
SAPA_FOGBAND
  5
18F0
 10
-19.9539
 20
-36.8278
 30
0.000000
  70
    32
  0
VERTEX
  8
SAPA_FOGBAND
  5
18F1
 10
-19.9775
 20
-36.6880
 30
0.000000
  70
    32
  0
VERTEX
  8
SAPA_FOGBAND
  5
18F2
 10
-20.0052
 20
-36.5503
 30
0.000000
  70
    32
  0
VERTEX
  8
SAPA_FOGBAND
  5
18F3
 10
-20.0370
 20
-36.4151
 30
0.000000
  70
    32
  0
VERTEX
  8
SAPA_FOGBAND
  5
18F4
 10
-20.0728
 20
-36.2825
 30
0.000000
  70
    32
  0
VERTEX
  8
SAPA_FOGBAND
  5
18F5
 10
-20.1125
 20
-36.1530
 30
0.000000
  70
    32
  0
VERTEX
  8
SAPA_FOGBAND
  5
18F6
 10
-20.1561
 20
-36.0268
 30
0.000000
  70
    32
  0
VERTEX
  8
SAPA_FOGBAND
  5
18F7
 10
-20.2034
 20
-35.9043
 30
0.000000
  70
    32
  0
VERTEX
  8
SAPA_FOGBAND
  5
18F8
 10
-20.2542
 20
-35.7857
 30
0.000000
  70
    32
  0
VERTEX
  8
SAPA_FOGBAND
  5
18F9
 10
-20.3086
 20
-35.6714
 30
0.000000
  70
    32
  0
VERTEX
  8
SAPA_FOGBAND
  5
18FA
 10
-20.3663
 20
-35.5616
 30
0.000000
  70
    32
  0
VERTEX
  8
SAPA_FOGBAND
  5
18FB
 10
-20.4272
 20
-35.4566
 30
0.000000
  70
    32
  0
VERTEX
  8
SAPA_FOGBAND
  5
18FC
 10
-20.4912
 20
-35.3566
 30
0.000000
  70
    32
  0
VERTEX
  8
SAPA_FOGBAND
  5
18FD
 10
-20.5581
 20
-35.2619
 30
0.000000
  70
    32
  0
VERTEX
  8
SAPA_FOGBAND
  5
18FE
 10
-20.6277
 20
-35.1727
 30
0.000000
  70
    32
  0
VERTEX
  8
SAPA_FOGBAND
  5
18FF
 10
-20.7000
 20
-35.0892
 30
0.000000
  70
    32
  0
VERTEX
  8
SAPA_FOGBAND
  5
1900
 10
-20.7746
 20
-35.0116
 30
0.000000
  70
    32
  0
VERTEX
  8
SAPA_FOGBAND
  5
1901
 10
-20.8515
 20
-34.9401
 30
0.000000
  70
    32
  0
VERTEX
  8
SAPA_FOGBAND
  5
1902
 10
-20.9304
 20
-34.8749
 30
0.000000
  70
    32
  0
VERTEX
  8
SAPA_FOGBAND
  5
1903
 10
-21.0112
 20
-34.8162
 30
0.000000
  70
    32
  0
VERTEX
  8
SAPA_FOGBAND
  5
1904
 10
-21.0936
 20
-34.7640
 30
0.000000
  70
    32
  0
VERTEX
  8
SAPA_FOGBAND
  5
1905
 10
-21.1775
 20
-34.7185
 30
0.000000
  70
    32
  0
VERTEX
  8
SAPA_FOGBAND
  5
1906
 10
-21.2626
 20
-34.6798
 30
0.000000
  70
    32
  0
VERTEX
  8
SAPA_FOGBAND
  5
1907
 10
-21.3488
 20
-34.6480
 30
0.000000
  70
    32
  0
VERTEX
  8
SAPA_FOGBAND
  5
1908
 10
-21.4359
 20
-34.6233
 30
0.000000
  70
    32
  0
VERTEX
  8
SAPA_FOGBAND
  5
1909
 10
-21.5236
 20
-34.6055
 30
0.000000
  70
    32
  0
VERTEX
  8
SAPA_FOGBAND
  5
190A
 10
-21.6117
 20
-34.5948
 30
0.000000
  70
    32
  0
VERTEX
  8
SAPA_FOGBAND
  5
190B
 10
-21.7000
 20
-34.5913
 30
0.000000
  70
    32
  0
VERTEX
  8
SAPA_FOGBAND
  5
190C
 10
-21.7883
 20
-34.5948
 30
0.000000
  70
    32
  0
VERTEX
  8
SAPA_FOGBAND
  5
190D
 10
-21.8764
 20
-34.6055
 30
0.000000
  70
    32
  0
VERTEX
  8
SAPA_FOGBAND
  5
190E
 10
-21.9641
 20
-34.6233
 30
0.000000
  70
    32
  0
VERTEX
  8
SAPA_FOGBAND
  5
190F
 10
-22.0512
 20
-34.6480
 30
0.000000
  70
    32
  0
VERTEX
  8
SAPA_FOGBAND
  5
1910
 10
-22.1374
 20
-34.6798
 30
0.000000
  70
    32
  0
VERTEX
  8
SAPA_FOGBAND
  5
1911
 10
-22.2225
 20
-34.7185
 30
0.000000
  70
    32
  0
VERTEX
  8
SAPA_FOGBAND
  5
1912
 10
-22.3064
 20
-34.7640
 30
0.000000
  70
    32
  0
VERTEX
  8
SAPA_FOGBAND
  5
1913
 10
-22.3888
 20
-34.8162
 30
0.000000
  70
    32
  0
VERTEX
  8
SAPA_FOGBAND
  5
1914
 10
-22.4696
 20
-34.8749
 30
0.000000
  70
    32
  0
VERTEX
  8
SAPA_FOGBAND
  5
1915
 10
-22.5485
 20
-34.9401
 30
0.000000
  70
    32
  0
VERTEX
  8
SAPA_FOGBAND
  5
1916
 10
-22.6254
 20
-35.0116
 30
0.000000
  70
    32
  0
VERTEX
  8
SAPA_FOGBAND
  5
1917
 10
-22.7000
 20
-35.0892
 30
0.000000
  70
    32
  0
VERTEX
  8
SAPA_FOGBAND
  5
1918
 10
-22.7723
 20
-35.1727
 30
0.000000
  70
    32
  0
VERTEX
  8
SAPA_FOGBAND
  5
1919
 10
-22.8419
 20
-35.2619
 30
0.000000
  70
    32
  0
VERTEX
  8
SAPA_FOGBAND
  5
191A
 10
-22.9088
 20
-35.3566
 30
0.000000
  70
    32
  0
VERTEX
  8
SAPA_FOGBAND
  5
191B
 10
-22.9728
 20
-35.4566
 30
0.000000
  70
    32
  0
VERTEX
  8
SAPA_FOGBAND
  5
191C
 10
-23.0337
 20
-35.5616
 30
0.000000
  70
    32
  0
VERTEX
  8
SAPA_FOGBAND
  5
191D
 10
-23.0914
 20
-35.6714
 30
0.000000
  70
    32
  0
VERTEX
  8
SAPA_FOGBAND
  5
191E
 10
-23.1458
 20
-35.7857
 30
0.000000
  70
    32
  0
VERTEX
  8
SAPA_FOGBAND
  5
191F
 10
-23.1966
 20
-35.9043
 30
0.000000
  70
    32
  0
VERTEX
  8
SAPA_FOGBAND
  5
1920
 10
-23.2439
 20
-36.0268
 30
0.000000
  70
    32
  0
VERTEX
  8
SAPA_FOGBAND
  5
1921
 10
-23.2875
 20
-36.1530
 30
0.000000
  70
    32
  0
VERTEX
  8
SAPA_FOGBAND
  5
1922
 10
-23.3272
 20
-36.2825
 30
0.000000
  70
    32
  0
VERTEX
  8
SAPA_FOGBAND
  5
1923
 10
-23.3630
 20
-36.4151
 30
0.000000
  70
    32
  0
VERTEX
  8
SAPA_FOGBAND
  5
1924
 10
-23.3948
 20
-36.5503
 30
0.000000
  70
    32
  0
VERTEX
  8
SAPA_FOGBAND
  5
1925
 10
-23.4225
 20
-36.6880
 30
0.000000
  70
    32
  0
VERTEX
  8
SAPA_FOGBAND
  5
1926
 10
-23.4461
 20
-36.8278
 30
0.000000
  70
    32
  0
VERTEX
  8
SAPA_FOGBAND
  5
1927
 10
-23.4654
 20
-36.9693
 30
0.000000
  70
    32
  0
VERTEX
  8
SAPA_FOGBAND
  5
1928
 10
-23.4805
 20
-37.1121
 30
0.000000
  70
    32
  0
VERTEX
  8
SAPA_FOGBAND
  5
1929
 10
-23.4913
 20
-37.2561
 30
0.000000
  70
    32
  0
VERTEX
  8
SAPA_FOGBAND
  5
192A
 10
-23.4978
 20
-37.4007
 30
0.000000
  70
    32
  0
VERTEX
  8
SAPA_FOGBAND
  5
192B
 10
-23.5000
 20
-37.5456
 30
0.000000
  70
    32
  0
VERTEX
  8
SAPA_FOGBAND
  5
192C
 10
-23.4978
 20
-37.6906
 30
0.000000
  70
    32
  0
VERTEX
  8
SAPA_FOGBAND
  5
192D
 10
-23.4913
 20
-37.8352
 30
0.000000
  70
    32
  0
VERTEX
  8
SAPA_FOGBAND
  5
192E
 10
-23.4805
 20
-37.9791
 30
0.000000
  70
    32
  0
VERTEX
  8
SAPA_FOGBAND
  5
192F
 10
-23.4654
 20
-38.1220
 30
0.000000
  70
    32
  0
VERTEX
  8
SAPA_FOGBAND
  5
1930
 10
-23.4461
 20
-38.2635
 30
0.000000
  70
    32
  0
VERTEX
  8
SAPA_FOGBAND
  5
1931
 10
-23.4225
 20
-38.4032
 30
0.000000
  70
    32
  0
VERTEX
  8
SAPA_FOGBAND
  5
1932
 10
-23.3948
 20
-38.5409
 30
0.000000
  70
    32
  0
VERTEX
  8
SAPA_FOGBAND
  5
1933
 10
-23.3630
 20
-38.6762
 30
0.000000
  70
    32
  0
VERTEX
  8
SAPA_FOGBAND
  5
1934
 10
-23.3272
 20
-38.8088
 30
0.000000
  70
    32
  0
VERTEX
  8
SAPA_FOGBAND
  5
1935
 10
-23.2875
 20
-38.9383
 30
0.000000
  70
    32
  0
VERTEX
  8
SAPA_FOGBAND
  5
1936
 10
-23.2439
 20
-39.0645
 30
0.000000
  70
    32
  0
VERTEX
  8
SAPA_FOGBAND
  5
1937
 10
-23.1966
 20
-39.1870
 30
0.000000
  70
    32
  0
VERTEX
  8
SAPA_FOGBAND
  5
1938
 10
-23.1458
 20
-39.3055
 30
0.000000
  70
    32
  0
VERTEX
  8
SAPA_FOGBAND
  5
1939
 10
-23.0914
 20
-39.4199
 30
0.000000
  70
    32
  0
VERTEX
  8
SAPA_FOGBAND
  5
193A
 10
-23.0337
 20
-39.5297
 30
0.000000
  70
    32
  0
VERTEX
  8
SAPA_FOGBAND
  5
193B
 10
-22.9728
 20
-39.6347
 30
0.000000
  70
    32
  0
VERTEX
  8
SAPA_FOGBAND
  5
193C
 10
-22.9088
 20
-39.7347
 30
0.000000
  70
    32
  0
VERTEX
  8
SAPA_FOGBAND
  5
193D
 10
-22.8419
 20
-39.8294
 30
0.000000
  70
    32
  0
VERTEX
  8
SAPA_FOGBAND
  5
193E
 10
-22.7723
 20
-39.9186
 30
0.000000
  70
    32
  0
VERTEX
  8
SAPA_FOGBAND
  5
193F
 10
-22.7000
 20
-40.0021
 30
0.000000
  70
    32
  0
VERTEX
  8
SAPA_FOGBAND
  5
1940
 10
-22.6254
 20
-40.0797
 30
0.000000
  70
    32
  0
VERTEX
  8
SAPA_FOGBAND
  5
1941
 10
-22.5485
 20
-40.1512
 30
0.000000
  70
    32
  0
VERTEX
  8
SAPA_FOGBAND
  5
1942
 10
-22.4696
 20
-40.2163
 30
0.000000
  70
    32
  0
VERTEX
  8
SAPA_FOGBAND
  5
1943
 10
-22.3888
 20
-40.2751
 30
0.000000
  70
    32
  0
VERTEX
  8
SAPA_FOGBAND
  5
1944
 10
-22.3064
 20
-40.3273
 30
0.000000
  70
    32
  0
VERTEX
  8
SAPA_FOGBAND
  5
1945
 10
-22.2225
 20
-40.3728
 30
0.000000
  70
    32
  0
VERTEX
  8
SAPA_FOGBAND
  5
1946
 10
-22.1374
 20
-40.4115
 30
0.000000
  70
    32
  0
VERTEX
  8
SAPA_FOGBAND
  5
1947
 10
-22.0512
 20
-40.4432
 30
0.000000
  70
    32
  0
VERTEX
  8
SAPA_FOGBAND
  5
1948
 10
-21.9641
 20
-40.4680
 30
0.000000
  70
    32
  0
VERTEX
  8
SAPA_FOGBAND
  5
1949
 10
-21.8764
 20
-40.4858
 30
0.000000
  70
    32
  0
VERTEX
  8
SAPA_FOGBAND
  5
194A
 10
-21.7883
 20
-40.4964
 30
0.000000
  70
    32
  0
VERTEX
  8
SAPA_FOGBAND
  5
194B
 10
-21.7000
 20
-40.5000
 30
0.000000
  70
    32
  0
SEQEND
  8
SAPA_FOGBAND
  5
194C
  0
INSERT
  5
1088
  8
SAPA_FOGBAND
  6
CONTINUOUS
  2
*X61
 10
0.0
 20
0.0
 30
0.0
1001
ACAD
1000
HATCH
1002
{
1070
    19
1000
ANSI37
1040
0.25
1040
-0.0000000000000002
1000
R14_HATCH_DATA
1000
1088
1011
1.0
1021
0.0
1031
-0.0
1021
0.0
1031
0.0
1011
0.0
1021
0.0
1031
-0.0
1021
1.0
1031
0.0
1011
0.0
1021
0.0
1031
-0.0
1021
0.0
1031
1.0
1040
0.0
1010
0.0
1020
0.0
1030
1.0
1000
ANSI37
1070
     0
1070
     0
1071
        1
1071
        1
1071
        3
1070
     3
1040
-21.69999999999218
1040
-37.545638078316287
1040
-0.0000000000009323
1040
-2.9543618886820009
1040
0.6092686230810487
1040
3.0288543565674959
1040
8.8961375621551824
1070
     0
1070
     2
1040
-21.528106314816711
1040
-36.097247745463861
1040
1.5432917594600579
1040
3.9375020987711551
1040
4.2841286611507847
1070
     0
1070
     1
1040
-22.169018193595772
1040
-34.693331288384869
1040
-21.90249933918561
1040
-34.610031169442713
1071
        0
1070
     0
1070
     1
1040
-0.0000000000000002
1040
0.25
1070
     0
1070
     2
1040
2.3561944901923439
1040
420.88176377657828
1040
-403.4091569946487
1040
0.5612660075668219
1040
0.5612660075668222
1070
     0
1040
0.785398163397449
1040
420.88176377657828
1040
-403.4091569946487
1040
0.5612660075668222
1040
-0.5612660075668219
1070
     0
1071
        1
1040
-21.851617139245931
1040
-37.788408381380343
1040
0.0
1002
}
  0
POLYLINE
  5
1089
  8
SAPA_FOGBAND
 66
     1
 10
0.0
 20
0.0
 30
0.0
 70
     1
  0
VERTEX
  5
17D4
  8
SAPA_FOGBAND
 10
4.178740179216982
 20
-80.768193081411013
 30
0.0
  0
VERTEX
  5
17D5
  8
SAPA_FOGBAND
 10
4.1787401792169669
 20
-80.544896306152935
 30
0.0
 42
-0.3500011104185251
  0
VERTEX
  5
17D6
  8
SAPA_FOGBAND
 10
4.8009624014392021
 20
-79.764899471718081
 30
0.0
 42
0.3500011104185275
  0
VERTEX
  5
17D7
  8
SAPA_FOGBAND
 10
5.5787401792169726
 20
-78.789903428674506
 30
0.0
  0
VERTEX
  5
17D8
  8
SAPA_FOGBAND
 10
5.5787401792169726
 20
-78.46489947171807
 30
0.0
 42
0.4142135623730992
  0
VERTEX
  5
17D9
  8
SAPA_FOGBAND
 10
4.5787401792169726
 20
-77.46489947171807
 30
0.0
  0
VERTEX
  5
17DA
  8
SAPA_FOGBAND
 10
-4.6212598207830453
 20
-77.46489947171807
 30
0.0
 42
0.4142135623730909
  0
VERTEX
  5
17DB
  8
SAPA_FOGBAND
 10
-5.6212598207830311
 20
-78.46489947171807
 30
0.0
  0
VERTEX
  5
17DC
  8
SAPA_FOGBAND
 10
-5.6212598207830453
 20
-78.789903428674506
 30
0.0
 42
0.3500011104185275
  0
VERTEX
  5
17DD
  8
SAPA_FOGBAND
 10
-4.843482043005273
 20
-79.764899471718053
 30
0.0
 42
-0.3500011104185328
  0
VERTEX
  5
17DE
  8
SAPA_FOGBAND
 10
-4.2212598207830254
 20
-80.544896306152935
 30
0.0
  0
VERTEX
  5
17DF
  8
SAPA_FOGBAND
 10
-4.2212598207830254
 20
-80.768193081411013
 30
0.0
 42
-0.380963100045198
  0
VERTEX
  5
17E0
  8
SAPA_FOGBAND
 10
-4.6639644297978791
 20
-81.264899471718081
 30
0.0
 42
-0.0458039546811979
  0
VERTEX
  5
17E1
  8
SAPA_FOGBAND
 10
-7.9530679894324461
 20
-81.341546602805465
 30
0.0
 42
0.9570085662280619
  0
VERTEX
  5
17E2
  8
SAPA_FOGBAND
 10
-8.1767290045698129
 20
-83.327059573289304
 30
0.0
 42
0.0782100801382191
  0
VERTEX
  5
17E3
  8
SAPA_FOGBAND
 10
8.1342093630037429
 20
-83.327059573289347
 30
0.0
 42
0.9570085662280891
  0
VERTEX
  5
17E4
  8
SAPA_FOGBAND
 10
7.9105483478663468
 20
-81.341546602805465
 30
0.0
 42
-0.0458039546811975
  0
VERTEX
  5
17E5
  8
SAPA_FOGBAND
 10
4.621444788231833
 20
-81.264899471718081
 30
0.0
 42
-0.380963100045198
  0
SEQEND
  5
17E6
  8
SAPA_FOGBAND
  0
POLYLINE
  5
108A
  8
SAPA_FOGBAND
 10
-15.182155401672924
 20
-58.646125407834958
 30
0.0
 66
     1
 70
     8
  0
VERTEX
  8
SAPA_FOGBAND
  5
194D
 10
-15.1822
 20
-58.6461
 30
0.000000
  70
    32
  0
VERTEX
  8
SAPA_FOGBAND
  5
194E
 10
-15.1866
 20
-58.7402
 30
0.000000
  70
    32
  0
VERTEX
  8
SAPA_FOGBAND
  5
194F
 10
-15.2001
 20
-58.8340
 30
0.000000
  70
    32
  0
VERTEX
  8
SAPA_FOGBAND
  5
1950
 10
-15.2225
 20
-58.9274
 30
0.000000
  70
    32
  0
VERTEX
  8
SAPA_FOGBAND
  5
1951
 10
-15.2539
 20
-59.0201
 30
0.000000
  70
    32
  0
VERTEX
  8
SAPA_FOGBAND
  5
1952
 10
-15.2940
 20
-59.1118
 30
0.000000
  70
    32
  0
VERTEX
  8
SAPA_FOGBAND
  5
1953
 10
-15.3428
 20
-59.2025
 30
0.000000
  70
    32
  0
VERTEX
  8
SAPA_FOGBAND
  5
1954
 10
-15.4003
 20
-59.2918
 30
0.000000
  70
    32
  0
VERTEX
  8
SAPA_FOGBAND
  5
1955
 10
-15.4662
 20
-59.3796
 30
0.000000
  70
    32
  0
VERTEX
  8
SAPA_FOGBAND
  5
1956
 10
-15.5404
 20
-59.4656
 30
0.000000
  70
    32
  0
VERTEX
  8
SAPA_FOGBAND
  5
1957
 10
-15.6227
 20
-59.5496
 30
0.000000
  70
    32
  0
VERTEX
  8
SAPA_FOGBAND
  5
1958
 10
-15.7130
 20
-59.6315
 30
0.000000
  70
    32
  0
VERTEX
  8
SAPA_FOGBAND
  5
1959
 10
-15.8110
 20
-59.7110
 30
0.000000
  70
    32
  0
VERTEX
  8
SAPA_FOGBAND
  5
195A
 10
-15.9165
 20
-59.7879
 30
0.000000
  70
    32
  0
VERTEX
  8
SAPA_FOGBAND
  5
195B
 10
-16.0291
 20
-59.8621
 30
0.000000
  70
    32
  0
VERTEX
  8
SAPA_FOGBAND
  5
195C
 10
-16.1487
 20
-59.9333
 30
0.000000
  70
    32
  0
VERTEX
  8
SAPA_FOGBAND
  5
195D
 10
-16.2750
 20
-60.0014
 30
0.000000
  70
    32
  0
VERTEX
  8
SAPA_FOGBAND
  5
195E
 10
-16.4077
 20
-60.0663
 30
0.000000
  70
    32
  0
VERTEX
  8
SAPA_FOGBAND
  5
195F
 10
-16.5463
 20
-60.1277
 30
0.000000
  70
    32
  0
VERTEX
  8
SAPA_FOGBAND
  5
1960
 10
-16.6907
 20
-60.1856
 30
0.000000
  70
    32
  0
VERTEX
  8
SAPA_FOGBAND
  5
1961
 10
-16.8405
 20
-60.2398
 30
0.000000
  70
    32
  0
VERTEX
  8
SAPA_FOGBAND
  5
1962
 10
-16.9952
 20
-60.2901
 30
0.000000
  70
    32
  0
VERTEX
  8
SAPA_FOGBAND
  5
1963
 10
-17.1545
 20
-60.3365
 30
0.000000
  70
    32
  0
VERTEX
  8
SAPA_FOGBAND
  5
1964
 10
-17.3181
 20
-60.3788
 30
0.000000
  70
    32
  0
VERTEX
  8
SAPA_FOGBAND
  5
1965
 10
-17.4856
 20
-60.4169
 30
0.000000
  70
    32
  0
VERTEX
  8
SAPA_FOGBAND
  5
1966
 10
-17.6564
 20
-60.4508
 30
0.000000
  70
    32
  0
VERTEX
  8
SAPA_FOGBAND
  5
1967
 10
-17.8303
 20
-60.4803
 30
0.000000
  70
    32
  0
VERTEX
  8
SAPA_FOGBAND
  5
1968
 10
-18.0068
 20
-60.5054
 30
0.000000
  70
    32
  0
VERTEX
  8
SAPA_FOGBAND
  5
1969
 10
-18.1855
 20
-60.5260
 30
0.000000
  70
    32
  0
VERTEX
  8
SAPA_FOGBAND
  5
196A
 10
-18.3660
 20
-60.5421
 30
0.000000
  70
    32
  0
VERTEX
  8
SAPA_FOGBAND
  5
196B
 10
-18.5477
 20
-60.5536
 30
0.000000
  70
    32
  0
VERTEX
  8
SAPA_FOGBAND
  5
196C
 10
-18.7304
 20
-60.5605
 30
0.000000
  70
    32
  0
VERTEX
  8
SAPA_FOGBAND
  5
196D
 10
-18.9135
 20
-60.5628
 30
0.000000
  70
    32
  0
VERTEX
  8
SAPA_FOGBAND
  5
196E
 10
-19.0966
 20
-60.5605
 30
0.000000
  70
    32
  0
VERTEX
  8
SAPA_FOGBAND
  5
196F
 10
-19.2792
 20
-60.5536
 30
0.000000
  70
    32
  0
VERTEX
  8
SAPA_FOGBAND
  5
1970
 10
-19.4610
 20
-60.5421
 30
0.000000
  70
    32
  0
VERTEX
  8
SAPA_FOGBAND
  5
1971
 10
-19.6414
 20
-60.5260
 30
0.000000
  70
    32
  0
VERTEX
  8
SAPA_FOGBAND
  5
1972
 10
-19.8201
 20
-60.5054
 30
0.000000
  70
    32
  0
VERTEX
  8
SAPA_FOGBAND
  5
1973
 10
-19.9966
 20
-60.4803
 30
0.000000
  70
    32
  0
VERTEX
  8
SAPA_FOGBAND
  5
1974
 10
-20.1705
 20
-60.4508
 30
0.000000
  70
    32
  0
VERTEX
  8
SAPA_FOGBAND
  5
1975
 10
-20.3414
 20
-60.4169
 30
0.000000
  70
    32
  0
VERTEX
  8
SAPA_FOGBAND
  5
1976
 10
-20.5088
 20
-60.3788
 30
0.000000
  70
    32
  0
VERTEX
  8
SAPA_FOGBAND
  5
1977
 10
-20.6724
 20
-60.3365
 30
0.000000
  70
    32
  0
VERTEX
  8
SAPA_FOGBAND
  5
1978
 10
-20.8318
 20
-60.2901
 30
0.000000
  70
    32
  0
VERTEX
  8
SAPA_FOGBAND
  5
1979
 10
-20.9865
 20
-60.2398
 30
0.000000
  70
    32
  0
VERTEX
  8
SAPA_FOGBAND
  5
197A
 10
-21.1362
 20
-60.1856
 30
0.000000
  70
    32
  0
VERTEX
  8
SAPA_FOGBAND
  5
197B
 10
-21.2806
 20
-60.1277
 30
0.000000
  70
    32
  0
VERTEX
  8
SAPA_FOGBAND
  5
197C
 10
-21.4193
 20
-60.0663
 30
0.000000
  70
    32
  0
VERTEX
  8
SAPA_FOGBAND
  5
197D
 10
-21.5519
 20
-60.0014
 30
0.000000
  70
    32
  0
VERTEX
  8
SAPA_FOGBAND
  5
197E
 10
-21.6782
 20
-59.9333
 30
0.000000
  70
    32
  0
VERTEX
  8
SAPA_FOGBAND
  5
197F
 10
-21.7978
 20
-59.8621
 30
0.000000
  70
    32
  0
VERTEX
  8
SAPA_FOGBAND
  5
1980
 10
-21.9105
 20
-59.7879
 30
0.000000
  70
    32
  0
VERTEX
  8
SAPA_FOGBAND
  5
1981
 10
-22.0159
 20
-59.7110
 30
0.000000
  70
    32
  0
VERTEX
  8
SAPA_FOGBAND
  5
1982
 10
-22.1139
 20
-59.6315
 30
0.000000
  70
    32
  0
VERTEX
  8
SAPA_FOGBAND
  5
1983
 10
-22.2042
 20
-59.5496
 30
0.000000
  70
    32
  0
VERTEX
  8
SAPA_FOGBAND
  5
1984
 10
-22.2865
 20
-59.4656
 30
0.000000
  70
    32
  0
VERTEX
  8
SAPA_FOGBAND
  5
1985
 10
-22.3608
 20
-59.3796
 30
0.000000
  70
    32
  0
VERTEX
  8
SAPA_FOGBAND
  5
1986
 10
-22.4267
 20
-59.2918
 30
0.000000
  70
    32
  0
VERTEX
  8
SAPA_FOGBAND
  5
1987
 10
-22.4841
 20
-59.2025
 30
0.000000
  70
    32
  0
VERTEX
  8
SAPA_FOGBAND
  5
1988
 10
-22.5330
 20
-59.1118
 30
0.000000
  70
    32
  0
VERTEX
  8
SAPA_FOGBAND
  5
1989
 10
-22.5731
 20
-59.0201
 30
0.000000
  70
    32
  0
VERTEX
  8
SAPA_FOGBAND
  5
198A
 10
-22.6044
 20
-58.9274
 30
0.000000
  70
    32
  0
VERTEX
  8
SAPA_FOGBAND
  5
198B
 10
-22.6268
 20
-58.8340
 30
0.000000
  70
    32
  0
VERTEX
  8
SAPA_FOGBAND
  5
198C
 10
-22.6403
 20
-58.7402
 30
0.000000
  70
    32
  0
VERTEX
  8
SAPA_FOGBAND
  5
198D
 10
-22.6448
 20
-58.6461
 30
0.000000
  70
    32
  0
VERTEX
  8
SAPA_FOGBAND
  5
198E
 10
-22.6403
 20
-58.5521
 30
0.000000
  70
    32
  0
VERTEX
  8
SAPA_FOGBAND
  5
198F
 10
-22.6268
 20
-58.4583
 30
0.000000
  70
    32
  0
VERTEX
  8
SAPA_FOGBAND
  5
1990
 10
-22.6044
 20
-58.3649
 30
0.000000
  70
    32
  0
VERTEX
  8
SAPA_FOGBAND
  5
1991
 10
-22.5731
 20
-58.2722
 30
0.000000
  70
    32
  0
VERTEX
  8
SAPA_FOGBAND
  5
1992
 10
-22.5330
 20
-58.1804
 30
0.000000
  70
    32
  0
VERTEX
  8
SAPA_FOGBAND
  5
1993
 10
-22.4841
 20
-58.0897
 30
0.000000
  70
    32
  0
VERTEX
  8
SAPA_FOGBAND
  5
1994
 10
-22.4267
 20
-58.0004
 30
0.000000
  70
    32
  0
VERTEX
  8
SAPA_FOGBAND
  5
1995
 10
-22.3608
 20
-57.9126
 30
0.000000
  70
    32
  0
VERTEX
  8
SAPA_FOGBAND
  5
1996
 10
-22.2865
 20
-57.8266
 30
0.000000
  70
    32
  0
VERTEX
  8
SAPA_FOGBAND
  5
1997
 10
-22.2042
 20
-57.7426
 30
0.000000
  70
    32
  0
VERTEX
  8
SAPA_FOGBAND
  5
1998
 10
-22.1139
 20
-57.6607
 30
0.000000
  70
    32
  0
VERTEX
  8
SAPA_FOGBAND
  5
1999
 10
-22.0159
 20
-57.5813
 30
0.000000
  70
    32
  0
VERTEX
  8
SAPA_FOGBAND
  5
199A
 10
-21.9105
 20
-57.5044
 30
0.000000
  70
    32
  0
VERTEX
  8
SAPA_FOGBAND
  5
199B
 10
-21.7978
 20
-57.4302
 30
0.000000
  70
    32
  0
VERTEX
  8
SAPA_FOGBAND
  5
199C
 10
-21.6782
 20
-57.3590
 30
0.000000
  70
    32
  0
VERTEX
  8
SAPA_FOGBAND
  5
199D
 10
-21.5519
 20
-57.2908
 30
0.000000
  70
    32
  0
VERTEX
  8
SAPA_FOGBAND
  5
199E
 10
-21.4193
 20
-57.2260
 30
0.000000
  70
    32
  0
VERTEX
  8
SAPA_FOGBAND
  5
199F
 10
-21.2806
 20
-57.1645
 30
0.000000
  70
    32
  0
VERTEX
  8
SAPA_FOGBAND
  5
19A0
 10
-21.1362
 20
-57.1066
 30
0.000000
  70
    32
  0
VERTEX
  8
SAPA_FOGBAND
  5
19A1
 10
-20.9865
 20
-57.0525
 30
0.000000
  70
    32
  0
VERTEX
  8
SAPA_FOGBAND
  5
19A2
 10
-20.8318
 20
-57.0021
 30
0.000000
  70
    32
  0
VERTEX
  8
SAPA_FOGBAND
  5
19A3
 10
-20.6724
 20
-56.9558
 30
0.000000
  70
    32
  0
VERTEX
  8
SAPA_FOGBAND
  5
19A4
 10
-20.5088
 20
-56.9135
 30
0.000000
  70
    32
  0
VERTEX
  8
SAPA_FOGBAND
  5
19A5
 10
-20.3414
 20
-56.8753
 30
0.000000
  70
    32
  0
VERTEX
  8
SAPA_FOGBAND
  5
19A6
 10
-20.1705
 20
-56.8415
 30
0.000000
  70
    32
  0
VERTEX
  8
SAPA_FOGBAND
  5
19A7
 10
-19.9966
 20
-56.8120
 30
0.000000
  70
    32
  0
VERTEX
  8
SAPA_FOGBAND
  5
19A8
 10
-19.8201
 20
-56.7869
 30
0.000000
  70
    32
  0
VERTEX
  8
SAPA_FOGBAND
  5
19A9
 10
-19.6414
 20
-56.7663
 30
0.000000
  70
    32
  0
VERTEX
  8
SAPA_FOGBAND
  5
19AA
 10
-19.4610
 20
-56.7502
 30
0.000000
  70
    32
  0
VERTEX
  8
SAPA_FOGBAND
  5
19AB
 10
-19.2792
 20
-56.7387
 30
0.000000
  70
    32
  0
VERTEX
  8
SAPA_FOGBAND
  5
19AC
 10
-19.0966
 20
-56.7317
 30
0.000000
  70
    32
  0
VERTEX
  8
SAPA_FOGBAND
  5
19AD
 10
-18.9135
 20
-56.7294
 30
0.000000
  70
    32
  0
VERTEX
  8
SAPA_FOGBAND
  5
19AE
 10
-18.7304
 20
-56.7317
 30
0.000000
  70
    32
  0
VERTEX
  8
SAPA_FOGBAND
  5
19AF
 10
-18.5477
 20
-56.7387
 30
0.000000
  70
    32
  0
VERTEX
  8
SAPA_FOGBAND
  5
19B0
 10
-18.3660
 20
-56.7502
 30
0.000000
  70
    32
  0
VERTEX
  8
SAPA_FOGBAND
  5
19B1
 10
-18.1855
 20
-56.7663
 30
0.000000
  70
    32
  0
VERTEX
  8
SAPA_FOGBAND
  5
19B2
 10
-18.0068
 20
-56.7869
 30
0.000000
  70
    32
  0
VERTEX
  8
SAPA_FOGBAND
  5
19B3
 10
-17.8303
 20
-56.8120
 30
0.000000
  70
    32
  0
VERTEX
  8
SAPA_FOGBAND
  5
19B4
 10
-17.6564
 20
-56.8415
 30
0.000000
  70
    32
  0
VERTEX
  8
SAPA_FOGBAND
  5
19B5
 10
-17.4856
 20
-56.8753
 30
0.000000
  70
    32
  0
VERTEX
  8
SAPA_FOGBAND
  5
19B6
 10
-17.3181
 20
-56.9135
 30
0.000000
  70
    32
  0
VERTEX
  8
SAPA_FOGBAND
  5
19B7
 10
-17.1545
 20
-56.9558
 30
0.000000
  70
    32
  0
VERTEX
  8
SAPA_FOGBAND
  5
19B8
 10
-16.9952
 20
-57.0021
 30
0.000000
  70
    32
  0
VERTEX
  8
SAPA_FOGBAND
  5
19B9
 10
-16.8405
 20
-57.0525
 30
0.000000
  70
    32
  0
VERTEX
  8
SAPA_FOGBAND
  5
19BA
 10
-16.6907
 20
-57.1066
 30
0.000000
  70
    32
  0
VERTEX
  8
SAPA_FOGBAND
  5
19BB
 10
-16.5463
 20
-57.1645
 30
0.000000
  70
    32
  0
VERTEX
  8
SAPA_FOGBAND
  5
19BC
 10
-16.4077
 20
-57.2260
 30
0.000000
  70
    32
  0
VERTEX
  8
SAPA_FOGBAND
  5
19BD
 10
-16.2750
 20
-57.2908
 30
0.000000
  70
    32
  0
VERTEX
  8
SAPA_FOGBAND
  5
19BE
 10
-16.1487
 20
-57.3590
 30
0.000000
  70
    32
  0
VERTEX
  8
SAPA_FOGBAND
  5
19BF
 10
-16.0291
 20
-57.4302
 30
0.000000
  70
    32
  0
VERTEX
  8
SAPA_FOGBAND
  5
19C0
 10
-15.9165
 20
-57.5044
 30
0.000000
  70
    32
  0
VERTEX
  8
SAPA_FOGBAND
  5
19C1
 10
-15.8110
 20
-57.5813
 30
0.000000
  70
    32
  0
VERTEX
  8
SAPA_FOGBAND
  5
19C2
 10
-15.7130
 20
-57.6607
 30
0.000000
  70
    32
  0
VERTEX
  8
SAPA_FOGBAND
  5
19C3
 10
-15.6227
 20
-57.7426
 30
0.000000
  70
    32
  0
VERTEX
  8
SAPA_FOGBAND
  5
19C4
 10
-15.5404
 20
-57.8266
 30
0.000000
  70
    32
  0
VERTEX
  8
SAPA_FOGBAND
  5
19C5
 10
-15.4662
 20
-57.9126
 30
0.000000
  70
    32
  0
VERTEX
  8
SAPA_FOGBAND
  5
19C6
 10
-15.4003
 20
-58.0004
 30
0.000000
  70
    32
  0
VERTEX
  8
SAPA_FOGBAND
  5
19C7
 10
-15.3428
 20
-58.0897
 30
0.000000
  70
    32
  0
VERTEX
  8
SAPA_FOGBAND
  5
19C8
 10
-15.2940
 20
-58.1804
 30
0.000000
  70
    32
  0
VERTEX
  8
SAPA_FOGBAND
  5
19C9
 10
-15.2539
 20
-58.2722
 30
0.000000
  70
    32
  0
VERTEX
  8
SAPA_FOGBAND
  5
19CA
 10
-15.2225
 20
-58.3649
 30
0.000000
  70
    32
  0
VERTEX
  8
SAPA_FOGBAND
  5
19CB
 10
-15.2001
 20
-58.4583
 30
0.000000
  70
    32
  0
VERTEX
  8
SAPA_FOGBAND
  5
19CC
 10
-15.1866
 20
-58.5521
 30
0.000000
  70
    32
  0
VERTEX
  8
SAPA_FOGBAND
  5
19CD
 10
-15.1822
 20
-58.6461
 30
0.000000
  70
    32
  0
SEQEND
  8
SAPA_FOGBAND
  5
19CE
  0
POLYLINE
  5
108B
  8
SAPA_FOGBAND
 66
     1
 10
0.0
 20
0.0
 30
0.0
  0
VERTEX
  5
17E7
  8
SAPA_FOGBAND
 10
-23.787839836612111
 20
-51.800000000001802
 30
0.0
  0
VERTEX
  5
17E8
  8
SAPA_FOGBAND
 10
-23.787839836612111
 20
-51.500000000001847
 30
0.0
  0
VERTEX
  5
17E9
  8
SAPA_FOGBAND
 10
-23.787839836612111
 20
-51.800000000001802
 30
0.0
 42
0.4142135623730951
  0
VERTEX
  5
17EA
  8
SAPA_FOGBAND
 10
-23.287839836612111
 20
-52.300000000001809
 30
0.0
  0
VERTEX
  5
17EB
  8
SAPA_FOGBAND
 10
-15.987839836612149
 20
-52.300000000001859
 30
0.0
 42
0.4142135623730951
  0
VERTEX
  5
17EC
  8
SAPA_FOGBAND
 10
-15.487839836612149
 20
-51.800000000001873
 30
0.0
  0
VERTEX
  5
17ED
  8
SAPA_FOGBAND
 10
-15.487839836612149
 20
-51.500000000001847
 30
0.0
  0
SEQEND
  5
17EE
  8
SAPA_FOGBAND
  0
POLYLINE
  5
108C
  8
SAPA_FOGBAND
 66
     1
 10
0.0
 20
0.0
 30
0.0
 70
     1
  0
VERTEX
  5
17EF
  8
SAPA_FOGBAND
 10
-21.087839836612119
 20
-49.585369502363079
 30
0.0
  0
VERTEX
  5
17F0
  8
SAPA_FOGBAND
 10
-21.087839836612119
 20
-50.185369502363052
 30
0.0
 42
0.9999999999999998
  0
VERTEX
  5
17F1
  8
SAPA_FOGBAND
 10
-19.287839836612161
 20
-50.185369502363052
 30
0.0
  0
VERTEX
  5
17F2
  8
SAPA_FOGBAND
 10
-19.287839836612111
 20
-49.585369502363079
 30
0.0
 42
0.9999999999999998
  0
SEQEND
  5
17F3
  8
SAPA_FOGBAND
  0
POLYLINE
  5
108D
  8
SAPA_FOGBAND
 66
     1
 10
0.0
 20
0.0
 30
0.0
 70
     1
  0
VERTEX
  5
17F4
  8
SAPA_FOGBAND
 10
-11.49897524277438
 20
-56.418068725706668
 30
0.0
 42
0.646356061736289
  0
VERTEX
  5
17F5
  8
SAPA_FOGBAND
 10
-13.1616921057529
 20
-57.166938780872357
 30
0.0
  0
VERTEX
  5
17F6
  8
SAPA_FOGBAND
 10
-13.1616921057529
 20
-60.64591139233243
 30
0.0
 42
0.4879283649264857
  0
VERTEX
  5
17F7
  8
SAPA_FOGBAND
 10
-11.919156480716561
 20
-61.61605389247778
 30
0.0
  0
VERTEX
  5
17F8
  8
SAPA_FOGBAND
 10
-9.0413590643767971
 20
-60.896604538392843
 30
0.0
 42
0.3441507314089108
  0
VERTEX
  5
17F9
  8
SAPA_FOGBAND
 10
-8.2838946894131311
 20
-59.926462038247507
 30
0.0
  0
VERTEX
  5
17FA
  8
SAPA_FOGBAND
 10
-8.2838946894131151
 20
-59.713662158164219
 30
0.0
 42
0.214804042991016
  0
VERTEX
  5
17FB
  8
SAPA_FOGBAND
 10
-8.6211778264346037
 20
-58.964792102998508
 30
0.0
  0
SEQEND
  5
17FC
  8
SAPA_FOGBAND
  0
POLYLINE
  5
108E
  8
SAPA_FOGBAND
 66
     1
 10
0.0
 20
0.0
 30
0.0
 70
     1
  0
VERTEX
  5
17FD
  8
SAPA_FOGBAND
 10
-18.187839836612142
 20
-51.500000000001847
 30
0.0
 42
-0.4142135623730951
  0
VERTEX
  5
17FE
  8
SAPA_FOGBAND
 10
-18.687839836612142
 20
-51.000000000001862
 30
0.0
  0
VERTEX
  5
17FF
  8
SAPA_FOGBAND
 10
-18.687839836612142
 20
-50.05857458311997
 30
0.0
  0
VERTEX
  5
1800
  8
SAPA_FOGBAND
 10
-18.436076027591671
 20
-49.991114673809513
 30
0.0
 42
0.474057181023226
  0
VERTEX
  5
1801
  8
SAPA_FOGBAND
 10
-18.308782165228049
 20
-49.708832088170922
 30
0.0
  0
VERTEX
  5
1802
  8
SAPA_FOGBAND
 10
-18.928882667986692
 20
-48.262625951411032
 30
0.0
 42
0.2846003776496053
  0
VERTEX
  5
1803
  8
SAPA_FOGBAND
 10
-19.376526846446801
 20
-47.985369502363064
 30
0.0
  0
VERTEX
  5
1804
  8
SAPA_FOGBAND
 10
-20.999152826777411
 20
-47.985369502363064
 30
0.0
 42
0.2846003776496055
  0
VERTEX
  5
1805
  8
SAPA_FOGBAND
 10
-21.446797005237581
 20
-48.262625951411032
 30
0.0
  0
VERTEX
  5
1806
  8
SAPA_FOGBAND
 10
-22.06689750799617
 20
-49.708832088170858
 30
0.0
 42
0.474057181023226
  0
VERTEX
  5
1807
  8
SAPA_FOGBAND
 10
-21.939603645632609
 20
-49.991114673809513
 30
0.0
  0
VERTEX
  5
1808
  8
SAPA_FOGBAND
 10
-21.687839836612142
 20
-50.05857458311997
 30
0.0
  0
VERTEX
  5
1809
  8
SAPA_FOGBAND
 10
-21.687839836612142
 20
-51.000000000001862
 30
0.0
 42
-0.4142135623730951
  0
VERTEX
  5
180A
  8
SAPA_FOGBAND
 10
-22.187839836612142
 20
-51.500000000001847
 30
0.0
  0
VERTEX
  5
180B
  8
SAPA_FOGBAND
 10
-24.69999999999359
 20
-51.500000000001791
 30
0.0
 42
0.4052499559557504
  0
VERTEX
  5
180C
  8
SAPA_FOGBAND
 10
-24.999858634294721
 20
-51.790791339129143
 30
0.0
  0
VERTEX
  5
180D
  8
SAPA_FOGBAND
 10
-25.48769844896416
 20
-62.69079133912917
 30
0.0
 42
0.4232343445545565
  0
VERTEX
  5
180E
  8
SAPA_FOGBAND
 10
-25.187839814663018
 20
-63.000000000001862
 30
0.0
  0
VERTEX
  5
180F
  8
SAPA_FOGBAND
 10
-11.54939264942098
 20
-63.000000000001862
 30
0.0
 42
0.0613213552369726
  0
VERTEX
  5
1810
  8
SAPA_FOGBAND
 10
-11.428124836902811
 20
-62.98507125007454
 30
0.0
  0
VERTEX
  5
1811
  8
SAPA_FOGBAND
 10
-5.9453042115758024
 20
-62.414366093742721
 30
0.0
 42
0.3441507314089092
  0
VERTEX
  5
1812
  8
SAPA_FOGBAND
 10
-5.1878398366121408
 20
-61.444223593597393
 30
0.0
  0
VERTEX
  5
1813
  8
SAPA_FOGBAND
 10
-5.1878398366121408
 20
-60.206139425069189
 30
0.0
 42
0.2148040429910146
  0
VERTEX
  5
1814
  8
SAPA_FOGBAND
 10
-5.3564814051228771
 20
-59.831704397486327
 30
0.0
  0
VERTEX
  5
1815
  8
SAPA_FOGBAND
 10
-14.48753053661753
 20
-51.751129944836102
 30
0.0
 42
0.1831167524995932
  0
VERTEX
  5
1816
  8
SAPA_FOGBAND
 10
-15.150247399596051
 20
-51.500000000001847
 30
0.0
  0
SEQEND
  5
1817
  8
SAPA_FOGBAND
  0
POLYLINE
  5
108F
  8
SAPA_FOGBAND
 10
15.182155401672924
 20
-58.646125407834958
 30
0.0
 66
     1
 70
     8
  0
VERTEX
  8
SAPA_FOGBAND
  5
19CF
 10
15.1822
 20
-58.6461
 30
0.000000
  70
    32
  0
VERTEX
  8
SAPA_FOGBAND
  5
19D0
 10
15.1866
 20
-58.7402
 30
0.000000
  70
    32
  0
VERTEX
  8
SAPA_FOGBAND
  5
19D1
 10
15.2001
 20
-58.8340
 30
0.000000
  70
    32
  0
VERTEX
  8
SAPA_FOGBAND
  5
19D2
 10
15.2225
 20
-58.9274
 30
0.000000
  70
    32
  0
VERTEX
  8
SAPA_FOGBAND
  5
19D3
 10
15.2539
 20
-59.0201
 30
0.000000
  70
    32
  0
VERTEX
  8
SAPA_FOGBAND
  5
19D4
 10
15.2940
 20
-59.1118
 30
0.000000
  70
    32
  0
VERTEX
  8
SAPA_FOGBAND
  5
19D5
 10
15.3428
 20
-59.2025
 30
0.000000
  70
    32
  0
VERTEX
  8
SAPA_FOGBAND
  5
19D6
 10
15.4003
 20
-59.2918
 30
0.000000
  70
    32
  0
VERTEX
  8
SAPA_FOGBAND
  5
19D7
 10
15.4662
 20
-59.3796
 30
0.000000
  70
    32
  0
VERTEX
  8
SAPA_FOGBAND
  5
19D8
 10
15.5404
 20
-59.4656
 30
0.000000
  70
    32
  0
VERTEX
  8
SAPA_FOGBAND
  5
19D9
 10
15.6227
 20
-59.5496
 30
0.000000
  70
    32
  0
VERTEX
  8
SAPA_FOGBAND
  5
19DA
 10
15.7130
 20
-59.6315
 30
0.000000
  70
    32
  0
VERTEX
  8
SAPA_FOGBAND
  5
19DB
 10
15.8110
 20
-59.7110
 30
0.000000
  70
    32
  0
VERTEX
  8
SAPA_FOGBAND
  5
19DC
 10
15.9165
 20
-59.7879
 30
0.000000
  70
    32
  0
VERTEX
  8
SAPA_FOGBAND
  5
19DD
 10
16.0291
 20
-59.8621
 30
0.000000
  70
    32
  0
VERTEX
  8
SAPA_FOGBAND
  5
19DE
 10
16.1487
 20
-59.9333
 30
0.000000
  70
    32
  0
VERTEX
  8
SAPA_FOGBAND
  5
19DF
 10
16.2750
 20
-60.0014
 30
0.000000
  70
    32
  0
VERTEX
  8
SAPA_FOGBAND
  5
19E0
 10
16.4077
 20
-60.0663
 30
0.000000
  70
    32
  0
VERTEX
  8
SAPA_FOGBAND
  5
19E1
 10
16.5463
 20
-60.1277
 30
0.000000
  70
    32
  0
VERTEX
  8
SAPA_FOGBAND
  5
19E2
 10
16.6907
 20
-60.1856
 30
0.000000
  70
    32
  0
VERTEX
  8
SAPA_FOGBAND
  5
19E3
 10
16.8405
 20
-60.2398
 30
0.000000
  70
    32
  0
VERTEX
  8
SAPA_FOGBAND
  5
19E4
 10
16.9952
 20
-60.2901
 30
0.000000
  70
    32
  0
VERTEX
  8
SAPA_FOGBAND
  5
19E5
 10
17.1545
 20
-60.3365
 30
0.000000
  70
    32
  0
VERTEX
  8
SAPA_FOGBAND
  5
19E6
 10
17.3181
 20
-60.3788
 30
0.000000
  70
    32
  0
VERTEX
  8
SAPA_FOGBAND
  5
19E7
 10
17.4856
 20
-60.4169
 30
0.000000
  70
    32
  0
VERTEX
  8
SAPA_FOGBAND
  5
19E8
 10
17.6564
 20
-60.4508
 30
0.000000
  70
    32
  0
VERTEX
  8
SAPA_FOGBAND
  5
19E9
 10
17.8303
 20
-60.4803
 30
0.000000
  70
    32
  0
VERTEX
  8
SAPA_FOGBAND
  5
19EA
 10
18.0068
 20
-60.5054
 30
0.000000
  70
    32
  0
VERTEX
  8
SAPA_FOGBAND
  5
19EB
 10
18.1855
 20
-60.5260
 30
0.000000
  70
    32
  0
VERTEX
  8
SAPA_FOGBAND
  5
19EC
 10
18.3660
 20
-60.5421
 30
0.000000
  70
    32
  0
VERTEX
  8
SAPA_FOGBAND
  5
19ED
 10
18.5477
 20
-60.5536
 30
0.000000
  70
    32
  0
VERTEX
  8
SAPA_FOGBAND
  5
19EE
 10
18.7304
 20
-60.5605
 30
0.000000
  70
    32
  0
VERTEX
  8
SAPA_FOGBAND
  5
19EF
 10
18.9135
 20
-60.5628
 30
0.000000
  70
    32
  0
VERTEX
  8
SAPA_FOGBAND
  5
19F0
 10
19.0966
 20
-60.5605
 30
0.000000
  70
    32
  0
VERTEX
  8
SAPA_FOGBAND
  5
19F1
 10
19.2792
 20
-60.5536
 30
0.000000
  70
    32
  0
VERTEX
  8
SAPA_FOGBAND
  5
19F2
 10
19.4610
 20
-60.5421
 30
0.000000
  70
    32
  0
VERTEX
  8
SAPA_FOGBAND
  5
19F3
 10
19.6414
 20
-60.5260
 30
0.000000
  70
    32
  0
VERTEX
  8
SAPA_FOGBAND
  5
19F4
 10
19.8201
 20
-60.5054
 30
0.000000
  70
    32
  0
VERTEX
  8
SAPA_FOGBAND
  5
19F5
 10
19.9966
 20
-60.4803
 30
0.000000
  70
    32
  0
VERTEX
  8
SAPA_FOGBAND
  5
19F6
 10
20.1705
 20
-60.4508
 30
0.000000
  70
    32
  0
VERTEX
  8
SAPA_FOGBAND
  5
19F7
 10
20.3414
 20
-60.4169
 30
0.000000
  70
    32
  0
VERTEX
  8
SAPA_FOGBAND
  5
19F8
 10
20.5088
 20
-60.3788
 30
0.000000
  70
    32
  0
VERTEX
  8
SAPA_FOGBAND
  5
19F9
 10
20.6724
 20
-60.3365
 30
0.000000
  70
    32
  0
VERTEX
  8
SAPA_FOGBAND
  5
19FA
 10
20.8318
 20
-60.2901
 30
0.000000
  70
    32
  0
VERTEX
  8
SAPA_FOGBAND
  5
19FB
 10
20.9865
 20
-60.2398
 30
0.000000
  70
    32
  0
VERTEX
  8
SAPA_FOGBAND
  5
19FC
 10
21.1362
 20
-60.1856
 30
0.000000
  70
    32
  0
VERTEX
  8
SAPA_FOGBAND
  5
19FD
 10
21.2806
 20
-60.1277
 30
0.000000
  70
    32
  0
VERTEX
  8
SAPA_FOGBAND
  5
19FE
 10
21.4193
 20
-60.0663
 30
0.000000
  70
    32
  0
VERTEX
  8
SAPA_FOGBAND
  5
19FF
 10
21.5519
 20
-60.0014
 30
0.000000
  70
    32
  0
VERTEX
  8
SAPA_FOGBAND
  5
1A00
 10
21.6782
 20
-59.9333
 30
0.000000
  70
    32
  0
VERTEX
  8
SAPA_FOGBAND
  5
1A01
 10
21.7978
 20
-59.8621
 30
0.000000
  70
    32
  0
VERTEX
  8
SAPA_FOGBAND
  5
1A02
 10
21.9105
 20
-59.7879
 30
0.000000
  70
    32
  0
VERTEX
  8
SAPA_FOGBAND
  5
1A03
 10
22.0159
 20
-59.7110
 30
0.000000
  70
    32
  0
VERTEX
  8
SAPA_FOGBAND
  5
1A04
 10
22.1139
 20
-59.6315
 30
0.000000
  70
    32
  0
VERTEX
  8
SAPA_FOGBAND
  5
1A05
 10
22.2042
 20
-59.5496
 30
0.000000
  70
    32
  0
VERTEX
  8
SAPA_FOGBAND
  5
1A06
 10
22.2865
 20
-59.4656
 30
0.000000
  70
    32
  0
VERTEX
  8
SAPA_FOGBAND
  5
1A07
 10
22.3608
 20
-59.3796
 30
0.000000
  70
    32
  0
VERTEX
  8
SAPA_FOGBAND
  5
1A08
 10
22.4267
 20
-59.2918
 30
0.000000
  70
    32
  0
VERTEX
  8
SAPA_FOGBAND
  5
1A09
 10
22.4841
 20
-59.2025
 30
0.000000
  70
    32
  0
VERTEX
  8
SAPA_FOGBAND
  5
1A0A
 10
22.5330
 20
-59.1118
 30
0.000000
  70
    32
  0
VERTEX
  8
SAPA_FOGBAND
  5
1A0B
 10
22.5731
 20
-59.0201
 30
0.000000
  70
    32
  0
VERTEX
  8
SAPA_FOGBAND
  5
1A0C
 10
22.6044
 20
-58.9274
 30
0.000000
  70
    32
  0
VERTEX
  8
SAPA_FOGBAND
  5
1A0D
 10
22.6268
 20
-58.8340
 30
0.000000
  70
    32
  0
VERTEX
  8
SAPA_FOGBAND
  5
1A0E
 10
22.6403
 20
-58.7402
 30
0.000000
  70
    32
  0
VERTEX
  8
SAPA_FOGBAND
  5
1A0F
 10
22.6448
 20
-58.6461
 30
0.000000
  70
    32
  0
VERTEX
  8
SAPA_FOGBAND
  5
1A10
 10
22.6403
 20
-58.5521
 30
0.000000
  70
    32
  0
VERTEX
  8
SAPA_FOGBAND
  5
1A11
 10
22.6268
 20
-58.4583
 30
0.000000
  70
    32
  0
VERTEX
  8
SAPA_FOGBAND
  5
1A12
 10
22.6044
 20
-58.3649
 30
0.000000
  70
    32
  0
VERTEX
  8
SAPA_FOGBAND
  5
1A13
 10
22.5731
 20
-58.2722
 30
0.000000
  70
    32
  0
VERTEX
  8
SAPA_FOGBAND
  5
1A14
 10
22.5330
 20
-58.1804
 30
0.000000
  70
    32
  0
VERTEX
  8
SAPA_FOGBAND
  5
1A15
 10
22.4841
 20
-58.0897
 30
0.000000
  70
    32
  0
VERTEX
  8
SAPA_FOGBAND
  5
1A16
 10
22.4267
 20
-58.0004
 30
0.000000
  70
    32
  0
VERTEX
  8
SAPA_FOGBAND
  5
1A17
 10
22.3608
 20
-57.9126
 30
0.000000
  70
    32
  0
VERTEX
  8
SAPA_FOGBAND
  5
1A18
 10
22.2865
 20
-57.8266
 30
0.000000
  70
    32
  0
VERTEX
  8
SAPA_FOGBAND
  5
1A19
 10
22.2042
 20
-57.7426
 30
0.000000
  70
    32
  0
VERTEX
  8
SAPA_FOGBAND
  5
1A1A
 10
22.1139
 20
-57.6607
 30
0.000000
  70
    32
  0
VERTEX
  8
SAPA_FOGBAND
  5
1A1B
 10
22.0159
 20
-57.5813
 30
0.000000
  70
    32
  0
VERTEX
  8
SAPA_FOGBAND
  5
1A1C
 10
21.9105
 20
-57.5044
 30
0.000000
  70
    32
  0
VERTEX
  8
SAPA_FOGBAND
  5
1A1D
 10
21.7978
 20
-57.4302
 30
0.000000
  70
    32
  0
VERTEX
  8
SAPA_FOGBAND
  5
1A1E
 10
21.6782
 20
-57.3590
 30
0.000000
  70
    32
  0
VERTEX
  8
SAPA_FOGBAND
  5
1A1F
 10
21.5519
 20
-57.2908
 30
0.000000
  70
    32
  0
VERTEX
  8
SAPA_FOGBAND
  5
1A20
 10
21.4193
 20
-57.2260
 30
0.000000
  70
    32
  0
VERTEX
  8
SAPA_FOGBAND
  5
1A21
 10
21.2806
 20
-57.1645
 30
0.000000
  70
    32
  0
VERTEX
  8
SAPA_FOGBAND
  5
1A22
 10
21.1362
 20
-57.1066
 30
0.000000
  70
    32
  0
VERTEX
  8
SAPA_FOGBAND
  5
1A23
 10
20.9865
 20
-57.0525
 30
0.000000
  70
    32
  0
VERTEX
  8
SAPA_FOGBAND
  5
1A24
 10
20.8318
 20
-57.0021
 30
0.000000
  70
    32
  0
VERTEX
  8
SAPA_FOGBAND
  5
1A25
 10
20.6724
 20
-56.9558
 30
0.000000
  70
    32
  0
VERTEX
  8
SAPA_FOGBAND
  5
1A26
 10
20.5088
 20
-56.9135
 30
0.000000
  70
    32
  0
VERTEX
  8
SAPA_FOGBAND
  5
1A27
 10
20.3414
 20
-56.8753
 30
0.000000
  70
    32
  0
VERTEX
  8
SAPA_FOGBAND
  5
1A28
 10
20.1705
 20
-56.8415
 30
0.000000
  70
    32
  0
VERTEX
  8
SAPA_FOGBAND
  5
1A29
 10
19.9966
 20
-56.8120
 30
0.000000
  70
    32
  0
VERTEX
  8
SAPA_FOGBAND
  5
1A2A
 10
19.8201
 20
-56.7869
 30
0.000000
  70
    32
  0
VERTEX
  8
SAPA_FOGBAND
  5
1A2B
 10
19.6414
 20
-56.7663
 30
0.000000
  70
    32
  0
VERTEX
  8
SAPA_FOGBAND
  5
1A2C
 10
19.4610
 20
-56.7502
 30
0.000000
  70
    32
  0
VERTEX
  8
SAPA_FOGBAND
  5
1A2D
 10
19.2792
 20
-56.7387
 30
0.000000
  70
    32
  0
VERTEX
  8
SAPA_FOGBAND
  5
1A2E
 10
19.0966
 20
-56.7317
 30
0.000000
  70
    32
  0
VERTEX
  8
SAPA_FOGBAND
  5
1A2F
 10
18.9135
 20
-56.7294
 30
0.000000
  70
    32
  0
VERTEX
  8
SAPA_FOGBAND
  5
1A30
 10
18.7304
 20
-56.7317
 30
0.000000
  70
    32
  0
VERTEX
  8
SAPA_FOGBAND
  5
1A31
 10
18.5477
 20
-56.7387
 30
0.000000
  70
    32
  0
VERTEX
  8
SAPA_FOGBAND
  5
1A32
 10
18.3660
 20
-56.7502
 30
0.000000
  70
    32
  0
VERTEX
  8
SAPA_FOGBAND
  5
1A33
 10
18.1855
 20
-56.7663
 30
0.000000
  70
    32
  0
VERTEX
  8
SAPA_FOGBAND
  5
1A34
 10
18.0068
 20
-56.7869
 30
0.000000
  70
    32
  0
VERTEX
  8
SAPA_FOGBAND
  5
1A35
 10
17.8303
 20
-56.8120
 30
0.000000
  70
    32
  0
VERTEX
  8
SAPA_FOGBAND
  5
1A36
 10
17.6564
 20
-56.8415
 30
0.000000
  70
    32
  0
VERTEX
  8
SAPA_FOGBAND
  5
1A37
 10
17.4856
 20
-56.8753
 30
0.000000
  70
    32
  0
VERTEX
  8
SAPA_FOGBAND
  5
1A38
 10
17.3181
 20
-56.9135
 30
0.000000
  70
    32
  0
VERTEX
  8
SAPA_FOGBAND
  5
1A39
 10
17.1545
 20
-56.9558
 30
0.000000
  70
    32
  0
VERTEX
  8
SAPA_FOGBAND
  5
1A3A
 10
16.9952
 20
-57.0021
 30
0.000000
  70
    32
  0
VERTEX
  8
SAPA_FOGBAND
  5
1A3B
 10
16.8405
 20
-57.0525
 30
0.000000
  70
    32
  0
VERTEX
  8
SAPA_FOGBAND
  5
1A3C
 10
16.6907
 20
-57.1066
 30
0.000000
  70
    32
  0
VERTEX
  8
SAPA_FOGBAND
  5
1A3D
 10
16.5463
 20
-57.1645
 30
0.000000
  70
    32
  0
VERTEX
  8
SAPA_FOGBAND
  5
1A3E
 10
16.4077
 20
-57.2260
 30
0.000000
  70
    32
  0
VERTEX
  8
SAPA_FOGBAND
  5
1A3F
 10
16.2750
 20
-57.2908
 30
0.000000
  70
    32
  0
VERTEX
  8
SAPA_FOGBAND
  5
1A40
 10
16.1487
 20
-57.3590
 30
0.000000
  70
    32
  0
VERTEX
  8
SAPA_FOGBAND
  5
1A41
 10
16.0291
 20
-57.4302
 30
0.000000
  70
    32
  0
VERTEX
  8
SAPA_FOGBAND
  5
1A42
 10
15.9165
 20
-57.5044
 30
0.000000
  70
    32
  0
VERTEX
  8
SAPA_FOGBAND
  5
1A43
 10
15.8110
 20
-57.5813
 30
0.000000
  70
    32
  0
VERTEX
  8
SAPA_FOGBAND
  5
1A44
 10
15.7130
 20
-57.6607
 30
0.000000
  70
    32
  0
VERTEX
  8
SAPA_FOGBAND
  5
1A45
 10
15.6227
 20
-57.7426
 30
0.000000
  70
    32
  0
VERTEX
  8
SAPA_FOGBAND
  5
1A46
 10
15.5404
 20
-57.8266
 30
0.000000
  70
    32
  0
VERTEX
  8
SAPA_FOGBAND
  5
1A47
 10
15.4662
 20
-57.9126
 30
0.000000
  70
    32
  0
VERTEX
  8
SAPA_FOGBAND
  5
1A48
 10
15.4003
 20
-58.0004
 30
0.000000
  70
    32
  0
VERTEX
  8
SAPA_FOGBAND
  5
1A49
 10
15.3428
 20
-58.0897
 30
0.000000
  70
    32
  0
VERTEX
  8
SAPA_FOGBAND
  5
1A4A
 10
15.2940
 20
-58.1804
 30
0.000000
  70
    32
  0
VERTEX
  8
SAPA_FOGBAND
  5
1A4B
 10
15.2539
 20
-58.2722
 30
0.000000
  70
    32
  0
VERTEX
  8
SAPA_FOGBAND
  5
1A4C
 10
15.2225
 20
-58.3649
 30
0.000000
  70
    32
  0
VERTEX
  8
SAPA_FOGBAND
  5
1A4D
 10
15.2001
 20
-58.4583
 30
0.000000
  70
    32
  0
VERTEX
  8
SAPA_FOGBAND
  5
1A4E
 10
15.1866
 20
-58.5521
 30
0.000000
  70
    32
  0
VERTEX
  8
SAPA_FOGBAND
  5
1A4F
 10
15.1822
 20
-58.6461
 30
0.000000
  70
    32
  0
SEQEND
  8
SAPA_FOGBAND
  5
1A50
  0
POLYLINE
  5
1090
  8
SAPA_FOGBAND
 66
     1
 10
0.0
 20
0.0
 30
0.0
  0
VERTEX
  5
1818
  8
SAPA_FOGBAND
 10
23.787839836612111
 20
-51.800000000001802
 30
0.0
  0
VERTEX
  5
1819
  8
SAPA_FOGBAND
 10
23.787839836612111
 20
-51.500000000001847
 30
0.0
  0
VERTEX
  5
181A
  8
SAPA_FOGBAND
 10
23.787839836612111
 20
-51.800000000001802
 30
0.0
 42
-0.4142135623730951
  0
VERTEX
  5
181B
  8
SAPA_FOGBAND
 10
23.287839836612111
 20
-52.300000000001809
 30
0.0
  0
VERTEX
  5
181C
  8
SAPA_FOGBAND
 10
15.987839836612149
 20
-52.300000000001859
 30
0.0
 42
-0.4142135623730951
  0
VERTEX
  5
181D
  8
SAPA_FOGBAND
 10
15.487839836612149
 20
-51.800000000001873
 30
0.0
  0
VERTEX
  5
181E
  8
SAPA_FOGBAND
 10
15.487839836612149
 20
-51.500000000001847
 30
0.0
  0
SEQEND
  5
181F
  8
SAPA_FOGBAND
  0
POLYLINE
  5
1091
  8
SAPA_FOGBAND
 66
     1
 10
0.0
 20
0.0
 30
0.0
 70
     1
  0
VERTEX
  5
1820
  8
SAPA_FOGBAND
 10
21.087839836612119
 20
-49.585369502363079
 30
0.0
  0
VERTEX
  5
1821
  8
SAPA_FOGBAND
 10
21.087839836612119
 20
-50.185369502363052
 30
0.0
 42
-0.9999999999999998
  0
VERTEX
  5
1822
  8
SAPA_FOGBAND
 10
19.287839836612161
 20
-50.185369502363052
 30
0.0
  0
VERTEX
  5
1823
  8
SAPA_FOGBAND
 10
19.287839836612111
 20
-49.585369502363079
 30
0.0
 42
-0.9999999999999998
  0
SEQEND
  5
1824
  8
SAPA_FOGBAND
  0
POLYLINE
  5
1092
  8
SAPA_FOGBAND
 66
     1
 10
0.0
 20
0.0
 30
0.0
 70
     1
  0
VERTEX
  5
1825
  8
SAPA_FOGBAND
 10
11.49897524277438
 20
-56.418068725706668
 30
0.0
 42
-0.646356061736289
  0
VERTEX
  5
1826
  8
SAPA_FOGBAND
 10
13.161692105752911
 20
-57.166938780872357
 30
0.0
  0
VERTEX
  5
1827
  8
SAPA_FOGBAND
 10
13.161692105752911
 20
-60.64591139233243
 30
0.0
 42
-0.4879283649264857
  0
VERTEX
  5
1828
  8
SAPA_FOGBAND
 10
11.91915648071657
 20
-61.61605389247778
 30
0.0
  0
VERTEX
  5
1829
  8
SAPA_FOGBAND
 10
9.0413590643768007
 20
-60.896604538392843
 30
0.0
 42
-0.3441507314089108
  0
VERTEX
  5
182A
  8
SAPA_FOGBAND
 10
8.2838946894131311
 20
-59.926462038247507
 30
0.0
  0
VERTEX
  5
182B
  8
SAPA_FOGBAND
 10
8.2838946894131187
 20
-59.713662158164219
 30
0.0
 42
-0.214804042991016
  0
VERTEX
  5
182C
  8
SAPA_FOGBAND
 10
8.6211778264346055
 20
-58.964792102998508
 30
0.0
  0
SEQEND
  5
182D
  8
SAPA_FOGBAND
  0
POLYLINE
  5
1093
  8
SAPA_FOGBAND
 66
     1
 10
0.0
 20
0.0
 30
0.0
 70
     1
  0
VERTEX
  5
182E
  8
SAPA_FOGBAND
 10
18.187839836612142
 20
-51.500000000001847
 30
0.0
 42
0.4142135623730951
  0
VERTEX
  5
182F
  8
SAPA_FOGBAND
 10
18.687839836612142
 20
-51.000000000001862
 30
0.0
  0
VERTEX
  5
1830
  8
SAPA_FOGBAND
 10
18.687839836612142
 20
-50.05857458311997
 30
0.0
  0
VERTEX
  5
1831
  8
SAPA_FOGBAND
 10
18.436076027591671
 20
-49.991114673809513
 30
0.0
 42
-0.474057181023226
  0
VERTEX
  5
1832
  8
SAPA_FOGBAND
 10
18.308782165228049
 20
-49.708832088170922
 30
0.0
  0
VERTEX
  5
1833
  8
SAPA_FOGBAND
 10
18.928882667986692
 20
-48.262625951411032
 30
0.0
 42
-0.2846003776496053
  0
VERTEX
  5
1834
  8
SAPA_FOGBAND
 10
19.376526846446801
 20
-47.985369502363064
 30
0.0
  0
VERTEX
  5
1835
  8
SAPA_FOGBAND
 10
20.999152826777411
 20
-47.985369502363064
 30
0.0
 42
-0.2846003776496055
  0
VERTEX
  5
1836
  8
SAPA_FOGBAND
 10
21.446797005237581
 20
-48.262625951411032
 30
0.0
  0
VERTEX
  5
1837
  8
SAPA_FOGBAND
 10
22.06689750799617
 20
-49.708832088170858
 30
0.0
 42
-0.474057181023226
  0
VERTEX
  5
1838
  8
SAPA_FOGBAND
 10
21.939603645632609
 20
-49.991114673809513
 30
0.0
  0
VERTEX
  5
1839
  8
SAPA_FOGBAND
 10
21.687839836612142
 20
-50.05857458311997
 30
0.0
  0
VERTEX
  5
183A
  8
SAPA_FOGBAND
 10
21.687839836612142
 20
-51.000000000001862
 30
0.0
 42
0.4142135623730951
  0
VERTEX
  5
183B
  8
SAPA_FOGBAND
 10
22.187839836612142
 20
-51.500000000001847
 30
0.0
  0
VERTEX
  5
183C
  8
SAPA_FOGBAND
 10
24.69999999999359
 20
-51.500000000001791
 30
0.0
 42
-0.4052499559557504
  0
VERTEX
  5
183D
  8
SAPA_FOGBAND
 10
24.999858634294721
 20
-51.790791339129143
 30
0.0
  0
VERTEX
  5
183E
  8
SAPA_FOGBAND
 10
25.48769844896416
 20
-62.69079133912917
 30
0.0
 42
-0.4232343445545565
  0
VERTEX
  5
183F
  8
SAPA_FOGBAND
 10
25.187839814663018
 20
-63.000000000001862
 30
0.0
  0
VERTEX
  5
1840
  8
SAPA_FOGBAND
 10
11.54939264942098
 20
-63.000000000001862
 30
0.0
 42
-0.0613213552369726
  0
VERTEX
  5
1841
  8
SAPA_FOGBAND
 10
11.428124836902811
 20
-62.98507125007454
 30
0.0
  0
VERTEX
  5
1842
  8
SAPA_FOGBAND
 10
5.9453042115758032
 20
-62.414366093742721
 30
0.0
 42
-0.3441507314089092
  0
VERTEX
  5
1843
  8
SAPA_FOGBAND
 10
5.1878398366121417
 20
-61.444223593597393
 30
0.0
  0
VERTEX
  5
1844
  8
SAPA_FOGBAND
 10
5.1878398366121417
 20
-60.206139425069189
 30
0.0
 42
-0.2148040429910146
  0
VERTEX
  5
1845
  8
SAPA_FOGBAND
 10
5.356481405122878
 20
-59.831704397486327
 30
0.0
  0
VERTEX
  5
1846
  8
SAPA_FOGBAND
 10
14.48753053661753
 20
-51.751129944836102
 30
0.0
 42
-0.1831167524995932
  0
VERTEX
  5
1847
  8
SAPA_FOGBAND
 10
15.150247399596051
 20
-51.500000000001847
 30
0.0
  0
SEQEND
  5
1848
  8
SAPA_FOGBAND
  0
VIEWPORT
  5
C4
 67
     1
  8
0
 10
160.5543545598442
 20
116.00969601843509
 30
0.0
 40
404.96977709277462
 41
256.8421457311839
 68
     1
 69
     1
1001
ACAD
1000
MVIEW
1002
{
1070
    16
1010
0.0
1020
0.0
1030
0.0
1010
0.0
1020
0.0
1030
1.0
1040
0.0
1040
256.8421457311839
1040
99.206250190734863
1040
130.70624923706049
1040
50.0
1040
0.0
1040
0.0
1070
     0
1070
     0
1070
     1
1070
     1
1070
     0
1070
     0
1070
     0
1070
     0
1040
0.0
1040
0.0
1040
0.0
1040
10.0
1040
10.0
1040
10.0
1040
10.0
1070
     0
1002
{
1002
}
1002
}
  0
ENDSEC
  0
EOF
