  0
SECTION
  2
HEADER
  9
$ACADVER
  1
AC1009
  9
$INSBASE
 10
0.0
 20
0.0
 30
0.0
  9
$EXTMIN
 10
-41.810758944054477
 20
-95.524445940289809
 30
0.0
  9
$EXTMAX
 10
60.957151369664579
 20
58.822858504106861
 30
0.0
  9
$LIMMIN
 10
0.0
 20
0.0
  9
$LIMMAX
 10
790.0
 20
790.0
  9
$ORTHOMODE
 70
     1
  9
$REGENMODE
 70
     1
  9
$FILLMODE
 70
     1
  9
$QTEXTMODE
 70
     0
  9
$MIRRTEXT
 70
     1
  9
$DRAGMODE
 70
     2
  9
$LTSCALE
 40
4.0
  9
$OSMODE
 70
   167
  9
$ATTMODE
 70
     1
  9
$TEXTSIZE
 40
3.5
  9
$TRACEWID
 40
0.05
  9
$TEXTSTYLE
  7
ISO
  9
$CLAYER
  8
0
  9
$CELTYPE
  6
BYLAYER
  9
$CECOLOR
 62
   256
  9
$DIMSCALE
 40
0.0
  9
$DIMASZ
 40
3.0
  9
$DIMEXO
 40
1.5
  9
$DIMDLI
 40
10.0
  9
$DIMRND
 40
0.0
  9
$DIMDLE
 40
0.0
  9
$DIMEXE
 40
1.5
  9
$DIMTP
 40
0.0
  9
$DIMTM
 40
0.0
  9
$DIMTXT
 40
3.0
  9
$DIMCEN
 40
-5.0
  9
$DIMTSZ
 40
0.0
  9
$DIMTOL
 70
     0
  9
$DIMLIM
 70
     0
  9
$DIMTIH
 70
     0
  9
$DIMTOH
 70
     0
  9
$DIMSE1
 70
     0
  9
$DIMSE2
 70
     0
  9
$DIMTAD
 70
     1
  9
$DIMZIN
 70
     8
  9
$DIMBLK
  1

  9
$DIMASO
 70
     1
  9
$DIMSHO
 70
     1
  9
$DIMPOST
  1

  9
$DIMAPOST
  1

  9
$DIMALT
 70
     0
  9
$DIMALTD
 70
     0
  9
$DIMALTF
 40
25.399999999999999
  9
$DIMLFAC
 40
-1.0
  9
$DIMTOFL
 70
     1
  9
$DIMTVP
 40
0.0
  9
$DIMTIX
 70
     0
  9
$DIMSOXD
 70
     0
  9
$DIMSAH
 70
     0
  9
$DIMBLK1
  1

  9
$DIMBLK2
  1

  9
$DIMSTYLE
  2
MASKIN
  9
$DIMCLRD
 70
   256
  9
$DIMCLRE
 70
   256
  9
$DIMCLRT
 70
     2
  9
$DIMTFAC
 40
1.0
  9
$DIMGAP
 40
1.0
  9
$LUNITS
 70
     2
  9
$LUPREC
 70
     8
  9
$SKETCHINC
 40
0.1
  9
$FILLETRAD
 40
0.0
  9
$AUNITS
 70
     0
  9
$AUPREC
 70
     8
  9
$MENU
  1
ACAD
  9
$ELEVATION
 40
0.0
  9
$PELEVATION
 40
0.0
  9
$THICKNESS
 40
0.0
  9
$LIMCHECK
 70
     0
  9
$BLIPMODE
 70
     0
  9
$CHAMFERA
 40
0.0
  9
$CHAMFERB
 40
0.0
  9
$SKPOLY
 70
     0
  9
$TDCREATE
 40
2456232.4873894099
  9
$TDUPDATE
 40
2456626.4960712041
  9
$TDINDWG
 40
0.1439866435
  9
$TDUSRTIMER
 40
0.1439864583
  9
$USRTIMER
 70
     1
  9
$ANGBASE
 50
0.0
  9
$ANGDIR
 70
     0
  9
$PDMODE
 70
     0
  9
$PDSIZE
 40
0.0
  9
$PLINEWID
 40
0.0
  9
$COORDS
 70
     1
  9
$SPLFRAME
 70
     0
  9
$SPLINETYPE
 70
     6
  9
$SPLINESEGS
 70
     8
  9
$ATTDIA
 70
     0
  9
$ATTREQ
 70
     1
  9
$HANDLING
 70
     1
  9
$HANDSEED
  5
24ED
  9
$SURFTAB1
 70
     6
  9
$SURFTAB2
 70
     6
  9
$SURFTYPE
 70
     6
  9
$SURFU
 70
     6
  9
$SURFV
 70
     6
  9
$UCSNAME
  2

  9
$UCSORG
 10
0.0
 20
0.0
 30
0.0
  9
$UCSXDIR
 10
1.0
 20
0.0
 30
0.0
  9
$UCSYDIR
 10
0.0
 20
1.0
 30
0.0
  9
$PUCSNAME
  2

  9
$PUCSORG
 10
0.0
 20
0.0
 30
0.0
  9
$PUCSXDIR
 10
1.0
 20
0.0
 30
0.0
  9
$PUCSYDIR
 10
0.0
 20
1.0
 30
0.0
  9
$USERI1
 70
     0
  9
$USERI2
 70
     0
  9
$USERI3
 70
     0
  9
$USERI4
 70
     0
  9
$USERI5
 70
     0
  9
$USERR1
 40
0.0
  9
$USERR2
 40
0.0
  9
$USERR3
 40
0.0
  9
$USERR4
 40
0.0
  9
$USERR5
 40
0.0
  9
$WORLDVIEW
 70
     1
  9
$SHADEDGE
 70
     3
  9
$SHADEDIF
 70
    70
  9
$TILEMODE
 70
     1
  9
$MAXACTVP
 70
    16
  9
$PLIMCHECK
 70
     0
  9
$PEXTMIN
 10
1.0000000000000000E+020
 20
1.0000000000000000E+020
 30
1.0000000000000000E+020
  9
$PEXTMAX
 10
-1.0000000000000000E+020
 20
-1.0000000000000000E+020
 30
-1.0000000000000000E+020
  9
$PLIMMIN
 10
-5.069427490234375
 20
-5.8737497329711914
  9
$PLIMMAX
 10
291.89889526367187
 20
204.0995779037475
  9
$UNITMODE
 70
     0
  9
$VISRETAIN
 70
     1
  9
$PLINEGEN
 70
     0
  9
$PSLTSCALE
 70
     1
  0
ENDSEC
  0
SECTION
  2
TABLES
  0
TABLE
  2
VPORT
 70
     1
  0
VPORT
  2
*ACTIVE
 70
     0
 10
0.0
 20
0.0
 11
1.0
 21
1.0
 12
25.785577428944642
 22
22.625541582243731
 13
0.0
 23
0.0
 14
1.0
 24
1.0
 15
0.0
 25
0.0
 16
0.0
 26
0.0
 36
1.0
 17
0.0
 27
0.0
 37
0.0
 40
204.00512543168031
 41
2.112307692307692
 42
50.0
 43
0.0
 44
0.0
 50
0.0
 51
0.0
 71
     0
 72
   100
 73
     1
 74
     1
 75
     0
 76
     0
 77
     0
 78
     0
  0
ENDTAB
  0
TABLE
  2
LTYPE
 70
    50
  0
LTYPE
  2
CONTINUOUS
 70
     0
  3
Solid line
 72
    65
 73
     0
 40
0.0
  0
LTYPE
  2
DASHDOT
 70
     0
  3
__ . __ . __ . __ . __ . __ . __ . __ . __ . __
 72
    65
 73
     4
 40
1.0
 49
0.5
 49
-0.25
 49
0.0
 49
-0.25
  0
LTYPE
  2
BYGG-018516$0$NEWDOT
 70
     0
  3
____ . ____ . ____ . ____ . ____ . ____ . ____
 72
    65
 73
     4
 40
2.0
 49
1.0
 49
-0.5
 49
0.0
 49
-0.5
  0
LTYPE
  2
BYGG-018516$0$ZIGZAG
 70
     0
  3
Zig zag /\/\/\/\/\/\/\/\/\/\/\/\/\/\/\/\/\/\/\/\/\/\/\/
 72
    65
 73
     4
 40
20.32254
 49
0.00254
 49
-5.0800000000000001
 49
-10.16
 49
-5.0800000000000001
  0
LTYPE
  2
BYGG-018731$0$NEWDOT
 70
     0
  3
____ . ____ . ____ . ____ . ____ . ____ . ____
 72
    65
 73
     4
 40
2.0
 49
1.0
 49
-0.5
 49
0.0
 49
-0.5
  0
LTYPE
  2
BYGG-018731$0$DASHDOT
 70
     0
  3
__ . __ . __ . __ . __ . __ . __ . __ . __ . __
 72
    65
 73
     4
 40
1.0
 49
0.5
 49
-0.25
 49
0.0
 49
-0.25
  0
LTYPE
  2
BYGG-018731$0$DASHED
 70
     0
  3
__ __ __ __ __ __ __ __ __ __ __ __ __ __ __
 72
    65
 73
     2
 40
0.75
 49
0.5
 49
-0.25
  0
LTYPE
  2
BYGG-018731$0$PHANTOM
 70
     0
  3
Phantom ______  __  __  ______  __  __  ______
 72
    65
 73
     6
 40
63.5
 49
31.75
 49
-6.3499999999999988
 49
6.3499999999999988
 49
-6.3499999999999988
 49
6.3499999999999988
 49
-6.3499999999999988
  0
LTYPE
  2
BYGG-029261$0$NEWDOT
 70
     0
  3
____ . ____ . ____ . ____ . ____ . ____ . ____
 72
    65
 73
     4
 40
2.0
 49
1.0
 49
-0.5
 49
0.0
 49
-0.5
  0
LTYPE
  2
BYGG-029261$0$DASHDOT
 70
     0
  3
__ . __ . __ . __ . __ . __ . __ . __ . __ . __
 72
    65
 73
     4
 40
1.0
 49
0.5
 49
-0.25
 49
0.0
 49
-0.25
  0
LTYPE
  2
BYGG-029261$0$DASHED
 70
     0
  3
__ __ __ __ __ __ __ __ __ __ __ __ __ __ __
 72
    65
 73
     2
 40
0.75
 49
0.5
 49
-0.25
  0
LTYPE
  2
BYGG-029261$0$PHANTOM
 70
     0
  3
Phantom ______  __  __  ______  __  __  ______
 72
    65
 73
     6
 40
63.5
 49
31.75
 49
-6.3499999999999988
 49
6.3499999999999988
 49
-6.3499999999999988
 49
6.3499999999999988
 49
-6.3499999999999988
  0
LTYPE
  2
BYGG-024894$0$DASHDOT
 70
     0
  3
__ . __ . __ . __ . __ . __ . __ . __ . __ . __
 72
    65
 73
     4
 40
1.0
 49
0.5
 49
-0.25
 49
0.0
 49
-0.25
  0
LTYPE
  2
BYGG-019612$0$NEWDOT
 70
     0
  3
____ . ____ . ____ . ____ . ____ . ____ . ____
 72
    65
 73
     4
 40
2.0
 49
1.0
 49
-0.5
 49
0.0
 49
-0.5
  0
LTYPE
  2
BYGG-019612$0$DASHDOT
 70
     0
  3
__ . __ . __ . __ . __ . __ . __ . __ . __ . __
 72
    65
 73
     4
 40
1.0
 49
0.5
 49
-0.25
 49
0.0
 49
-0.25
  0
LTYPE
  2
BYGG-019612$0$DASHED
 70
     0
  3
__ __ __ __ __ __ __ __ __ __ __ __ __ __ __
 72
    65
 73
     2
 40
0.75
 49
0.5
 49
-0.25
  0
LTYPE
  2
BYGG-019612$0$PHANTOM
 70
     0
  3
Phantom ______  __  __  ______  __  __  ______
 72
    65
 73
     6
 40
63.5
 49
31.75
 49
-6.3499999999999988
 49
6.3499999999999988
 49
-6.3499999999999988
 49
6.3499999999999988
 49
-6.3499999999999988
  0
LTYPE
  2
BYGG-019653$0$NEWDOT
 70
     0
  3
____ . ____ . ____ . ____ . ____ . ____ . ____
 72
    65
 73
     4
 40
2.0
 49
1.0
 49
-0.5
 49
0.0
 49
-0.5
  0
LTYPE
  2
BYGG-019653$0$DASHDOT
 70
     0
  3
__ . __ . __ . __ . __ . __ . __ . __ . __ . __
 72
    65
 73
     4
 40
1.0
 49
0.5
 49
-0.25
 49
0.0
 49
-0.25
  0
LTYPE
  2
BYGG-019653$0$DASHED
 70
     0
  3
__ __ __ __ __ __ __ __ __ __ __ __ __ __ __
 72
    65
 73
     2
 40
0.75
 49
0.5
 49
-0.25
  0
LTYPE
  2
BYGG-019653$0$PHANTOM
 70
     0
  3
Phantom ______  __  __  ______  __  __  ______
 72
    65
 73
     6
 40
63.5
 49
31.75
 49
-6.3499999999999988
 49
6.3499999999999988
 49
-6.3499999999999988
 49
6.3499999999999988
 49
-6.3499999999999988
  0
LTYPE
  2
BYGG-019612$0$ZIGZAG
 70
     0
  3
Zig zag /\/\/\/\/\/\/\/\/\/\/\/\/\/\/\/\/\/\/\/\/\/\/\/
 72
    65
 73
     4
 40
20.32254
 49
0.00254
 49
-5.0800000000000001
 49
-10.16
 49
-5.0800000000000001
  0
LTYPE
  2
BYGG-019718$0$NEWDOT
 70
     0
  3
____ . ____ . ____ . ____ . ____ . ____ . ____
 72
    65
 73
     4
 40
2.0
 49
1.0
 49
-0.5
 49
0.0
 49
-0.5
  0
LTYPE
  2
BYGG-019718$0$DASHDOT
 70
     0
  3
__ . __ . __ . __ . __ . __ . __ . __ . __ . __
 72
    65
 73
     4
 40
1.0
 49
0.5
 49
-0.25
 49
0.0
 49
-0.25
  0
LTYPE
  2
BYGG-019718$0$DASHED
 70
     0
  3
__ __ __ __ __ __ __ __ __ __ __ __ __ __ __
 72
    65
 73
     2
 40
0.75
 49
0.5
 49
-0.25
  0
LTYPE
  2
BYGG-019718$0$PHANTOM
 70
     0
  3
Phantom ______  __  __  ______  __  __  ______
 72
    65
 73
     6
 40
63.5
 49
31.75
 49
-6.3499999999999988
 49
6.3499999999999988
 49
-6.3499999999999988
 49
6.3499999999999988
 49
-6.3499999999999988
  0
LTYPE
  2
BYGG-022089$0$NEWDOT
 70
     0
  3
____ . ____ . ____ . ____ . ____ . ____ . ____
 72
    65
 73
     4
 40
2.0
 49
1.0
 49
-0.5
 49
0.0
 49
-0.5
  0
LTYPE
  2
BYGG-022089$0$DASHDOT
 70
     0
  3
__ . __ . __ . __ . __ . __ . __ . __ . __ . __
 72
    65
 73
     4
 40
1.0
 49
0.5
 49
-0.25
 49
0.0
 49
-0.25
  0
LTYPE
  2
BYGG-022089$0$DASHED
 70
     0
  3
__ __ __ __ __ __ __ __ __ __ __ __ __ __ __
 72
    65
 73
     2
 40
0.75
 49
0.5
 49
-0.25
  0
LTYPE
  2
BYGG-022089$0$PHANTOM
 70
     0
  3
Phantom ______  __  __  ______  __  __  ______
 72
    65
 73
     6
 40
63.5
 49
31.75
 49
-6.3499999999999988
 49
6.3499999999999988
 49
-6.3499999999999988
 49
6.3499999999999988
 49
-6.3499999999999988
  0
LTYPE
  2
BYGG-014269$0$NEWDOT
 70
     0
  3
____ . ____ . ____ . ____ . ____ . ____ . ____
 72
    65
 73
     4
 40
2.0
 49
1.0
 49
-0.5
 49
0.0
 49
-0.5
  0
LTYPE
  2
BYGG-014269$0$ZIGZAG
 70
     0
  3
Zig zag /\/\/\/\/\/\/\/\/\/\/\/\/\/\/\/\/\/\/\/\/\/\/\/
 72
    65
 73
     4
 40
20.32254
 49
0.00254
 49
-5.0800000000000001
 49
-10.16
 49
-5.0800000000000001
  0
LTYPE
  2
BYGG-020945$0$NEWDOT
 70
     0
  3
____ . ____ . ____ . ____ . ____ . ____ . ____
 72
    65
 73
     4
 40
2.0
 49
1.0
 49
-0.5
 49
0.0
 49
-0.5
  0
LTYPE
  2
BYGG-020945$0$DASHDOT
 70
     0
  3
__ . __ . __ . __ . __ . __ . __ . __ . __ . __
 72
    65
 73
     4
 40
1.0
 49
0.5
 49
-0.25
 49
0.0
 49
-0.25
  0
LTYPE
  2
BYGG-020945$0$DASHED
 70
     0
  3
__ __ __ __ __ __ __ __ __ __ __ __ __ __ __
 72
    65
 73
     2
 40
0.75
 49
0.5
 49
-0.25
  0
LTYPE
  2
BYGG-020945$0$PHANTOM
 70
     0
  3
Phantom ______  __  __  ______  __  __  ______
 72
    65
 73
     6
 40
63.5
 49
31.75
 49
-6.3499999999999988
 49
6.3499999999999988
 49
-6.3499999999999988
 49
6.3499999999999988
 49
-6.3499999999999988
  0
LTYPE
  2
BYGG-014113$0$NEWDOT
 70
     0
  3
____ . ____ . ____ . ____ . ____ . ____ . ____
 72
    65
 73
     4
 40
2.0
 49
1.0
 49
-0.5
 49
0.0
 49
-0.5
  0
LTYPE
  2
BYGG-014113$0$DASHDOT
 70
     0
  3
__ . __ . __ . __ . __ . __ . __ . __ . __ . __
 72
    65
 73
     4
 40
1.0
 49
0.5
 49
-0.25
 49
0.0
 49
-0.25
  0
LTYPE
  2
BYGG-014113$0$DASHED
 70
     0
  3
__ __ __ __ __ __ __ __ __ __ __ __ __ __ __
 72
    65
 73
     2
 40
0.75
 49
0.5
 49
-0.25
  0
LTYPE
  2
BYGG-028959$0$NEWDOT
 70
     0
  3
____ . ____ . ____ . ____ . ____ . ____ . ____
 72
    65
 73
     4
 40
2.0
 49
1.0
 49
-0.5
 49
0.0
 49
-0.5
  0
LTYPE
  2
BYGG-028959$0$DASHDOT
 70
     0
  3
__ . __ . __ . __ . __ . __ . __ . __ . __ . __
 72
    65
 73
     4
 40
1.0
 49
0.5
 49
-0.25
 49
0.0
 49
-0.25
  0
LTYPE
  2
BYGG-028959$0$DASHED
 70
     0
  3
__ __ __ __ __ __ __ __ __ __ __ __ __ __ __
 72
    65
 73
     2
 40
0.75
 49
0.5
 49
-0.25
  0
LTYPE
  2
BYGG-028959$0$PHANTOM
 70
     0
  3
Phantom ______  __  __  ______  __  __  ______
 72
    65
 73
     6
 40
63.5
 49
31.75
 49
-6.3499999999999988
 49
6.3499999999999988
 49
-6.3499999999999988
 49
6.3499999999999988
 49
-6.3499999999999988
  0
LTYPE
  2
BYGG-025538$0$NEWDOT
 70
     0
  3
____ . ____ . ____ . ____ . ____ . ____ . ____
 72
    65
 73
     4
 40
2.0
 49
1.0
 49
-0.5
 49
0.0
 49
-0.5
  0
LTYPE
  2
BYGG-025538$0$DASHDOT
 70
     0
  3
__ . __ . __ . __ . __ . __ . __ . __ . __ . __
 72
    65
 73
     4
 40
1.0
 49
0.5
 49
-0.25
 49
0.0
 49
-0.25
  0
LTYPE
  2
BYGG-025538$0$DASHED
 70
     0
  3
__ __ __ __ __ __ __ __ __ __ __ __ __ __ __
 72
    65
 73
     2
 40
0.75
 49
0.5
 49
-0.25
  0
LTYPE
  2
BYGG-025538$0$PHANTOM
 70
     0
  3
Phantom ______  __  __  ______  __  __  ______
 72
    65
 73
     6
 40
63.5
 49
31.75
 49
-6.3499999999999988
 49
6.3499999999999988
 49
-6.3499999999999988
 49
6.3499999999999988
 49
-6.3499999999999988
  0
LTYPE
  2
BYGG-019653$0$DOT_CENTER
 70
     0
  3
Dot_Center
 72
    65
 73
     4
 40
14.0
 49
12.0
 49
-1.0
 49
0.0
 49
-1.0
  0
LTYPE
  2
BYGG-019653$0$DASH_CENTER
 70
     0
  3
Dash_Center
 72
    65
 73
     4
 40
14.0
 49
11.0
 49
-1.0
 49
1.0
 49
-1.0
  0
LTYPE
  2
BYGG-022089$0$PHANTOM2
 70
     0
  3
Phantom (.5x) ___ _ _ ___ _ _ ___ _ _ ___ _ _
 72
    65
 73
     6
 40
1.25
 49
0.625
 49
-0.125
 49
0.125
 49
-0.125
 49
0.125
 49
-0.125
  0
ENDTAB
  0
TABLE
  2
LAYER
 70
   288
  0
LAYER
  2
0
 70
     0
 62
     7
  6
CONTINUOUS
  0
LAYER
  2
SAPA_ANSLUTNING
 70
     0
 62
     6
  6
CONTINUOUS
  0
LAYER
  2
SAPA_GLAS
 70
     0
 62
     4
  6
CONTINUOUS
  0
LAYER
  2
SAPA_FYLLNING
 70
     0
 62
     4
  6
CONTINUOUS
  0
LAYER
  2
SAPA_ISOLATOR
 70
     0
 62
     4
  6
CONTINUOUS
  0
LAYER
  2
SAPA_FOGBAND
 70
     0
 62
     2
  6
CONTINUOUS
  0
LAYER
  2
SAPA_PROFIL
 70
     0
 62
     7
  6
CONTINUOUS
  0
ENDTAB
  0
TABLE
  2
STYLE
 70
    37
  0
STYLE
  2
STANDARD
 70
     0
 40
0.0
 41
1.0
 50
0.0
 71
     0
 42
0.2
  3
txt
  4

  0
STYLE
  2
ISO
 70
     0
 40
0.0
 41
1.0
 50
0.0
 71
     0
 42
3.5
  3
txt
  4

  0
STYLE
  2

 70
     1
 40
0.0
 41
1.0
 50
0.0
 71
     0
 42
0.2
  3
ltypeshp.shx
  4

  0
STYLE
  2
BYGG-021665$0$STANDARD
 70
     0
 40
0.0
 41
1.0
 50
0.0
 71
     0
 42
0.2
  3
txt
  4

  0
STYLE
  2
BYGG-021665$0$ISO
 70
     0
 40
0.0
 41
1.0
 50
0.0
 71
     0
 42
3.5
  3
isocp3.shx
  4

  0
STYLE
  2
BYGG-018516$0$STANDARD
 70
     0
 40
0.0
 41
1.0
 50
0.0
 71
     0
 42
0.2
  3
txt
  4

  0
STYLE
  2
BYGG-018516$0$ISO
 70
     0
 40
0.0
 41
1.0
 50
0.0
 71
     0
 42
3.5
  3
isocp3.shx
  4

  0
STYLE
  2
BYGG-019653$0$STANDARD
 70
     0
 40
0.0
 41
1.0
 50
0.0
 71
     0
 42
0.2
  3
txt
  4

  0
STYLE
  2
BYGG-019653$0$ISO
 70
     0
 40
0.0
 41
1.0
 50
0.0
 71
     0
 42
3.5
  3
txt
  4

  0
STYLE
  2
BYGG-019653$0$CONVERTER_11
 70
     0
 40
0.0
 41
0.72
 50
0.0
 71
     0
 42
0.2
  3
txt.shx
  4

  0
STYLE
  2
BYGG-019718$0$STANDARD
 70
     0
 40
0.0
 41
1.0
 50
0.0
 71
     0
 42
0.2
  3
txt
  4

  0
STYLE
  2
BYGG-019718$0$ISO
 70
     0
 40
0.0
 41
1.0
 50
0.0
 71
     0
 42
3.5
  3
txt
  4

  0
STYLE
  2
BYGG-024973$0$STANDARD
 70
     0
 40
0.0
 41
1.0
 50
0.0
 71
     0
 42
0.2
  3
txt
  4

  0
STYLE
  2
BYGG-024973$0$ISO
 70
     0
 40
0.0
 41
1.0
 50
0.0
 71
     0
 42
3.5
  3
txt
  4

  0
STYLE
  2
BYGG-024894$0$STANDARD
 70
     0
 40
0.0
 41
1.0
 50
0.0
 71
     0
 42
0.2
  3
txt
  4

  0
STYLE
  2
BYGG-024894$0$ISO
 70
     0
 40
0.0
 41
1.0
 50
0.0
 71
     0
 42
3.5
  3
txt
  4

  0
STYLE
  2
BYGG-019612$0$STANDARD
 70
     0
 40
0.0
 41
1.0
 50
0.0
 71
     0
 42
0.2
  3
txt
  4

  0
STYLE
  2
BYGG-019612$0$ISO
 70
     0
 40
0.0
 41
1.0
 50
0.0
 71
     0
 42
3.5
  3
txt
  4

  0
STYLE
  2
BYGG-022089$0$STANDARD
 70
     0
 40
0.0
 41
1.0
 50
0.0
 71
     0
 42
0.2
  3
txt
  4

  0
STYLE
  2
BYGG-022089$0$ISO
 70
     0
 40
0.0
 41
1.0
 50
0.0
 71
     0
 42
3.5
  3
txt
  4

  0
STYLE
  2
BYGG-022089$0$ANNOTATIVE
 70
     0
 40
0.0
 41
1.0
 50
0.0
 71
     0
 42
0.2
  3
txt
  4

  0
STYLE
  2
BYGG-018731$0$STANDARD
 70
     0
 40
0.0
 41
1.0
 50
0.0
 71
     0
 42
0.2
  3
txt
  4

  0
STYLE
  2
BYGG-018731$0$ISO
 70
     0
 40
0.0
 41
1.0
 50
0.0
 71
     0
 42
3.5
  3
txt
  4

  0
STYLE
  2
BYGG-029261$0$STANDARD
 70
     0
 40
0.0
 41
1.0
 50
0.0
 71
     0
 42
0.2
  3
txt
  4

  0
STYLE
  2
BYGG-029261$0$ISO
 70
     0
 40
0.0
 41
1.0
 50
0.0
 71
     0
 42
3.5
  3
txt
  4

  0
STYLE
  2
BYGG-021581$0$STANDARD
 70
     0
 40
0.0
 41
1.0
 50
0.0
 71
     0
 42
0.2
  3
txt
  4

  0
STYLE
  2
BYGG-014269$0$STANDARD
 70
     0
 40
0.0
 41
1.0
 50
0.0
 71
     0
 42
0.2
  3
txt
  4

  0
STYLE
  2
BYGG-014269$0$ISO
 70
     0
 40
0.0
 41
1.0
 50
0.0
 71
     0
 42
2.5
  3
isocp3.shx
  4

  0
STYLE
  2
BYGG-020945$0$STANDARD
 70
     0
 40
0.0
 41
1.0
 50
0.0
 71
     0
 42
0.2
  3
txt
  4

  0
STYLE
  2
BYGG-020945$0$ISO
 70
     0
 40
0.0
 41
1.0
 50
0.0
 71
     0
 42
3.5
  3
txt
  4

  0
STYLE
  2
BYGG-014113$0$STANDARD
 70
     0
 40
0.0
 41
1.0
 50
0.0
 71
     0
 42
0.2
  3
txt
  4

  0
STYLE
  2
BYGG-014113$0$ISO
 70
     0
 40
0.0
 41
1.0
 50
0.0
 71
     0
 42
3.5
  3
isocp3.shx
  4

  0
STYLE
  2
BYGG-014113$0$SIMPLEX
 70
     0
 40
0.0
 41
1.0
 50
0.0
 71
     0
 42
0.4
  3
simplex
  4

  0
STYLE
  2
BYGG-028959$0$STANDARD
 70
     0
 40
0.0
 41
1.0
 50
0.0
 71
     0
 42
0.2
  3
txt
  4

  0
STYLE
  2
BYGG-028959$0$ISO
 70
     0
 40
0.0
 41
1.0
 50
0.0
 71
     0
 42
3.5
  3
txt
  4

  0
STYLE
  2
BYGG-025538$0$STANDARD
 70
     0
 40
0.0
 41
1.0
 50
0.0
 71
     0
 42
0.2
  3
txt
  4

  0
STYLE
  2
BYGG-025538$0$ISO
 70
     0
 40
0.0
 41
1.0
 50
0.0
 71
     0
 42
3.5
  3
txt
  4

  0
ENDTAB
  0
TABLE
  2
VIEW
 70
     0
  0
ENDTAB
  0
TABLE
  2
UCS
 70
     0
  0
ENDTAB
  0
TABLE
  2
APPID
 70
    22
  0
APPID
  2
ACAD
 70
     0
  0
APPID
  2
ACAD_DSTYLE_DIMTEXT_FILL
 70
     0
  0
APPID
  2
ACAD_DSTYLE_DIMEXT_LENGTH
 70
     0
  0
APPID
  2
ACAD_DSTYLE_DIMEXT_ENABLED
 70
     0
  0
APPID
  2
ACAD_DSTYLE_DIM_LINETYPE
 70
     0
  0
APPID
  2
ACAD_DSTYLE_DIM_EXT1_LINETYPE
 70
     0
  0
APPID
  2
ACAD_DSTYLE_DIM_EXT2_LINETYPE
 70
     0
  0
APPID
  2
ACAD_DSTYLE_DIMJOGGED_JOGA
 70
     0
  0
APPID
  2
ACAD_DSTYLE_DIMARC_LENGTH_
 70
     0
  0
APPID
  2
ACAD_PSEXT
 70
     0
  0
APPID
  2
ACAD_MLEADERVER
 70
     0
  0
APPID
  2
ACAD_NAV_VCDISPLAY
 70
     0
  0
APPID
  2
ACADANNOTATIVE
 70
     0
  0
APPID
  2
ACAECLAYERSTANDARD
 70
     0
  0
APPID
  2
ACDBDYNAMICBLOCKGUID
 70
     0
  0
APPID
  2
ACDBBLOCKREPETAG
 70
     0
  0
APPID
  2
ACAD_EXEMPT_FROM_CAD_STANDARDS
 70
     0
  0
APPID
  2
GRADIENTCOLOR1ACI
 70
     0
  0
APPID
  2
GRADIENTCOLOR2ACI
 70
     0
  0
APPID
  2
AMG_ARCHIVE11
 70
     0
  0
APPID
  2
ACCMTRANSPARENCY
 70
     0
  0
APPID
  2
AEC_XDATA_BOUND_SPACE
 70
     0
  0
ENDTAB
  0
TABLE
  2
DIMSTYLE
 70
    51
  0
DIMSTYLE
  2
STANDARD
 70
     0
  3

  4

  5

  6

  7

 40
1.0
 41
0.18
 42
0.0625
 43
0.38
 44
0.18
 45
0.0
 46
0.0
 47
0.0
 48
0.0
140
0.18
141
0.09
142
0.0
143
25.399999999999999
144
1.0
145
0.0
146
1.0
147
0.09
 71
     0
 72
     0
 73
     1
 74
     1
 75
     0
 76
     0
 77
     0
 78
     0
170
     0
171
     2
172
     0
173
     0
174
     0
175
     0
176
     0
177
     0
178
     0
  0
DIMSTYLE
  2
MASKIN
 70
     0
  3

  4

  5

  6

  7

 40
0.0
 41
3.0
 42
1.5
 43
10.0
 44
1.5
 45
0.0
 46
0.0
 47
0.0
 48
0.0
140
3.0
141
-5.0
142
0.0
143
25.399999999999999
144
-1.0
145
0.0
146
1.0
147
1.0
 71
     0
 72
     0
 73
     0
 74
     0
 75
     0
 76
     0
 77
     1
 78
     8
170
     0
171
     0
172
     1
173
     0
174
     0
175
     0
176
   256
177
   256
178
     2
  0
DIMSTYLE
  2
BYGG-021665$0$MASKIN
 70
     0
  3

  4

  5

  6

  7

 40
0.0
 41
3.0
 42
1.5
 43
10.0
 44
1.5
 45
0.0
 46
0.0
 47
0.0
 48
0.0
140
3.0
141
-5.0
142
0.0
143
25.399999999999999
144
-1.0
145
0.0
146
1.0
147
1.0
 71
     0
 72
     0
 73
     0
 74
     0
 75
     0
 76
     0
 77
     1
 78
     8
170
     0
171
     0
172
     1
173
     0
174
     0
175
     0
176
   256
177
   256
178
   256
  0
DIMSTYLE
  2
BYGG-018516$0$STANDARD
 70
     0
  3

  4

  5

  6

  7

 40
1.0
 41
0.18
 42
0.0625
 43
0.38
 44
0.18
 45
0.0
 46
0.0
 47
0.0
 48
0.0
140
0.18
141
0.09
142
0.0
143
25.399999999999999
144
1.0
145
0.0
146
1.0
147
0.09
 71
     0
 72
     0
 73
     1
 74
     1
 75
     0
 76
     0
 77
     0
 78
     0
170
     0
171
     2
172
     0
173
     0
174
     0
175
     0
176
     0
177
     0
178
     0
  0
DIMSTYLE
  2
BYGG-018516$0$MASKIN
 70
     0
  3

  4

  5

  6

  7

 40
0.0
 41
3.0
 42
1.5
 43
10.0
 44
1.5
 45
0.0
 46
0.0
 47
0.0
 48
0.0
140
3.0
141
-5.0
142
0.0
143
25.399999999999999
144
-1.0
145
0.0
146
1.0
147
1.0
 71
     0
 72
     0
 73
     0
 74
     0
 75
     0
 76
     0
 77
     1
 78
     8
170
     0
171
     0
172
     1
173
     0
174
     0
175
     0
176
   256
177
   256
178
     2
  0
DIMSTYLE
  2
BYGG-019653$0$STANDARD
 70
     0
  3

  4

  5

  6

  7

 40
1.0
 41
0.18
 42
0.0625
 43
0.38
 44
0.18
 45
0.0
 46
0.0
 47
0.0
 48
0.0
140
0.18
141
0.09
142
0.0
143
25.399999999999999
144
1.0
145
0.0
146
1.0
147
0.09
 71
     0
 72
     0
 73
     1
 74
     1
 75
     0
 76
     0
 77
     0
 78
     0
170
     0
171
     2
172
     0
173
     0
174
     0
175
     0
176
     0
177
     0
178
     0
  0
DIMSTYLE
  2
BYGG-019653$0$MASKIN
 70
     0
  3

  4

  5

  6

  7

 40
0.0
 41
3.0
 42
1.5
 43
10.0
 44
1.5
 45
0.0
 46
0.0
 47
0.0
 48
0.0
140
3.0
141
-5.0
142
0.0
143
25.399999999999999
144
-1.0
145
0.0
146
1.0
147
1.0
 71
     0
 72
     0
 73
     0
 74
     0
 75
     0
 76
     0
 77
     1
 78
     8
170
     0
171
     0
172
     1
173
     0
174
     0
175
     0
176
   256
177
   256
178
     2
  0
DIMSTYLE
  2
BYGG-019653$0$ME10_DIM_10
 70
     0
  3

  4

  5

  6

  7

 40
1.0
 41
0.7
 42
0.0
 43
0.38
 44
0.4
 45
0.0
 46
0.0
 47
0.0
 48
0.0
140
0.7
141
0.09
142
0.0
143
25.399999999999999
144
1.0
145
0.0
146
1.0
147
0.4
 71
     0
 72
     0
 73
     0
 74
     0
 75
     0
 76
     0
 77
     1
 78
     8
170
     0
171
     2
172
     1
173
     1
174
     0
175
     0
176
     1
177
     1
178
     2
  0
DIMSTYLE
  2
BYGG-019653$0$ME10_DIM_11
 70
     0
  3

  4

  5

  6

  7

 40
1.0
 41
0.7
 42
0.0
 43
0.38
 44
0.4
 45
0.0
 46
0.0
 47
0.0
 48
0.0
140
0.7
141
0.09
142
0.0
143
25.399999999999999
144
1.0
145
0.0
146
1.0
147
0.4
 71
     0
 72
     0
 73
     0
 74
     0
 75
     0
 76
     0
 77
     1
 78
     8
170
     0
171
     2
172
     1
173
     1
174
     0
175
     0
176
     1
177
     1
178
     2
  0
DIMSTYLE
  2
BYGG-019653$0$ME10_DIM_12
 70
     0
  3
(<>)
  4

  5

  6

  7

 40
1.0
 41
0.7
 42
0.0
 43
0.38
 44
0.4
 45
0.0
 46
0.0
 47
0.0
 48
0.0
140
0.7
141
0.09
142
0.0
143
25.399999999999999
144
1.0
145
0.0
146
1.0
147
0.4
 71
     0
 72
     0
 73
     0
 74
     0
 75
     0
 76
     0
 77
     1
 78
     8
170
     0
171
     2
172
     1
173
     1
174
     0
175
     0
176
     1
177
     1
178
     2
  0
DIMSTYLE
  2
BYGG-019653$0$ME10_DIM_13
 70
     0
  3

  4

  5

  6

  7

 40
1.0
 41
0.7
 42
0.0
 43
0.38
 44
0.4
 45
0.0
 46
0.0
 47
0.0
 48
0.0
140
0.7
141
0.09
142
0.0
143
25.399999999999999
144
1.0
145
0.0
146
1.0
147
0.4
 71
     0
 72
     0
 73
     0
 74
     0
 75
     0
 76
     0
 77
     1
 78
     8
170
     0
171
     2
172
     1
173
     1
174
     0
175
     0
176
     1
177
     1
178
     2
  0
DIMSTYLE
  2
BYGG-019653$0$ME10_DIM_14
 70
     0
  3

  4

  5

  6

  7

 40
1.0
 41
0.7
 42
0.0
 43
0.38
 44
0.4
 45
0.0
 46
0.0
 47
0.0
 48
0.0
140
0.7
141
0.09
142
0.0
143
25.399999999999999
144
1.0
145
0.0
146
1.0
147
0.4
 71
     0
 72
     0
 73
     0
 74
     0
 75
     0
 76
     0
 77
     1
 78
     8
170
     0
171
     2
172
     1
173
     1
174
     0
175
     0
176
     1
177
     1
178
     2
  0
DIMSTYLE
  2
BYGG-019653$0$ME10_DIM_15
 70
     0
  3

  4

  5

  6

  7

 40
1.0
 41
0.7
 42
0.0
 43
0.38
 44
0.4
 45
0.0
 46
0.0
 47
0.0
 48
0.0
140
0.7
141
0.09
142
0.0
143
25.399999999999999
144
1.0
145
0.0
146
1.0
147
0.4
 71
     0
 72
     0
 73
     0
 74
     0
 75
     0
 76
     0
 77
     1
 78
     8
170
     0
171
     2
172
     1
173
     1
174
     0
175
     0
176
     1
177
     1
178
     2
  0
DIMSTYLE
  2
BYGG-019653$0$ME10_DIM_16
 70
     0
  3

  4

  5

  6

  7

 40
1.0
 41
0.7
 42
0.0
 43
0.38
 44
0.4
 45
0.0
 46
0.0
 47
0.3
 48
0.3
140
0.7
141
0.09
142
0.0
143
25.399999999999999
144
1.0
145
0.0
146
0.6
147
0.4
 71
     1
 72
     0
 73
     0
 74
     0
 75
     0
 76
     0
 77
     1
 78
     8
170
     0
171
     2
172
     1
173
     1
174
     0
175
     0
176
     1
177
     1
178
     2
  0
DIMSTYLE
  2
BYGG-019653$0$ME10_DIM_17
 70
     0
  3

  4

  5

  6

  7

 40
1.0
 41
0.7
 42
0.0
 43
0.38
 44
0.4
 45
0.0
 46
0.0
 47
0.0
 48
0.0
140
0.7
141
0.09
142
0.0
143
25.399999999999999
144
1.0
145
0.0
146
1.0
147
0.4
 71
     0
 72
     0
 73
     0
 74
     0
 75
     0
 76
     0
 77
     1
 78
     8
170
     0
171
     2
172
     1
173
     1
174
     0
175
     0
176
     1
177
     1
178
     2
  0
DIMSTYLE
  2
BYGG-019653$0$ME10_DIM_18
 70
     0
  3

  4

  5

  6

  7

 40
1.0
 41
0.7
 42
0.0
 43
0.38
 44
0.4
 45
0.0
 46
0.0
 47
0.3
 48
0.3
140
0.7
141
0.09
142
0.0
143
25.399999999999999
144
1.0
145
0.0
146
0.6
147
0.4
 71
     1
 72
     0
 73
     0
 74
     0
 75
     0
 76
     0
 77
     1
 78
     8
170
     0
171
     2
172
     1
173
     1
174
     0
175
     0
176
     1
177
     1
178
     2
  0
DIMSTYLE
  2
BYGG-019653$0$ME10_DIM_19
 70
     0
  3

  4

  5

  6

  7

 40
1.0
 41
0.7
 42
0.0
 43
0.38
 44
0.4
 45
0.0
 46
0.0
 47
0.0
 48
0.0
140
0.7
141
0.09
142
0.0
143
25.399999999999999
144
1.0
145
0.0
146
1.0
147
0.4
 71
     0
 72
     0
 73
     0
 74
     0
 75
     0
 76
     0
 77
     1
 78
     8
170
     0
171
     2
172
     1
173
     1
174
     0
175
     0
176
     1
177
     1
178
     2
  0
DIMSTYLE
  2
BYGG-019653$0$ME10_DIM_20
 70
     0
  3

  4

  5

  6

  7

 40
1.0
 41
0.7
 42
0.0
 43
0.38
 44
0.4
 45
0.0
 46
0.0
 47
0.0
 48
0.0
140
0.7
141
0.09
142
0.0
143
25.399999999999999
144
1.0
145
0.0
146
1.0
147
0.4
 71
     0
 72
     0
 73
     0
 74
     0
 75
     0
 76
     0
 77
     1
 78
     8
170
     0
171
     2
172
     1
173
     1
174
     0
175
     0
176
     1
177
     1
178
     2
  0
DIMSTYLE
  2
BYGG-019653$0$ME10_DIM_21
 70
     0
  3
(<>)
  4

  5

  6

  7

 40
1.0
 41
0.7
 42
0.0
 43
0.38
 44
0.4
 45
0.0
 46
0.0
 47
0.0
 48
0.0
140
0.7
141
0.09
142
0.0
143
25.399999999999999
144
1.0
145
0.0
146
1.0
147
0.4
 71
     0
 72
     0
 73
     0
 74
     0
 75
     0
 76
     0
 77
     1
 78
     8
170
     0
171
     2
172
     1
173
     1
174
     0
175
     0
176
     1
177
     1
178
     2
  0
DIMSTYLE
  2
BYGG-019653$0$ME10_DIM_22
 70
     0
  3

  4

  5

  6

  7

 40
1.0
 41
0.7
 42
0.0
 43
0.38
 44
0.4
 45
0.0
 46
0.0
 47
0.0
 48
0.0
140
0.7
141
0.09
142
0.0
143
25.399999999999999
144
1.0
145
0.0
146
1.0
147
0.4
 71
     0
 72
     0
 73
     0
 74
     0
 75
     0
 76
     0
 77
     1
 78
     8
170
     0
171
     2
172
     1
173
     1
174
     0
175
     0
176
     1
177
     1
178
     2
  0
DIMSTYLE
  2
BYGG-019653$0$ME10_DIM_23
 70
     0
  3

  4

  5

  6

  7

 40
1.0
 41
0.7
 42
0.0
 43
0.38
 44
0.4
 45
0.0
 46
0.0
 47
0.0
 48
0.0
140
0.7
141
0.09
142
0.0
143
25.399999999999999
144
1.0
145
0.0
146
1.0
147
0.4
 71
     0
 72
     0
 73
     0
 74
     0
 75
     0
 76
     0
 77
     1
 78
     8
170
     0
171
     2
172
     1
173
     1
174
     0
175
     0
176
     1
177
     1
178
     2
  0
DIMSTYLE
  2
BYGG-019718$0$STANDARD
 70
     0
  3

  4

  5

  6

  7

 40
1.0
 41
0.18
 42
0.0625
 43
0.38
 44
0.18
 45
0.0
 46
0.0
 47
0.0
 48
0.0
140
0.18
141
0.09
142
0.0
143
25.399999999999999
144
1.0
145
0.0
146
1.0
147
0.09
 71
     0
 72
     0
 73
     1
 74
     1
 75
     0
 76
     0
 77
     0
 78
     0
170
     0
171
     2
172
     0
173
     0
174
     0
175
     0
176
     0
177
     0
178
     0
  0
DIMSTYLE
  2
BYGG-019718$0$MASKIN
 70
     0
  3

  4

  5

  6

  7

 40
0.0
 41
3.0
 42
1.5
 43
10.0
 44
1.5
 45
0.0
 46
0.0
 47
0.0
 48
0.0
140
3.0
141
-5.0
142
0.0
143
25.399999999999999
144
-1.0
145
0.0
146
1.0
147
1.0
 71
     0
 72
     0
 73
     0
 74
     0
 75
     0
 76
     0
 77
     1
 78
     8
170
     0
171
     0
172
     1
173
     0
174
     0
175
     0
176
   256
177
   256
178
     2
  0
DIMSTYLE
  2
BYGG-024973$0$STANDARD
 70
     0
  3

  4

  5

  6

  7

 40
1.0
 41
0.18
 42
0.0625
 43
0.38
 44
0.18
 45
0.0
 46
0.0
 47
0.0
 48
0.0
140
0.18
141
0.09
142
0.0
143
25.399999999999999
144
1.0
145
0.0
146
1.0
147
0.09
 71
     0
 72
     0
 73
     1
 74
     1
 75
     0
 76
     0
 77
     0
 78
     0
170
     0
171
     2
172
     0
173
     0
174
     0
175
     0
176
     0
177
     0
178
     0
  0
DIMSTYLE
  2
BYGG-024973$0$MASKIN
 70
     0
  3

  4

  5

  6

  7

 40
0.0
 41
3.0
 42
1.5
 43
10.0
 44
1.5
 45
0.0
 46
0.0
 47
0.0
 48
0.0
140
3.0
141
-5.0
142
0.0
143
25.399999999999999
144
-1.0
145
0.0
146
1.0
147
1.0
 71
     0
 72
     0
 73
     0
 74
     0
 75
     0
 76
     0
 77
     1
 78
     8
170
     0
171
     0
172
     1
173
     0
174
     0
175
     0
176
   256
177
   256
178
     2
  0
DIMSTYLE
  2
BYGG-024894$0$STANDARD
 70
     0
  3

  4

  5

  6

  7

 40
1.0
 41
0.18
 42
0.0625
 43
0.38
 44
0.18
 45
0.0
 46
0.0
 47
0.0
 48
0.0
140
0.18
141
0.09
142
0.0
143
25.399999999999999
144
1.0
145
0.0
146
1.0
147
0.09
 71
     0
 72
     0
 73
     1
 74
     1
 75
     0
 76
     0
 77
     0
 78
     0
170
     0
171
     2
172
     0
173
     0
174
     0
175
     0
176
     0
177
     0
178
     0
  0
DIMSTYLE
  2
BYGG-024894$0$MASKIN
 70
     0
  3

  4

  5

  6

  7

 40
0.0
 41
3.0
 42
1.5
 43
10.0
 44
1.5
 45
0.0
 46
0.0
 47
0.0
 48
0.0
140
3.0
141
-5.0
142
0.0
143
25.399999999999999
144
-1.0
145
0.0
146
1.0
147
1.0
 71
     0
 72
     0
 73
     0
 74
     0
 75
     0
 76
     0
 77
     1
 78
     8
170
     0
171
     0
172
     1
173
     0
174
     0
175
     0
176
   256
177
   256
178
     2
  0
DIMSTYLE
  2
BYGG-019612$0$STANDARD
 70
     0
  3

  4

  5

  6

  7

 40
1.0
 41
0.18
 42
0.0625
 43
0.38
 44
0.18
 45
0.0
 46
0.0
 47
0.0
 48
0.0
140
0.18
141
0.09
142
0.0
143
25.399999999999999
144
1.0
145
0.0
146
1.0
147
0.09
 71
     0
 72
     0
 73
     1
 74
     1
 75
     0
 76
     0
 77
     0
 78
     0
170
     0
171
     2
172
     0
173
     0
174
     0
175
     0
176
     0
177
     0
178
     0
  0
DIMSTYLE
  2
BYGG-019612$0$MASKIN
 70
     0
  3

  4

  5

  6

  7

 40
0.0
 41
3.0
 42
1.5
 43
10.0
 44
1.5
 45
0.0
 46
0.0
 47
0.0
 48
0.0
140
3.0
141
-5.0
142
0.0
143
25.399999999999999
144
-1.0
145
0.0
146
1.0
147
1.0
 71
     0
 72
     0
 73
     0
 74
     0
 75
     0
 76
     0
 77
     1
 78
     8
170
     0
171
     0
172
     1
173
     0
174
     0
175
     0
176
   256
177
   256
178
     2
  0
DIMSTYLE
  2
BYGG-022089$0$STANDARD
 70
     0
  3

  4

  5

  6

  7

 40
1.0
 41
0.18
 42
0.0625
 43
0.38
 44
0.18
 45
0.0
 46
0.0
 47
0.0
 48
0.0
140
0.18
141
0.09
142
0.0
143
25.399999999999999
144
1.0
145
0.0
146
1.0
147
0.09
 71
     0
 72
     0
 73
     1
 74
     1
 75
     0
 76
     0
 77
     0
 78
     0
170
     0
171
     2
172
     0
173
     0
174
     0
175
     0
176
     0
177
     0
178
     0
  0
DIMSTYLE
  2
BYGG-022089$0$MASKIN
 70
     0
  3

  4

  5

  6

  7

 40
0.0
 41
3.0
 42
1.5
 43
10.0
 44
1.5
 45
0.0
 46
0.0
 47
0.0
 48
0.0
140
3.0
141
-5.0
142
0.0
143
25.399999999999999
144
-1.0
145
0.0
146
1.0
147
1.0
 71
     0
 72
     0
 73
     0
 74
     0
 75
     0
 76
     0
 77
     1
 78
     8
170
     0
171
     0
172
     1
173
     0
174
     0
175
     0
176
   256
177
   256
178
     2
  0
DIMSTYLE
  2
BYGG-022089$0$ANNOTATIVE
 70
     0
  3

  4

  5

  6

  7

 40
1.0
 41
0.18
 42
0.0625
 43
0.38
 44
0.18
 45
0.0
 46
0.0
 47
0.0
 48
0.0
140
0.18
141
0.09
142
0.0
143
25.399999999999999
144
1.0
145
0.0
146
1.0
147
0.09
 71
     0
 72
     0
 73
     1
 74
     1
 75
     0
 76
     0
 77
     0
 78
     0
170
     0
171
     2
172
     0
173
     0
174
     0
175
     0
176
     0
177
     0
178
     0
  0
DIMSTYLE
  2
BYGG-018731$0$STANDARD
 70
     0
  3

  4

  5

  6

  7

 40
1.0
 41
0.18
 42
0.0625
 43
0.38
 44
0.18
 45
0.0
 46
0.0
 47
0.0
 48
0.0
140
0.18
141
0.09
142
0.0
143
25.399999999999999
144
1.0
145
0.0
146
1.0
147
0.09
 71
     0
 72
     0
 73
     1
 74
     1
 75
     0
 76
     0
 77
     0
 78
     0
170
     0
171
     2
172
     0
173
     0
174
     0
175
     0
176
     0
177
     0
178
     0
  0
DIMSTYLE
  2
BYGG-018731$0$MASKIN
 70
     0
  3

  4

  5

  6

  7

 40
0.0
 41
3.0
 42
1.5
 43
10.0
 44
1.5
 45
0.0
 46
0.0
 47
0.0
 48
0.0
140
3.0
141
-5.0
142
0.0
143
25.399999999999999
144
-1.0
145
0.0
146
1.0
147
1.0
 71
     0
 72
     0
 73
     0
 74
     0
 75
     0
 76
     0
 77
     1
 78
     8
170
     0
171
     0
172
     1
173
     0
174
     0
175
     0
176
   256
177
   256
178
     2
  0
DIMSTYLE
  2
BYGG-029261$0$STANDARD
 70
     0
  3

  4

  5

  6

  7

 40
1.0
 41
0.18
 42
0.0625
 43
0.38
 44
0.18
 45
0.0
 46
0.0
 47
0.0
 48
0.0
140
0.18
141
0.09
142
0.0
143
25.399999999999999
144
1.0
145
0.0
146
1.0
147
0.09
 71
     0
 72
     0
 73
     1
 74
     1
 75
     0
 76
     0
 77
     0
 78
     0
170
     0
171
     2
172
     0
173
     0
174
     0
175
     0
176
     0
177
     0
178
     0
  0
DIMSTYLE
  2
BYGG-029261$0$MASKIN
 70
     0
  3

  4

  5

  6

  7

 40
0.0
 41
3.0
 42
1.5
 43
10.0
 44
1.5
 45
0.0
 46
0.0
 47
0.0
 48
0.0
140
3.0
141
-5.0
142
0.0
143
25.399999999999999
144
-1.0
145
0.0
146
1.0
147
1.0
 71
     0
 72
     0
 73
     0
 74
     0
 75
     0
 76
     0
 77
     1
 78
     8
170
     0
171
     0
172
     1
173
     0
174
     0
175
     0
176
   256
177
   256
178
     2
  0
DIMSTYLE
  2
BYGG-029261$0$ISO-25
 70
     0
  3

  4

  5

  6

  7

 40
1.0
 41
2.5
 42
0.625
 43
3.75
 44
1.25
 45
0.0
 46
0.0
 47
0.0
 48
0.0
140
2.5
141
2.5
142
0.0
143
0.03937007874016
144
1.0
145
0.0
146
1.0
147
0.625
 71
     0
 72
     0
 73
     0
 74
     0
 75
     0
 76
     0
 77
     1
 78
     8
170
     0
171
     3
172
     1
173
     0
174
     0
175
     0
176
     0
177
     0
178
     0
  0
DIMSTYLE
  2
BYGG-021581$0$STANDARD
 70
     0
  3

  4

  5

  6

  7

 40
1.0
 41
0.18
 42
0.0625
 43
0.38
 44
0.18
 45
0.0
 46
0.0
 47
0.0
 48
0.0
140
0.18
141
0.09
142
0.0
143
25.399999999999999
144
1.0
145
0.0
146
1.0
147
0.09
 71
     0
 72
     0
 73
     1
 74
     1
 75
     0
 76
     0
 77
     0
 78
     0
170
     0
171
     2
172
     0
173
     0
174
     0
175
     0
176
     0
177
     0
178
     0
  0
DIMSTYLE
  2
BYGG-014269$0$STANDARD
 70
     0
  3

  4

  5

  6

  7

 40
1.0
 41
0.18
 42
0.0625
 43
0.38
 44
0.18
 45
0.0
 46
0.0
 47
0.0
 48
0.0
140
0.18
141
0.09
142
0.0
143
25.399999999999999
144
1.0
145
0.0
146
1.0
147
0.09
 71
     0
 72
     0
 73
     1
 74
     1
 75
     0
 76
     0
 77
     0
 78
     0
170
     0
171
     2
172
     0
173
     0
174
     0
175
     0
176
     0
177
     0
178
     0
  0
DIMSTYLE
  2
BYGG-014269$0$MASKIN
 70
     0
  3

  4

  5

  6

  7

 40
0.0
 41
3.0
 42
1.5
 43
10.0
 44
1.5
 45
0.0
 46
0.0
 47
0.0
 48
0.0
140
3.0
141
-5.0
142
0.0
143
25.399999999999999
144
-1.0
145
0.0
146
1.0
147
1.0
 71
     0
 72
     0
 73
     0
 74
     1
 75
     0
 76
     0
 77
     1
 78
     8
170
     0
171
     0
172
     1
173
     0
174
     0
175
     0
176
   256
177
   256
178
     2
  0
DIMSTYLE
  2
BYGG-020945$0$STANDARD
 70
     0
  3

  4

  5

  6

  7

 40
1.0
 41
0.18
 42
0.0625
 43
0.38
 44
0.18
 45
0.0
 46
0.0
 47
0.0
 48
0.0
140
0.18
141
0.09
142
0.0
143
25.399999999999999
144
1.0
145
0.0
146
1.0
147
0.09
 71
     0
 72
     0
 73
     1
 74
     1
 75
     0
 76
     0
 77
     0
 78
     0
170
     0
171
     2
172
     0
173
     0
174
     0
175
     0
176
     0
177
     0
178
     0
  0
DIMSTYLE
  2
BYGG-020945$0$MASKIN
 70
     0
  3

  4

  5

  6

  7

 40
0.0
 41
3.0
 42
1.5
 43
10.0
 44
1.5
 45
0.0
 46
0.0
 47
0.0
 48
0.0
140
3.0
141
-5.0
142
0.0
143
25.399999999999999
144
-1.0
145
0.0
146
1.0
147
1.0
 71
     0
 72
     0
 73
     0
 74
     0
 75
     0
 76
     0
 77
     1
 78
     8
170
     0
171
     0
172
     1
173
     0
174
     0
175
     0
176
   256
177
   256
178
     2
  0
DIMSTYLE
  2
BYGG-014113$0$MASKIN
 70
     0
  3

  4

  5

  6

  7

 40
0.0
 41
3.0
 42
1.5
 43
10.0
 44
1.5
 45
0.0
 46
0.0
 47
0.0
 48
0.0
140
3.0
141
-5.0
142
0.0
143
25.399999999999999
144
-1.0
145
0.0
146
1.0
147
1.0
 71
     0
 72
     0
 73
     0
 74
     0
 75
     0
 76
     0
 77
     1
 78
     8
170
     0
171
     0
172
     1
173
     0
174
     0
175
     0
176
   256
177
   256
178
   256
  0
DIMSTYLE
  2
BYGG-014113$0$MASKIN1
 70
     0
  3

  4

  5

  6

  7

 40
1.0
 41
3.0
 42
1.5
 43
10.0
 44
1.5
 45
0.0
 46
0.0
 47
0.0
 48
0.0
140
3.0
141
-5.0
142
0.0
143
25.399999999999999
144
1.0
145
0.0
146
1.0
147
0.9
 71
     0
 72
     0
 73
     0
 74
     0
 75
     0
 76
     0
 77
     1
 78
     8
170
     0
171
     0
172
     1
173
     0
174
     0
175
     0
176
   256
177
   256
178
   256
  0
DIMSTYLE
  2
BYGG-014113$0$MASKIN2
 70
     0
  3

  4

  5

  6

  7

 40
1.0
 41
3.0
 42
1.5
 43
10.0
 44
1.5
 45
0.0
 46
0.0
 47
0.0
 48
0.0
140
3.0
141
-5.0
142
0.0
143
25.399999999999999
144
1.0
145
0.0
146
1.0
147
0.9
 71
     0
 72
     0
 73
     0
 74
     0
 75
     0
 76
     0
 77
     1
 78
     8
170
     0
171
     0
172
     1
173
     0
174
     0
175
     0
176
   256
177
   256
178
   256
  0
DIMSTYLE
  2
BYGG-014113$0$MASKIN3
 70
     0
  3

  4

  5

  6

  7

 40
1.0
 41
3.0
 42
1.5
 43
10.0
 44
1.5
 45
0.0
 46
0.0
 47
0.0
 48
0.0
140
3.0
141
-5.0
142
0.0
143
25.399999999999999
144
1.0
145
0.0
146
1.0
147
0.9
 71
     0
 72
     0
 73
     0
 74
     0
 75
     0
 76
     0
 77
     1
 78
     8
170
     0
171
     0
172
     1
173
     0
174
     0
175
     0
176
   256
177
   256
178
   256
  0
DIMSTYLE
  2
BYGG-014113$0$STANDARD
 70
     0
  3

  4

  5

  6

  7

 40
1.0
 41
0.18
 42
0.0625
 43
0.38
 44
0.18
 45
0.0
 46
0.0
 47
0.0
 48
0.0
140
0.18
141
0.09
142
0.0
143
25.399999999999999
144
1.0
145
0.0
146
1.0
147
0.09
 71
     0
 72
     0
 73
     1
 74
     1
 75
     0
 76
     0
 77
     0
 78
     0
170
     0
171
     2
172
     0
173
     0
174
     0
175
     0
176
     0
177
     0
178
     0
  0
DIMSTYLE
  2
BYGG-028959$0$STANDARD
 70
     0
  3

  4

  5

  6

  7

 40
1.0
 41
0.18
 42
0.0625
 43
0.38
 44
0.18
 45
0.0
 46
0.0
 47
0.0
 48
0.0
140
0.18
141
0.09
142
0.0
143
25.399999999999999
144
1.0
145
0.0
146
1.0
147
0.09
 71
     0
 72
     0
 73
     1
 74
     1
 75
     0
 76
     0
 77
     0
 78
     0
170
     0
171
     2
172
     0
173
     0
174
     0
175
     0
176
     0
177
     0
178
     0
  0
DIMSTYLE
  2
BYGG-028959$0$MASKIN
 70
     0
  3

  4

  5

  6

  7

 40
0.0
 41
3.0
 42
1.5
 43
10.0
 44
1.5
 45
0.0
 46
0.0
 47
0.0
 48
0.0
140
3.0
141
-5.0
142
0.0
143
25.399999999999999
144
-1.0
145
0.0
146
1.0
147
1.0
 71
     0
 72
     0
 73
     0
 74
     0
 75
     0
 76
     0
 77
     1
 78
     8
170
     0
171
     0
172
     1
173
     0
174
     0
175
     0
176
   256
177
   256
178
     2
  0
DIMSTYLE
  2
BYGG-025538$0$STANDARD
 70
     0
  3

  4

  5

  6

  7

 40
1.0
 41
0.18
 42
0.0625
 43
0.38
 44
0.18
 45
0.0
 46
0.0
 47
0.0
 48
0.0
140
0.18
141
0.09
142
0.0
143
25.399999999999999
144
1.0
145
0.0
146
1.0
147
0.09
 71
     0
 72
     0
 73
     1
 74
     1
 75
     0
 76
     0
 77
     0
 78
     0
170
     0
171
     2
172
     0
173
     0
174
     0
175
     0
176
     0
177
     0
178
     0
  0
DIMSTYLE
  2
BYGG-025538$0$MASKIN
 70
     0
  3

  4

  5

  6

  7

 40
0.0
 41
3.0
 42
1.5
 43
10.0
 44
1.5
 45
0.0
 46
0.0
 47
0.0
 48
0.0
140
3.0
141
-5.0
142
0.0
143
25.399999999999999
144
-1.0
145
0.0
146
1.0
147
1.0
 71
     0
 72
     0
 73
     0
 74
     0
 75
     0
 76
     0
 77
     1
 78
     8
170
     0
171
     0
172
     1
173
     0
174
     0
175
     0
176
   256
177
   256
178
     2
  0
ENDTAB
  0
ENDSEC
  0
SECTION
  2
BLOCKS
  0
BLOCK
  8
0
  2
$MODEL_SPACE
 70
     0
 10
0.0
 20
0.0
 30
0.0
  3
$MODEL_SPACE
  1

  0
ENDBLK
  5
37
  8
0
  0
BLOCK
 67
     1
  8
0
  2
$PAPER_SPACE
 70
     0
 10
0.0
 20
0.0
 30
0.0
  3
$PAPER_SPACE
  1

  0
ENDBLK
  5
35
 67
     1
  8
0
  0
BLOCK
  8
0
  2
*X8
 70
     1
 10
0.0
 20
0.0
 30
0.0
  3
*X8
  1

  0
LINE
  5
DFA
  8
0
 62
     0
 10
652.5
 20
643.02386247000004
 30
0.0
 11
653.43749999999989
 21
643.02386247000004
 31
0.0
  0
LINE
  5
DFB
  8
0
 62
     0
 10
655.3125
 20
643.02386247000004
 30
0.0
 11
656.25
 21
643.02386247000004
 31
0.0
  0
LINE
  5
DFC
  8
0
 62
     0
 10
658.12499999999989
 20
643.02386247000004
 30
0.0
 11
659.0625
 21
643.02386247000004
 31
0.0
  0
LINE
  5
DFD
  8
0
 62
     0
 10
660.9375
 20
643.02386247000004
 30
0.0
 11
661.875
 21
643.02386247000004
 31
0.0
  0
LINE
  5
DFE
  8
0
 62
     0
 10
663.75
 20
643.02386247000004
 30
0.0
 11
664.6875
 21
643.02386247000004
 31
0.0
  0
LINE
  5
DFF
  8
0
 62
     0
 10
652.5
 20
644.64766010250003
 30
0.0
 11
653.43749999999989
 21
644.64766010250003
 31
0.0
  0
LINE
  5
E00
  8
0
 62
     0
 10
655.3125
 20
644.64766010250003
 30
0.0
 11
656.25
 21
644.64766010250003
 31
0.0
  0
LINE
  5
E01
  8
0
 62
     0
 10
658.12499999999989
 20
644.64766010250003
 30
0.0
 11
659.0625
 21
644.64766010250003
 31
0.0
  0
LINE
  5
E02
  8
0
 62
     0
 10
660.9375
 20
644.64766010250003
 30
0.0
 11
661.875
 21
644.64766010250003
 31
0.0
  0
LINE
  5
E03
  8
0
 62
     0
 10
663.75
 20
644.64766010250003
 30
0.0
 11
664.6875
 21
644.64766010250003
 31
0.0
  0
LINE
  5
E04
  8
0
 62
     0
 10
652.5
 20
646.2714577349999
 30
0.0
 11
653.43749999999989
 21
646.2714577349999
 31
0.0
  0
LINE
  5
E05
  8
0
 62
     0
 10
655.3125
 20
646.2714577349999
 30
0.0
 11
656.25
 21
646.2714577349999
 31
0.0
  0
LINE
  5
E06
  8
0
 62
     0
 10
658.12499999999989
 20
646.2714577349999
 30
0.0
 11
659.0625
 21
646.2714577349999
 31
0.0
  0
LINE
  5
E07
  8
0
 62
     0
 10
660.9375
 20
646.2714577349999
 30
0.0
 11
661.875
 21
646.2714577349999
 31
0.0
  0
LINE
  5
E08
  8
0
 62
     0
 10
663.75
 20
646.2714577349999
 30
0.0
 11
664.67805486722375
 21
646.2714577349999
 31
0.0
  0
LINE
  5
E09
  8
0
 62
     0
 10
652.5
 20
647.8952553675
 30
0.0
 11
653.43749999999989
 21
647.8952553675
 31
0.0
  0
LINE
  5
E0A
  8
0
 62
     0
 10
655.3125
 20
647.8952553675
 30
0.0
 11
656.25
 21
647.8952553675
 31
0.0
  0
LINE
  5
E0B
  8
0
 62
     0
 10
658.12499999999989
 20
647.8952553675
 30
0.0
 11
659.0625
 21
647.8952553675
 31
0.0
  0
LINE
  5
E0C
  8
0
 62
     0
 10
660.9375
 20
647.8952553675
 30
0.0
 11
661.875
 21
647.8952553675
 31
0.0
  0
LINE
  5
E0D
  8
0
 62
     0
 10
663.75
 20
647.8952553675
 30
0.0
 11
664.19384133892459
 21
647.8952553675
 31
0.0
  0
LINE
  5
E0E
  8
0
 62
     0
 10
652.5
 20
649.51905299999999
 30
0.0
 11
653.43749999999989
 21
649.51905299999999
 31
0.0
  0
LINE
  5
E0F
  8
0
 62
     0
 10
655.3125
 20
649.51905299999999
 30
0.0
 11
656.25
 21
649.51905299999999
 31
0.0
  0
LINE
  5
E10
  8
0
 62
     0
 10
658.12499999999989
 20
649.51905299999999
 30
0.0
 11
659.0625
 21
649.51905299999999
 31
0.0
  0
LINE
  5
E11
  8
0
 62
     0
 10
660.9375
 20
649.51905299999999
 30
0.0
 11
661.875
 21
649.51905299999999
 31
0.0
  0
LINE
  5
E12
  8
0
 62
     0
 10
655.3125
 20
651.14285063250009
 30
0.0
 11
656.25
 21
651.14285063250009
 31
0.0
  0
LINE
  5
E13
  8
0
 62
     0
 10
658.12499999999989
 20
651.14285063250009
 30
0.0
 11
659.0625
 21
651.14285063250009
 31
0.0
  0
LINE
  5
E14
  8
0
 62
     0
 10
660.9375
 20
651.14285063250009
 30
0.0
 11
661.87200755723472
 21
651.14285063250009
 31
0.0
  0
LINE
  5
E15
  8
0
 62
     0
 10
652.5
 20
641.40006483750005
 30
0.0
 11
653.43749999999989
 21
641.40006483750005
 31
0.0
  0
LINE
  5
E16
  8
0
 62
     0
 10
655.3125
 20
641.40006483750005
 30
0.0
 11
656.25
 21
641.40006483750005
 31
0.0
  0
LINE
  5
E17
  8
0
 62
     0
 10
658.12499999999989
 20
641.40006483750005
 30
0.0
 11
659.0625
 21
641.40006483750005
 31
0.0
  0
LINE
  5
E18
  8
0
 62
     0
 10
660.9375
 20
641.40006483750005
 30
0.0
 11
661.875
 21
641.40006483750005
 31
0.0
  0
LINE
  5
E19
  8
0
 62
     0
 10
663.75
 20
641.40006483750005
 30
0.0
 11
664.21401629789841
 21
641.40006483750005
 31
0.0
  0
LINE
  5
E1A
  8
0
 62
     0
 10
652.5
 20
639.77626720499995
 30
0.0
 11
653.43749999999989
 21
639.77626720499995
 31
0.0
  0
LINE
  5
E1B
  8
0
 62
     0
 10
655.3125
 20
639.77626720499995
 30
0.0
 11
656.25
 21
639.77626720499995
 31
0.0
  0
LINE
  5
E1C
  8
0
 62
     0
 10
658.12499999999989
 20
639.77626720499995
 30
0.0
 11
659.0625
 21
639.77626720499995
 31
0.0
  0
LINE
  5
E1D
  8
0
 62
     0
 10
660.9375
 20
639.77626720499995
 30
0.0
 11
661.875
 21
639.77626720499995
 31
0.0
  0
LINE
  5
E1E
  8
0
 62
     0
 10
655.3125
 20
638.15246957249997
 30
0.0
 11
656.25
 21
638.15246957249997
 31
0.0
  0
LINE
  5
E1F
  8
0
 62
     0
 10
658.12499999999989
 20
638.15246957249997
 30
0.0
 11
659.0625
 21
638.15246957249997
 31
0.0
  0
LINE
  5
E20
  8
0
 62
     0
 10
660.9375
 20
638.15246957249997
 30
0.0
 11
661.875
 21
638.15246957249997
 31
0.0
  0
LINE
  5
E21
  8
0
 62
     0
 10
660.93750019216554
 20
638.15246952460484
 30
0.0
 11
660.46875019216554
 21
638.96436834065275
 31
0.0
  0
LINE
  5
E22
  8
0
 62
     0
 10
659.53125019216554
 20
640.58816597274847
 30
0.0
 11
659.06250019216554
 21
641.4000647887965
 31
0.0
  0
LINE
  5
E23
  8
0
 62
     0
 10
658.12500019216554
 20
643.02386242089233
 30
0.0
 11
657.65625019216554
 21
643.83576123694024
 31
0.0
  0
LINE
  5
E24
  8
0
 62
     0
 10
656.71875019216554
 20
645.45955886903596
 30
0.0
 11
656.25000019216554
 21
646.27145768508399
 31
0.0
  0
LINE
  5
E25
  8
0
 62
     0
 10
655.31250019216554
 20
647.89525531717982
 30
0.0
 11
654.84375019216554
 21
648.70715413322773
 31
0.0
  0
LINE
  5
E26
  8
0
 62
     0
 10
653.90625019216554
 20
650.33095176532345
 30
0.0
 11
653.51494448795324
 21
651.00871312631091
 31
0.0
  0
LINE
  5
E27
  8
0
 62
     0
 10
659.53125019181539
 20
637.34057070835479
 30
0.0
 11
659.0625001918155
 21
638.1524695244027
 31
0.0
  0
LINE
  5
E28
  8
0
 62
     0
 10
658.1250001918155
 20
639.77626715649853
 30
0.0
 11
657.6562501918155
 21
640.58816597254645
 31
0.0
  0
LINE
  5
E29
  8
0
 62
     0
 10
656.7187501918155
 20
642.21196360464216
 30
0.0
 11
656.2500001918155
 21
643.02386242069019
 31
0.0
  0
LINE
  5
E2A
  8
0
 62
     0
 10
655.3125001918155
 20
644.64766005278591
 30
0.0
 11
654.84375019181539
 21
645.45955886883394
 31
0.0
  0
LINE
  5
E2B
  8
0
 62
     0
 10
653.9062501918155
 20
647.08335650092965
 30
0.0
 11
653.4375001918155
 21
647.89525531697768
 31
0.0
  0
LINE
  5
E2C
  8
0
 62
     0
 10
652.50000019181539
 20
649.5190529490734
 30
0.0
 11
652.37394461146403
 21
649.73738761881975
 31
0.0
  0
LINE
  5
E2D
  8
0
 62
     0
 10
658.00591026387121
 20
636.73494169736773
 30
0.0
 11
657.65625019146535
 21
637.34057070815265
 31
0.0
  0
LINE
  5
E2E
  8
0
 62
     0
 10
656.71875019146535
 20
638.9643683402486
 30
0.0
 11
656.25000019146546
 21
639.77626715629651
 31
0.0
  0
LINE
  5
E2F
  8
0
 62
     0
 10
655.31250019146535
 20
641.40006478839234
 30
0.0
 11
654.84375019146535
 21
642.21196360444014
 31
0.0
  0
LINE
  5
E30
  8
0
 62
     0
 10
653.90625019146546
 20
643.83576123653597
 30
0.0
 11
653.43750019146535
 21
644.647660052584
 31
0.0
  0
LINE
  5
E31
  8
0
 62
     0
 10
652.50000019146535
 20
646.27145768467983
 30
0.0
 11
652.03125019146535
 21
647.08335650072775
 31
0.0
  0
LINE
  5
E32
  8
0
 62
     0
 10
655.3125001911153
 20
638.15246952399855
 30
0.0
 11
654.8437501911153
 21
638.96436834004635
 31
0.0
  0
LINE
  5
E33
  8
0
 62
     0
 10
653.9062501911153
 20
640.58816597214229
 30
0.0
 11
653.43750019111519
 21
641.40006478819021
 31
0.0
  0
LINE
  5
E34
  8
0
 62
     0
 10
652.5000001911153
 20
643.02386242028604
 30
0.0
 11
652.0312501911153
 21
643.83576123633395
 31
0.0
  0
LINE
  5
E35
  8
0
 62
     0
 10
651.09375019111519
 20
645.45955886842978
 30
0.0
 11
650.80423117281941
 21
645.96102051787568
 31
0.0
  0
LINE
  5
E36
  8
0
 62
     0
 10
652.50000019076526
 20
639.77626715589236
 30
0.0
 11
652.03125019076526
 21
640.58816597194016
 31
0.0
  0
LINE
  5
E37
  8
0
 62
     0
 10
651.09375019076538
 20
642.2119636040361
 30
0.0
 11
650.99485068706429
 21
642.38326256928951
 31
0.0
  0
LINE
  5
E38
  8
0
 62
     0
 10
662.34375019251547
 20
638.96436834085478
 30
0.0
 11
661.87500019251559
 21
639.7762671569028
 31
0.0
  0
LINE
  5
E39
  8
0
 62
     0
 10
660.93750019251559
 20
641.40006478899863
 30
0.0
 11
660.46875019251547
 21
642.21196360504655
 31
0.0
  0
LINE
  5
E3A
  8
0
 62
     0
 10
659.53125019251559
 20
643.83576123714226
 30
0.0
 11
659.06250019251559
 21
644.64766005319018
 31
0.0
  0
LINE
  5
E3B
  8
0
 62
     0
 10
658.12500019251547
 20
646.27145768528612
 30
0.0
 11
657.65625019251547
 21
647.08335650133404
 31
0.0
  0
LINE
  5
E3C
  8
0
 62
     0
 10
656.71875019251559
 20
648.70715413342975
 30
0.0
 11
656.25000019251559
 21
649.51905294947767
 31
0.0
  0
LINE
  5
E3D
  8
0
 62
     0
 10
655.31250019251547
 20
651.14285058157361
 30
0.0
 11
654.98947507134699
 21
651.7023465035586
 31
0.0
  0
LINE
  5
E3E
  8
0
 62
     0
 10
663.56178133362096
 20
640.10227178425896
 30
0.0
 11
663.28125019286563
 21
640.58816597315274
 31
0.0
  0
LINE
  5
E3F
  8
0
 62
     0
 10
662.34375019286551
 20
642.21196360524846
 30
0.0
 11
661.87500019286563
 21
643.02386242129637
 31
0.0
  0
LINE
  5
E40
  8
0
 62
     0
 10
660.93750019286563
 20
644.64766005339231
 30
0.0
 11
660.46875019286563
 21
645.45955886944023
 31
0.0
  0
LINE
  5
E41
  8
0
 62
     0
 10
659.53125019286563
 20
647.08335650153595
 30
0.0
 11
659.06250019286563
 21
647.89525531758386
 31
0.0
  0
LINE
  5
E42
  8
0
 62
     0
 10
658.12500019286563
 20
649.5190529496798
 30
0.0
 11
657.65625019286551
 21
650.33095176572772
 31
0.0
  0
LINE
  5
E43
  8
0
 62
     0
 10
663.75000019321556
 20
643.02386242149862
 30
0.0
 11
663.28125019321556
 21
643.83576123754654
 31
0.0
  0
LINE
  5
E44
  8
0
 62
     0
 10
662.34375019321556
 20
645.45955886964225
 30
0.0
 11
661.87500019321556
 21
646.27145768569017
 31
0.0
  0
LINE
  5
E45
  8
0
 62
     0
 10
660.93750019321556
 20
647.89525531778611
 30
0.0
 11
660.46875019321556
 21
648.70715413383402
 31
0.0
  0
LINE
  5
E46
  8
0
 62
     0
 10
659.53125019321556
 20
650.33095176592985
 30
0.0
 11
659.06250019321556
 21
651.14285058197765
 31
0.0
  0
LINE
  5
E47
  8
0
 62
     0
 10
664.83358285314341
 20
644.39463746530294
 30
0.0
 11
664.68750019356548
 21
644.64766005379636
 31
0.0
  0
LINE
  5
E48
  8
0
 62
     0
 10
663.7500001935656
 20
646.2714576858923
 30
0.0
 11
663.2812501935656
 21
647.08335650194022
 31
0.0
  0
LINE
  5
E49
  8
0
 62
     0
 10
662.34375019356548
 20
648.70715413403605
 30
0.0
 11
661.8750001935656
 21
649.51905295008385
 31
0.0
  0
LINE
  5
E4A
  8
0
 62
     0
 10
660.9375001935656
 20
651.14285058217979
 30
0.0
 11
660.61464782451731
 21
651.70204728871533
 31
0.0
  0
LINE
  5
E4B
  8
0
 62
     0
 10
653.43750005285438
 20
639.77626701523855
 30
0.0
 11
653.90625005285438
 21
640.58816583128635
 31
0.0
  0
LINE
  5
E4C
  8
0
 62
     0
 10
654.84375005285426
 20
642.21196346338229
 30
0.0
 11
655.31250005285426
 21
643.0238622794302
 31
0.0
  0
LINE
  5
E4D
  8
0
 62
     0
 10
656.25000005285438
 20
644.64765991152603
 30
0.0
 11
656.71875005285426
 21
645.45955872757395
 31
0.0
  0
LINE
  5
E4E
  8
0
 62
     0
 10
657.65625005285426
 20
647.08335635966978
 30
0.0
 11
658.12500005285438
 21
647.89525517571769
 31
0.0
  0
LINE
  5
E4F
  8
0
 62
     0
 10
659.06250005285426
 20
649.51905280781352
 30
0.0
 11
659.53125005285426
 21
650.33095162386144
 31
0.0
  0
LINE
  5
E50
  8
0
 62
     0
 10
652.03125005250433
 20
640.5881658314886
 30
0.0
 11
652.50000005250433
 21
641.40006464753651
 31
0.0
  0
LINE
  5
E51
  8
0
 62
     0
 10
653.43750005250433
 20
643.02386227963234
 30
0.0
 11
653.90625005250433
 21
643.83576109568025
 31
0.0
  0
LINE
  5
E52
  8
0
 62
     0
 10
654.84375005250433
 20
645.45955872777597
 30
0.0
 11
655.31250005250433
 21
646.271457543824
 31
0.0
  0
LINE
  5
E53
  8
0
 62
     0
 10
656.25000005250433
 20
647.89525517591983
 30
0.0
 11
656.71875005250433
 21
648.70715399196774
 31
0.0
  0
LINE
  5
E54
  8
0
 62
     0
 10
657.65625005250433
 20
650.33095162406346
 30
0.0
 11
658.12500005250433
 21
651.14285044011149
 31
0.0
  0
LINE
  5
E55
  8
0
 62
     0
 10
651.05988341627722
 20
642.15330472976609
 30
0.0
 11
651.09375005215418
 21
642.21196346378656
 31
0.0
  0
LINE
  5
E56
  8
0
 62
     0
 10
652.03125005215418
 20
643.83576109588228
 30
0.0
 11
652.50000005215429
 21
644.6476599119303
 31
0.0
  0
LINE
  5
E57
  8
0
 62
     0
 10
653.43750005215418
 20
646.27145754402613
 30
0.0
 11
653.90625005215418
 21
647.08335636007405
 31
0.0
  0
LINE
  5
E58
  8
0
 62
     0
 10
654.84375005215429
 20
648.70715399216976
 30
0.0
 11
655.31250005215429
 21
649.51905280821779
 31
0.0
  0
LINE
  5
E59
  8
0
 62
     0
 10
656.25000005215418
 20
651.14285044031362
 30
0.0
 11
656.57297662478243
 21
651.70226227375997
 31
0.0
  0
LINE
  5
E5A
  8
0
 62
     0
 10
650.70149549931818
 20
644.78015391377414
 30
0.0
 11
651.09375005180425
 21
645.45955872818024
 31
0.0
  0
LINE
  5
E5B
  8
0
 62
     0
 10
652.03125005180425
 20
647.08335636027596
 30
0.0
 11
652.50000005180425
 21
647.89525517632399
 31
0.0
  0
LINE
  5
E5C
  8
0
 62
     0
 10
653.43750005180425
 20
649.51905280841981
 30
0.0
 11
653.90625005180425
 21
650.33095162446773
 31
0.0
  0
LINE
  5
E5D
  8
0
 62
     0
 10
654.84375005320442
 20
638.96436819898861
 30
0.0
 11
655.31250005320442
 21
639.77626701503652
 31
0.0
  0
LINE
  5
E5E
  8
0
 62
     0
 10
656.25000005320442
 20
641.40006464713235
 30
0.0
 11
656.7187500532043
 21
642.21196346318015
 31
0.0
  0
LINE
  5
E5F
  8
0
 62
     0
 10
657.65625005320442
 20
643.8357610952761
 30
0.0
 11
658.12500005320442
 21
644.64765991132401
 31
0.0
  0
LINE
  5
E60
  8
0
 62
     0
 10
659.0625000532043
 20
646.27145754341984
 30
0.0
 11
659.53125005320442
 21
647.08335635946764
 31
0.0
  0
LINE
  5
E61
  8
0
 62
     0
 10
660.46875005320442
 20
648.70715399156359
 30
0.0
 11
660.93750005320442
 21
649.5190528076115
 31
0.0
  0
LINE
  5
E62
  8
0
 62
     0
 10
656.25000005355434
 20
638.15246938273845
 30
0.0
 11
656.71875005355434
 21
638.96436819878636
 31
0.0
  0
LINE
  5
E63
  8
0
 62
     0
 10
657.65625005355434
 20
640.5881658308823
 30
0.0
 11
658.12500005355434
 21
641.40006464693022
 31
0.0
  0
LINE
  5
E64
  8
0
 62
     0
 10
659.06250005355434
 20
643.02386227902605
 30
0.0
 11
659.53125005355434
 21
643.83576109507385
 31
0.0
  0
LINE
  5
E65
  8
0
 62
     0
 10
660.46875005355434
 20
645.45955872716979
 30
0.0
 11
660.93750005355434
 21
646.27145754321771
 31
0.0
  0
LINE
  5
E66
  8
0
 62
     0
 10
661.87500005355434
 20
647.89525517531354
 30
0.0
 11
662.34375005355434
 21
648.70715399136145
 31
0.0
  0
LINE
  5
E67
  8
0
 62
     0
 10
657.65625005390439
 20
637.34057056648851
 30
0.0
 11
658.12500005390439
 21
638.15246938253642
 31
0.0
  0
LINE
  5
E68
  8
0
 62
     0
 10
659.06250005390427
 20
639.77626701463225
 30
0.0
 11
659.53125005390427
 21
640.58816583068005
 31
0.0
  0
LINE
  5
E69
  8
0
 62
     0
 10
660.46875005390439
 20
642.211963462776
 30
0.0
 11
660.93750005390439
 21
643.0238622788238
 31
0.0
  0
LINE
  5
E6A
  8
0
 62
     0
 10
661.87500005390427
 20
644.64765991091974
 30
0.0
 11
662.34375005390439
 21
645.45955872696754
 31
0.0
  0
LINE
  5
E6B
  8
0
 62
     0
 10
663.28125005390439
 20
647.08335635906349
 30
0.0
 11
663.75000005390427
 21
647.89525517511129
 31
0.0
  0
LINE
  5
E6C
  8
0
 62
     0
 10
659.18159006375561
 20
636.73494169736853
 30
0.0
 11
659.53125005425443
 21
637.34057056628649
 31
0.0
  0
LINE
  5
E6D
  8
0
 62
     0
 10
660.46875005425443
 20
638.96436819838232
 30
0.0
 11
660.93750005425443
 21
639.77626701443023
 31
0.0
  0
LINE
  5
E6E
  8
0
 62
     0
 10
661.87500005425443
 20
641.40006464652595
 30
0.0
 11
662.34375005425443
 21
642.21196346257386
 31
0.0
  0
LINE
  5
E6F
  8
0
 62
     0
 10
663.28125005425443
 20
643.83576109466981
 30
0.0
 11
663.75000005425443
 21
644.64765991071772
 31
0.0
  0
LINE
  5
E70
  8
0
 62
     0
 10
661.87500005460436
 20
638.15246938213215
 30
0.0
 11
662.34375005460436
 21
638.96436819818018
 31
0.0
  0
LINE
  5
E71
  8
0
 62
     0
 10
663.28125005460436
 20
640.58816583027601
 30
0.0
 11
663.75000005460447
 21
641.40006464632393
 31
0.0
  0
LINE
  5
E72
  8
0
 62
     0
 10
664.68750005460436
 20
643.02386227841976
 30
0.0
 11
664.68760953831224
 21
643.02405190976435
 31
0.0
  0
ENDBLK
  5
E73
  8
0
  0
BLOCK
  8
0
  2
*X9
 70
     1
 10
0.0
 20
0.0
 30
0.0
  3
*X9
  1

  0
LINE
  5
E76
  8
0
 62
     0
 10
664.09178699241295
 20
641.11081660385003
 30
0.0
 11
674.71335800871032
 21
651.73238762014739
 31
0.0
  0
LINE
  5
E77
  8
0
 62
     0
 10
664.77077248925355
 20
643.55756905365706
 30
0.0
 11
672.94162144396012
 21
651.72841800836363
 31
0.0
  0
LINE
  5
E78
  8
0
 62
     0
 10
664.80514764081295
 20
645.35971115818279
 30
0.0
 11
671.1698848792098
 21
651.72444839657965
 31
0.0
  0
LINE
  5
E79
  8
0
 62
     0
 10
664.54135172436111
 20
646.86368219469728
 30
0.0
 11
669.39814831445983
 21
651.72047878479589
 31
0.0
  0
LINE
  5
E7A
  8
0
 62
     0
 10
664.07721491841846
 20
648.16731234172096
 30
0.0
 11
667.62641174970963
 21
651.71650917301224
 31
0.0
  0
LINE
  5
E7B
  8
0
 62
     0
 10
663.45507075806029
 20
649.31293513432934
 30
0.0
 11
665.85467518495955
 21
651.71253956122848
 31
0.0
  0
LINE
  5
E7C
  8
0
 62
     0
 10
662.69527746216227
 20
650.32090879139764
 30
0.0
 11
664.08293862020935
 21
651.70856994944461
 31
0.0
  0
LINE
  5
E7D
  8
0
 62
     0
 10
661.80624212129135
 20
651.19964040349305
 30
0.0
 11
662.31120205545915
 21
651.70460033766085
 31
0.0
  0
LINE
  5
E7E
  8
0
 62
     0
 10
661.48367903889755
 20
636.7349416973683
 30
0.0
 11
674.96855701858385
 21
650.21981967705472
 31
0.0
  0
LINE
  5
E7F
  8
0
 62
     0
 10
663.25144599186308
 20
636.7349416973675
 30
0.0
 11
673.99871814906226
 21
647.48221385456657
 31
0.0
  0
LINE
  5
E80
  8
0
 62
     0
 10
665.01921294482895
 20
636.73494169736693
 30
0.0
 11
673.71020570551673
 21
645.42593445805471
 31
0.0
  0
LINE
  5
E81
  8
0
 62
     0
 10
666.78697989779459
 20
636.73494169736625
 30
0.0
 11
673.73571980871316
 21
643.68368160828493
 31
0.0
  0
LINE
  5
E82
  8
0
 62
     0
 10
668.55474685076024
 20
636.73494169736546
 30
0.0
 11
673.9646008262381
 21
642.14479567284332
 31
0.0
  0
LINE
  5
E83
  8
0
 62
     0
 10
670.32251380372577
 20
636.73494169736466
 30
0.0
 11
674.34587723605989
 21
640.75830512969878
 31
0.0
  0
LINE
  5
E84
  8
0
 62
     0
 10
672.09028075669164
 20
636.73494169736409
 30
0.0
 11
674.85162751525343
 21
639.49628845592599
 31
0.0
  0
LINE
  5
E85
  8
0
 62
     0
 10
673.85804770965717
 20
636.73494169736341
 30
0.0
 11
675.46525045857607
 21
638.3421444462823
 31
0.0
  0
LINE
  5
E86
  8
0
 62
     0
 10
675.62581466262293
 20
636.73494169736273
 30
0.0
 11
676.17667142569439
 21
637.28579846043431
 31
0.0
  0
LINE
  5
E87
  8
0
 62
     0
 10
674.94813740368249
 20
636.73494169736296
 30
0.0
 11
664.42571164845106
 21
647.25736745259451
 31
0.0
  0
LINE
  5
E88
  8
0
 62
     0
 10
673.18037045071549
 20
636.73494169736375
 30
0.0
 11
664.82388750735845
 21
645.0914246407209
 31
0.0
  0
LINE
  5
E89
  8
0
 62
     0
 10
671.41260349774848
 20
636.73494169736443
 30
0.0
 11
664.74947775175656
 21
643.39806744335624
 31
0.0
  0
LINE
  5
E8A
  8
0
 62
     0
 10
669.64483654478136
 20
636.73494169736512
 30
0.0
 11
664.417425608092
 21
641.96235263405447
 31
0.0
  0
LINE
  5
E8B
  8
0
 62
     0
 10
667.87706959181435
 20
636.7349416973658
 30
0.0
 11
663.90155215498339
 21
640.71045913419675
 31
0.0
  0
LINE
  5
E8C
  8
0
 62
     0
 10
666.10930263884734
 20
636.73494169736648
 30
0.0
 11
663.23559263250309
 21
639.60865170371073
 31
0.0
  0
LINE
  5
E8D
  8
0
 62
     0
 10
664.34153568588022
 20
636.73494169736705
 30
0.0
 11
662.43561015776459
 21
638.64086722548279
 31
0.0
  0
LINE
  5
E8E
  8
0
 62
     0
 10
662.57376873291321
 20
636.73494169736784
 30
0.0
 11
661.50716293782148
 21
637.80154749245946
 31
0.0
  0
LINE
  5
E8F
  8
0
 62
     0
 10
660.80600177994597
 20
636.73494169736864
 30
0.0
 11
660.44733879488956
 21
637.09360468242505
 31
0.0
  0
LINE
  5
E90
  8
0
 62
     0
 10
676.21241305586818
 20
637.23843299814371
 30
0.0
 11
661.74750868280955
 21
651.70333737120245
 31
0.0
  0
LINE
  5
E91
  8
0
 62
     0
 10
674.28942041755818
 20
640.92919258942015
 30
0.0
 11
663.51132377221882
 21
651.70728923475963
 31
0.0
  0
LINE
  5
E92
  8
0
 62
     0
 10
673.78646674670892
 20
643.19991321323585
 30
0.0
 11
665.27513886162785
 21
651.71124109831692
 31
0.0
  0
LINE
  5
E93
  8
0
 62
     0
 10
673.69521395697404
 20
645.05893295593705
 30
0.0
 11
667.03895395103677
 21
651.71519296187421
 31
0.0
  0
LINE
  5
E94
  8
0
 62
     0
 10
673.84391769434785
 20
646.67799617152957
 30
0.0
 11
668.80276904044604
 21
651.71914482543139
 31
0.0
  0
LINE
  5
E95
  8
0
 62
     0
 10
674.16320206832222
 20
648.12647875052164
 30
0.0
 11
670.56658412985496
 21
651.72309668898868
 31
0.0
  0
LINE
  5
E96
  8
0
 62
     0
 10
674.61728679401642
 20
649.44016097779388
 30
0.0
 11
672.33039921926422
 21
651.72704855254597
 31
0.0
  0
LINE
  5
E97
  8
0
 62
     0
 10
675.1854759545937
 20
650.63973877018293
 30
0.0
 11
674.09421430867326
 21
651.73100041610326
 31
0.0
  0
ENDBLK
  5
E98
  8
0
  0
BLOCK
  8
0
  2
*X77
 70
     1
 10
0.0
 20
0.0
 30
0.0
  3
*X77
  1

  0
LINE
  5
1C63
  8
0
 62
     0
 10
-25.365503404480179
 20
-72.480494727145611
 30
0.0
 11
-25.329153658894889
 21
-72.417535120949694
 31
0.0
  0
LINE
  5
1C64
  8
0
 62
     0
 10
-25.726028374398769
 20
-70.355312292441852
 30
0.0
 11
-25.329153374398771
 21
-69.667904628187955
 31
0.0
  0
LINE
  5
1C65
  8
0
 62
     0
 10
-26.91665337439877
 20
-72.417535285203542
 30
0.0
 11
-26.519778374398769
 21
-71.730127620949645
 31
0.0
  0
LINE
  5
1C66
  8
0
 62
     0
 10
-25.726028089902691
 20
-67.605681799680227
 30
0.0
 11
-25.32915308990269
 21
-66.918274135426316
 31
0.0
  0
LINE
  5
1C67
  8
0
 62
     0
 10
-26.916653089902692
 20
-69.667904792441917
 30
0.0
 11
-26.51977808990269
 21
-68.98049712818802
 31
0.0
  0
LINE
  5
1C68
  8
0
 62
     0
 10
-28.107278089902689
 20
-71.730127785203607
 30
0.0
 11
-27.710403089902691
 21
-71.04272012094971
 31
0.0
  0
LINE
  5
1C69
  8
0
 62
     0
 10
-25.726027805406581
 20
-64.856051306918459
 30
0.0
 11
-25.329152805406569
 21
-64.168643642664563
 31
0.0
  0
LINE
  5
1C6A
  8
0
 62
     0
 10
-26.916652805406581
 20
-66.918274299680135
 30
0.0
 11
-26.519777805406569
 21
-66.230866635426253
 31
0.0
  0
LINE
  5
1C6B
  8
0
 62
     0
 10
-28.107277805406579
 20
-68.980497292441839
 30
0.0
 11
-27.71040280540657
 21
-68.293089628187943
 31
0.0
  0
LINE
  5
1C6C
  8
0
 62
     0
 10
-29.297902805406579
 20
-71.042720285203529
 30
0.0
 11
-28.901027805406581
 21
-70.355312620949633
 31
0.0
  0
LINE
  5
1C6D
  8
0
 62
     0
 10
-30.128002266495791
 20
-72.480494727145583
 30
0.0
 11
-30.091652805406579
 21
-72.417535613711323
 31
0.0
  0
LINE
  5
1C6E
  8
0
 62
     0
 10
-25.726027520910488
 20
-62.106420814156827
 30
0.0
 11
-25.32915252091048
 21
-61.419013149902938
 31
0.0
  0
LINE
  5
1C6F
  8
0
 62
     0
 10
-26.916652520910489
 20
-64.168643806918524
 30
0.0
 11
-26.519777520910491
 21
-63.481236142664621
 31
0.0
  0
LINE
  5
1C70
  8
0
 62
     0
 10
-28.10727752091049
 20
-66.230866799680214
 30
0.0
 11
-27.710402520910488
 21
-65.543459135426318
 31
0.0
  0
LINE
  5
1C71
  8
0
 62
     0
 10
-29.29790252091049
 20
-68.293089792441904
 30
0.0
 11
-28.901027520910489
 21
-67.605682128187993
 31
0.0
  0
LINE
  5
1C72
  8
0
 62
     0
 10
-30.488527520910491
 20
-70.355312785203594
 30
0.0
 11
-30.09165252091049
 21
-69.667905120949698
 31
0.0
  0
LINE
  5
1C73
  8
0
 62
     0
 10
-31.679152520910488
 20
-72.417535777965284
 30
0.0
 11
-31.28227752091049
 21
-71.730128113711388
 31
0.0
  0
LINE
  5
1C74
  8
0
 62
     0
 10
-25.726027236414389
 20
-59.356790321395152
 30
0.0
 11
-25.329152236414391
 21
-58.669382657141249
 31
0.0
  0
LINE
  5
1C75
  8
0
 62
     0
 10
-26.916652236414389
 20
-61.419013314156842
 30
0.0
 11
-26.519777236414392
 21
-60.731605649902953
 31
0.0
  0
LINE
  5
1C76
  8
0
 62
     0
 10
-28.10727723641439
 20
-63.481236306918532
 30
0.0
 11
-27.710402236414389
 21
-62.793828642664629
 31
0.0
  0
LINE
  5
1C77
  8
0
 62
     0
 10
-29.297902236414391
 20
-65.543459299680222
 30
0.0
 11
-28.901027236414389
 21
-64.856051635426326
 31
0.0
  0
LINE
  5
1C78
  8
0
 62
     0
 10
-30.488527236414392
 20
-67.605682292441912
 30
0.0
 11
-30.09165223641439
 21
-66.918274628188016
 31
0.0
  0
LINE
  5
1C79
  8
0
 62
     0
 10
-31.679152236414389
 20
-69.667905285203602
 30
0.0
 11
-31.282277236414391
 21
-68.980497620949706
 31
0.0
  0
LINE
  5
1C7A
  8
0
 62
     0
 10
-32.869777236414393
 20
-71.730128277965292
 30
0.0
 11
-32.472902236414392
 21
-71.042720613711396
 31
0.0
  0
LINE
  5
1C7B
  8
0
 62
     0
 10
-26.91665195191829
 20
-58.66938282139516
 30
0.0
 11
-26.519776951918288
 21
-57.981975157141257
 31
0.0
  0
LINE
  5
1C7C
  8
0
 62
     0
 10
-28.107276951918291
 20
-60.73160581415685
 30
0.0
 11
-27.710401951918289
 21
-60.044198149902961
 31
0.0
  0
LINE
  5
1C7D
  8
0
 62
     0
 10
-29.297901951918291
 20
-62.79382880691854
 30
0.0
 11
-28.901026951918301
 21
-62.106421142664637
 31
0.0
  0
LINE
  5
1C7E
  8
0
 62
     0
 10
-30.488526951918288
 20
-64.85605179968023
 30
0.0
 11
-30.091651951918301
 21
-64.168644135426334
 31
0.0
  0
LINE
  5
1C7F
  8
0
 62
     0
 10
-31.6791519519183
 20
-66.91827479244192
 30
0.0
 11
-31.282276951918298
 21
-66.230867128188024
 31
0.0
  0
LINE
  5
1C80
  8
0
 62
     0
 10
-32.869776951918297
 20
-68.98049778520361
 30
0.0
 11
-32.472901951918303
 21
-68.293090120949714
 31
0.0
  0
LINE
  5
1C81
  8
0
 62
     0
 10
-34.060401951918301
 20
-71.0427207779653
 30
0.0
 11
-33.6635269519183
 21
-70.355313113711404
 31
0.0
  0
LINE
  5
1C82
  8
0
 62
     0
 10
-34.890501128511389
 20
-72.480494727145611
 30
0.0
 11
-34.854151951918297
 21
-72.417536106473094
 31
0.0
  0
LINE
  5
1C83
  8
0
 62
     0
 10
-28.107276667422191
 20
-57.98197532139514
 30
0.0
 11
-27.817746711338859
 21
-57.480494727145619
 31
0.0
  0
LINE
  5
1C84
  8
0
 62
     0
 10
-29.297901667422192
 20
-60.04419831415683
 30
0.0
 11
-28.90102666742219
 21
-59.356790649902933
 31
0.0
  0
LINE
  5
1C85
  8
0
 62
     0
 10
-30.488526667422189
 20
-62.10642130691852
 30
0.0
 11
-30.091651667422191
 21
-61.41901364266463
 31
0.0
  0
LINE
  5
1C86
  8
0
 62
     0
 10
-31.67915166742219
 20
-64.16864429968021
 30
0.0
 11
-31.282276667422192
 21
-63.481236635426313
 31
0.0
  0
LINE
  5
1C87
  8
0
 62
     0
 10
-32.869776667422187
 20
-66.2308672924419
 30
0.0
 11
-32.4729016674222
 21
-65.543459628188003
 31
0.0
  0
LINE
  5
1C88
  8
0
 62
     0
 10
-34.060401667422198
 20
-68.29309028520359
 30
0.0
 11
-33.663526667422197
 21
-67.605682620949693
 31
0.0
  0
LINE
  5
1C89
  8
0
 62
     0
 10
-35.251026667422202
 20
-70.35531327796528
 30
0.0
 11
-34.854151667422201
 21
-69.667905613711383
 31
0.0
  0
LINE
  5
1C8A
  8
0
 62
     0
 10
-36.441651667422207
 20
-72.417536270726956
 30
0.0
 11
-36.044776667422212
 21
-71.730128606473073
 31
0.0
  0
LINE
  5
1C8B
  8
0
 62
     0
 10
-30.488526382926089
 20
-59.356790814156838
 30
0.0
 11
-30.091651382926091
 21
-58.669383149902941
 31
0.0
  0
LINE
  5
1C8C
  8
0
 62
     0
 10
-31.67915138292609
 20
-61.419013806918521
 30
0.0
 11
-31.282276382926089
 21
-60.731606142664631
 31
0.0
  0
LINE
  5
1C8D
  8
0
 62
     0
 10
-32.869776382926091
 20
-63.481236799680218
 30
0.0
 11
-32.472901382926089
 21
-62.793829135426321
 31
0.0
  0
LINE
  5
1C8E
  8
0
 62
     0
 10
-34.060401382926102
 20
-65.543459792441908
 30
0.0
 11
-33.663526382926086
 21
-64.856052128188011
 31
0.0
  0
LINE
  5
1C8F
  8
0
 62
     0
 10
-35.251026382926099
 20
-67.605682785203584
 30
0.0
 11
-34.854151382926098
 21
-66.918275120949701
 31
0.0
  0
LINE
  5
1C90
  8
0
 62
     0
 10
-36.441651382926104
 20
-69.667905777965288
 30
0.0
 11
-36.044776382926102
 21
-68.980498113711391
 31
0.0
  0
LINE
  5
1C91
  8
0
 62
     0
 10
-37.632276382926108
 20
-71.730128770726964
 30
0.0
 11
-37.235401382926113
 21
-71.042721106473081
 31
0.0
  0
LINE
  5
1C92
  8
0
 62
     0
 10
-31.679151098429969
 20
-58.669383314156804
 30
0.0
 11
-31.282276098429961
 21
-57.981975649902907
 31
0.0
  0
LINE
  5
1C93
  8
0
 62
     0
 10
-32.869776098429973
 20
-60.731606306918493
 30
0.0
 11
-32.472901098429958
 21
-60.04419864266459
 31
0.0
  0
LINE
  5
1C94
  8
0
 62
     0
 10
-34.060401098429971
 20
-62.793829299680191
 30
0.0
 11
-33.663526098429969
 21
-62.106421635426287
 31
0.0
  0
LINE
  5
1C95
  8
0
 62
     0
 10
-35.251026098429982
 20
-64.856052292441873
 30
0.0
 11
-34.854151098429973
 21
-64.168644628187977
 31
0.0
  0
LINE
  5
1C96
  8
0
 62
     0
 10
-36.441651098429979
 20
-66.918275285203563
 30
0.0
 11
-36.044776098429978
 21
-66.230867620949667
 31
0.0
  0
LINE
  5
1C97
  8
0
 62
     0
 10
-37.632276098429983
 20
-68.980498277965253
 30
0.0
 11
-37.235401098429982
 21
-68.293090613711357
 31
0.0
  0
LINE
  5
1C98
  8
0
 62
     0
 10
-38.822901098429988
 20
-71.042721270726943
 30
0.0
 11
-38.426026098429979
 21
-70.355313606473047
 31
0.0
  0
LINE
  5
1C99
  8
0
 62
     0
 10
-39.652999990526979
 20
-72.480494727145555
 30
0.0
 11
-39.61665109842999
 21
-72.417536599234737
 31
0.0
  0
LINE
  5
1C9A
  8
0
 62
     0
 10
-32.869775813933863
 20
-57.981975814156797
 30
0.0
 11
-32.580245573354418
 21
-57.480494727145583
 31
0.0
  0
LINE
  5
1C9B
  8
0
 62
     0
 10
-34.06040081393386
 20
-60.04419880691848
 30
0.0
 11
-33.663525813933859
 21
-59.356791142664591
 31
0.0
  0
LINE
  5
1C9C
  8
0
 62
     0
 10
-35.251025813933872
 20
-62.106421799680177
 30
0.0
 11
-34.854150813933863
 21
-61.419014135426281
 31
0.0
  0
LINE
  5
1C9D
  8
0
 62
     0
 10
-36.441650813933869
 20
-64.168644792441853
 30
0.0
 11
-36.044775813933867
 21
-63.481237128187971
 31
0.0
  0
LINE
  5
1C9E
  8
0
 62
     0
 10
-37.632275813933873
 20
-66.230867785203557
 30
0.0
 11
-37.235400813933872
 21
-65.543460120949661
 31
0.0
  0
LINE
  5
1C9F
  8
0
 62
     0
 10
-38.822900813933877
 20
-68.293090777965247
 30
0.0
 11
-38.426025813933883
 21
-67.605683113711351
 31
0.0
  0
LINE
  5
1CA0
  8
0
 62
     0
 10
-40.00568131193252
 20
-70.341726694700483
 30
0.0
 11
-39.61665081393388
 21
-69.66790610647304
 31
0.0
  0
LINE
  5
1CA1
  8
0
 62
     0
 10
-35.251025529437811
 20
-59.356791306918581
 30
0.0
 11
-34.85415052943781
 21
-58.669383642664677
 31
0.0
  0
LINE
  5
1CA2
  8
0
 62
     0
 10
-36.441650529437823
 20
-61.419014299680271
 30
0.0
 11
-36.044775529437821
 21
-60.731606635426367
 31
0.0
  0
LINE
  5
1CA3
  8
0
 62
     0
 10
-37.63227552943782
 20
-63.481237292441961
 30
0.0
 11
-37.235400529437818
 21
-62.793829628188057
 31
0.0
  0
LINE
  5
1CA4
  8
0
 62
     0
 10
-38.822900529437817
 20
-65.543460285203651
 30
0.0
 11
-38.426025529437823
 21
-64.856052620949754
 31
0.0
  0
LINE
  5
1CA5
  8
0
 62
     0
 10
-40.005681311932527
 20
-67.592096694700558
 30
0.0
 11
-39.616650529437827
 21
-66.918275613711444
 31
0.0
  0
LINE
  5
1CA6
  8
0
 62
     0
 10
-36.441650244941677
 20
-58.669383806918461
 30
0.0
 11
-36.044775244941683
 21
-57.981976142664557
 31
0.0
  0
LINE
  5
1CA7
  8
0
 62
     0
 10
-37.632275244941681
 20
-60.731606799680151
 30
0.0
 11
-37.23540024494168
 21
-60.044199135426247
 31
0.0
  0
LINE
  5
1CA8
  8
0
 62
     0
 10
-38.822900244941692
 20
-62.793829792441841
 30
0.0
 11
-38.426025244941677
 21
-62.106422128187937
 31
0.0
  0
LINE
  5
1CA9
  8
0
 62
     0
 10
-40.00568131193252
 20
-64.842466694700477
 30
0.0
 11
-39.616650244941688
 21
-64.168645120949634
 31
0.0
  0
LINE
  5
1CAA
  8
0
 62
     0
 10
-37.632274960445592
 20
-57.981976306918519
 30
0.0
 11
-37.342744435370058
 21
-57.480494727145611
 31
0.0
  0
LINE
  5
1CAB
  8
0
 62
     0
 10
-38.822899960445589
 20
-60.044199299680209
 30
0.0
 11
-38.426024960445588
 21
-59.356791635426312
 31
0.0
  0
LINE
  5
1CAC
  8
0
 62
     0
 10
-40.005681311932527
 20
-62.092836694700573
 30
0.0
 11
-39.616649960445592
 21
-61.419014628188002
 31
0.0
  0
LINE
  5
1CAD
  8
0
 62
     0
 10
-40.00568131193252
 20
-59.343206694700541
 30
0.0
 11
-39.616649675949503
 21
-58.669384135426299
 31
0.0
  0
LINE
  5
1CAE
  8
0
 62
     0
 10
-25.329207713153
 20
-58.669384792442152
 30
0.0
 11
-25.726082713153001
 21
-57.981977128188262
 31
0.0
  0
LINE
  5
1CAF
  8
0
 62
     0
 10
-26.519832428656901
 20
-59.356792292442151
 30
0.0
 11
-26.916707428656899
 21
-58.669384628188261
 31
0.0
  0
LINE
  5
1CB0
  8
0
 62
     0
 10
-25.3292074286569
 20
-61.419015285203848
 30
0.0
 11
-25.726082428656898
 21
-60.731607620949951
 31
0.0
  0
LINE
  5
1CB1
  8
0
 62
     0
 10
-28.901082144160771
 20
-57.98197679968051
 30
0.0
 11
-29.19061295373265
 21
-57.480494727145448
 31
0.0
  0
LINE
  5
1CB2
  8
0
 62
     0
 10
-27.71045714416077
 20
-60.0441997924422
 30
0.0
 11
-28.107332144160772
 21
-59.356792128188303
 31
0.0
  0
LINE
  5
1CB3
  8
0
 62
     0
 10
-26.51983214416077
 20
-62.106422785203883
 30
0.0
 11
-26.916707144160771
 21
-61.41901512095
 31
0.0
  0
LINE
  5
1CB4
  8
0
 62
     0
 10
-25.32920714416078
 20
-64.16864577796558
 30
0.0
 11
-25.726082144160781
 21
-63.481238113711683
 31
0.0
  0
LINE
  5
1CB5
  8
0
 62
     0
 10
-30.091706859664701
 20
-58.669384299680459
 30
0.0
 11
-30.488581859664698
 21
-57.981976635426562
 31
0.0
  0
LINE
  5
1CB6
  8
0
 62
     0
 10
-28.9010818596647
 20
-60.731607292442142
 30
0.0
 11
-29.297956859664701
 21
-60.044199628188252
 31
0.0
  0
LINE
  5
1CB7
  8
0
 62
     0
 10
-27.710456859664699
 20
-62.793830285203839
 30
0.0
 11
-28.107331859664701
 21
-62.106422620949942
 31
0.0
  0
LINE
  5
1CB8
  8
0
 62
     0
 10
-26.519831859664709
 20
-64.856053277965529
 30
0.0
 11
-26.9167068596647
 21
-64.168645613711632
 31
0.0
  0
LINE
  5
1CB9
  8
0
 62
     0
 10
-25.329206859664708
 20
-66.918276270727219
 30
0.0
 11
-25.72608185966471
 21
-66.230868606473322
 31
0.0
  0
LINE
  5
1CBA
  8
0
 62
     0
 10
-31.282331575168559
 20
-59.356791799680508
 30
0.0
 11
-31.679206575168561
 21
-58.669384135426611
 31
0.0
  0
LINE
  5
1CBB
  8
0
 62
     0
 10
-30.091706575168558
 20
-61.419014792442198
 30
0.0
 11
-30.48858157516856
 21
-60.731607128188301
 31
0.0
  0
LINE
  5
1CBC
  8
0
 62
     0
 10
-28.901081575168561
 20
-63.481237785203881
 30
0.0
 11
-29.297956575168559
 21
-62.793830120949991
 31
0.0
  0
LINE
  5
1CBD
  8
0
 62
     0
 10
-27.710456575168561
 20
-65.543460777965578
 30
0.0
 11
-28.107331575168558
 21
-64.856053113711681
 31
0.0
  0
LINE
  5
1CBE
  8
0
 62
     0
 10
-26.51983157516857
 20
-67.605683770727254
 30
0.0
 11
-26.916706575168568
 21
-66.918276106473371
 31
0.0
  0
LINE
  5
1CBF
  8
0
 62
     0
 10
-25.32920657516857
 20
-69.667906763488958
 30
0.0
 11
-25.726081575168571
 21
-68.980499099235061
 31
0.0
  0
LINE
  5
1CC0
  8
0
 62
     0
 10
-33.663581290672511
 20
-57.981976306918781
 30
0.0
 11
-33.953111815748237
 21
-57.480494727145519
 31
0.0
  0
LINE
  5
1CC1
  8
0
 62
     0
 10
-32.472956290672514
 20
-60.044199299680471
 30
0.0
 11
-32.869831290672522
 21
-59.356791635426582
 31
0.0
  0
LINE
  5
1CC2
  8
0
 62
     0
 10
-31.28233129067252
 20
-62.106422292442161
 30
0.0
 11
-31.679206290672521
 21
-61.419014628188258
 31
0.0
  0
LINE
  5
1CC3
  8
0
 62
     0
 10
-30.091706290672519
 20
-64.168645285203851
 30
0.0
 11
-30.488581290672521
 21
-63.481237620949962
 31
0.0
  0
LINE
  5
1CC4
  8
0
 62
     0
 10
-28.901081290672519
 20
-66.230868277965541
 30
0.0
 11
-29.29795629067252
 21
-65.543460613711645
 31
0.0
  0
LINE
  5
1CC5
  8
0
 62
     0
 10
-27.710456290672521
 20
-68.293091270727231
 30
0.0
 11
-28.107331290672519
 21
-67.605683606473335
 31
0.0
  0
LINE
  5
1CC6
  8
0
 62
     0
 10
-26.519831290672531
 20
-70.355314263488921
 30
0.0
 11
-26.916706290672529
 21
-69.667906599235025
 31
0.0
  0
LINE
  5
1CC7
  8
0
 62
     0
 10
-25.329206290672531
 20
-72.417537256250611
 30
0.0
 11
-25.726081290672528
 21
-71.730129591996715
 31
0.0
  0
LINE
  5
1CC8
  8
0
 62
     0
 10
-34.854206006176398
 20
-58.669383806918759
 30
0.0
 11
-35.251081006176399
 21
-57.981976142664863
 31
0.0
  0
LINE
  5
1CC9
  8
0
 62
     0
 10
-33.6635810061764
 20
-60.731606799680449
 30
0.0
 11
-34.060456006176402
 21
-60.044199135426553
 31
0.0
  0
LINE
  5
1CCA
  8
0
 62
     0
 10
-32.472956006176403
 20
-62.793829792442139
 30
0.0
 11
-32.869831006176412
 21
-62.106422128188242
 31
0.0
  0
LINE
  5
1CCB
  8
0
 62
     0
 10
-31.28233100617641
 20
-64.856052785203829
 30
0.0
 11
-31.679206006176411
 21
-64.168645120949932
 31
0.0
  0
LINE
  5
1CCC
  8
0
 62
     0
 10
-30.091706006176409
 20
-66.918275777965505
 30
0.0
 11
-30.48858100617641
 21
-66.230868113711622
 31
0.0
  0
LINE
  5
1CCD
  8
0
 62
     0
 10
-28.901081006176408
 20
-68.980498770727209
 30
0.0
 11
-29.29795600617641
 21
-68.293091106473312
 31
0.0
  0
LINE
  5
1CCE
  8
0
 62
     0
 10
-27.710456006176418
 20
-71.042721763488899
 30
0.0
 11
-28.107331006176409
 21
-70.355314099235002
 31
0.0
  0
LINE
  5
1CCF
  8
0
 62
     0
 10
-26.880357398575701
 20
-72.480494727145526
 30
0.0
 11
-26.916706006176419
 21
-72.417537091996692
 31
0.0
  0
LINE
  5
1CD0
  8
0
 62
     0
 10
-36.044830721680299
 20
-59.356791306918751
 30
0.0
 11
-36.4417057216803
 21
-58.669383642664847
 31
0.0
  0
LINE
  5
1CD1
  8
0
 62
     0
 10
-34.854205721680302
 20
-61.419014299680441
 30
0.0
 11
-35.25108072168031
 21
-60.731606635426552
 31
0.0
  0
LINE
  5
1CD2
  8
0
 62
     0
 10
-33.663580721680312
 20
-63.481237292442131
 30
0.0
 11
-34.060455721680313
 21
-62.793829628188227
 31
0.0
  0
LINE
  5
1CD3
  8
0
 62
     0
 10
-32.472955721680307
 20
-65.543460285203821
 30
0.0
 11
-32.869830721680309
 21
-64.856052620949924
 31
0.0
  0
LINE
  5
1CD4
  8
0
 62
     0
 10
-31.28233072168031
 20
-67.605683277965511
 30
0.0
 11
-31.679205721680312
 21
-66.918275613711614
 31
0.0
  0
LINE
  5
1CD5
  8
0
 62
     0
 10
-30.091705721680309
 20
-69.667906270727201
 30
0.0
 11
-30.488580721680311
 21
-68.980498606473304
 31
0.0
  0
LINE
  5
1CD6
  8
0
 62
     0
 10
-28.901080721680319
 20
-71.730129263488891
 30
0.0
 11
-29.297955721680321
 21
-71.042721599234994
 31
0.0
  0
LINE
  5
1CD7
  8
0
 62
     0
 10
-38.426080437184197
 20
-57.981975814157082
 30
0.0
 11
-38.715610677763827
 21
-57.480494727145512
 31
0.0
  0
LINE
  5
1CD8
  8
0
 62
     0
 10
-37.2354554371842
 20
-60.044198806918772
 30
0.0
 11
-37.632330437184201
 21
-59.356791142664882
 31
0.0
  0
LINE
  5
1CD9
  8
0
 62
     0
 10
-36.044830437184203
 20
-62.106421799680462
 30
0.0
 11
-36.441705437184197
 21
-61.419014135426558
 31
0.0
  0
LINE
  5
1CDA
  8
0
 62
     0
 10
-34.854205437184213
 20
-64.168644792442151
 30
0.0
 11
-35.251080437184207
 21
-63.481237128188248
 31
0.0
  0
LINE
  5
1CDB
  8
0
 62
     0
 10
-33.663580437184208
 20
-66.230867785203841
 30
0.0
 11
-34.06045543718421
 21
-65.543460120949945
 31
0.0
  0
LINE
  5
1CDC
  8
0
 62
     0
 10
-32.472955437184211
 20
-68.293090777965531
 30
0.0
 11
-32.869830437184213
 21
-67.605683113711635
 31
0.0
  0
LINE
  5
1CDD
  8
0
 62
     0
 10
-31.282330437184221
 20
-70.355313770727221
 30
0.0
 11
-31.679205437184208
 21
-69.667906106473325
 31
0.0
  0
LINE
  5
1CDE
  8
0
 62
     0
 10
-30.091705437184221
 20
-72.417536763488911
 30
0.0
 11
-30.488580437184218
 21
-71.730129099235015
 31
0.0
  0
LINE
  5
1CDF
  8
0
 62
     0
 10
-39.616705152688112
 20
-58.669383314157088
 30
0.0
 11
-40.005681311932527
 21
-57.995656843412732
 31
0.0
  0
LINE
  5
1CE0
  8
0
 62
     0
 10
-38.426080152688122
 20
-60.731606306918771
 30
0.0
 11
-38.822955152688117
 21
-60.044198642664881
 31
0.0
  0
LINE
  5
1CE1
  8
0
 62
     0
 10
-37.235455152688118
 20
-62.793829299680468
 30
0.0
 11
-37.63233015268812
 21
-62.106421635426571
 31
0.0
  0
LINE
  5
1CE2
  8
0
 62
     0
 10
-36.044830152688121
 20
-64.856052292442158
 30
0.0
 11
-36.441705152688122
 21
-64.168644628188261
 31
0.0
  0
LINE
  5
1CE3
  8
0
 62
     0
 10
-34.854205152688117
 20
-66.918275285203833
 30
0.0
 11
-35.251080152688132
 21
-66.230867620949951
 31
0.0
  0
LINE
  5
1CE4
  8
0
 62
     0
 10
-33.663580152688127
 20
-68.980498277965538
 30
0.0
 11
-34.060455152688128
 21
-68.293090613711641
 31
0.0
  0
LINE
  5
1CE5
  8
0
 62
     0
 10
-32.472955152688129
 20
-71.042721270727213
 30
0.0
 11
-32.869830152688131
 21
-70.355313606473331
 31
0.0
  0
LINE
  5
1CE6
  8
0
 62
     0
 10
-31.64285626059133
 20
-72.480494727145526
 30
0.0
 11
-31.67920515268813
 21
-72.417536599235021
 31
0.0
  0
LINE
  5
1CE7
  8
0
 62
     0
 10
-39.616704868192002
 20
-61.419013806918827
 30
0.0
 11
-40.005681311932527
 21
-60.74528684341275
 31
0.0
  0
LINE
  5
1CE8
  8
0
 62
     0
 10
-38.426079868192012
 20
-63.481236799680509
 30
0.0
 11
-38.822954868192006
 21
-62.793829135426613
 31
0.0
  0
LINE
  5
1CE9
  8
0
 62
     0
 10
-37.235454868192008
 20
-65.543459792442206
 30
0.0
 11
-37.632329868192009
 21
-64.85605212818831
 31
0.0
  0
LINE
  5
1CEA
  8
0
 62
     0
 10
-36.044829868192011
 20
-67.605682785203896
 30
0.0
 11
-36.441704868192012
 21
-66.91827512095
 31
0.0
  0
LINE
  5
1CEB
  8
0
 62
     0
 10
-34.854204868192006
 20
-69.667905777965586
 30
0.0
 11
-35.251079868192022
 21
-68.98049811371169
 31
0.0
  0
LINE
  5
1CEC
  8
0
 62
     0
 10
-33.663579868192024
 20
-71.730128770727276
 30
0.0
 11
-34.060454868192018
 21
-71.04272110647338
 31
0.0
  0
LINE
  5
1CED
  8
0
 62
     0
 10
-39.616704583695942
 20
-64.168644299680452
 30
0.0
 11
-40.005681311932527
 21
-63.494916843412732
 31
0.0
  0
LINE
  5
1CEE
  8
0
 62
     0
 10
-38.426079583695937
 20
-66.230867292442142
 30
0.0
 11
-38.822954583695939
 21
-65.543459628188245
 31
0.0
  0
LINE
  5
1CEF
  8
0
 62
     0
 10
-37.23545458369594
 20
-68.293090285203832
 30
0.0
 11
-37.632329583695942
 21
-67.605682620949935
 31
0.0
  0
LINE
  5
1CF0
  8
0
 62
     0
 10
-36.044829583695943
 20
-70.355313277965521
 30
0.0
 11
-36.441704583695952
 21
-69.667905613711625
 31
0.0
  0
LINE
  5
1CF1
  8
0
 62
     0
 10
-34.854204583695953
 20
-72.417536270727211
 30
0.0
 11
-35.251079583695947
 21
-71.730128606473315
 31
0.0
  0
LINE
  5
1CF2
  8
0
 62
     0
 10
-39.61670429919981
 20
-66.918274792442205
 30
0.0
 11
-40.005681311932541
 21
-66.244546843412735
 31
0.0
  0
LINE
  5
1CF3
  8
0
 62
     0
 10
-38.42607929919982
 20
-68.980497785203895
 30
0.0
 11
-38.822954299199807
 21
-68.293090120949984
 31
0.0
  0
LINE
  5
1CF4
  8
0
 62
     0
 10
-37.235454299199823
 20
-71.042720777965584
 30
0.0
 11
-37.632329299199817
 21
-70.355313113711688
 31
0.0
  0
LINE
  5
1CF5
  8
0
 62
     0
 10
-36.405355122606949
 20
-72.480494727145526
 30
0.0
 11
-36.44170429919982
 21
-72.417536106473378
 31
0.0
  0
LINE
  5
1CF6
  8
0
 62
     0
 10
-39.6167040147037
 20
-69.667905285203886
 30
0.0
 11
-40.005681311932541
 21
-68.994176843412703
 31
0.0
  0
LINE
  5
1CF7
  8
0
 62
     0
 10
-38.426079014703703
 20
-71.730128277965576
 30
0.0
 11
-38.822954014703711
 21
-71.04272061371168
 31
0.0
  0
LINE
  5
1CF8
  8
0
 62
     0
 10
-39.616703730207632
 20
-72.417535777965512
 30
0.0
 11
-40.00568131193252
 21
-71.743806843412713
 31
0.0
  0
LINE
  5
1CF9
  8
0
 62
     0
 10
-26.519803125559221
 20
-71.730174104802842
 30
0.0
 11
-25.726053125559218
 21
-71.730174104802842
 31
0.0
  0
LINE
  5
1CFA
  8
0
 62
     0
 10
-28.901053125559219
 20
-71.730174104802842
 30
0.0
 11
-28.10730312555922
 21
-71.730174104802842
 31
0.0
  0
LINE
  5
1CFB
  8
0
 62
     0
 10
-31.282303125559221
 20
-71.730174104802842
 30
0.0
 11
-30.488553125559221
 21
-71.730174104802842
 31
0.0
  0
LINE
  5
1CFC
  8
0
 62
     0
 10
-33.663553125559218
 20
-71.730174104802842
 30
0.0
 11
-32.869803125559223
 21
-71.730174104802842
 31
0.0
  0
LINE
  5
1CFD
  8
0
 62
     0
 10
-36.04480312555922
 20
-71.730174104802842
 30
0.0
 11
-35.251053125559217
 21
-71.730174104802842
 31
0.0
  0
LINE
  5
1CFE
  8
0
 62
     0
 10
-38.426053125559221
 20
-71.730174104802842
 30
0.0
 11
-37.632303125559218
 21
-71.730174104802842
 31
0.0
  0
LINE
  5
1CFF
  8
0
 62
     0
 10
-26.519803125559221
 20
-70.35535910480283
 30
0.0
 11
-25.726053125559218
 21
-70.35535910480283
 31
0.0
  0
LINE
  5
1D00
  8
0
 62
     0
 10
-28.901053125559219
 20
-70.35535910480283
 30
0.0
 11
-28.10730312555922
 21
-70.35535910480283
 31
0.0
  0
LINE
  5
1D01
  8
0
 62
     0
 10
-31.282303125559221
 20
-70.35535910480283
 30
0.0
 11
-30.488553125559221
 21
-70.35535910480283
 31
0.0
  0
LINE
  5
1D02
  8
0
 62
     0
 10
-33.663553125559218
 20
-70.35535910480283
 30
0.0
 11
-32.869803125559223
 21
-70.35535910480283
 31
0.0
  0
LINE
  5
1D03
  8
0
 62
     0
 10
-36.04480312555922
 20
-70.35535910480283
 30
0.0
 11
-35.251053125559217
 21
-70.35535910480283
 31
0.0
  0
LINE
  5
1D04
  8
0
 62
     0
 10
-38.426053125559221
 20
-70.35535910480283
 30
0.0
 11
-37.632303125559218
 21
-70.35535910480283
 31
0.0
  0
LINE
  5
1D05
  8
0
 62
     0
 10
-26.519803125559221
 20
-68.980544104802846
 30
0.0
 11
-25.726053125559218
 21
-68.980544104802846
 31
0.0
  0
LINE
  5
1D06
  8
0
 62
     0
 10
-28.901053125559219
 20
-68.980544104802846
 30
0.0
 11
-28.10730312555922
 21
-68.980544104802846
 31
0.0
  0
LINE
  5
1D07
  8
0
 62
     0
 10
-31.282303125559221
 20
-68.980544104802846
 30
0.0
 11
-30.488553125559221
 21
-68.980544104802846
 31
0.0
  0
LINE
  5
1D08
  8
0
 62
     0
 10
-33.663553125559218
 20
-68.980544104802846
 30
0.0
 11
-32.869803125559223
 21
-68.980544104802846
 31
0.0
  0
LINE
  5
1D09
  8
0
 62
     0
 10
-36.04480312555922
 20
-68.980544104802846
 30
0.0
 11
-35.251053125559217
 21
-68.980544104802846
 31
0.0
  0
LINE
  5
1D0A
  8
0
 62
     0
 10
-38.426053125559221
 20
-68.980544104802846
 30
0.0
 11
-37.632303125559218
 21
-68.980544104802846
 31
0.0
  0
LINE
  5
1D0B
  8
0
 62
     0
 10
-26.519803125559221
 20
-67.605729104802833
 30
0.0
 11
-25.726053125559218
 21
-67.605729104802833
 31
0.0
  0
LINE
  5
1D0C
  8
0
 62
     0
 10
-28.901053125559219
 20
-67.605729104802833
 30
0.0
 11
-28.10730312555922
 21
-67.605729104802833
 31
0.0
  0
LINE
  5
1D0D
  8
0
 62
     0
 10
-31.282303125559221
 20
-67.605729104802833
 30
0.0
 11
-30.488553125559221
 21
-67.605729104802833
 31
0.0
  0
LINE
  5
1D0E
  8
0
 62
     0
 10
-33.663553125559218
 20
-67.605729104802833
 30
0.0
 11
-32.869803125559223
 21
-67.605729104802833
 31
0.0
  0
LINE
  5
1D0F
  8
0
 62
     0
 10
-36.04480312555922
 20
-67.605729104802833
 30
0.0
 11
-35.251053125559217
 21
-67.605729104802833
 31
0.0
  0
LINE
  5
1D10
  8
0
 62
     0
 10
-38.426053125559221
 20
-67.605729104802833
 30
0.0
 11
-37.632303125559218
 21
-67.605729104802833
 31
0.0
  0
LINE
  5
1D11
  8
0
 62
     0
 10
-26.519803125559221
 20
-66.230914104802821
 30
0.0
 11
-25.726053125559218
 21
-66.230914104802821
 31
0.0
  0
LINE
  5
1D12
  8
0
 62
     0
 10
-28.901053125559219
 20
-66.230914104802821
 30
0.0
 11
-28.10730312555922
 21
-66.230914104802821
 31
0.0
  0
LINE
  5
1D13
  8
0
 62
     0
 10
-31.282303125559221
 20
-66.230914104802821
 30
0.0
 11
-30.488553125559221
 21
-66.230914104802821
 31
0.0
  0
LINE
  5
1D14
  8
0
 62
     0
 10
-33.663553125559218
 20
-66.230914104802821
 30
0.0
 11
-32.869803125559223
 21
-66.230914104802821
 31
0.0
  0
LINE
  5
1D15
  8
0
 62
     0
 10
-36.04480312555922
 20
-66.230914104802821
 30
0.0
 11
-35.251053125559217
 21
-66.230914104802821
 31
0.0
  0
LINE
  5
1D16
  8
0
 62
     0
 10
-38.426053125559221
 20
-66.230914104802821
 30
0.0
 11
-37.632303125559218
 21
-66.230914104802821
 31
0.0
  0
LINE
  5
1D17
  8
0
 62
     0
 10
-26.519803125559221
 20
-64.856099104802865
 30
0.0
 11
-25.726053125559218
 21
-64.856099104802865
 31
0.0
  0
LINE
  5
1D18
  8
0
 62
     0
 10
-28.901053125559219
 20
-64.856099104802865
 30
0.0
 11
-28.10730312555922
 21
-64.856099104802865
 31
0.0
  0
LINE
  5
1D19
  8
0
 62
     0
 10
-31.282303125559221
 20
-64.856099104802865
 30
0.0
 11
-30.488553125559221
 21
-64.856099104802865
 31
0.0
  0
LINE
  5
1D1A
  8
0
 62
     0
 10
-33.663553125559218
 20
-64.856099104802865
 30
0.0
 11
-32.869803125559223
 21
-64.856099104802865
 31
0.0
  0
LINE
  5
1D1B
  8
0
 62
     0
 10
-36.04480312555922
 20
-64.856099104802865
 30
0.0
 11
-35.251053125559217
 21
-64.856099104802865
 31
0.0
  0
LINE
  5
1D1C
  8
0
 62
     0
 10
-38.426053125559221
 20
-64.856099104802865
 30
0.0
 11
-37.632303125559218
 21
-64.856099104802865
 31
0.0
  0
LINE
  5
1D1D
  8
0
 62
     0
 10
-26.519803125559221
 20
-63.481284104802853
 30
0.0
 11
-25.726053125559218
 21
-63.481284104802853
 31
0.0
  0
LINE
  5
1D1E
  8
0
 62
     0
 10
-28.901053125559219
 20
-63.481284104802853
 30
0.0
 11
-28.10730312555922
 21
-63.481284104802853
 31
0.0
  0
LINE
  5
1D1F
  8
0
 62
     0
 10
-31.282303125559221
 20
-63.481284104802853
 30
0.0
 11
-30.488553125559221
 21
-63.481284104802853
 31
0.0
  0
LINE
  5
1D20
  8
0
 62
     0
 10
-33.663553125559218
 20
-63.481284104802853
 30
0.0
 11
-32.869803125559223
 21
-63.481284104802853
 31
0.0
  0
LINE
  5
1D21
  8
0
 62
     0
 10
-36.04480312555922
 20
-63.481284104802853
 30
0.0
 11
-35.251053125559217
 21
-63.481284104802853
 31
0.0
  0
LINE
  5
1D22
  8
0
 62
     0
 10
-38.426053125559221
 20
-63.481284104802853
 30
0.0
 11
-37.632303125559218
 21
-63.481284104802853
 31
0.0
  0
LINE
  5
1D23
  8
0
 62
     0
 10
-26.519803125559221
 20
-62.106469104802841
 30
0.0
 11
-25.726053125559218
 21
-62.106469104802841
 31
0.0
  0
LINE
  5
1D24
  8
0
 62
     0
 10
-28.901053125559219
 20
-62.106469104802841
 30
0.0
 11
-28.10730312555922
 21
-62.106469104802841
 31
0.0
  0
LINE
  5
1D25
  8
0
 62
     0
 10
-31.282303125559221
 20
-62.106469104802841
 30
0.0
 11
-30.488553125559221
 21
-62.106469104802841
 31
0.0
  0
LINE
  5
1D26
  8
0
 62
     0
 10
-33.663553125559218
 20
-62.106469104802841
 30
0.0
 11
-32.869803125559223
 21
-62.106469104802841
 31
0.0
  0
LINE
  5
1D27
  8
0
 62
     0
 10
-36.04480312555922
 20
-62.106469104802841
 30
0.0
 11
-35.251053125559217
 21
-62.106469104802841
 31
0.0
  0
LINE
  5
1D28
  8
0
 62
     0
 10
-38.426053125559221
 20
-62.106469104802841
 30
0.0
 11
-37.632303125559218
 21
-62.106469104802841
 31
0.0
  0
LINE
  5
1D29
  8
0
 62
     0
 10
-26.519803125559221
 20
-60.731654104802828
 30
0.0
 11
-25.726053125559218
 21
-60.731654104802828
 31
0.0
  0
LINE
  5
1D2A
  8
0
 62
     0
 10
-28.901053125559219
 20
-60.731654104802828
 30
0.0
 11
-28.10730312555922
 21
-60.731654104802828
 31
0.0
  0
LINE
  5
1D2B
  8
0
 62
     0
 10
-31.282303125559221
 20
-60.731654104802828
 30
0.0
 11
-30.488553125559221
 21
-60.731654104802828
 31
0.0
  0
LINE
  5
1D2C
  8
0
 62
     0
 10
-33.663553125559218
 20
-60.731654104802828
 30
0.0
 11
-32.869803125559223
 21
-60.731654104802828
 31
0.0
  0
LINE
  5
1D2D
  8
0
 62
     0
 10
-36.04480312555922
 20
-60.731654104802828
 30
0.0
 11
-35.251053125559217
 21
-60.731654104802828
 31
0.0
  0
LINE
  5
1D2E
  8
0
 62
     0
 10
-38.426053125559221
 20
-60.731654104802828
 30
0.0
 11
-37.632303125559218
 21
-60.731654104802828
 31
0.0
  0
LINE
  5
1D2F
  8
0
 62
     0
 10
-26.519803125559221
 20
-59.356839104802823
 30
0.0
 11
-25.726053125559218
 21
-59.356839104802823
 31
0.0
  0
LINE
  5
1D30
  8
0
 62
     0
 10
-28.901053125559219
 20
-59.356839104802823
 30
0.0
 11
-28.10730312555922
 21
-59.356839104802823
 31
0.0
  0
LINE
  5
1D31
  8
0
 62
     0
 10
-31.282303125559221
 20
-59.356839104802823
 30
0.0
 11
-30.488553125559221
 21
-59.356839104802823
 31
0.0
  0
LINE
  5
1D32
  8
0
 62
     0
 10
-33.663553125559218
 20
-59.356839104802823
 30
0.0
 11
-32.869803125559223
 21
-59.356839104802823
 31
0.0
  0
LINE
  5
1D33
  8
0
 62
     0
 10
-36.04480312555922
 20
-59.356839104802823
 30
0.0
 11
-35.251053125559217
 21
-59.356839104802823
 31
0.0
  0
LINE
  5
1D34
  8
0
 62
     0
 10
-38.426053125559221
 20
-59.356839104802823
 30
0.0
 11
-37.632303125559218
 21
-59.356839104802823
 31
0.0
  0
LINE
  5
1D35
  8
0
 62
     0
 10
-26.519803125559221
 20
-57.982024104802861
 30
0.0
 11
-25.726053125559218
 21
-57.982024104802861
 31
0.0
  0
LINE
  5
1D36
  8
0
 62
     0
 10
-28.901053125559219
 20
-57.982024104802861
 30
0.0
 11
-28.10730312555922
 21
-57.982024104802861
 31
0.0
  0
LINE
  5
1D37
  8
0
 62
     0
 10
-31.282303125559221
 20
-57.982024104802861
 30
0.0
 11
-30.488553125559221
 21
-57.982024104802861
 31
0.0
  0
LINE
  5
1D38
  8
0
 62
     0
 10
-33.663553125559218
 20
-57.982024104802861
 30
0.0
 11
-32.869803125559223
 21
-57.982024104802861
 31
0.0
  0
LINE
  5
1D39
  8
0
 62
     0
 10
-36.04480312555922
 20
-57.982024104802861
 30
0.0
 11
-35.251053125559217
 21
-57.982024104802861
 31
0.0
  0
LINE
  5
1D3A
  8
0
 62
     0
 10
-38.426053125559221
 20
-57.982024104802861
 30
0.0
 11
-37.632303125559218
 21
-57.982024104802861
 31
0.0
  0
ENDBLK
  5
1D3C
  8
0
  0
BLOCK
  8
0
  2
*X78
 70
     1
 10
0.0
 20
0.0
 30
0.0
  3
*X78
  1

  0
LINE
  5
21FE
  8
0
 62
     0
 10
10.9999999999996
 20
-82.842048968552845
 30
0.0
 11
10.850161150494589
 21
-82.692210119047814
 31
0.0
  0
LINE
  5
21FF
  8
0
 62
     0
 10
10.9999999999996
 20
-83.964580983686474
 30
0.0
 11
9.9602090083319652
 21
-82.924789992018844
 31
0.0
  0
LINE
  5
2200
  8
0
 62
     0
 10
10.9999999999996
 20
-85.087112998820118
 30
0.0
 11
9.0702568661693235
 21
-83.157369864989846
 31
0.0
  0
LINE
  5
2201
  8
0
 62
     0
 10
10.99999999999959
 20
-86.209645013953747
 30
0.0
 11
8.1803047240066942
 21
-83.389949737960848
 31
0.0
  0
LINE
  5
2202
  8
0
 62
     0
 10
10.9999999999996
 20
-87.332177029087404
 30
0.0
 11
7.2049499905167798
 21
-83.537127019604597
 31
0.0
  0
LINE
  5
2203
  8
0
 62
     0
 10
10.9999999999996
 20
-88.454709044221048
 30
0.0
 11
6.2106227106755583
 21
-83.665331754897011
 31
0.0
  0
LINE
  5
2204
  8
0
 62
     0
 10
10.9999999999996
 20
-89.577241059354691
 30
0.0
 11
5.1987892060609857
 21
-83.776030265416054
 31
0.0
  0
LINE
  5
2205
  8
0
 62
     0
 10
10.999999999999609
 20
-90.699773074488348
 30
0.0
 11
4.168611257908629
 21
-83.868384332397355
 31
0.0
  0
LINE
  5
2206
  8
0
 62
     0
 10
10.09150719079974
 20
-90.913812280422121
 30
0.0
 11
3.1191586667849398
 21
-83.941463756407316
 31
0.0
  0
LINE
  5
2207
  8
0
 62
     0
 10
8.8746416075469057
 20
-90.819478712302924
 30
0.0
 11
2.0493948933680102
 21
-83.994231998124036
 31
0.0
  0
LINE
  5
2208
  8
0
 62
     0
 10
7.683064145277398
 20
-90.750433265167061
 30
0.0
 11
0.9581596343367806
 21
-84.025528754226457
 31
0.0
  0
LINE
  5
2209
  8
0
 62
     0
 10
6.515183354766882
 20
-90.70508448979021
 30
0.0
 11
-0.1558525075688593
 21
-84.034048627454453
 31
0.0
  0
LINE
  5
220A
  8
0
 62
     0
 10
5.3695913893036638
 20
-90.682024539460613
 30
0.0
 11
-1.294118387988682
 21
-84.018314762168274
 31
0.0
  0
LINE
  5
220B
  8
0
 62
     0
 10
4.2450357352359731
 20
-90.680000900526579
 30
0.0
 11
-2.4583192563825591
 21
-83.976645908908026
 31
0.0
  0
LINE
  5
220C
  8
0
 62
     0
 10
3.140396333756029
 20
-90.697893514180279
 30
0.0
 11
-3.6503823871163301
 21
-83.907114793307926
 31
0.0
  0
LINE
  5
220D
  8
0
 62
     0
 10
2.054666886510752
 20
-90.734696082068623
 30
0.0
 11
-4.8725343954529086
 21
-83.807494800104976
 31
0.0
  0
LINE
  5
220E
  8
0
 62
     0
 10
0.9869394450527266
 20
-90.789500655744263
 30
0.0
 11
-6.1273705261262839
 21
-83.675190684565251
 31
0.0
  0
LINE
  5
220F
  8
0
 62
     0
 10
-0.0636083954044651
 20
-90.861484830420707
 30
0.0
 11
-7.4179461991311006
 21
-83.507147026694071
 31
0.0
  0
LINE
  5
2210
  8
0
 62
     0
 10
-1.097724217100136
 20
-90.949901023858686
 30
0.0
 11
-8.9796134209566745
 21
-83.068011820002141
 31
0.0
  0
LINE
  5
2211
  8
0
 62
     0
 10
-2.1160898166864959
 20
-91.054067439405955
 30
0.0
 11
-10.84586073743754
 21
-82.324296518654918
 31
0.0
  0
LINE
  5
2212
  8
0
 62
     0
 10
-3.119328870836255
 20
-91.173360400389853
 30
0.0
 11
-11.0000000000302
 21
-83.292689271195897
 31
0.0
  0
LINE
  5
2213
  8
0
 62
     0
 10
-4.1080134767806342
 20
-91.307207809579126
 30
0.0
 11
-11.000000000028329
 21
-84.415221286331416
 31
0.0
  0
LINE
  5
2214
  8
0
 62
     0
 10
-5.0826697633587941
 20
-91.455083538134588
 30
0.0
 11
-11.000000000026469
 21
-85.537753301466921
 31
0.0
  0
LINE
  5
2215
  8
0
 62
     0
 10
-6.0437827291405242
 20
-91.616502587486494
 30
0.0
 11
-11.000000000024601
 21
-86.660285316602426
 31
0.0
  0
LINE
  5
2216
  8
0
 62
     0
 10
-6.991800433886282
 20
-91.791016897874414
 30
0.0
 11
-11.00000000002275
 21
-87.782817331737931
 31
0.0
  0
LINE
  5
2217
  8
0
 62
     0
 10
-7.92713764588526
 20
-91.978211701009059
 30
0.0
 11
-11.00000000002087
 21
-88.905349346873464
 31
0.0
  0
LINE
  5
2218
  8
0
 62
     0
 10
-8.8501790289910982
 20
-92.177702333036876
 30
0.0
 11
-11.000000000019011
 21
-90.027881362008955
 31
0.0
  0
LINE
  5
2219
  8
0
 62
     0
 10
-9.7612819382922993
 20
-92.389131438869313
 30
0.0
 11
-11.000000000017151
 21
-91.15041337714446
 31
0.0
  0
LINE
  5
221A
  8
0
 62
     0
 10
-10.660778881441709
 20
-92.612166510853527
 30
0.0
 11
-11.000000000015291
 21
-92.272945392279965
 31
0.0
  0
LINE
  5
221B
  8
0
 62
     0
 10
10.11225164770981
 20
-90.915629714318158
 30
0.0
 11
10.99999999999959
 21
-90.027881362028353
 31
0.0
  0
LINE
  5
221C
  8
0
 62
     0
 10
9.0721952868629074
 20
-90.833154060031404
 30
0.0
 11
10.9999999999996
 21
-88.905349346894724
 31
0.0
  0
LINE
  5
221D
  8
0
 62
     0
 10
8.0154409711998014
 20
-90.767376360560874
 30
0.0
 11
10.99999999999959
 21
-87.78281733176108
 31
0.0
  0
LINE
  5
221E
  8
0
 62
     0
 10
6.9412148236806877
 20
-90.719070492946344
 30
0.0
 11
10.9999999999996
 21
-86.660285316627423
 31
0.0
  0
LINE
  5
221F
  8
0
 62
     0
 10
5.8486644295597747
 20
-90.689088871933606
 30
0.0
 11
10.99999999999959
 21
-85.537753301493765
 31
0.0
  0
LINE
  5
2220
  8
0
 62
     0
 10
4.7368474030370322
 20
-90.678373883322706
 30
0.0
 11
10.9999999999996
 21
-84.415221286360136
 31
0.0
  0
LINE
  5
2221
  8
0
 62
     0
 10
3.6047176941227259
 20
-90.687971577103369
 30
0.0
 11
10.99999999999959
 21
-83.292689271226493
 31
0.0
  0
LINE
  5
2222
  8
0
 62
     0
 10
2.451109063454318
 20
-90.719048192638127
 30
0.0
 11
10.346256933451651
 21
-82.823900322640796
 31
0.0
  0
LINE
  5
2223
  8
0
 62
     0
 10
1.2747149728878
 20
-90.772910268071016
 30
0.0
 11
8.826570420446167
 21
-83.221054820512649
 31
0.0
  0
LINE
  5
2224
  8
0
 62
     0
 10
0.0740638910879667
 20
-90.851029334737206
 30
0.0
 11
7.4179461991319391
 21
-83.507147026693204
 31
0.0
  0
LINE
  5
2225
  8
0
 62
     0
 10
-1.152511335274603
 20
-90.955072545966104
 30
0.0
 11
6.1273705261269589
 21
-83.675190684564569
 31
0.0
  0
LINE
  5
2226
  8
0
 62
     0
 10
-2.4069118909936829
 20
-91.086941086551548
 30
0.0
 11
4.8725343954534281
 21
-83.80749480010445
 31
0.0
  0
LINE
  5
2227
  8
0
 62
     0
 10
-3.6913217497306898
 20
-91.248818930154926
 30
0.0
 11
3.6503823871167
 21
-83.907114793307514
 31
0.0
  0
LINE
  5
2228
  8
0
 62
     0
 10
-5.0082704137541043
 20
-91.443235579044696
 30
0.0
 11
2.4583192563827931
 21
-83.976645908907798
 31
0.0
  0
LINE
  5
2229
  8
0
 62
     0
 10
-6.3607148851693722
 20
-91.673148035326307
 30
0.0
 11
1.294118387988795
 21
-84.01831476216816
 31
0.0
  0
LINE
  5
222A
  8
0
 62
     0
 10
-7.7521486224813003
 20
-91.942049757504606
 30
0.0
 11
0.1558525075688451
 21
-84.034048627454453
 31
0.0
  0
LINE
  5
222B
  8
0
 62
     0
 10
-9.1867492317523016
 20
-92.254118351641935
 30
0.0
 11
-0.9581596343368943
 21
-84.025528754226556
 31
0.0
  0
LINE
  5
222C
  8
0
 62
     0
 10
-10.669583221670759
 20
-92.614420326426753
 30
0.0
 11
-2.0493948933682371
 21
-83.994231998124235
 31
0.0
  0
LINE
  5
222D
  8
0
 62
     0
 10
-11.00000000001603
 20
-91.822305089638377
 30
0.0
 11
-3.1191586667852529
 21
-83.941463756407614
 31
0.0
  0
LINE
  5
222E
  8
0
 62
     0
 10
-11.00000000001789
 20
-90.699773074506609
 30
0.0
 11
-4.1686112579090269
 21
-83.868384332397724
 31
0.0
  0
LINE
  5
222F
  8
0
 62
     0
 10
-11.00000000001976
 20
-89.577241059374856
 30
0.0
 11
-5.198789206061476
 21
-83.776030265416537
 31
0.0
  0
LINE
  5
2230
  8
0
 62
     0
 10
-11.00000000002162
 20
-88.45470904424306
 30
0.0
 11
-6.2106227106761258
 21
-83.665331754897537
 31
0.0
  0
LINE
  5
2231
  8
0
 62
     0
 10
-11.000000000023491
 20
-87.332177029111278
 30
0.0
 11
-7.2049499905174272
 21
-83.537127019605208
 31
0.0
  0
LINE
  5
2232
  8
0
 62
     0
 10
-11.000000000025359
 20
-86.209645013979497
 30
0.0
 11
-8.1778688013621306
 21
-83.387513815316268
 31
0.0
  0
LINE
  5
2233
  8
0
 62
     0
 10
-11.000000000027219
 20
-85.087112998847715
 30
0.0
 11
-8.9805325432092502
 21
-83.067645542029766
 31
0.0
  0
LINE
  5
2234
  8
0
 62
     0
 10
-11.000000000029081
 20
-83.964580983715933
 30
0.0
 11
-9.7831962850563752
 21
-82.747777268743235
 31
0.0
  0
LINE
  5
2235
  8
0
 62
     0
 10
-11.000000000030941
 20
-82.842048968584152
 30
0.0
 11
-10.585860026903511
 21
-82.427908995456718
 31
0.0
  0
ENDBLK
  5
2237
  8
0
  0
BLOCK
  8
0
  2
*X79
 70
     1
 10
0.0
 20
0.0
 30
0.0
  3
*X79
  1

  0
LINE
  5
2239
  8
0
 62
     0
 10
10.9999999999996
 20
-82.842048968552845
 30
0.0
 11
10.850161150494589
 21
-82.692210119047814
 31
0.0
  0
LINE
  5
223A
  8
0
 62
     0
 10
10.9999999999996
 20
-83.964580983686474
 30
0.0
 11
9.9602090083319652
 21
-82.924789992018844
 31
0.0
  0
LINE
  5
223B
  8
0
 62
     0
 10
10.9999999999996
 20
-85.087112998820118
 30
0.0
 11
9.0702568661693235
 21
-83.157369864989846
 31
0.0
  0
LINE
  5
223C
  8
0
 62
     0
 10
10.99999999999959
 20
-86.209645013953747
 30
0.0
 11
8.1803047240066942
 21
-83.389949737960848
 31
0.0
  0
LINE
  5
223D
  8
0
 62
     0
 10
10.9999999999996
 20
-87.332177029087404
 30
0.0
 11
7.2049499905167798
 21
-83.537127019604597
 31
0.0
  0
LINE
  5
223E
  8
0
 62
     0
 10
10.9999999999996
 20
-88.454709044221048
 30
0.0
 11
6.2106227106755583
 21
-83.665331754897011
 31
0.0
  0
LINE
  5
223F
  8
0
 62
     0
 10
10.9999999999996
 20
-89.577241059354691
 30
0.0
 11
5.1987892060609857
 21
-83.776030265416054
 31
0.0
  0
LINE
  5
2240
  8
0
 62
     0
 10
10.999999999999609
 20
-90.699773074488348
 30
0.0
 11
4.168611257908629
 21
-83.868384332397355
 31
0.0
  0
LINE
  5
2241
  8
0
 62
     0
 10
10.09150719079974
 20
-90.913812280422121
 30
0.0
 11
3.1191586667849398
 21
-83.941463756407316
 31
0.0
  0
LINE
  5
2242
  8
0
 62
     0
 10
8.8746416075469057
 20
-90.819478712302924
 30
0.0
 11
2.0493948933680102
 21
-83.994231998124036
 31
0.0
  0
LINE
  5
2243
  8
0
 62
     0
 10
7.683064145277398
 20
-90.750433265167061
 30
0.0
 11
0.9581596343367806
 21
-84.025528754226457
 31
0.0
  0
LINE
  5
2244
  8
0
 62
     0
 10
6.515183354766882
 20
-90.70508448979021
 30
0.0
 11
-0.1558525075688593
 21
-84.034048627454453
 31
0.0
  0
LINE
  5
2245
  8
0
 62
     0
 10
5.3695913893036638
 20
-90.682024539460613
 30
0.0
 11
-1.294118387988682
 21
-84.018314762168274
 31
0.0
  0
LINE
  5
2246
  8
0
 62
     0
 10
4.2450357352359731
 20
-90.680000900526579
 30
0.0
 11
-2.4583192563825591
 21
-83.976645908908026
 31
0.0
  0
LINE
  5
2247
  8
0
 62
     0
 10
3.140396333756029
 20
-90.697893514180279
 30
0.0
 11
-3.6503823871163301
 21
-83.907114793307926
 31
0.0
  0
LINE
  5
2248
  8
0
 62
     0
 10
2.054666886510752
 20
-90.734696082068623
 30
0.0
 11
-4.8725343954529086
 21
-83.807494800104976
 31
0.0
  0
LINE
  5
2249
  8
0
 62
     0
 10
0.9869394450527266
 20
-90.789500655744263
 30
0.0
 11
-6.1273705261262839
 21
-83.675190684565251
 31
0.0
  0
LINE
  5
224A
  8
0
 62
     0
 10
-0.0636083954044651
 20
-90.861484830420707
 30
0.0
 11
-7.4179461991311006
 21
-83.507147026694071
 31
0.0
  0
LINE
  5
224B
  8
0
 62
     0
 10
-1.097724217100136
 20
-90.949901023858686
 30
0.0
 11
-8.9796134209566745
 21
-83.068011820002141
 31
0.0
  0
LINE
  5
224C
  8
0
 62
     0
 10
-2.1160898166864959
 20
-91.054067439405955
 30
0.0
 11
-10.84586073743754
 21
-82.324296518654918
 31
0.0
  0
LINE
  5
224D
  8
0
 62
     0
 10
-3.119328870836255
 20
-91.173360400389853
 30
0.0
 11
-11.0000000000302
 21
-83.292689271195897
 31
0.0
  0
LINE
  5
224E
  8
0
 62
     0
 10
-4.1080134767806342
 20
-91.307207809579126
 30
0.0
 11
-11.000000000028329
 21
-84.415221286331416
 31
0.0
  0
LINE
  5
224F
  8
0
 62
     0
 10
-5.0826697633587941
 20
-91.455083538134588
 30
0.0
 11
-11.000000000026469
 21
-85.537753301466921
 31
0.0
  0
LINE
  5
2250
  8
0
 62
     0
 10
-6.0437827291405242
 20
-91.616502587486494
 30
0.0
 11
-11.000000000024601
 21
-86.660285316602426
 31
0.0
  0
LINE
  5
2251
  8
0
 62
     0
 10
-6.991800433886282
 20
-91.791016897874414
 30
0.0
 11
-11.00000000002275
 21
-87.782817331737931
 31
0.0
  0
LINE
  5
2252
  8
0
 62
     0
 10
-7.92713764588526
 20
-91.978211701009059
 30
0.0
 11
-11.00000000002087
 21
-88.905349346873464
 31
0.0
  0
LINE
  5
2253
  8
0
 62
     0
 10
-8.8501790289910982
 20
-92.177702333036876
 30
0.0
 11
-11.000000000019011
 21
-90.027881362008955
 31
0.0
  0
LINE
  5
2254
  8
0
 62
     0
 10
-9.7612819382922993
 20
-92.389131438869313
 30
0.0
 11
-11.000000000017151
 21
-91.15041337714446
 31
0.0
  0
LINE
  5
2255
  8
0
 62
     0
 10
-10.660778881441709
 20
-92.612166510853527
 30
0.0
 11
-11.000000000015291
 21
-92.272945392279965
 31
0.0
  0
LINE
  5
2256
  8
0
 62
     0
 10
10.11225164770981
 20
-90.915629714318158
 30
0.0
 11
10.99999999999959
 21
-90.027881362028353
 31
0.0
  0
LINE
  5
2257
  8
0
 62
     0
 10
9.0721952868629074
 20
-90.833154060031404
 30
0.0
 11
10.9999999999996
 21
-88.905349346894724
 31
0.0
  0
LINE
  5
2258
  8
0
 62
     0
 10
8.0154409711998014
 20
-90.767376360560874
 30
0.0
 11
10.99999999999959
 21
-87.78281733176108
 31
0.0
  0
LINE
  5
2259
  8
0
 62
     0
 10
6.9412148236806877
 20
-90.719070492946344
 30
0.0
 11
10.9999999999996
 21
-86.660285316627423
 31
0.0
  0
LINE
  5
225A
  8
0
 62
     0
 10
5.8486644295597747
 20
-90.689088871933606
 30
0.0
 11
10.99999999999959
 21
-85.537753301493765
 31
0.0
  0
LINE
  5
225B
  8
0
 62
     0
 10
4.7368474030370322
 20
-90.678373883322706
 30
0.0
 11
10.9999999999996
 21
-84.415221286360136
 31
0.0
  0
LINE
  5
225C
  8
0
 62
     0
 10
3.6047176941227259
 20
-90.687971577103369
 30
0.0
 11
10.99999999999959
 21
-83.292689271226493
 31
0.0
  0
LINE
  5
225D
  8
0
 62
     0
 10
2.451109063454318
 20
-90.719048192638127
 30
0.0
 11
10.346256933451651
 21
-82.823900322640796
 31
0.0
  0
LINE
  5
225E
  8
0
 62
     0
 10
1.2747149728878
 20
-90.772910268071016
 30
0.0
 11
8.826570420446167
 21
-83.221054820512649
 31
0.0
  0
LINE
  5
225F
  8
0
 62
     0
 10
0.0740638910879667
 20
-90.851029334737206
 30
0.0
 11
7.4179461991319391
 21
-83.507147026693204
 31
0.0
  0
LINE
  5
2260
  8
0
 62
     0
 10
-1.152511335274603
 20
-90.955072545966104
 30
0.0
 11
6.1273705261269589
 21
-83.675190684564569
 31
0.0
  0
LINE
  5
2261
  8
0
 62
     0
 10
-2.4069118909936829
 20
-91.086941086551548
 30
0.0
 11
4.8725343954534281
 21
-83.80749480010445
 31
0.0
  0
LINE
  5
2262
  8
0
 62
     0
 10
-3.6913217497306898
 20
-91.248818930154926
 30
0.0
 11
3.6503823871167
 21
-83.907114793307514
 31
0.0
  0
LINE
  5
2263
  8
0
 62
     0
 10
-5.0082704137541043
 20
-91.443235579044696
 30
0.0
 11
2.4583192563827931
 21
-83.976645908907798
 31
0.0
  0
LINE
  5
2264
  8
0
 62
     0
 10
-6.3607148851693722
 20
-91.673148035326307
 30
0.0
 11
1.294118387988795
 21
-84.01831476216816
 31
0.0
  0
LINE
  5
2265
  8
0
 62
     0
 10
-7.7521486224813003
 20
-91.942049757504606
 30
0.0
 11
0.1558525075688451
 21
-84.034048627454453
 31
0.0
  0
LINE
  5
2266
  8
0
 62
     0
 10
-9.1867492317523016
 20
-92.254118351641935
 30
0.0
 11
-0.9581596343368943
 21
-84.025528754226556
 31
0.0
  0
LINE
  5
2267
  8
0
 62
     0
 10
-10.669583221670759
 20
-92.614420326426753
 30
0.0
 11
-2.0493948933682371
 21
-83.994231998124235
 31
0.0
  0
LINE
  5
2268
  8
0
 62
     0
 10
-11.00000000001603
 20
-91.822305089638377
 30
0.0
 11
-3.1191586667852529
 21
-83.941463756407614
 31
0.0
  0
LINE
  5
2269
  8
0
 62
     0
 10
-11.00000000001789
 20
-90.699773074506609
 30
0.0
 11
-4.1686112579090269
 21
-83.868384332397724
 31
0.0
  0
LINE
  5
226A
  8
0
 62
     0
 10
-11.00000000001976
 20
-89.577241059374856
 30
0.0
 11
-5.198789206061476
 21
-83.776030265416537
 31
0.0
  0
LINE
  5
226B
  8
0
 62
     0
 10
-11.00000000002162
 20
-88.45470904424306
 30
0.0
 11
-6.2106227106761258
 21
-83.665331754897537
 31
0.0
  0
LINE
  5
226C
  8
0
 62
     0
 10
-11.000000000023491
 20
-87.332177029111278
 30
0.0
 11
-7.2049499905174272
 21
-83.537127019605208
 31
0.0
  0
LINE
  5
226D
  8
0
 62
     0
 10
-11.000000000025359
 20
-86.209645013979497
 30
0.0
 11
-8.1778688013621306
 21
-83.387513815316268
 31
0.0
  0
LINE
  5
226E
  8
0
 62
     0
 10
-11.000000000027219
 20
-85.087112998847715
 30
0.0
 11
-8.9805325432092502
 21
-83.067645542029766
 31
0.0
  0
LINE
  5
226F
  8
0
 62
     0
 10
-11.000000000029081
 20
-83.964580983715933
 30
0.0
 11
-9.7831962850563752
 21
-82.747777268743235
 31
0.0
  0
LINE
  5
2270
  8
0
 62
     0
 10
-11.000000000030941
 20
-82.842048968584152
 30
0.0
 11
-10.585860026903511
 21
-82.427908995456718
 31
0.0
  0
ENDBLK
  5
2272
  8
0
  0
BLOCK
  8
0
  2
*X80
 70
     1
 10
0.0
 20
0.0
 30
0.0
  3
*X80
  1

  0
LINE
  5
22BA
  8
0
 62
     0
 10
-22.92634787928327
 20
-66.388750149734662
 30
0.0
 11
-19.12386979237359
 21
-66.388750149734662
 31
0.0
  0
LINE
  5
22BB
  8
0
 62
     0
 10
-21.893271668519631
 20
-65.277500149734664
 30
0.0
 11
-19.765450279010551
 21
-65.277500149734664
 31
0.0
  0
LINE
  5
22BC
  8
0
 62
     0
 10
-22.265654313871011
 20
-64.166250149734665
 30
0.0
 11
-20.02566506578415
 21
-64.166250149734665
 31
0.0
  0
LINE
  5
22BD
  8
0
 62
     0
 10
-24.896905167565588
 20
-63.05500014973466
 30
0.0
 11
-20.158712928825359
 21
-63.05500014973466
 31
0.0
  0
LINE
  5
22BE
  8
0
 62
     0
 10
-24.920404784782072
 20
-61.943750149734662
 30
0.0
 11
-22.524314078282821
 21
-61.943750149734662
 31
0.0
  0
LINE
  5
22BF
  8
0
 62
     0
 10
-24.920404784782072
 20
-60.832500149734663
 30
0.0
 11
-23.120404784782121
 21
-60.832500149734663
 31
0.0
  0
LINE
  5
22C0
  8
0
 62
     0
 10
-24.920404784782072
 20
-59.721250149734658
 30
0.0
 11
-23.12040478478211
 21
-59.721250149734658
 31
0.0
  0
LINE
  5
22C1
  8
0
 62
     0
 10
-24.920404784782072
 20
-58.61000014973466
 30
0.0
 11
-23.12040478478211
 21
-58.61000014973466
 31
0.0
  0
LINE
  5
22C2
  8
0
 62
     0
 10
-24.920404784782072
 20
-57.498750149734661
 30
0.0
 11
-23.120404784782099
 21
-57.498750149734661
 31
0.0
  0
LINE
  5
22C3
  8
0
 62
     0
 10
-24.920404784782061
 20
-56.387500149734663
 30
0.0
 11
-23.120404784782089
 21
-56.387500149734663
 31
0.0
  0
LINE
  5
22C4
  8
0
 62
     0
 10
-24.920404784782061
 20
-55.276250149734658
 30
0.0
 11
-23.120404784782089
 21
-55.276250149734658
 31
0.0
  0
LINE
  5
22C5
  8
0
 62
     0
 10
-24.920404784782061
 20
-54.165000149734666
 30
0.0
 11
-23.120404784782082
 21
-54.165000149734666
 31
0.0
  0
LINE
  5
22C6
  8
0
 62
     0
 10
-24.92040478478205
 20
-53.053750149734661
 30
0.0
 11
-23.120404784782071
 21
-53.053750149734661
 31
0.0
  0
LINE
  5
22C7
  8
0
 62
     0
 10
-24.92040478478205
 20
-51.942500149734663
 30
0.0
 11
-23.120404784782071
 21
-51.942500149734663
 31
0.0
  0
LINE
  5
22C8
  8
0
 62
     0
 10
-24.92040478478204
 20
-50.83125014973465
 30
0.0
 11
-23.120404784782071
 21
-50.83125014973465
 31
0.0
  0
LINE
  5
22C9
  8
0
 62
     0
 10
-24.92040478478204
 20
-49.720000149734659
 30
0.0
 11
-23.120404784782071
 21
-49.720000149734659
 31
0.0
  0
LINE
  5
22CA
  8
0
 62
     0
 10
-24.920404784782029
 20
-48.608750149734661
 30
0.0
 11
-23.120404784782071
 21
-48.608750149734661
 31
0.0
  0
LINE
  5
22CB
  8
0
 62
     0
 10
-24.920404784782018
 20
-47.497500149734663
 30
0.0
 11
-23.120404784782071
 21
-47.497500149734663
 31
0.0
  0
LINE
  5
22CC
  8
0
 62
     0
 10
-24.920404784782018
 20
-46.386250149734657
 30
0.0
 11
-23.120404784782071
 21
-46.386250149734657
 31
0.0
  0
LINE
  5
22CD
  8
0
 62
     0
 10
-24.920404784782011
 20
-45.275000149734659
 30
0.0
 11
-23.120404784782071
 21
-45.275000149734659
 31
0.0
  0
LINE
  5
22CE
  8
0
 62
     0
 10
-24.920404784782001
 20
-44.163750149734668
 30
0.0
 11
-23.120404784782071
 21
-44.163750149734668
 31
0.0
  0
LINE
  5
22CF
  8
0
 62
     0
 10
-24.920404784782001
 20
-43.052500149734662
 30
0.0
 11
-22.514011866685848
 21
-43.052500149734662
 31
0.0
  0
LINE
  5
22D0
  8
0
 62
     0
 10
-24.895538675204659
 20
-41.941250149734657
 30
0.0
 11
-20.156568073255372
 21
-41.941250149734657
 31
0.0
  0
LINE
  5
22D1
  8
0
 62
     0
 10
-22.255352102273999
 20
-40.830000149734673
 30
0.0
 11
-20.025665065784018
 21
-40.830000149734673
 31
0.0
  0
LINE
  5
22D2
  8
0
 62
     0
 10
-21.895899444963611
 20
-39.71875014973466
 30
0.0
 11
-19.763285389648161
 21
-39.71875014973466
 31
0.0
  0
LINE
  5
22D3
  8
0
 62
     0
 10
-22.929647700749051
 20
-38.607500149734662
 30
0.0
 11
-19.12170490301115
 21
-38.607500149734662
 31
0.0
  0
ENDBLK
  5
22D5
  8
0
  0
BLOCK
  8
0
  2
*X81
 70
     1
 10
0.0
 20
0.0
 30
0.0
  3
*X81
  1

  0
LINE
  5
22D7
  8
0
 62
     0
 10
-11.041396635726709
 20
-66.674999999999997
 30
0.0
 11
-6.9073046541520462
 21
-66.674999999999997
 31
0.0
  0
LINE
  5
22D8
  8
0
 62
     0
 10
-10.399816149089791
 20
-65.563749999999985
 30
0.0
 11
-7.5530818381126812
 21
-65.563749999999985
 31
0.0
  0
LINE
  5
22D9
  8
0
 62
     0
 10
-9.9743349342099918
 20
-64.452499999999986
 30
0.0
 11
-7.9730363996983664
 21
-64.452499999999986
 31
0.0
  0
LINE
  5
22DA
  8
0
 62
     0
 10
-9.9515738819116741
 20
-63.341249999999988
 30
0.0
 11
-5.4676764036803567
 21
-63.341249999999988
 31
0.0
  0
LINE
  5
22DB
  8
0
 62
     0
 10
-8.2621509216376197
 20
-62.229999999999983
 30
0.0
 11
-5.079595215212068
 21
-62.229999999999983
 31
0.0
  0
LINE
  5
22DC
  8
0
 62
     0
 10
-6.8795952152120217
 20
-61.118749999999991
 30
0.0
 11
-5.0795952152120707
 21
-61.118749999999991
 31
0.0
  0
LINE
  5
22DD
  8
0
 62
     0
 10
-6.8795952152120288
 20
-60.0075
 30
0.0
 11
-5.0795952152120742
 21
-60.0075
 31
0.0
  0
LINE
  5
22DE
  8
0
 62
     0
 10
-6.8795952152120359
 20
-58.896249999999988
 30
0.0
 11
-5.079595215212076
 21
-58.896249999999988
 31
0.0
  0
LINE
  5
22DF
  8
0
 62
     0
 10
-6.879595215212043
 20
-57.784999999999989
 30
0.0
 11
-5.0795952152120796
 21
-57.784999999999989
 31
0.0
  0
LINE
  5
22E0
  8
0
 62
     0
 10
-6.8795952152120501
 20
-56.673749999999991
 30
0.0
 11
-5.0795952152120831
 21
-56.673749999999991
 31
0.0
  0
LINE
  5
22E1
  8
0
 62
     0
 10
-6.8795952152120581
 20
-55.562499999999993
 30
0.0
 11
-5.0795952152120858
 21
-55.562499999999993
 31
0.0
  0
LINE
  5
22E2
  8
0
 62
     0
 10
-6.8795952152120652
 20
-54.451249999999987
 30
0.0
 11
-5.0795952152120893
 21
-54.451249999999987
 31
0.0
  0
LINE
  5
22E3
  8
0
 62
     0
 10
-6.8795952152120723
 20
-53.339999999999989
 30
0.0
 11
-5.079595215212092
 21
-53.339999999999989
 31
0.0
  0
LINE
  5
22E4
  8
0
 62
     0
 10
-6.879595215212075
 20
-52.228749999999991
 30
0.0
 11
-5.0795952152120956
 21
-52.228749999999991
 31
0.0
  0
LINE
  5
22E5
  8
0
 62
     0
 10
-6.879595215212075
 20
-51.117499999999993
 30
0.0
 11
-5.0795952152121018
 21
-51.117499999999993
 31
0.0
  0
LINE
  5
22E6
  8
0
 62
     0
 10
-6.8795952152120758
 20
-50.006249999999987
 30
0.0
 11
-5.079595215212108
 21
-50.006249999999987
 31
0.0
  0
LINE
  5
22E7
  8
0
 62
     0
 10
-6.8795952152120758
 20
-48.894999999999989
 30
0.0
 11
-5.0795952152121142
 21
-48.894999999999989
 31
0.0
  0
LINE
  5
22E8
  8
0
 62
     0
 10
-6.8795952152120758
 20
-47.783749999999991
 30
0.0
 11
-5.0795952152121204
 21
-47.783749999999991
 31
0.0
  0
LINE
  5
22E9
  8
0
 62
     0
 10
-6.8795952152120758
 20
-46.672499999999992
 30
0.0
 11
-5.0795952152121258
 21
-46.672499999999992
 31
0.0
  0
LINE
  5
22EA
  8
0
 62
     0
 10
-6.8795952152120767
 20
-45.561249999999987
 30
0.0
 11
-5.079595215212132
 21
-45.561249999999987
 31
0.0
  0
LINE
  5
22EB
  8
0
 62
     0
 10
-6.8795952152120767
 20
-44.449999999999989
 30
0.0
 11
-5.0795952152121391
 21
-44.449999999999989
 31
0.0
  0
LINE
  5
22EC
  8
0
 62
     0
 10
-6.9419983087581736
 20
-43.33874999999999
 30
0.0
 11
-5.0795952152121453
 21
-43.33874999999999
 31
0.0
  0
LINE
  5
22ED
  8
0
 62
     0
 10
-9.5990015468407002
 20
-42.227499999999992
 30
0.0
 11
-5.0795952152121506
 21
-42.227499999999992
 31
0.0
  0
LINE
  5
22EE
  8
0
 62
     0
 10
-9.9743349342101961
 20
-41.116249999999987
 30
0.0
 11
-6.9581828977938613
 21
-41.116249999999987
 31
0.0
  0
LINE
  5
22EF
  8
0
 62
     0
 10
-10.07882103373276
 20
-40.004999999999988
 30
0.0
 11
-8.0813310491301831
 21
-40.004999999999988
 31
0.0
  0
LINE
  5
22F0
  8
0
 62
     0
 10
-10.71302866887679
 20
-38.893749999999997
 30
0.0
 11
-7.2355966083251904
 21
-38.893749999999997
 31
0.0
  0
LINE
  5
22F1
  8
0
 62
     0
 10
-11.0566878474389
 20
-37.782499999999992
 30
0.0
 11
-6.8919820209807456
 21
-37.782499999999992
 31
0.0
  0
ENDBLK
  5
22F3
  8
0
  0
BLOCK
  8
0
  2
*X82
 70
     1
 10
0.0
 20
0.0
 30
0.0
  3
*X82
  1

  0
LINE
  5
233B
  8
0
 62
     0
 10
-22.92634787928327
 20
-66.388750149734662
 30
0.0
 11
-19.12386979237359
 21
-66.388750149734662
 31
0.0
  0
LINE
  5
233C
  8
0
 62
     0
 10
-21.893271668519631
 20
-65.277500149734664
 30
0.0
 11
-19.765450279010551
 21
-65.277500149734664
 31
0.0
  0
LINE
  5
233D
  8
0
 62
     0
 10
-22.265654313871011
 20
-64.166250149734665
 30
0.0
 11
-20.02566506578415
 21
-64.166250149734665
 31
0.0
  0
LINE
  5
233E
  8
0
 62
     0
 10
-24.896905167565588
 20
-63.05500014973466
 30
0.0
 11
-20.158712928825359
 21
-63.05500014973466
 31
0.0
  0
LINE
  5
233F
  8
0
 62
     0
 10
-24.920404784782072
 20
-61.943750149734662
 30
0.0
 11
-22.524314078282821
 21
-61.943750149734662
 31
0.0
  0
LINE
  5
2340
  8
0
 62
     0
 10
-24.920404784782072
 20
-60.832500149734663
 30
0.0
 11
-23.120404784782121
 21
-60.832500149734663
 31
0.0
  0
LINE
  5
2341
  8
0
 62
     0
 10
-24.920404784782072
 20
-59.721250149734658
 30
0.0
 11
-23.12040478478211
 21
-59.721250149734658
 31
0.0
  0
LINE
  5
2342
  8
0
 62
     0
 10
-24.920404784782072
 20
-58.61000014973466
 30
0.0
 11
-23.12040478478211
 21
-58.61000014973466
 31
0.0
  0
LINE
  5
2343
  8
0
 62
     0
 10
-24.920404784782072
 20
-57.498750149734661
 30
0.0
 11
-23.120404784782099
 21
-57.498750149734661
 31
0.0
  0
LINE
  5
2344
  8
0
 62
     0
 10
-24.920404784782061
 20
-56.387500149734663
 30
0.0
 11
-23.120404784782089
 21
-56.387500149734663
 31
0.0
  0
LINE
  5
2345
  8
0
 62
     0
 10
-24.920404784782061
 20
-55.276250149734658
 30
0.0
 11
-23.120404784782089
 21
-55.276250149734658
 31
0.0
  0
LINE
  5
2346
  8
0
 62
     0
 10
-24.920404784782061
 20
-54.165000149734666
 30
0.0
 11
-23.120404784782082
 21
-54.165000149734666
 31
0.0
  0
LINE
  5
2347
  8
0
 62
     0
 10
-24.92040478478205
 20
-53.053750149734661
 30
0.0
 11
-23.120404784782071
 21
-53.053750149734661
 31
0.0
  0
LINE
  5
2348
  8
0
 62
     0
 10
-24.92040478478205
 20
-51.942500149734663
 30
0.0
 11
-23.120404784782071
 21
-51.942500149734663
 31
0.0
  0
LINE
  5
2349
  8
0
 62
     0
 10
-24.92040478478204
 20
-50.83125014973465
 30
0.0
 11
-23.120404784782071
 21
-50.83125014973465
 31
0.0
  0
LINE
  5
234A
  8
0
 62
     0
 10
-24.92040478478204
 20
-49.720000149734659
 30
0.0
 11
-23.120404784782071
 21
-49.720000149734659
 31
0.0
  0
LINE
  5
234B
  8
0
 62
     0
 10
-24.920404784782029
 20
-48.608750149734661
 30
0.0
 11
-23.120404784782071
 21
-48.608750149734661
 31
0.0
  0
LINE
  5
234C
  8
0
 62
     0
 10
-24.920404784782018
 20
-47.497500149734663
 30
0.0
 11
-23.120404784782071
 21
-47.497500149734663
 31
0.0
  0
LINE
  5
234D
  8
0
 62
     0
 10
-24.920404784782018
 20
-46.386250149734657
 30
0.0
 11
-23.120404784782071
 21
-46.386250149734657
 31
0.0
  0
LINE
  5
234E
  8
0
 62
     0
 10
-24.920404784782011
 20
-45.275000149734659
 30
0.0
 11
-23.120404784782071
 21
-45.275000149734659
 31
0.0
  0
LINE
  5
234F
  8
0
 62
     0
 10
-24.920404784782001
 20
-44.163750149734668
 30
0.0
 11
-23.120404784782071
 21
-44.163750149734668
 31
0.0
  0
LINE
  5
2350
  8
0
 62
     0
 10
-24.920404784782001
 20
-43.052500149734662
 30
0.0
 11
-22.514011866685848
 21
-43.052500149734662
 31
0.0
  0
LINE
  5
2351
  8
0
 62
     0
 10
-24.895538675204659
 20
-41.941250149734657
 30
0.0
 11
-20.156568073255372
 21
-41.941250149734657
 31
0.0
  0
LINE
  5
2352
  8
0
 62
     0
 10
-22.255352102273999
 20
-40.830000149734673
 30
0.0
 11
-20.025665065784018
 21
-40.830000149734673
 31
0.0
  0
LINE
  5
2353
  8
0
 62
     0
 10
-21.895899444963611
 20
-39.71875014973466
 30
0.0
 11
-19.763285389648161
 21
-39.71875014973466
 31
0.0
  0
LINE
  5
2354
  8
0
 62
     0
 10
-22.929647700749051
 20
-38.607500149734662
 30
0.0
 11
-19.12170490301115
 21
-38.607500149734662
 31
0.0
  0
ENDBLK
  5
2356
  8
0
  0
BLOCK
  8
0
  2
*X83
 70
     1
 10
0.0
 20
0.0
 30
0.0
  3
*X83
  1

  0
LINE
  5
2358
  8
0
 62
     0
 10
-11.041396635726709
 20
-66.674999999999997
 30
0.0
 11
-6.9073046541520462
 21
-66.674999999999997
 31
0.0
  0
LINE
  5
2359
  8
0
 62
     0
 10
-10.399816149089791
 20
-65.563749999999985
 30
0.0
 11
-7.5530818381126812
 21
-65.563749999999985
 31
0.0
  0
LINE
  5
235A
  8
0
 62
     0
 10
-9.9743349342099918
 20
-64.452499999999986
 30
0.0
 11
-7.9730363996983664
 21
-64.452499999999986
 31
0.0
  0
LINE
  5
235B
  8
0
 62
     0
 10
-9.9515738819116741
 20
-63.341249999999988
 30
0.0
 11
-5.4676764036803567
 21
-63.341249999999988
 31
0.0
  0
LINE
  5
235C
  8
0
 62
     0
 10
-8.2621509216376197
 20
-62.229999999999983
 30
0.0
 11
-5.079595215212068
 21
-62.229999999999983
 31
0.0
  0
LINE
  5
235D
  8
0
 62
     0
 10
-6.8795952152120217
 20
-61.118749999999991
 30
0.0
 11
-5.0795952152120707
 21
-61.118749999999991
 31
0.0
  0
LINE
  5
235E
  8
0
 62
     0
 10
-6.8795952152120288
 20
-60.0075
 30
0.0
 11
-5.0795952152120742
 21
-60.0075
 31
0.0
  0
LINE
  5
235F
  8
0
 62
     0
 10
-6.8795952152120359
 20
-58.896249999999988
 30
0.0
 11
-5.079595215212076
 21
-58.896249999999988
 31
0.0
  0
LINE
  5
2360
  8
0
 62
     0
 10
-6.879595215212043
 20
-57.784999999999989
 30
0.0
 11
-5.0795952152120796
 21
-57.784999999999989
 31
0.0
  0
LINE
  5
2361
  8
0
 62
     0
 10
-6.8795952152120501
 20
-56.673749999999991
 30
0.0
 11
-5.0795952152120831
 21
-56.673749999999991
 31
0.0
  0
LINE
  5
2362
  8
0
 62
     0
 10
-6.8795952152120581
 20
-55.562499999999993
 30
0.0
 11
-5.0795952152120858
 21
-55.562499999999993
 31
0.0
  0
LINE
  5
2363
  8
0
 62
     0
 10
-6.8795952152120652
 20
-54.451249999999987
 30
0.0
 11
-5.0795952152120893
 21
-54.451249999999987
 31
0.0
  0
LINE
  5
2364
  8
0
 62
     0
 10
-6.8795952152120723
 20
-53.339999999999989
 30
0.0
 11
-5.079595215212092
 21
-53.339999999999989
 31
0.0
  0
LINE
  5
2365
  8
0
 62
     0
 10
-6.879595215212075
 20
-52.228749999999991
 30
0.0
 11
-5.0795952152120956
 21
-52.228749999999991
 31
0.0
  0
LINE
  5
2366
  8
0
 62
     0
 10
-6.879595215212075
 20
-51.117499999999993
 30
0.0
 11
-5.0795952152121018
 21
-51.117499999999993
 31
0.0
  0
LINE
  5
2367
  8
0
 62
     0
 10
-6.8795952152120758
 20
-50.006249999999987
 30
0.0
 11
-5.079595215212108
 21
-50.006249999999987
 31
0.0
  0
LINE
  5
2368
  8
0
 62
     0
 10
-6.8795952152120758
 20
-48.894999999999989
 30
0.0
 11
-5.0795952152121142
 21
-48.894999999999989
 31
0.0
  0
LINE
  5
2369
  8
0
 62
     0
 10
-6.8795952152120758
 20
-47.783749999999991
 30
0.0
 11
-5.0795952152121204
 21
-47.783749999999991
 31
0.0
  0
LINE
  5
236A
  8
0
 62
     0
 10
-6.8795952152120758
 20
-46.672499999999992
 30
0.0
 11
-5.0795952152121258
 21
-46.672499999999992
 31
0.0
  0
LINE
  5
236B
  8
0
 62
     0
 10
-6.8795952152120767
 20
-45.561249999999987
 30
0.0
 11
-5.079595215212132
 21
-45.561249999999987
 31
0.0
  0
LINE
  5
236C
  8
0
 62
     0
 10
-6.8795952152120767
 20
-44.449999999999989
 30
0.0
 11
-5.0795952152121391
 21
-44.449999999999989
 31
0.0
  0
LINE
  5
236D
  8
0
 62
     0
 10
-6.9419983087581736
 20
-43.33874999999999
 30
0.0
 11
-5.0795952152121453
 21
-43.33874999999999
 31
0.0
  0
LINE
  5
236E
  8
0
 62
     0
 10
-9.5990015468407002
 20
-42.227499999999992
 30
0.0
 11
-5.0795952152121506
 21
-42.227499999999992
 31
0.0
  0
LINE
  5
236F
  8
0
 62
     0
 10
-9.9743349342101961
 20
-41.116249999999987
 30
0.0
 11
-6.9581828977938613
 21
-41.116249999999987
 31
0.0
  0
LINE
  5
2370
  8
0
 62
     0
 10
-10.07882103373276
 20
-40.004999999999988
 30
0.0
 11
-8.0813310491301831
 21
-40.004999999999988
 31
0.0
  0
LINE
  5
2371
  8
0
 62
     0
 10
-10.71302866887679
 20
-38.893749999999997
 30
0.0
 11
-7.2355966083251904
 21
-38.893749999999997
 31
0.0
  0
LINE
  5
2372
  8
0
 62
     0
 10
-11.0566878474389
 20
-37.782499999999992
 30
0.0
 11
-6.8919820209807456
 21
-37.782499999999992
 31
0.0
  0
ENDBLK
  5
2374
  8
0
  0
ENDSEC
  0
SECTION
  2
ENTITIES
  0
POLYLINE
  5
EAA
  8
SAPA_ANSLUTNING
 66
     1
 10
0.0
 20
0.0
 30
0.0
  0
VERTEX
  5
1C34
  8
SAPA_ANSLUTNING
 10
-38.005684996557562
 20
18.112957719598601
 30
0.0
  0
VERTEX
  5
1C35
  8
SAPA_ANSLUTNING
 10
-27.005683154245069
 20
18.112957719598381
 30
0.0
 42
-0.9999999999999998
  0
VERTEX
  5
1C36
  8
SAPA_ANSLUTNING
 10
-27.005683154245069
 20
14.11295771959861
 30
0.0
  0
VERTEX
  5
1C37
  8
SAPA_ANSLUTNING
 10
-38.005683154245069
 20
14.11295771959861
 30
0.0
 42
0.9999999999999998
  0
VERTEX
  5
1C38
  8
SAPA_ANSLUTNING
 10
-38.005683154245013
 20
10.11295771960293
 30
0.0
  0
VERTEX
  5
1C39
  8
SAPA_ANSLUTNING
 10
-27.005681311932531
 20
10.112957719602701
 30
0.0
 42
-0.9999999999999998
  0
VERTEX
  5
1C3A
  8
SAPA_ANSLUTNING
 10
-27.005681311932531
 20
6.1129577196029281
 30
0.0
  0
VERTEX
  5
1C3B
  8
SAPA_ANSLUTNING
 10
-38.005681311932527
 20
6.1129577196029281
 30
0.0
 42
0.9999999999999998
  0
VERTEX
  5
1C3C
  8
SAPA_ANSLUTNING
 10
-38.005681311932527
 20
2.1129577196072482
 30
0.0
  0
VERTEX
  5
1C3D
  8
SAPA_ANSLUTNING
 10
-27.005681311932531
 20
2.1129577196074751
 30
0.0
 42
-0.9999999999999998
  0
VERTEX
  5
1C3E
  8
SAPA_ANSLUTNING
 10
-27.005681311932531
 20
-1.8870422803927509
 30
0.0
  0
VERTEX
  5
1C3F
  8
SAPA_ANSLUTNING
 10
-38.005681311932527
 20
-1.887042280392524
 30
0.0
 42
0.9999999999999998
  0
VERTEX
  5
1C40
  8
SAPA_ANSLUTNING
 10
-38.005681311932527
 20
-5.8870422803882043
 30
0.0
  0
VERTEX
  5
1C41
  8
SAPA_ANSLUTNING
 10
-27.005681311932531
 20
-5.8870422803879761
 30
0.0
 42
-0.9999999999999998
  0
VERTEX
  5
1C42
  8
SAPA_ANSLUTNING
 10
-27.005681311932531
 20
-9.8870422803882043
 30
0.0
  0
VERTEX
  5
1C43
  8
SAPA_ANSLUTNING
 10
-38.005681311932527
 20
-9.8870422803879752
 30
0.0
 42
0.9999999999999998
  0
VERTEX
  5
1C44
  8
SAPA_ANSLUTNING
 10
-38.005681311932527
 20
-13.88704228038365
 30
0.0
  0
VERTEX
  5
1C45
  8
SAPA_ANSLUTNING
 10
-27.005681311932531
 20
-13.887042280383429
 30
0.0
 42
-0.9999999999999998
  0
VERTEX
  5
1C46
  8
SAPA_ANSLUTNING
 10
-27.005681311932531
 20
-17.88704228038366
 30
0.0
  0
VERTEX
  5
1C47
  8
SAPA_ANSLUTNING
 10
-38.005681311932527
 20
-17.887042280383429
 30
0.0
 42
0.9999999999999998
  0
VERTEX
  5
1C48
  8
SAPA_ANSLUTNING
 10
-38.005681311932527
 20
-21.887042280379109
 30
0.0
  0
VERTEX
  5
1C49
  8
SAPA_ANSLUTNING
 10
-27.005681311932531
 20
-21.887042280379109
 30
0.0
 42
-0.9999999999999998
  0
VERTEX
  5
1C4A
  8
SAPA_ANSLUTNING
 10
-27.005681311932531
 20
-25.887042280378878
 30
0.0
  0
VERTEX
  5
1C4B
  8
SAPA_ANSLUTNING
 10
-38.005681311932527
 20
-25.887042280374558
 30
0.0
 42
0.9999999999999998
  0
VERTEX
  5
1C4C
  8
SAPA_ANSLUTNING
 10
-38.005681311932527
 20
-29.887042280374342
 30
0.0
  0
VERTEX
  5
1C4D
  8
SAPA_ANSLUTNING
 10
-27.005681311932531
 20
-29.887042280374342
 30
0.0
 42
-0.9999999999999998
  0
VERTEX
  5
1C4E
  8
SAPA_ANSLUTNING
 10
-27.005681311932531
 20
-33.887042280374558
 30
0.0
  0
VERTEX
  5
1C4F
  8
SAPA_ANSLUTNING
 10
-38.005681311932527
 20
-33.887042280374331
 30
0.0
 42
0.9999987492793
  0
VERTEX
  5
1C50
  8
SAPA_ANSLUTNING
 10
-38.005686314818462
 20
-37.887042280363637
 30
0.0
  0
VERTEX
  5
1C51
  8
SAPA_ANSLUTNING
 10
-27.005684472505969
 20
-37.887042280363872
 30
0.0
 42
-0.9999999999999998
  0
VERTEX
  5
1C52
  8
SAPA_ANSLUTNING
 10
-27.005684472505969
 20
-41.887042280363637
 30
0.0
  0
VERTEX
  5
1C53
  8
SAPA_ANSLUTNING
 10
-38.005684472505969
 20
-41.887042280363637
 30
0.0
 42
0.9999999999999998
  0
VERTEX
  5
1C54
  8
SAPA_ANSLUTNING
 10
-38.005684472505912
 20
-45.887042280359317
 30
0.0
  0
VERTEX
  5
1C55
  8
SAPA_ANSLUTNING
 10
-27.00568263019343
 20
-45.887042280359552
 30
0.0
 42
-0.9999999999999998
  0
VERTEX
  5
1C56
  8
SAPA_ANSLUTNING
 10
-27.00568263019343
 20
-49.887042280359317
 30
0.0
  0
VERTEX
  5
1C57
  8
SAPA_ANSLUTNING
 10
-38.005682630193427
 20
-49.887042280359317
 30
0.0
 42
0.9999999999999998
  0
VERTEX
  5
1C58
  8
SAPA_ANSLUTNING
 10
-38.005682630193427
 20
-53.887042280354997
 30
0.0
  0
VERTEX
  5
1C59
  8
SAPA_ANSLUTNING
 10
-27.00568263019343
 20
-53.887042280354777
 30
0.0
 42
-0.6947281567971685
  0
VERTEX
  5
1C5A
  8
SAPA_ANSLUTNING
 10
-25.697657670190281
 20
-57.400009796202212
 30
0.0
  0
SEQEND
  5
1C5B
  8
SAPA_ANSLUTNING
  0
POLYLINE
  5
EAB
  8
SAPA_ANSLUTNING
 66
     1
 10
0.0
 20
0.0
 30
0.0
  0
VERTEX
  5
1C5C
  8
SAPA_ANSLUTNING
 10
-25.06783011044384
 20
-72.480494727145583
 30
0.0
  0
VERTEX
  5
1C5D
  8
SAPA_ANSLUTNING
 10
-25.11398818740879
 20
-57.48049472714559
 30
0.0
  0
VERTEX
  5
1C5E
  8
SAPA_ANSLUTNING
 10
-40.005681311932513
 20
-57.48049472714559
 30
0.0
  0
VERTEX
  5
1C5F
  8
SAPA_ANSLUTNING
 10
-40.005681311932513
 20
-72.480494727145583
 30
0.0
  0
VERTEX
  5
1C60
  8
SAPA_ANSLUTNING
 10
-25.06783011044384
 20
-72.480494727145583
 30
0.0
  0
SEQEND
  5
1C61
  8
SAPA_ANSLUTNING
  0
INSERT
  5
EAC
  8
SAPA_ANSLUTNING
  2
*X9
 10
611.73494132382416
 20
-632.61526454994691
 30
0.0
 50
90.0
  0
ARC
  5
EAD
  8
SAPA_ANSLUTNING
 10
-32.887808915097487
 20
23.569103473349159
 30
0.0
 40
8.6522224087403927
 50
24.26546463095379
 51
144.90523792332891
  0
INSERT
  5
EAE
  8
SAPA_ANSLUTNING
  2
*X8
 10
611.73494132382416
 20
-632.61526454994691
 30
0.0
 50
90.0
  0
ARC
  5
EAF
  8
SAPA_ANSLUTNING
 10
-32.887531478042888
 20
26.736591691074501
 30
0.0
 40
8.6517977492931522
 50
215.0834086103728
 51
335.73630323658602
  0
ARC
  5
EB0
  8
SAPA_ANSLUTNING
 10
-33.001107298147993
 20
53.483870312700091
 30
0.0
 40
12.40812266731845
 50
235.66314081641681
 51
310.1527928163589
  0
INSERT
  5
EB1
  8
SAPA_ANSLUTNING
  6
CONTINUOUS
  2
*X77
 10
0.0
 20
0.0
 30
0.0
1001
ACAD
1000
HATCH
1002
{
1070
    19
1000
HEX
1040
0.25
1040
0.0
1000
R14_HATCH_DATA
1000
EB1
1011
1.0
1021
0.0
1031
0.0
1021
0.0
1031
0.0
1011
0.0
1021
0.0
1031
0.0
1021
1.0
1031
0.0
1011
0.0
1021
0.0
1031
0.0
1021
0.0
1031
1.0
1040
0.0
1010
0.0
1020
0.0
1030
1.0
1000
HEX
1070
     0
1070
     0
1071
        1
1071
        7
1070
     0
1070
     1
1071
        4
1040
-25.06783011044384
1040
-72.480494727145626
1040
-25.11398818740879
1040
-57.48049472714559
1040
-40.005681311932513
1040
-57.48049472714559
1040
-40.005681311932513
1040
-72.480494727145583
1071
        0
1070
     0
1070
     1
1040
0.0
1040
0.25
1070
     0
1070
     3
1040
0.0
1040
-36.04480312555922
1040
-326.07094910480282
1040
0.0
1040
1.374814999999999
1070
     2
1040
0.79375
1040
-1.587499999999999
1040
2.0943951023931939
1040
-36.04480312555922
1040
-326.07094910480282
1040
-1.190624715503902
1040
-0.6874074999999996
1070
     2
1040
0.7937499999999985
1040
-1.5874999999999959
1040
1.047197551196597
1040
-35.251053125559231
1040
-326.07094910480282
1040
-1.190624715503902
1040
0.6874075000000001
1070
     2
1040
0.79375
1040
-1.587499999999999
1040
0.0491501688804417
1071
        1
1040
-24.914516039545411
1040
-62.653134327899927
1040
0.0
1002
}
  0
LINE
  5
EB2
  8
SAPA_ANSLUTNING
 62
     3
 10
-40.000000373540217
 20
58.822858504106861
 30
0.0
 11
-40.000000373540217
 21
-95.524445940289809
 31
0.0
  0
LINE
  5
1424
  8
SAPA_GLAS
 10
10.999999999996451
 20
-85.000000000480867
 30
0.0
 11
10.999999999996451
 21
-81.900000000983269
 31
0.0
  0
LINE
  5
1425
  8
SAPA_GLAS
 10
10.999999999996451
 20
-81.900000000983269
 30
0.0
 11
20.000000000000199
 21
-81.900000000983269
 31
0.0
  0
LINE
  5
1426
  8
SAPA_GLAS
 10
20.000000000000199
 20
-81.900000000983269
 30
0.0
 11
20.000000000000199
 21
-85.000000000480867
 31
0.0
  0
ARC
  5
1427
  8
SAPA_GLAS
 10
44.384361324600519
 20
-81.927472822962542
 30
0.0
 40
8.2592372925440731
 50
158.49662819893419
 51
201.83969482901799
  0
LINE
  5
145F
  8
SAPA_FYLLNING
 10
30.607847129969741
 20
29.741791374795611
 30
0.0
 11
30.607847129969741
 21
-36.910857607580482
 31
0.0
  0
ARC
  5
1460
  8
SAPA_FYLLNING
 10
36.607847129969741
 20
-36.910857607580482
 30
0.0
 40
6.0000000000000009
 50
180.0
 51
0.0
  0
LINE
  5
1461
  8
SAPA_FYLLNING
 10
42.607847129969741
 20
23.74179137479555
 30
0.0
 11
42.607847129969741
 21
-36.910857607580482
 31
0.0
  0
LINE
  5
1462
  8
SAPA_FYLLNING
 10
54.607847129969741
 20
23.74179137479555
 30
0.0
 11
54.607847129969741
 21
-36.910857607580482
 31
0.0
  0
ARC
  5
1463
  8
SAPA_FYLLNING
 10
48.607847129969741
 20
23.74179137479555
 30
0.0
 40
6.0
 50
0.0
 51
180.0
  0
LINE
  5
17B6
  8
SAPA_GLAS
 10
54.271210382382613
 20
-50.910857607580482
 30
0.0
 11
12.99999999999644
 21
-50.910857607580482
 31
0.0
  0
LINE
  5
17B7
  8
SAPA_GLAS
 10
12.99999999999644
 20
-50.910857607580482
 30
0.0
 11
12.99999999999644
 21
-42.910857607580482
 31
0.0
  0
LINE
  5
17B8
  8
SAPA_GLAS
 10
12.99999999999644
 20
-42.910857607580482
 30
0.0
 11
54.271210382382613
 21
-42.910857607580482
 31
0.0
  0
LINE
  5
17E4
  8
SAPA_GLAS
 10
52.271210382382577
 20
-91.000000000480867
 30
0.0
 11
10.999999999996451
 21
-91.000000000480867
 31
0.0
  0
LINE
  5
17E5
  8
SAPA_GLAS
 10
10.999999999996451
 20
-91.000000000480867
 30
0.0
 11
10.999999999996451
 21
-85.000000000480867
 31
0.0
  0
LINE
  5
17E6
  8
SAPA_GLAS
 10
10.999999999996451
 20
-85.000000000480867
 30
0.0
 11
52.271210382382577
 21
-85.000000000480867
 31
0.0
  0
LINE
  5
17E7
  8
SAPA_GLAS
 10
12.373337959649851
 20
-85.000000000480867
 30
0.0
 11
12.373337959649851
 21
-84.931250000000247
 31
0.0
1001
GRADIENTCOLOR1ACI
1070
     5
1001
GRADIENTCOLOR2ACI
1070
     2
1001
ACAD
1010
0.0
1020
0.0
1030
0.0
  0
LINE
  5
17E8
  8
SAPA_GLAS
 10
12.373337959649851
 20
-83.343750000000242
 30
0.0
 11
12.373337959649851
 21
-82.550000000000225
 31
0.0
1001
GRADIENTCOLOR1ACI
1070
     5
1001
GRADIENTCOLOR2ACI
1070
     2
1001
ACAD
1010
0.0
1020
0.0
1030
0.0
  0
LINE
  5
17E9
  8
SAPA_GLAS
 10
13.74815328849985
 20
-85.000000000480867
 30
0.0
 11
13.74815328849985
 21
-84.931250000000247
 31
0.0
1001
GRADIENTCOLOR1ACI
1070
     5
1001
GRADIENTCOLOR2ACI
1070
     2
1001
ACAD
1010
0.0
1020
0.0
1030
0.0
  0
LINE
  5
17EA
  8
SAPA_GLAS
 10
13.74815328849985
 20
-83.343750000000242
 30
0.0
 11
13.74815328849985
 21
-82.550000000000225
 31
0.0
1001
GRADIENTCOLOR1ACI
1070
     5
1001
GRADIENTCOLOR2ACI
1070
     2
1001
ACAD
1010
0.0
1020
0.0
1030
0.0
  0
LINE
  5
17EB
  8
SAPA_GLAS
 10
15.12296861734985
 20
-85.000000000480867
 30
0.0
 11
15.12296861734985
 21
-84.931250000000247
 31
0.0
1001
GRADIENTCOLOR1ACI
1070
     5
1001
GRADIENTCOLOR2ACI
1070
     2
1001
ACAD
1010
0.0
1020
0.0
1030
0.0
  0
LINE
  5
17EC
  8
SAPA_GLAS
 10
15.12296861734985
 20
-83.343750000000242
 30
0.0
 11
15.12296861734985
 21
-82.550000000000225
 31
0.0
1001
GRADIENTCOLOR1ACI
1070
     5
1001
GRADIENTCOLOR2ACI
1070
     2
1001
ACAD
1010
0.0
1020
0.0
1030
0.0
  0
LINE
  5
17ED
  8
SAPA_GLAS
 10
16.497783946199849
 20
-85.000000000480867
 30
0.0
 11
16.497783946199849
 21
-84.931250000000247
 31
0.0
1001
GRADIENTCOLOR1ACI
1070
     5
1001
GRADIENTCOLOR2ACI
1070
     2
1001
ACAD
1010
0.0
1020
0.0
1030
0.0
  0
LINE
  5
17EE
  8
SAPA_GLAS
 10
16.497783946199849
 20
-83.343750000000242
 30
0.0
 11
16.497783946199849
 21
-82.550000000000225
 31
0.0
1001
GRADIENTCOLOR1ACI
1070
     5
1001
GRADIENTCOLOR2ACI
1070
     2
1001
ACAD
1010
0.0
1020
0.0
1030
0.0
  0
LINE
  5
17EF
  8
SAPA_GLAS
 10
17.872599275049851
 20
-85.000000000480867
 30
0.0
 11
17.872599275049851
 21
-84.931250000000247
 31
0.0
1001
GRADIENTCOLOR1ACI
1070
     5
1001
GRADIENTCOLOR2ACI
1070
     2
1001
ACAD
1010
0.0
1020
0.0
1030
0.0
  0
LINE
  5
17F0
  8
SAPA_GLAS
 10
17.872599275049851
 20
-83.343750000000242
 30
0.0
 11
17.872599275049851
 21
-82.550000000000225
 31
0.0
1001
GRADIENTCOLOR1ACI
1070
     5
1001
GRADIENTCOLOR2ACI
1070
     2
1001
ACAD
1010
0.0
1020
0.0
1030
0.0
  0
LINE
  5
17F1
  8
SAPA_GLAS
 10
19.247414603899848
 20
-85.000000000480867
 30
0.0
 11
19.247414603899848
 21
-84.931250000000247
 31
0.0
1001
GRADIENTCOLOR1ACI
1070
     5
1001
GRADIENTCOLOR2ACI
1070
     2
1001
ACAD
1010
0.0
1020
0.0
1030
0.0
  0
LINE
  5
17F2
  8
SAPA_GLAS
 10
19.247414603899848
 20
-83.343750000000242
 30
0.0
 11
19.247414603899848
 21
-82.550000000000225
 31
0.0
1001
GRADIENTCOLOR1ACI
1070
     5
1001
GRADIENTCOLOR2ACI
1070
     2
1001
ACAD
1010
0.0
1020
0.0
1030
0.0
  0
LINE
  5
17F3
  8
SAPA_GLAS
 10
20.000000000000188
 20
-83.702994639916056
 30
0.0
 11
19.934822273628988
 21
-83.740625017781639
 31
0.0
1001
GRADIENTCOLOR1ACI
1070
     5
1001
GRADIENTCOLOR2ACI
1070
     2
1001
ACAD
1010
0.0
1020
0.0
1030
0.0
  0
LINE
  5
17F4
  8
SAPA_GLAS
 10
18.560006945121192
 20
-84.534375017781642
 30
0.0
 11
17.872599280867291
 21
-84.931250017781636
 31
0.0
1001
GRADIENTCOLOR1ACI
1070
     5
1001
GRADIENTCOLOR2ACI
1070
     2
1001
ACAD
1010
0.0
1020
0.0
1030
0.0
  0
LINE
  5
17F5
  8
SAPA_GLAS
 10
19.934822273457879
 20
-82.153125017485308
 30
0.0
 11
19.247414609203989
 21
-82.550000017485303
 31
0.0
1001
GRADIENTCOLOR1ACI
1070
     5
1001
GRADIENTCOLOR2ACI
1070
     2
1001
ACAD
1010
0.0
1020
0.0
1030
0.0
  0
LINE
  5
17F6
  8
SAPA_GLAS
 10
17.872599280696189
 20
-83.343750017485306
 30
0.0
 11
17.185191616442289
 21
-83.740625017485314
 31
0.0
1001
GRADIENTCOLOR1ACI
1070
     5
1001
GRADIENTCOLOR2ACI
1070
     2
1001
ACAD
1010
0.0
1020
0.0
1030
0.0
  0
LINE
  5
17F7
  8
SAPA_GLAS
 10
15.810376287934499
 20
-84.534375017485289
 30
0.0
 11
15.122968623680601
 21
-84.931250017485283
 31
0.0
1001
GRADIENTCOLOR1ACI
1070
     5
1001
GRADIENTCOLOR2ACI
1070
     2
1001
ACAD
1010
0.0
1020
0.0
1030
0.0
  0
LINE
  5
17F8
  8
SAPA_GLAS
 10
17.18519161627119
 20
-82.153125017188927
 30
0.0
 11
16.49778395201729
 21
-82.550000017188921
 31
0.0
1001
GRADIENTCOLOR1ACI
1070
     5
1001
GRADIENTCOLOR2ACI
1070
     2
1001
ACAD
1010
0.0
1020
0.0
1030
0.0
  0
LINE
  5
17F9
  8
SAPA_GLAS
 10
15.1229686235095
 20
-83.343750017188924
 30
0.0
 11
14.4355609592556
 21
-83.740625017188918
 31
0.0
1001
GRADIENTCOLOR1ACI
1070
     5
1001
GRADIENTCOLOR2ACI
1070
     2
1001
ACAD
1010
0.0
1020
0.0
1030
0.0
  0
LINE
  5
17FA
  8
SAPA_GLAS
 10
13.0607456307478
 20
-84.534375017188935
 30
0.0
 11
12.373337966493899
 21
-84.931250017188916
 31
0.0
1001
GRADIENTCOLOR1ACI
1070
     5
1001
GRADIENTCOLOR2ACI
1070
     2
1001
ACAD
1010
0.0
1020
0.0
1030
0.0
  0
LINE
  5
17FB
  8
SAPA_GLAS
 10
14.435560959084491
 20
-82.153125016892574
 30
0.0
 11
13.74815329483059
 21
-82.550000016892568
 31
0.0
1001
GRADIENTCOLOR1ACI
1070
     5
1001
GRADIENTCOLOR2ACI
1070
     2
1001
ACAD
1010
0.0
1020
0.0
1030
0.0
  0
LINE
  5
17FC
  8
SAPA_GLAS
 10
12.373337966322801
 20
-83.343750016892585
 30
0.0
 11
11.6859303020689
 21
-83.740625016892565
 31
0.0
1001
GRADIENTCOLOR1ACI
1070
     5
1001
GRADIENTCOLOR2ACI
1070
     2
1001
ACAD
1010
0.0
1020
0.0
1030
0.0
  0
LINE
  5
17FD
  8
SAPA_GLAS
 10
11.6859303018978
 20
-82.153125016596235
 30
0.0
 11
10.999999999996451
 21
-82.549147061044266
 31
0.0
1001
GRADIENTCOLOR1ACI
1070
     5
1001
GRADIENTCOLOR2ACI
1070
     2
1001
ACAD
1010
0.0
1020
0.0
1030
0.0
  0
LINE
  5
17FE
  8
SAPA_GLAS
 10
13.748153276693801
 20
-84.931250014521765
 30
0.0
 11
13.0607456124399
 21
-84.534375014521757
 31
0.0
1001
GRADIENTCOLOR1ACI
1070
     5
1001
GRADIENTCOLOR2ACI
1070
     2
1001
ACAD
1010
0.0
1020
0.0
1030
0.0
  0
LINE
  5
17FF
  8
SAPA_GLAS
 10
11.6859302839321
 20
-83.740625014521768
 30
0.0
 11
10.99999999999644
 21
-83.344602980446197
 31
0.0
1001
GRADIENTCOLOR1ACI
1070
     5
1001
GRADIENTCOLOR2ACI
1070
     2
1001
ACAD
1010
0.0
1020
0.0
1030
0.0
  0
LINE
  5
1800
  8
SAPA_GLAS
 10
16.497783933880491
 20
-84.931250014225412
 30
0.0
 11
15.810376269626589
 21
-84.534375014225404
 31
0.0
1001
GRADIENTCOLOR1ACI
1070
     5
1001
GRADIENTCOLOR2ACI
1070
     2
1001
ACAD
1010
0.0
1020
0.0
1030
0.0
  0
LINE
  5
1801
  8
SAPA_GLAS
 10
14.4355609411188
 20
-83.740625014225415
 30
0.0
 11
13.748153276864899
 21
-83.343750014225407
 31
0.0
1001
GRADIENTCOLOR1ACI
1070
     5
1001
GRADIENTCOLOR2ACI
1070
     2
1001
ACAD
1010
0.0
1020
0.0
1030
0.0
  0
LINE
  5
1802
  8
SAPA_GLAS
 10
12.37333794835711
 20
-82.550000014225418
 30
0.0
 11
11.685930284103209
 21
-82.153125014225424
 31
0.0
1001
GRADIENTCOLOR1ACI
1070
     5
1001
GRADIENTCOLOR2ACI
1070
     2
1001
ACAD
1010
0.0
1020
0.0
1030
0.0
  0
LINE
  5
1803
  8
SAPA_GLAS
 10
19.247414591067191
 20
-84.931250013929059
 30
0.0
 11
18.560006926813291
 21
-84.534375013929065
 31
0.0
1001
GRADIENTCOLOR1ACI
1070
     5
1001
GRADIENTCOLOR2ACI
1070
     2
1001
ACAD
1010
0.0
1020
0.0
1030
0.0
  0
LINE
  5
1804
  8
SAPA_GLAS
 10
17.185191598305501
 20
-83.740625013929062
 30
0.0
 11
16.497783934051601
 21
-83.343750013929053
 31
0.0
1001
GRADIENTCOLOR1ACI
1070
     5
1001
GRADIENTCOLOR2ACI
1070
     2
1001
ACAD
1010
0.0
1020
0.0
1030
0.0
  0
LINE
  5
1805
  8
SAPA_GLAS
 10
15.1229686055438
 20
-82.550000013929065
 30
0.0
 11
14.4355609412899
 21
-82.153125013929056
 31
0.0
1001
GRADIENTCOLOR1ACI
1070
     5
1001
GRADIENTCOLOR2ACI
1070
     2
1001
ACAD
1010
0.0
1020
0.0
1030
0.0
  0
LINE
  5
1806
  8
SAPA_GLAS
 10
19.93482225549219
 20
-83.740625013632709
 30
0.0
 11
19.247414591238289
 21
-83.343750013632715
 31
0.0
1001
GRADIENTCOLOR1ACI
1070
     5
1001
GRADIENTCOLOR2ACI
1070
     2
1001
ACAD
1010
0.0
1020
0.0
1030
0.0
  0
LINE
  5
1807
  8
SAPA_GLAS
 10
17.8725992627305
 20
-82.550000013632712
 30
0.0
 11
17.185191598476599
 21
-82.153125013632703
 31
0.0
1001
GRADIENTCOLOR1ACI
1070
     5
1001
GRADIENTCOLOR2ACI
1070
     2
1001
ACAD
1010
0.0
1020
0.0
1030
0.0
  0
LINE
  5
1808
  8
SAPA_GLAS
 10
20.000000000000199
 20
-82.190755401574421
 30
0.0
 11
19.934822255663288
 21
-82.153125013336336
 31
0.0
1001
GRADIENTCOLOR1ACI
1070
     5
1001
GRADIENTCOLOR2ACI
1070
     2
1001
ACAD
1010
0.0
1020
0.0
1030
0.0
  0
LINE
  5
1825
  8
SAPA_GLAS
 10
21.01567513786274
 20
-85.000000000480853
 30
0.0
 11
20.00000000000021
 21
-83.984324862618323
 31
0.0
1001
GRADIENTCOLOR1ACI
1070
     5
1001
GRADIENTCOLOR2ACI
1070
     2
1001
ACAD
1010
0.0
1020
0.0
1030
0.0
  0
LINE
  5
1826
  8
SAPA_GLAS
 10
22.13820715299638
 20
-85.000000000480853
 30
0.0
 11
20.00000000000021
 21
-82.861792847484679
 31
0.0
1001
GRADIENTCOLOR1ACI
1070
     5
1001
GRADIENTCOLOR2ACI
1070
     2
1001
ACAD
1010
0.0
1020
0.0
1030
0.0
  0
LINE
  5
1827
  8
SAPA_GLAS
 10
23.26073916813003
 20
-85.000000000480867
 30
0.0
 11
19.976687515022761
 21
-81.715948347373583
 31
0.0
1001
GRADIENTCOLOR1ACI
1070
     5
1001
GRADIENTCOLOR2ACI
1070
     2
1001
ACAD
1010
0.0
1020
0.0
1030
0.0
  0
LINE
  5
1828
  8
SAPA_GLAS
 10
24.38327118326367
 20
-85.000000000480853
 30
0.0
 11
20.000000000000199
 21
-80.616728817217378
 31
0.0
1001
GRADIENTCOLOR1ACI
1070
     5
1001
GRADIENTCOLOR2ACI
1070
     2
1001
ACAD
1010
0.0
1020
0.0
1030
0.0
  0
LINE
  5
1829
  8
SAPA_GLAS
 10
25.50580319839732
 20
-85.000000000480853
 30
0.0
 11
20.184700961208112
 21
-79.678897763291644
 31
0.0
1001
GRADIENTCOLOR1ACI
1070
     5
1001
GRADIENTCOLOR2ACI
1070
     2
1001
ACAD
1010
0.0
1020
0.0
1030
0.0
  0
LINE
  5
182A
  8
SAPA_GLAS
 10
26.62833521353096
 20
-85.000000000480853
 30
0.0
 11
20.73693079196612
 21
-79.10859557891601
 31
0.0
1001
GRADIENTCOLOR1ACI
1070
     5
1001
GRADIENTCOLOR2ACI
1070
     2
1001
ACAD
1010
0.0
1020
0.0
1030
0.0
  0
LINE
  5
182B
  8
SAPA_GLAS
 10
27.7508672286646
 20
-85.000000000480867
 30
0.0
 11
21.650867230092871
 21
-78.90000000190912
 31
0.0
1001
GRADIENTCOLOR1ACI
1070
     5
1001
GRADIENTCOLOR2ACI
1070
     2
1001
ACAD
1010
0.0
1020
0.0
1030
0.0
  0
LINE
  5
182C
  8
SAPA_GLAS
 10
28.87339924379825
 20
-85.000000000480867
 30
0.0
 11
22.773399245157449
 21
-78.900000001840056
 31
0.0
1001
GRADIENTCOLOR1ACI
1070
     5
1001
GRADIENTCOLOR2ACI
1070
     2
1001
ACAD
1010
0.0
1020
0.0
1030
0.0
  0
LINE
  5
182D
  8
SAPA_GLAS
 10
29.99593125893189
 20
-85.000000000480853
 30
0.0
 11
23.895931260222039
 21
-78.900000001771005
 31
0.0
1001
GRADIENTCOLOR1ACI
1070
     5
1001
GRADIENTCOLOR2ACI
1070
     2
1001
ACAD
1010
0.0
1020
0.0
1030
0.0
  0
LINE
  5
182E
  8
SAPA_GLAS
 10
31.11846327406554
 20
-85.000000000480867
 30
0.0
 11
25.018463275286631
 21
-78.900000001701954
 31
0.0
1001
GRADIENTCOLOR1ACI
1070
     5
1001
GRADIENTCOLOR2ACI
1070
     2
1001
ACAD
1010
0.0
1020
0.0
1030
0.0
  0
LINE
  5
182F
  8
SAPA_GLAS
 10
32.240995289199176
 20
-85.000000000480867
 30
0.0
 11
26.14099529035121
 21
-78.90000000163289
 31
0.0
1001
GRADIENTCOLOR1ACI
1070
     5
1001
GRADIENTCOLOR2ACI
1070
     2
1001
ACAD
1010
0.0
1020
0.0
1030
0.0
  0
LINE
  5
1830
  8
SAPA_GLAS
 10
33.363527304332827
 20
-85.000000000480867
 30
0.0
 11
27.263527305415789
 21
-78.900000001563825
 31
0.0
1001
GRADIENTCOLOR1ACI
1070
     5
1001
GRADIENTCOLOR2ACI
1070
     2
1001
ACAD
1010
0.0
1020
0.0
1030
0.0
  0
LINE
  5
1831
  8
SAPA_GLAS
 10
34.48605931946647
 20
-85.000000000480867
 30
0.0
 11
28.386059320480381
 21
-78.900000001494774
 31
0.0
1001
GRADIENTCOLOR1ACI
1070
     5
1001
GRADIENTCOLOR2ACI
1070
     2
1001
ACAD
1010
0.0
1020
0.0
1030
0.0
  0
LINE
  5
1832
  8
SAPA_GLAS
 10
35.608591334600113
 20
-85.000000000480853
 30
0.0
 11
29.50859133554497
 21
-78.900000001425695
 31
0.0
1001
GRADIENTCOLOR1ACI
1070
     5
1001
GRADIENTCOLOR2ACI
1070
     2
1001
ACAD
1010
0.0
1020
0.0
1030
0.0
  0
LINE
  5
1833
  8
SAPA_GLAS
 10
36.709122633695983
 20
-84.977999284443086
 30
0.0
 11
30.631123350609549
 21
-78.900000001356645
 31
0.0
1001
GRADIENTCOLOR1ACI
1070
     5
1001
GRADIENTCOLOR2ACI
1070
     2
1001
ACAD
1010
0.0
1020
0.0
1030
0.0
  0
LINE
  5
1834
  8
SAPA_GLAS
 10
36.258293123724087
 20
-83.404637759337547
 30
0.0
 11
31.753655365674131
 21
-78.900000001287594
 31
0.0
1001
GRADIENTCOLOR1ACI
1070
     5
1001
GRADIENTCOLOR2ACI
1070
     2
1001
ACAD
1010
0.0
1020
0.0
1030
0.0
  0
LINE
  5
1835
  8
SAPA_GLAS
 10
36.128176174492538
 20
-82.151988794972354
 30
0.0
 11
32.876187380738713
 21
-78.90000000121853
 31
0.0
1001
GRADIENTCOLOR1ACI
1070
     5
1001
GRADIENTCOLOR2ACI
1070
     2
1001
ACAD
1010
0.0
1020
0.0
1030
0.0
  0
LINE
  5
1836
  8
SAPA_GLAS
 10
36.169658050853023
 20
-81.070938656199189
 30
0.0
 11
33.998719395803292
 21
-78.900000001149465
 31
0.0
1001
GRADIENTCOLOR1ACI
1070
     5
1001
GRADIENTCOLOR2ACI
1070
     2
1001
ACAD
1010
0.0
1020
0.0
1030
0.0
  0
LINE
  5
1837
  8
SAPA_GLAS
 10
36.328252807241839
 20
-80.107001397454354
 30
0.0
 11
35.121251410867892
 21
-78.900000001080414
 31
0.0
1001
GRADIENTCOLOR1ACI
1070
     5
1001
GRADIENTCOLOR2ACI
1070
     2
1001
ACAD
1010
0.0
1020
0.0
1030
0.0
  0
LINE
  5
1838
  8
SAPA_GLAS
 10
36.576947957207622
 20
-79.233164532286494
 30
0.0
 11
36.243783425932463
 21
-78.90000000101135
 31
0.0
1001
GRADIENTCOLOR1ACI
1070
     5
1001
GRADIENTCOLOR2ACI
1070
     2
1001
ACAD
1010
0.0
1020
0.0
1030
0.0
  0
LINE
  5
1839
  8
SAPA_GLAS
 10
36.58589333360456
 20
-84.647564300829117
 30
0.0
 11
36.233457633952803
 21
-85.000000000480867
 31
0.0
1001
GRADIENTCOLOR1ACI
1070
     5
1001
GRADIENTCOLOR2ACI
1070
     2
1001
ACAD
1010
0.0
1020
0.0
1030
0.0
  0
LINE
  5
183A
  8
SAPA_GLAS
 10
36.334696650382952
 20
-83.776228968917081
 30
0.0
 11
35.110925618819152
 21
-85.000000000480867
 31
0.0
1001
GRADIENTCOLOR1ACI
1070
     5
1001
GRADIENTCOLOR2ACI
1070
     2
1001
ACAD
1010
0.0
1020
0.0
1030
0.0
  0
LINE
  5
183B
  8
SAPA_GLAS
 10
36.172992167646441
 20
-82.815401436519934
 30
0.0
 11
33.988393603685509
 21
-85.000000000480867
 31
0.0
1001
GRADIENTCOLOR1ACI
1070
     5
1001
GRADIENTCOLOR2ACI
1070
     2
1001
ACAD
1010
0.0
1020
0.0
1030
0.0
  0
LINE
  5
183C
  8
SAPA_GLAS
 10
36.127284415166827
 20
-81.73857717386592
 30
0.0
 11
32.865861588551873
 21
-85.000000000480867
 31
0.0
1001
GRADIENTCOLOR1ACI
1070
     5
1001
GRADIENTCOLOR2ACI
1070
     2
1001
ACAD
1010
0.0
1020
0.0
1030
0.0
  0
LINE
  5
183D
  8
SAPA_GLAS
 10
36.250716498334207
 20
-80.492613075564904
 30
0.0
 11
31.743329573418219
 21
-85.000000000480867
 31
0.0
1001
GRADIENTCOLOR1ACI
1070
     5
1001
GRADIENTCOLOR2ACI
1070
     2
1001
ACAD
1010
0.0
1020
0.0
1030
0.0
  0
LINE
  5
183E
  8
SAPA_GLAS
 10
36.686623973327329
 20
-78.934173585438131
 30
0.0
 11
30.620797558284579
 21
-85.000000000480867
 31
0.0
1001
GRADIENTCOLOR1ACI
1070
     5
1001
GRADIENTCOLOR2ACI
1070
     2
1001
ACAD
1010
0.0
1020
0.0
1030
0.0
  0
LINE
  5
183F
  8
SAPA_GLAS
 10
35.598265542580741
 20
-78.900000001051069
 30
0.0
 11
29.498265543150939
 21
-85.000000000480867
 31
0.0
1001
GRADIENTCOLOR1ACI
1070
     5
1001
GRADIENTCOLOR2ACI
1070
     2
1001
ACAD
1010
0.0
1020
0.0
1030
0.0
  0
LINE
  5
1840
  8
SAPA_GLAS
 10
34.47573352737804
 20
-78.900000001120134
 30
0.0
 11
28.375733528017289
 21
-85.000000000480867
 31
0.0
1001
GRADIENTCOLOR1ACI
1070
     5
1001
GRADIENTCOLOR2ACI
1070
     2
1001
ACAD
1010
0.0
1020
0.0
1030
0.0
  0
LINE
  5
1841
  8
SAPA_GLAS
 10
33.353201512175332
 20
-78.900000001189198
 30
0.0
 11
27.253201512883649
 21
-85.000000000480867
 31
0.0
1001
GRADIENTCOLOR1ACI
1070
     5
1001
GRADIENTCOLOR2ACI
1070
     2
1001
ACAD
1010
0.0
1020
0.0
1030
0.0
  0
LINE
  5
1842
  8
SAPA_GLAS
 10
32.230669496972617
 20
-78.900000001258263
 30
0.0
 11
26.130669497749999
 21
-85.000000000480867
 31
0.0
1001
GRADIENTCOLOR1ACI
1070
     5
1001
GRADIENTCOLOR2ACI
1070
     2
1001
ACAD
1010
0.0
1020
0.0
1030
0.0
  0
LINE
  5
1843
  8
SAPA_GLAS
 10
31.10813748176993
 20
-78.900000001327314
 30
0.0
 11
25.008137482616359
 21
-85.000000000480867
 31
0.0
1001
GRADIENTCOLOR1ACI
1070
     5
1001
GRADIENTCOLOR2ACI
1070
     2
1001
ACAD
1010
0.0
1020
0.0
1030
0.0
  0
LINE
  5
1844
  8
SAPA_GLAS
 10
29.985605466567218
 20
-78.900000001396378
 30
0.0
 11
23.885605467482719
 21
-85.000000000480867
 31
0.0
1001
GRADIENTCOLOR1ACI
1070
     5
1001
GRADIENTCOLOR2ACI
1070
     2
1001
ACAD
1010
0.0
1020
0.0
1030
0.0
  0
LINE
  5
1845
  8
SAPA_GLAS
 10
28.86307345136451
 20
-78.900000001465443
 30
0.0
 11
22.763073452349062
 21
-85.000000000480867
 31
0.0
1001
GRADIENTCOLOR1ACI
1070
     5
1001
GRADIENTCOLOR2ACI
1070
     2
1001
ACAD
1010
0.0
1020
0.0
1030
0.0
  0
LINE
  5
1846
  8
SAPA_GLAS
 10
27.740541436161809
 20
-78.900000001534494
 30
0.0
 11
21.640541437215418
 21
-85.000000000480867
 31
0.0
1001
GRADIENTCOLOR1ACI
1070
     5
1001
GRADIENTCOLOR2ACI
1070
     2
1001
ACAD
1010
0.0
1020
0.0
1030
0.0
  0
LINE
  5
1847
  8
SAPA_GLAS
 10
26.618009420959101
 20
-78.900000001603544
 30
0.0
 11
20.518009422081779
 21
-85.000000000480867
 31
0.0
1001
GRADIENTCOLOR1ACI
1070
     5
1001
GRADIENTCOLOR2ACI
1070
     2
1001
ACAD
1010
0.0
1020
0.0
1030
0.0
  0
LINE
  5
1848
  8
SAPA_GLAS
 10
25.49547740575639
 20
-78.900000001672623
 30
0.0
 11
20.000000000000188
 21
-84.395477407428814
 31
0.0
1001
GRADIENTCOLOR1ACI
1070
     5
1001
GRADIENTCOLOR2ACI
1070
     2
1001
ACAD
1010
0.0
1020
0.0
1030
0.0
  0
LINE
  5
1849
  8
SAPA_GLAS
 10
24.372945390553689
 20
-78.900000001741674
 30
0.0
 11
20.000000000000188
 21
-83.272945392295185
 31
0.0
1001
GRADIENTCOLOR1ACI
1070
     5
1001
GRADIENTCOLOR2ACI
1070
     2
1001
ACAD
1010
0.0
1020
0.0
1030
0.0
  0
LINE
  5
184A
  8
SAPA_GLAS
 10
23.250413375350991
 20
-78.900000001810739
 30
0.0
 11
20.000000000000188
 21
-82.150413377161527
 31
0.0
1001
GRADIENTCOLOR1ACI
1070
     5
1001
GRADIENTCOLOR2ACI
1070
     2
1001
ACAD
1010
0.0
1020
0.0
1030
0.0
  0
LINE
  5
184B
  8
SAPA_GLAS
 10
22.12788136014828
 20
-78.900000001879803
 30
0.0
 11
20.000000000000199
 21
-81.027881362027884
 31
0.0
1001
GRADIENTCOLOR1ACI
1070
     5
1001
GRADIENTCOLOR2ACI
1070
     2
1001
ACAD
1010
0.0
1020
0.0
1030
0.0
  0
LINE
  5
184C
  8
SAPA_GLAS
 10
20.863704021853021
 20
-79.041645325041415
 30
0.0
 11
20.141645323123189
 21
-79.763704023771254
 31
0.0
1001
GRADIENTCOLOR1ACI
1070
     5
1001
GRADIENTCOLOR2ACI
1070
     2
1001
ACAD
1010
0.0
1020
0.0
1030
0.0
  0
ARC
  5
1AD5
  8
SAPA_PROFIL
 10
12.288210506169721
 20
-33.900000000001832
 30
0.0
 40
0.2999999999998626
 50
268.44557377481141
 51
44.215333579229352
  0
LINE
  5
1AD6
  8
SAPA_PROFIL
 10
10.30355480481893
 20
-31.430030478058029
 30
0.0
 11
12.50322770786414
 21
-33.690792918440479
 31
0.0
  0
ARC
  5
1AD7
  8
SAPA_PROFIL
 10
10.050958743898031
 20
-31.59187988339287
 30
0.0
 40
0.2999999999999829
 50
32.64947327816337
 51
90.000000000011198
  0
LINE
  5
1AD8
  8
SAPA_PROFIL
 10
9.4999996264616016
 20
-31.29187988339288
 30
0.0
 11
10.050958743897979
 21
-31.29187988339288
 31
0.0
  0
ARC
  5
1AD9
  8
SAPA_PROFIL
 10
9.4999996264617153
 20
-31.591879883392721
 30
0.0
 40
0.2999999999998408
 50
90.000000000021672
 51
180.00000000002171
  0
LINE
  5
1ADA
  8
SAPA_PROFIL
 10
9.1999996264618744
 20
-56.693485944234958
 30
0.0
 11
9.1999996264618744
 21
-31.591879883392831
 31
0.0
  0
ARC
  5
1ADB
  8
SAPA_PROFIL
 10
8.6999996264618602
 20
-56.693485944234951
 30
0.0
 40
0.5000000000000142
 50
270.00000000000142
 51
359.99999999999841
  0
LINE
  5
1ADC
  8
SAPA_PROFIL
 10
6.9999996264618281
 20
-57.193485944234972
 30
0.0
 11
8.6999996264618744
 21
-57.193485944234972
 31
0.0
  0
ARC
  5
1ADD
  8
SAPA_PROFIL
 10
6.999999626461805
 20
-56.693485944234993
 30
0.0
 40
0.4999999999999769
 50
179.9999999999975
 51
270.00000000000267
  0
LINE
  5
1ADE
  8
SAPA_PROFIL
 10
6.4999996264622828
 20
-43.991879883392407
 30
0.0
 11
6.4999996264618281
 21
-56.693485944234958
 31
0.0
  0
ARC
  5
1ADF
  8
SAPA_PROFIL
 10
6.1999996264623292
 20
-43.991879883392407
 30
0.0
 40
0.2999999999999545
 50
0.0
 51
90.000000000043414
  0
LINE
  5
1AE0
  8
SAPA_PROFIL
 10
5.2999996264620099
 20
-43.69187988339246
 30
0.0
 11
6.1999996264621009
 21
-43.69187988339246
 31
0.0
  0
ARC
  5
1AE1
  8
SAPA_PROFIL
 10
5.2999996264620099
 20
-43.991879883392642
 30
0.0
 40
0.3000000000001819
 50
90.0
 51
180.0
  0
LINE
  5
1AE2
  8
SAPA_PROFIL
 10
4.9999996264627384
 20
-58.393485944235231
 30
0.0
 11
4.9999996264618281
 21
-43.991879883392642
 31
0.0
  0
ARC
  5
1AE3
  8
SAPA_PROFIL
 10
5.2999996264624576
 20
-58.393485944235238
 30
0.0
 40
0.29999999999972
 50
179.99999999999861
 51
270.00000000000131
  0
LINE
  5
1AE4
  8
SAPA_PROFIL
 10
14.39999962646124
 20
-58.69348594423451
 30
0.0
 11
5.2999996264624647
 21
-58.693485944234958
 31
0.0
  0
ARC
  5
1AE5
  8
SAPA_PROFIL
 10
14.54999962647077
 20
-71.454205507059442
 30
0.0
 40
12.76160114409887
 50
89.326529270374465
 51
90.673470729712392
  0
ARC
  5
1AE6
  8
SAPA_PROFIL
 10
14.84999962645319
 20
-48.309870737645902
 30
0.0
 40
10.38469858775357
 50
269.17237214592433
 51
270.82762785416247
  0
LINE
  5
1AE7
  8
SAPA_PROFIL
 10
17.79999962646087
 20
-58.693485944234062
 30
0.0
 11
14.99999962646114
 21
-58.693485944234062
 31
0.0
  0
LINE
  5
1AE8
  8
SAPA_PROFIL
 10
18.386383642221691
 20
-58.228562524668689
 30
0.0
 11
17.79999962646087
 21
-58.693485944234062
 31
0.0
  0
ARC
  5
1AE9
  8
SAPA_PROFIL
 10
18.199999626460961
 20
-57.993485944233868
 30
0.0
 40
0.3000000000000398
 50
308.4096710633973
 51
89.999999999998636
  0
LINE
  5
1AEA
  8
SAPA_PROFIL
 10
16.49999962646115
 20
-57.693485944234048
 30
0.0
 11
18.199999626460961
 21
-57.693485944233828
 31
0.0
  0
ARC
  5
1AEB
  8
SAPA_PROFIL
 10
16.49999962646115
 20
-57.393485944233873
 30
0.0
 40
0.3000000000001819
 50
180.0
 51
270.0
  0
LINE
  5
1AEC
  8
SAPA_PROFIL
 10
16.199999626460961
 20
-53.193485944234062
 30
0.0
 11
16.199999626460961
 21
-57.393485944233873
 31
0.0
  0
ARC
  5
1AED
  8
SAPA_PROFIL
 10
16.499999626460919
 20
-53.193485944234283
 30
0.0
 40
0.2999999999999545
 50
89.999999999956557
 51
179.99999999995649
  0
LINE
  5
1AEE
  8
SAPA_PROFIL
 10
22.99999962646115
 20
-52.893485944234101
 30
0.0
 11
16.49999962646115
 21
-52.893485944234328
 31
0.0
  0
ARC
  5
1AEF
  8
SAPA_PROFIL
 10
22.99999962646115
 20
-53.193485944233828
 30
0.0
 40
0.2999999999997271
 50
359.99999999995657
 51
90.0
  0
LINE
  5
1AF0
  8
SAPA_PROFIL
 10
23.299999626460881
 20
-57.393485944234101
 30
0.0
 11
23.299999626460881
 21
-53.193485944234062
 31
0.0
  0
ARC
  5
1AF1
  8
SAPA_PROFIL
 10
22.9999996264612
 20
-57.393485944234151
 30
0.0
 40
0.2999999999996703
 50
269.99999999998909
 51
0.0000000000108563
  0
LINE
  5
1AF2
  8
SAPA_PROFIL
 10
21.79999962646087
 20
-57.693485944234048
 30
0.0
 11
22.99999962646115
 21
-57.693485944233828
 31
0.0
  0
ARC
  5
1AF3
  8
SAPA_PROFIL
 10
21.799999626460881
 20
-57.993485944233989
 30
0.0
 40
0.2999999999999416
 50
90.000000000001336
 51
231.5903289365875
  0
LINE
  5
1AF4
  8
SAPA_PROFIL
 10
22.199999626460968
 20
-58.693485944234062
 30
0.0
 11
21.613615610700151
 21
-58.228562524668689
 31
0.0
  0
LINE
  5
1AF5
  8
SAPA_PROFIL
 10
24.49999962646115
 20
-58.693485944234062
 30
0.0
 11
22.199999626460968
 21
-58.693485944234062
 31
0.0
  0
ARC
  5
1AF6
  8
SAPA_PROFIL
 10
24.499999626460919
 20
-58.393485944234101
 30
0.0
 40
0.2999999999999545
 50
270.00000000004343
 51
0.0000000000434252
  0
LINE
  5
1AF7
  8
SAPA_PROFIL
 10
24.799999626460881
 20
-51.193485944234062
 30
0.0
 11
24.799999626460881
 21
-58.393485944233881
 31
0.0
  0
ARC
  5
1AF8
  8
SAPA_PROFIL
 10
24.499999626460919
 20
-51.193485944234062
 30
0.0
 40
0.2999999999999545
 50
0.0
 51
90.000000000043414
  0
LINE
  5
1AF9
  8
SAPA_PROFIL
 10
22.699999626460961
 20
-50.893485944234101
 30
0.0
 11
24.499999626460699
 21
-50.893485944234101
 31
0.0
  0
LINE
  5
1AFA
  8
SAPA_PROFIL
 10
22.699999626460961
 20
-51.093485944233919
 30
0.0
 11
22.699999626460961
 21
-50.893485944234101
 31
0.0
  0
ARC
  5
1AFB
  8
SAPA_PROFIL
 10
22.399999626461241
 20
-51.093485944234153
 30
0.0
 40
0.2999999999997271
 50
270.0
 51
0.0000000000434252
  0
LINE
  5
1AFC
  8
SAPA_PROFIL
 10
14.99999962646114
 20
-51.393485944233873
 30
0.0
 11
22.399999626461241
 21
-51.393485944233873
 31
0.0
  0
ARC
  5
1AFD
  8
SAPA_PROFIL
 10
14.99999962646114
 20
-51.693485944234048
 30
0.0
 40
0.3000000000001819
 50
90.0
 51
180.0
  0
LINE
  5
1AFE
  8
SAPA_PROFIL
 10
14.69999962646096
 20
-56.69348594423451
 30
0.0
 11
14.69999962646096
 21
-51.693485944234048
 31
0.0
  0
ARC
  5
1AFF
  8
SAPA_PROFIL
 10
14.199999626460951
 20
-56.693485944234503
 30
0.0
 40
0.5000000000000142
 50
270.00000000000142
 51
359.99999999999841
  0
LINE
  5
1B00
  8
SAPA_PROFIL
 10
11.19999962646096
 20
-57.193485944234737
 30
0.0
 11
14.19999962646096
 21
-57.19348594423451
 31
0.0
  0
ARC
  5
1B01
  8
SAPA_PROFIL
 10
11.199999626460819
 20
-56.693485944234652
 30
0.0
 40
0.5000000000000853
 50
180.00000000000969
 51
270.00000000001631
  0
LINE
  5
1B02
  8
SAPA_PROFIL
 10
10.699999626461871
 20
-34.500000000001712
 30
0.0
 11
10.699999626460739
 21
-56.693485944234737
 31
0.0
  0
ARC
  5
1B03
  8
SAPA_PROFIL
 10
10.99999962646184
 20
-34.50000000000172
 30
0.0
 40
0.2999999999999687
 50
90.000000000002018
 51
179.99999999999719
  0
LINE
  5
1B04
  8
SAPA_PROFIL
 10
12.288210506169831
 20
-34.200000000001751
 30
0.0
 11
10.999999626461831
 21
-34.200000000001751
 31
0.0
  0
ARC
  5
1B05
  8
SAPA_PROFIL
  6
CONTINUOUS
 62
     7
 10
15.99999999999703
 20
-74.000000000957385
 30
0.0
 40
0.4999999999996021
 50
0.000000000043968
 51
90.000000000044764
  0
LINE
  5
1B06
  8
SAPA_PROFIL
  6
CONTINUOUS
 62
     7
 10
14.99999999999663
 20
-73.500000000956987
 30
0.0
 11
15.999999999996639
 21
-73.500000000957783
 31
0.0
  0
ARC
  5
1B07
  8
SAPA_PROFIL
  6
CONTINUOUS
 62
     7
 10
14.99999999999633
 20
-76.000000000962743
 30
0.0
 40
2.5000000000057541
 50
89.999999999993079
 51
149.99999997874599
  0
ARC
  5
1B08
  8
SAPA_PROFIL
  6
CONTINUOUS
 62
     7
 10
12.401923789195299
 20
-74.500000000005031
 30
0.0
 40
0.4999999999948131
 50
270.0000000010715
 51
329.999999979584
  0
LINE
  5
1B09
  8
SAPA_PROFIL
  6
CONTINUOUS
 62
     7
 10
7.3999999999974371
 20
-74.999999999999844
 30
0.0
 11
12.40192378920465
 21
-74.999999999999844
 31
0.0
  0
ARC
  5
1B0A
  8
SAPA_PROFIL
  6
CONTINUOUS
 62
     7
 10
7.399999999997438
 20
-74.499999999999844
 30
0.0
 40
0.5000000000000018
 50
180.00000000000651
 51
269.99999999999977
  0
LINE
  5
1B0B
  8
SAPA_PROFIL
  6
CONTINUOUS
 62
     7
 10
6.8999999999972159
 20
-72.799999999999812
 30
0.0
 11
6.8999999999974371
 21
-74.499999999999901
 31
0.0
  0
ARC
  5
1B0C
  8
SAPA_PROFIL
  6
CONTINUOUS
 62
     7
 10
6.5999999999972321
 20
-72.799999999999841
 30
0.0
 40
0.2999999999999841
 50
0.0000000000054281
 51
70.528779365656021
  0
ARC
  5
1B0D
  8
SAPA_PROFIL
  6
CONTINUOUS
 62
     7
 10
6.7999999999966629
 20
-72.234314575051371
 30
0.0
 40
0.2999999999991045
 50
179.99999999979369
 51
250.52877936541611
  0
LINE
  5
1B0E
  8
SAPA_PROFIL
  6
CONTINUOUS
 62
     7
 10
6.4999999999966711
 20
-70.799999999999571
 30
0.0
 11
6.4999999999975593
 21
-72.234314575050291
 31
0.0
  0
ARC
  5
1B0F
  8
SAPA_PROFIL
  6
CONTINUOUS
 62
     7
 10
6.1999999999969582
 20
-70.79999999999913
 30
0.0
 40
0.2999999999997271
 50
359.99999999991587
 51
89.999999999905015
  0
LINE
  5
1B10
  8
SAPA_PROFIL
  6
CONTINUOUS
 62
     7
 10
5.5999999999968431
 20
-70.499999999999815
 30
0.0
 11
6.1999999999974547
 21
-70.499999999999403
 31
0.0
  0
ARC
  5
1B11
  8
SAPA_PROFIL
  6
CONTINUOUS
 62
     7
 10
5.5999999999975438
 20
-70.799999999999812
 30
0.0
 40
0.3000000000000096
 50
90.000000000134023
 51
179.99999999995649
  0
LINE
  5
1B12
  8
SAPA_PROFIL
  6
CONTINUOUS
 62
     7
 10
5.2999999999966461
 20
-72.199999999999676
 30
0.0
 11
5.2999999999975351
 21
-70.799999999999585
 31
0.0
  0
ARC
  5
1B13
  8
SAPA_PROFIL
  6
CONTINUOUS
 62
     7
 10
4.9999999999969482
 20
-72.200000000000145
 30
0.0
 40
0.2999999999996987
 50
270.00000000009362
 51
0.0000000000895644
  0
LINE
  5
1B14
  8
SAPA_PROFIL
  6
CONTINUOUS
 62
     7
 10
-5.0000000000031442
 20
-72.499999999999844
 30
0.0
 11
4.9999999999974376
 21
-72.499999999999844
 31
0.0
  0
ARC
  5
1B15
  8
SAPA_PROFIL
  6
CONTINUOUS
 62
     7
 10
-5.0000000000031397
 20
-72.199999999999662
 30
0.0
 40
0.3000000000001783
 50
180.0
 51
269.99999999999932
  0
LINE
  5
1B16
  8
SAPA_PROFIL
  6
CONTINUOUS
 62
     7
 10
-5.3000000000033261
 20
-70.799999999999585
 30
0.0
 11
-5.3000000000033181
 21
-72.199999999999662
 31
0.0
  0
ARC
  5
1B17
  8
SAPA_PROFIL
  6
CONTINUOUS
 62
     7
 10
-5.6000000000028276
 20
-70.799999999999358
 30
0.0
 40
0.2999999999994998
 50
359.99999999995657
 51
89.999999999954724
  0
LINE
  5
1B18
  8
SAPA_PROFIL
  6
CONTINUOUS
 62
     7
 10
-6.200000000003139
 20
-70.499999999999858
 30
0.0
 11
-5.6000000000025913
 21
-70.499999999999858
 31
0.0
  0
ARC
  5
1B19
  8
SAPA_PROFIL
  6
CONTINUOUS
 62
     7
 10
-6.2000000000031408
 20
-70.80000000000004
 30
0.0
 40
0.3000000000001801
 50
89.999999999999673
 51
179.99999999991309
  0
LINE
  5
1B1A
  8
SAPA_PROFIL
  6
CONTINUOUS
 62
     7
 10
-6.5000000000024194
 20
-72.234314575049893
 30
0.0
 11
-6.5000000000033209
 21
-70.799999999999585
 31
0.0
  0
ARC
  5
1B1B
  8
SAPA_PROFIL
  6
CONTINUOUS
 62
     7
 10
-6.8000000000024183
 20
-72.234314575050092
 30
0.0
 40
0.3000000000000111
 50
289.47122063434227
 51
0.000000000035283
  0
ARC
  5
1B1C
  8
SAPA_PROFIL
  6
CONTINUOUS
 62
     7
 10
-6.6000000000038739
 20
-72.799999999999855
 30
0.0
 40
0.2999999999999998
 50
109.4712206343425
 51
179.99999999999179
  0
LINE
  5
1B1D
  8
SAPA_PROFIL
  6
CONTINUOUS
 62
     7
 10
-6.900000000004769
 20
-80.299999999999585
 30
0.0
 11
-6.9000000000038737
 21
-72.799999999999827
 31
0.0
  0
ARC
  5
1B1E
  8
SAPA_PROFIL
  6
CONTINUOUS
 62
     7
 10
-5.900000000004769
 20
-80.299999999999585
 30
0.0
 40
1.0
 50
180.0
 51
270.0
  0
LINE
  5
1B1F
  8
SAPA_PROFIL
  6
CONTINUOUS
 62
     7
 10
-5.087369741827775
 20
-81.300000000000068
 30
0.0
 11
-5.900000000004769
 21
-81.299999999999585
 31
0.0
  0
ARC
  5
1B20
  8
SAPA_PROFIL
  6
CONTINUOUS
 62
     7
 10
-5.0873697418275894
 20
-81.000000000000057
 30
0.0
 40
0.30000000000001
 50
269.99999999996447
 51
319.99999999999898
  0
LINE
  5
1B21
  8
SAPA_PROFIL
  6
CONTINUOUS
 62
     7
 10
-4.270186667067331
 20
-80.492836282905486
 30
0.0
 11
-4.8575564088918908
 21
-81.192836282906015
 31
0.0
  0
ARC
  5
1B22
  8
SAPA_PROFIL
  6
CONTINUOUS
 62
     7
 10
-4.5000000000028582
 20
-80.299999999999656
 30
0.0
 40
0.299999999999784
 50
319.99999999999881
 51
89.999999999916199
  0
LINE
  5
1B23
  8
SAPA_PROFIL
  6
CONTINUOUS
 62
     7
 10
-5.3000000000044061
 20
-79.999999999999361
 30
0.0
 11
-4.5000000000024194
 21
-79.999999999999872
 31
0.0
  0
ARC
  5
1B24
  8
SAPA_PROFIL
  6
CONTINUOUS
 62
     7
 10
-5.300000000004407
 20
-79.700000000000159
 30
0.0
 40
0.2999999999991996
 50
179.99999999990499
 51
270.00000000000028
  0
LINE
  5
1B25
  8
SAPA_PROFIL
  6
CONTINUOUS
 62
     7
 10
-5.6000000000036776
 20
-75.299999999999116
 30
0.0
 11
-5.6000000000036074
 21
-79.699999999999662
 31
0.0
  0
ARC
  5
1B26
  8
SAPA_PROFIL
  6
CONTINUOUS
 62
     7
 10
-5.3000000000037311
 20
-75.299999999999358
 30
0.0
 40
0.2999999999999545
 50
89.999999999956557
 51
179.9999999999539
  0
LINE
  5
1B27
  8
SAPA_PROFIL
  6
CONTINUOUS
 62
     7
 10
5.2999999999959426
 20
-74.999999999999403
 30
0.0
 11
-5.3000000000035028
 21
-74.999999999999403
 31
0.0
  0
ARC
  5
1B28
  8
SAPA_PROFIL
  6
CONTINUOUS
 62
     7
 10
5.2999999999961398
 20
-75.299999999999372
 30
0.0
 40
0.2999999999999563
 50
0.0000000000488533
 51
90.000000000037645
  0
LINE
  5
1B29
  8
SAPA_PROFIL
  6
CONTINUOUS
 62
     7
 10
5.599999999997034
 20
-79.699999999999662
 30
0.0
 11
5.5999999999960961
 21
-75.299999999999116
 31
0.0
  0
ARC
  5
1B2A
  8
SAPA_PROFIL
  6
CONTINUOUS
 62
     7
 10
5.2999999999968379
 20
-79.699999999999676
 30
0.0
 40
0.3000000000001819
 50
270.0
 51
0.0000000000027141
  0
LINE
  5
1B2B
  8
SAPA_PROFIL
  6
CONTINUOUS
 62
     7
 10
4.4999999999966418
 20
-79.999999999999844
 30
0.0
 11
5.2999999999968379
 21
-79.999999999999844
 31
0.0
  0
ARC
  5
1B2C
  8
SAPA_PROFIL
  6
CONTINUOUS
 62
     7
 10
4.4999999999969988
 20
-80.299999999999983
 30
0.0
 40
0.3000000000001586
 50
90.000000000068184
 51
219.9999999998567
  0
LINE
  5
1B2D
  8
SAPA_PROFIL
  6
CONTINUOUS
 62
     7
 10
4.8575564088852552
 20
-81.192836282906015
 30
0.0
 11
4.2701866670607016
 21
-80.492836282905486
 31
0.0
  0
ARC
  5
1B2E
  8
SAPA_PROFIL
  6
CONTINUOUS
 62
     7
 10
5.0873697418209503
 20
-81.000000000000057
 30
0.0
 40
0.2999999999999971
 50
219.99999999999929
 51
269.99999999999932
  0
LINE
  5
1B2F
  8
SAPA_PROFIL
  6
CONTINUOUS
 62
     7
 10
5.8999999999963491
 20
-81.300000000000068
 30
0.0
 11
5.0873697418209458
 21
-81.300000000000068
 31
0.0
  0
ARC
  5
1B30
  8
SAPA_PROFIL
  6
CONTINUOUS
 62
     7
 10
5.8999999999963491
 20
-80.300000000000054
 30
0.0
 40
1.0
 50
270.0
 51
0.0
  0
LINE
  5
1B31
  8
SAPA_PROFIL
  6
CONTINUOUS
 62
     7
 10
6.8999999999963491
 20
-77.999999999999403
 30
0.0
 11
6.8999999999963491
 21
-80.300000000000054
 31
0.0
  0
ARC
  5
1B32
  8
SAPA_PROFIL
  6
CONTINUOUS
 62
     7
 10
7.3999999999963491
 20
-77.999999999999403
 30
0.0
 40
0.5
 50
90.0
 51
180.0
  0
LINE
  5
1B33
  8
SAPA_PROFIL
  6
CONTINUOUS
 62
     7
 10
15.99999999999644
 20
-77.500000000003226
 30
0.0
 11
7.3999999999963491
 21
-77.499999999999403
 31
0.0
  0
ARC
  5
1B34
  8
SAPA_PROFIL
  6
CONTINUOUS
 62
     7
 10
15.999999999996639
 20
-77.000000000003226
 30
0.0
 40
0.5000000000000036
 50
269.9999999999776
 51
0.0
  0
LINE
  5
1B35
  8
SAPA_PROFIL
  6
CONTINUOUS
 62
     7
 10
16.499999999996639
 20
-74.000000000957002
 30
0.0
 11
16.499999999996639
 21
-77.000000000003226
 31
0.0
  0
LINE
  5
1B36
  8
SAPA_PROFIL
 10
24.09999999999993
 20
-71.000000000000142
 30
0.0
 11
24.09999999999993
 21
-70.200000000956976
 31
0.0
  0
ARC
  5
1B37
  8
SAPA_PROFIL
 10
23.799999999999951
 20
-71.000000000000171
 30
0.0
 40
0.2999999999999829
 50
270.00000000000472
 51
0.0000000000054281
  0
LINE
  5
1B38
  8
SAPA_PROFIL
 10
22.399999999999888
 20
-71.300000000000153
 30
0.0
 11
23.799999999999979
 21
-71.300000000000153
 31
0.0
  0
ARC
  5
1B39
  8
SAPA_PROFIL
 10
22.399999999999942
 20
-71.600000000000279
 30
0.0
 40
0.300000000000125
 50
90.000000000010829
 51
179.99999999998909
  0
LINE
  5
1B3A
  8
SAPA_PROFIL
 10
22.09999999999993
 20
-76.900000000000176
 30
0.0
 11
22.09999999999982
 21
-71.600000000000222
 31
0.0
  0
ARC
  5
1B3B
  8
SAPA_PROFIL
 10
22.399999999999888
 20
-76.900000000000176
 30
0.0
 40
0.2999999999999545
 50
180.0
 51
270.0
  0
LINE
  5
1B3C
  8
SAPA_PROFIL
 10
33.199999999999839
 20
-77.200000000000131
 30
0.0
 11
22.399999999999888
 21
-77.200000000000131
 31
0.0
  0
ARC
  5
1B3D
  8
SAPA_PROFIL
 10
33.199999999999868
 20
-76.900000000000091
 30
0.0
 40
0.3000000000000398
 50
269.9999999999946
 51
359.99999999998369
  0
LINE
  5
1B3E
  8
SAPA_PROFIL
 10
33.499999999999908
 20
-71.600000000000222
 30
0.0
 11
33.499999999999908
 21
-76.900000000000176
 31
0.0
  0
ARC
  5
1B3F
  8
SAPA_PROFIL
 10
33.199999999999783
 20
-71.600000000000279
 30
0.0
 40
0.300000000000125
 50
0.0000000000108563
 51
89.999999999989143
  0
LINE
  5
1B40
  8
SAPA_PROFIL
 10
31.799999999999859
 20
-71.300000000000153
 30
0.0
 11
33.199999999999839
 21
-71.300000000000153
 31
0.0
  0
ARC
  5
1B41
  8
SAPA_PROFIL
 10
31.799999999999891
 20
-71.000000000000171
 30
0.0
 40
0.2999999999999829
 50
179.99999999999449
 51
269.9999999999946
  0
LINE
  5
1B42
  8
SAPA_PROFIL
 10
31.499999999999911
 20
-70.200000000956976
 30
0.0
 11
31.499999999999911
 21
-71.000000000000142
 31
0.0
  0
ARC
  5
1B43
  8
SAPA_PROFIL
 10
31.799999999999891
 20
-70.200000000956948
 30
0.0
 40
0.2999999999999829
 50
90.000000000005414
 51
180.0000000000054
  0
LINE
  5
1B44
  8
SAPA_PROFIL
 10
33.199999999999953
 20
-69.900000000956965
 30
0.0
 11
31.799999999999859
 21
-69.900000000956965
 31
0.0
  0
ARC
  5
1B45
  8
SAPA_PROFIL
 10
33.199999999999932
 20
-69.600000000956982
 30
0.0
 40
0.2999999999999829
 50
270.0000000000054
 51
0.0000000000054281
  0
LINE
  5
1B46
  8
SAPA_PROFIL
 10
33.499999999999908
 20
-67.600000000956953
 30
0.0
 11
33.499999999999908
 21
-69.600000000956953
 31
0.0
  0
ARC
  5
1B47
  8
SAPA_PROFIL
 10
33.199999999999932
 20
-67.600000000956925
 30
0.0
 40
0.2999999999999829
 50
359.99999999999449
 51
89.999999999994586
  0
LINE
  5
1B48
  8
SAPA_PROFIL
 10
22.399999999999771
 20
-67.300000000956942
 30
0.0
 11
33.199999999999953
 21
-67.300000000956942
 31
0.0
  0
ARC
  5
1B49
  8
SAPA_PROFIL
 10
22.3999999999998
 20
-67.600000000956925
 30
0.0
 40
0.2999999999999829
 50
90.000000000005414
 51
180.0000000000054
  0
LINE
  5
1B4A
  8
SAPA_PROFIL
 10
22.09999999999982
 20
-69.600000000956953
 30
0.0
 11
22.09999999999982
 21
-67.600000000956953
 31
0.0
  0
ARC
  5
1B4B
  8
SAPA_PROFIL
 10
22.3999999999998
 20
-69.600000000956982
 30
0.0
 40
0.2999999999999829
 50
179.99999999999449
 51
269.99999999999392
  0
LINE
  5
1B4C
  8
SAPA_PROFIL
 10
23.799999999999979
 20
-69.900000000956965
 30
0.0
 11
22.399999999999771
 21
-69.900000000956965
 31
0.0
  0
ARC
  5
1B4D
  8
SAPA_PROFIL
 10
23.799999999999951
 20
-70.200000000956948
 30
0.0
 40
0.2999999999999865
 50
359.99999999999449
 51
89.999999999993875
  0
ARC
  5
1B4E
  8
SAPA_PROFIL
  6
CONTINUOUS
 62
     7
 10
18.30625611558639
 20
-80.199999999999392
 30
0.0
 40
0.2999999999995566
 50
270.00000000009021
 51
356.41667826716917
  0
LINE
  5
1B4F
  8
SAPA_PROFIL
  6
CONTINUOUS
 62
     7
 10
11.29999999999986
 20
-80.499999999998835
 30
0.0
 11
18.306256115586869
 21
-80.499999999998948
 31
0.0
  0
ARC
  5
1B50
  8
SAPA_PROFIL
  6
CONTINUOUS
 62
     7
 10
11.29999999999986
 20
-80.799999999998889
 30
0.0
 40
0.3000000000000682
 50
90.0
 51
180.0
  0
LINE
  5
1B51
  8
SAPA_PROFIL
  6
CONTINUOUS
 62
     7
 10
10.99999999999979
 20
-81.600000000982931
 30
0.0
 11
10.99999999999979
 21
-80.799999999998889
 31
0.0
  0
ARC
  5
1B52
  8
SAPA_PROFIL
  6
CONTINUOUS
 62
     7
 10
11.29999999999983
 20
-81.600000000982917
 30
0.0
 40
0.3000000000000398
 50
180.0000000000054
 51
270.0000000000054
  0
LINE
  5
1B53
  8
SAPA_PROFIL
  6
CONTINUOUS
 62
     7
 10
19.699999999999839
 20
-81.900000000982885
 30
0.0
 11
11.29999999999986
 21
-81.900000000982942
 31
0.0
  0
ARC
  5
1B54
  8
SAPA_PROFIL
  6
CONTINUOUS
 62
     7
 10
19.699999999999839
 20
-81.600000000982931
 30
0.0
 40
0.2999999999999545
 50
270.0
 51
0.0
  0
LINE
  5
1B55
  8
SAPA_PROFIL
  6
CONTINUOUS
 62
     7
 10
19.99999999999979
 20
-80.400000001917903
 30
0.0
 11
19.99999999999979
 21
-81.600000000982931
 31
0.0
  0
ARC
  5
1B56
  8
SAPA_PROFIL
  6
CONTINUOUS
 62
     7
 10
21.49999999999979
 20
-80.400000001917903
 30
0.0
 40
1.5
 50
90.000000003282921
 51
180.0
  0
LINE
  5
1B57
  8
SAPA_PROFIL
  6
CONTINUOUS
 62
     7
 10
36.700000000025881
 20
-78.900000000982885
 30
0.0
 11
21.49999999991385
 21
-78.900000001917903
 31
0.0
  0
ARC
  5
1B58
  8
SAPA_PROFIL
  6
CONTINUOUS
 62
     7
 10
36.699999999999839
 20
-78.600000000982931
 30
0.0
 40
0.2999999999999545
 50
270.00000000497221
 51
0.0
  0
LINE
  5
1B59
  8
SAPA_PROFIL
  6
CONTINUOUS
 62
     7
 10
36.999999999999801
 20
-77.499999999999915
 30
0.0
 11
36.999999999999801
 21
-78.600000000982931
 31
0.0
  0
ARC
  5
1B5A
  8
SAPA_PROFIL
  6
CONTINUOUS
 62
     7
 10
36.699999999999811
 20
-77.499999999999886
 30
0.0
 40
0.2999999999999829
 50
359.99999999999449
 51
89.999999999994586
  0
LINE
  5
1B5B
  8
SAPA_PROFIL
  6
CONTINUOUS
 62
     7
 10
35.199999999999839
 20
-77.199999999999903
 30
0.0
 11
36.699999999999839
 21
-77.199999999999903
 31
0.0
  0
ARC
  5
1B5C
  8
SAPA_PROFIL
  6
CONTINUOUS
 62
     7
 10
35.199999999999783
 20
-76.899999999999892
 30
0.0
 40
0.3000000000000114
 50
180.0000000000108
 51
270.0000000000108
  0
LINE
  5
1B5D
  8
SAPA_PROFIL
  6
CONTINUOUS
 62
     7
 10
34.899999999999771
 20
-66.200000000956919
 30
0.0
 11
34.899999999999771
 21
-76.899999999999949
 31
0.0
  0
ARC
  5
1B5E
  8
SAPA_PROFIL
  6
CONTINUOUS
 62
     7
 10
34.599999999999788
 20
-66.200000000956891
 30
0.0
 40
0.2999999999999829
 50
359.99999999999449
 51
89.999999999994586
  0
LINE
  5
1B5F
  8
SAPA_PROFIL
  6
CONTINUOUS
 62
     7
 10
11.29999999999986
 20
-65.900000000956908
 30
0.0
 11
34.599999999999817
 21
-65.900000000956908
 31
0.0
  0
ARC
  5
1B60
  8
SAPA_PROFIL
  6
CONTINUOUS
 62
     7
 10
11.29999999999932
 20
-66.200000000956436
 30
0.0
 40
0.29999999999953
 50
89.999999999897199
 51
180.0000000000922
  0
LINE
  5
1B61
  8
SAPA_PROFIL
  6
CONTINUOUS
 62
     7
 10
10.99999999999979
 20
-73.199999999998937
 30
0.0
 11
10.99999999999979
 21
-66.200000000956919
 31
0.0
  0
ARC
  5
1B62
  8
SAPA_PROFIL
  6
CONTINUOUS
 62
     7
 10
11.29999999999983
 20
-73.199999999998909
 30
0.0
 40
0.3000000000000398
 50
180.0000000000054
 51
270.0000000000054
  0
LINE
  5
1B63
  8
SAPA_PROFIL
  6
CONTINUOUS
 62
     7
 10
20.299999999999859
 20
-73.499999999998934
 30
0.0
 11
11.29999999999986
 21
-73.499999999998934
 31
0.0
  0
ARC
  5
1B64
  8
SAPA_PROFIL
  6
CONTINUOUS
 62
     7
 10
20.299999999999859
 20
-73.799999999999926
 30
0.0
 40
0.3000000000009741
 50
0.0000000001954133
 51
90.000000000000668
  0
LINE
  5
1B65
  8
SAPA_PROFIL
  6
CONTINUOUS
 62
     7
 10
20.59999999999982
 20
-74.9196152422696
 30
0.0
 11
20.60000000000084
 21
-73.799999999998903
 31
0.0
  0
ARC
  5
1B66
  8
SAPA_PROFIL
  6
CONTINUOUS
 62
     7
 10
20.89999999999975
 20
-74.919615242269685
 30
0.0
 40
0.2999999999999325
 50
179.99999999998369
 51
209.9999999999836
  0
LINE
  5
1B67
  8
SAPA_PROFIL
  6
CONTINUOUS
 62
     7
 10
20.859807621135161
 20
-75.449999999998937
 30
0.0
 11
20.64019237886443
 21
-75.069615242269577
 31
0.0
  0
ARC
  5
1B68
  8
SAPA_PROFIL
  6
CONTINUOUS
 62
     7
 10
20.599999999999859
 20
-75.599999999998914
 30
0.0
 40
0.2999999999999598
 50
330.00000000000063
 51
29.999999999999432
  0
LINE
  5
1B69
  8
SAPA_PROFIL
  6
CONTINUOUS
 62
     7
 10
20.64019237886443
 20
-76.130384757728251
 30
0.0
 11
20.859807621135161
 21
-75.749999999998892
 31
0.0
  0
ARC
  5
1B6A
  8
SAPA_PROFIL
  6
CONTINUOUS
 62
     7
 10
20.899999999999739
 20
-76.280384757728143
 30
0.0
 40
0.2999999999999261
 50
150.00000000001569
 51
180.0000000000162
  0
LINE
  5
1B6B
  8
SAPA_PROFIL
  6
CONTINUOUS
 62
     7
 10
20.59999999999982
 20
-77.433520607080894
 30
0.0
 11
20.59999999999982
 21
-76.280384757728228
 31
0.0
  0
ARC
  5
1B6C
  8
SAPA_PROFIL
  6
CONTINUOUS
 62
     7
 10
20.299999999999869
 20
-77.433520607080894
 30
0.0
 40
0.2999999999999472
 50
292.02431283703538
 51
359.99999999999733
  0
ARC
  5
1B6D
  8
SAPA_PROFIL
  6
CONTINUOUS
 62
     7
 10
21.499999999999329
 20
-80.400000001918556
 30
0.0
 40
2.899999999999296
 50
112.0243128370374
 51
176.4166782670894
  0
POLYLINE
  5
1B6E
  8
SAPA_PROFIL
 66
     1
 10
0.0
 20
0.0
 30
0.0
 70
     1
  0
VERTEX
  5
1FA5
  8
SAPA_PROFIL
 10
28.699999626461931
 20
24.299999999996409
 30
0.0
  0
VERTEX
  5
1FA6
  8
SAPA_PROFIL
 10
28.699999626461931
 20
31.199999999996269
 30
0.0
  0
VERTEX
  5
1FA7
  8
SAPA_PROFIL
 10
28.39999962646198
 20
31.49999999999633
 30
0.0
  0
VERTEX
  5
1FA8
  8
SAPA_PROFIL
 10
28.699999626461931
 20
31.799999999996398
 30
0.0
  0
VERTEX
  5
1FA9
  8
SAPA_PROFIL
 10
28.699999626461921
 20
41.499999999996326
 30
0.0
 42
-0.4142135623730951
  0
VERTEX
  5
1FAA
  8
SAPA_PROFIL
 10
29.699999626461931
 20
42.499999999996326
 30
0.0
  0
VERTEX
  5
1FAB
  8
SAPA_PROFIL
 10
42.499999626461879
 20
42.499999999996341
 30
0.0
  0
VERTEX
  5
1FAC
  8
SAPA_PROFIL
 10
42.499999626461879
 20
41.599999999996363
 30
0.0
 42
0.4142135623730951
  0
VERTEX
  5
1FAD
  8
SAPA_PROFIL
 10
43.099999626461802
 20
40.999999999996341
 30
0.0
  0
VERTEX
  5
1FAE
  8
SAPA_PROFIL
 10
44.699999626461931
 20
40.999999999996341
 30
0.0
 42
0.4142135623730951
  0
VERTEX
  5
1FAF
  8
SAPA_PROFIL
 10
44.999999626461879
 20
41.299999999996409
 30
0.0
  0
VERTEX
  5
1FB0
  8
SAPA_PROFIL
 10
44.999999626461879
 20
43.699999999996272
 30
0.0
 42
0.4142135623730951
  0
VERTEX
  5
1FB1
  8
SAPA_PROFIL
 10
44.699999626461917
 20
43.999999999996341
 30
0.0
  0
VERTEX
  5
1FB2
  8
SAPA_PROFIL
 10
24.999999626461879
 20
43.999999999996326
 30
0.0
  0
VERTEX
  5
1FB3
  8
SAPA_PROFIL
 10
24.999999626461879
 20
41.499999999996326
 30
0.0
  0
VERTEX
  5
1FB4
  8
SAPA_PROFIL
 10
26.699999626461931
 20
41.499999999996326
 30
0.0
 42
-0.4142135623730951
  0
VERTEX
  5
1FB5
  8
SAPA_PROFIL
 10
27.199999626461931
 20
40.999999999996326
 30
0.0
  0
VERTEX
  5
1FB6
  8
SAPA_PROFIL
 10
27.199999626461931
 20
20.999999999996341
 30
0.0
 42
-0.4142135623730951
  0
VERTEX
  5
1FB7
  8
SAPA_PROFIL
 10
26.699999626461931
 20
20.499999999996341
 30
0.0
  0
VERTEX
  5
1FB8
  8
SAPA_PROFIL
 10
24.999999626461889
 20
20.49999999999633
 30
0.0
  0
VERTEX
  5
1FB9
  8
SAPA_PROFIL
 10
24.999999626461889
 20
18.99999999999633
 30
0.0
  0
VERTEX
  5
1FBA
  8
SAPA_PROFIL
 10
28.199999626461931
 20
18.999999999996341
 30
0.0
 42
0.4142135623730951
  0
VERTEX
  5
1FBB
  8
SAPA_PROFIL
 10
28.699999626461931
 20
19.499999999996341
 30
0.0
  0
VERTEX
  5
1FBC
  8
SAPA_PROFIL
 10
28.699999626461931
 20
23.699999999996379
 30
0.0
  0
VERTEX
  5
1FBD
  8
SAPA_PROFIL
 10
28.39999962646198
 20
23.999999999996341
 30
0.0
  0
SEQEND
  5
1FBE
  8
SAPA_PROFIL
  0
POLYLINE
  5
1B6F
  8
SAPA_PROFIL
  6
CONTINUOUS
 62
     7
 66
     1
 10
0.0
 20
0.0
 30
0.0
 70
     1
  0
VERTEX
  5
1FBF
  8
SAPA_PROFIL
  6
CONTINUOUS
 62
     7
 10
-16.499999999998199
 20
-74.000000000957144
 30
0.0
  0
VERTEX
  5
1FC0
  8
SAPA_PROFIL
  6
CONTINUOUS
 62
     7
 10
-16.499999999998199
 20
-77.000000000003354
 30
0.0
 42
0.4142135623732074
  0
VERTEX
  5
1FC1
  8
SAPA_PROFIL
  6
CONTINUOUS
 62
     7
 10
-15.999999999998
 20
-77.500000000003368
 30
0.0
  0
VERTEX
  5
1FC2
  8
SAPA_PROFIL
  6
CONTINUOUS
 62
     7
 10
-7.3999999999979131
 20
-77.499999999999545
 30
0.0
 42
-0.4142135623730951
  0
VERTEX
  5
1FC3
  8
SAPA_PROFIL
  6
CONTINUOUS
 62
     7
 10
-6.8999999999979131
 20
-77.999999999999545
 30
0.0
  0
VERTEX
  5
1FC4
  8
SAPA_PROFIL
  6
CONTINUOUS
 62
     7
 10
-6.8999999999979131
 20
-80.300000000000196
 30
0.0
 42
0.4142135623730951
  0
VERTEX
  5
1FC5
  8
SAPA_PROFIL
  6
CONTINUOUS
 62
     7
 10
-5.8999999999979131
 20
-81.300000000000225
 30
0.0
  0
VERTEX
  5
1FC6
  8
SAPA_PROFIL
  6
CONTINUOUS
 62
     7
 10
-5.087369741822509
 20
-81.300000000000225
 30
0.0
 42
0.2216946626429368
  0
VERTEX
  5
1FC7
  8
SAPA_PROFIL
  6
CONTINUOUS
 62
     7
 10
-4.8575564088868184
 20
-81.192836282906171
 30
0.0
  0
VERTEX
  5
1FC8
  8
SAPA_PROFIL
  6
CONTINUOUS
 62
     7
 10
-4.2701866670622648
 20
-80.492836282905628
 30
0.0
 42
0.6370702608061857
  0
VERTEX
  5
1FC9
  8
SAPA_PROFIL
  6
CONTINUOUS
 62
     7
 10
-4.499999999998205
 20
-80.0
 30
0.0
  0
VERTEX
  5
1FCA
  8
SAPA_PROFIL
  6
CONTINUOUS
 62
     7
 10
-5.2999999999984011
 20
-80.0
 30
0.0
 42
-0.4142135623730951
  0
VERTEX
  5
1FCB
  8
SAPA_PROFIL
  6
CONTINUOUS
 62
     7
 10
-5.5999999999985981
 20
-79.699999999999804
 30
0.0
  0
VERTEX
  5
1FCC
  8
SAPA_PROFIL
  6
CONTINUOUS
 62
     7
 10
-5.5999999999976602
 20
-75.299999999999258
 30
0.0
 42
-0.4142135623730504
  0
VERTEX
  5
1FCD
  8
SAPA_PROFIL
  6
CONTINUOUS
 62
     7
 10
-5.2999999999975058
 20
-74.999999999999545
 30
0.0
  0
VERTEX
  5
1FCE
  8
SAPA_PROFIL
  6
CONTINUOUS
 62
     7
 10
5.3000000000019396
 20
-74.999999999999545
 30
0.0
 42
-0.4142135623730878
  0
VERTEX
  5
1FCF
  8
SAPA_PROFIL
  6
CONTINUOUS
 62
     7
 10
5.6000000000021153
 20
-75.299999999999258
 30
0.0
  0
VERTEX
  5
1FD0
  8
SAPA_PROFIL
  6
CONTINUOUS
 62
     7
 10
5.6000000000020442
 20
-79.699999999999804
 30
0.0
 42
-0.4142135623735842
  0
VERTEX
  5
1FD1
  8
SAPA_PROFIL
  6
CONTINUOUS
 62
     7
 10
5.300000000002842
 20
-79.999999999999503
 30
0.0
  0
VERTEX
  5
1FD2
  8
SAPA_PROFIL
  6
CONTINUOUS
 62
     7
 10
4.5000000000008562
 20
-80.000000000000014
 30
0.0
 42
0.6370702608069853
  0
VERTEX
  5
1FD3
  8
SAPA_PROFIL
  6
CONTINUOUS
 62
     7
 10
4.2701866670657678
 20
-80.492836282905628
 30
0.0
  0
VERTEX
  5
1FD4
  8
SAPA_PROFIL
  6
CONTINUOUS
 62
     7
 10
4.8575564088903276
 20
-81.192836282906171
 30
0.0
 42
0.2216946626431
  0
VERTEX
  5
1FD5
  8
SAPA_PROFIL
  6
CONTINUOUS
 62
     7
 10
5.0873697418262109
 20
-81.300000000000225
 30
0.0
  0
VERTEX
  5
1FD6
  8
SAPA_PROFIL
  6
CONTINUOUS
 62
     7
 10
5.9000000000032058
 20
-81.299999999999713
 30
0.0
 42
0.4142135623730951
  0
VERTEX
  5
1FD7
  8
SAPA_PROFIL
  6
CONTINUOUS
 62
     7
 10
6.9000000000032058
 20
-80.299999999999713
 30
0.0
  0
VERTEX
  5
1FD8
  8
SAPA_PROFIL
  6
CONTINUOUS
 62
     7
 10
6.9000000000023114
 20
-72.799999999999969
 30
0.0
 42
0.3178372451964626
  0
VERTEX
  5
1FD9
  8
SAPA_PROFIL
  6
CONTINUOUS
 62
     7
 10
6.7000000000015829
 20
-72.517157287525123
 30
0.0
 42
-0.3178372451966722
  0
VERTEX
  5
1FDA
  8
SAPA_PROFIL
  6
CONTINUOUS
 62
     7
 10
6.5000000000008562
 20
-72.23431457505005
 30
0.0
  0
VERTEX
  5
1FDB
  8
SAPA_PROFIL
  6
CONTINUOUS
 62
     7
 10
6.5000000000017577
 20
-70.799999999999727
 30
0.0
 42
0.4142135623726539
  0
VERTEX
  5
1FDC
  8
SAPA_PROFIL
  6
CONTINUOUS
 62
     7
 10
6.2000000000015758
 20
-70.5
 30
0.0
  0
VERTEX
  5
1FDD
  8
SAPA_PROFIL
  6
CONTINUOUS
 62
     7
 10
5.6000000000010282
 20
-70.5
 30
0.0
 42
0.4142135623730836
  0
VERTEX
  5
1FDE
  8
SAPA_PROFIL
  6
CONTINUOUS
 62
     7
 10
5.300000000001762
 20
-70.799999999999727
 30
0.0
  0
VERTEX
  5
1FDF
  8
SAPA_PROFIL
  6
CONTINUOUS
 62
     7
 10
5.3000000000017549
 20
-72.199999999999804
 30
0.0
 42
-0.4142135623730951
  0
VERTEX
  5
1FE0
  8
SAPA_PROFIL
  6
CONTINUOUS
 62
     7
 10
5.0000000000015801
 20
-72.499999999999986
 30
0.0
  0
VERTEX
  5
1FE1
  8
SAPA_PROFIL
  6
CONTINUOUS
 62
     7
 10
-4.9999999999990008
 20
-72.499999999999986
 30
0.0
 42
-0.4142135623730743
  0
VERTEX
  5
1FE2
  8
SAPA_PROFIL
  6
CONTINUOUS
 62
     7
 10
-5.2999999999982101
 20
-72.199999999999804
 30
0.0
  0
VERTEX
  5
1FE3
  8
SAPA_PROFIL
  6
CONTINUOUS
 62
     7
 10
-5.2999999999990983
 20
-70.799999999999727
 30
0.0
 42
0.4142135623721762
  0
VERTEX
  5
1FE4
  8
SAPA_PROFIL
  6
CONTINUOUS
 62
     7
 10
-5.5999999999984063
 20
-70.499999999999957
 30
0.0
  0
VERTEX
  5
1FE5
  8
SAPA_PROFIL
  6
CONTINUOUS
 62
     7
 10
-6.1999999999990179
 20
-70.499999999999545
 30
0.0
 42
0.4142135623730534
  0
VERTEX
  5
1FE6
  8
SAPA_PROFIL
  6
CONTINUOUS
 62
     7
 10
-6.4999999999982343
 20
-70.799999999999713
 30
0.0
  0
VERTEX
  5
1FE7
  8
SAPA_PROFIL
  6
CONTINUOUS
 62
     7
 10
-6.4999999999991216
 20
-72.234314575050433
 30
0.0
 42
-0.3178372451963242
  0
VERTEX
  5
1FE8
  8
SAPA_PROFIL
  6
CONTINUOUS
 62
     7
 10
-6.6999999999980657
 20
-72.517157287525123
 30
0.0
 42
0.3178372451964607
  0
VERTEX
  5
1FE9
  8
SAPA_PROFIL
  6
CONTINUOUS
 62
     7
 10
-6.8999999999987791
 20
-72.799999999999955
 30
0.0
  0
VERTEX
  5
1FEA
  8
SAPA_PROFIL
  6
CONTINUOUS
 62
     7
 10
-6.8999999999990003
 20
-74.500000000000043
 30
0.0
 42
-0.4142135623730597
  0
VERTEX
  5
1FEB
  8
SAPA_PROFIL
  6
CONTINUOUS
 62
     7
 10
-7.3999999999990003
 20
-74.999999999999986
 30
0.0
  0
VERTEX
  5
1FEC
  8
SAPA_PROFIL
  6
CONTINUOUS
 62
     7
 10
-12.40192378920621
 20
-74.999999999999986
 30
0.0
 42
-0.2679491923306345
  0
VERTEX
  5
1FED
  8
SAPA_PROFIL
  6
CONTINUOUS
 62
     7
 10
-12.834936490995499
 20
-74.750000000156874
 30
0.0
 42
0.2679491923317589
  0
VERTEX
  5
1FEE
  8
SAPA_PROFIL
  6
CONTINUOUS
 62
     7
 10
-14.999999999998201
 20
-73.500000000957129
 30
0.0
  0
VERTEX
  5
1FEF
  8
SAPA_PROFIL
  6
CONTINUOUS
 62
     7
 10
-15.999999999998201
 20
-73.500000000957925
 30
0.0
 42
0.4142135623730951
  0
SEQEND
  5
1FF0
  8
SAPA_PROFIL
  6
CONTINUOUS
 62
     7
  0
POLYLINE
  5
1B70
  8
SAPA_PROFIL
 62
     4
 66
     1
 10
0.0
 20
0.0
 30
0.0
 70
     1
  0
VERTEX
  5
1FF1
  8
SAPA_PROFIL
 62
     4
 10
-22.026757195034921
 20
-64.462221528366854
 30
0.0
 42
0.3137019356282051
  0
VERTEX
  5
1FF2
  8
SAPA_PROFIL
 62
     4
 10
-22.224382820568341
 20
-64.181271744820549
 30
0.0
  0
VERTEX
  5
1FF3
  8
SAPA_PROFIL
 62
     4
 10
-24.657212842112362
 20
-63.295794031949349
 30
0.0
 42
-0.3152987888779321
  0
VERTEX
  5
1FF4
  8
SAPA_PROFIL
 62
     4
 10
-24.920404784782079
 20
-62.919916983632959
 30
0.0
  0
VERTEX
  5
1FF5
  8
SAPA_PROFIL
 62
     4
 10
-24.92040478478205
 20
-52.499999998918831
 30
0.0
  0
VERTEX
  5
1FF6
  8
SAPA_PROFIL
 62
     4
 10
-24.92040478478199
 20
-42.080083014200738
 30
0.0
 42
-0.3152987888779395
  0
VERTEX
  5
1FF7
  8
SAPA_PROFIL
 62
     4
 10
-24.657212842112269
 20
-41.70420596588837
 30
0.0
  0
VERTEX
  5
1FF8
  8
SAPA_PROFIL
 62
     4
 10
-22.224382820576579
 20
-40.818728253020197
 30
0.0
 42
0.3138982169096283
  0
VERTEX
  5
1FF9
  8
SAPA_PROFIL
 62
     4
 10
-22.026757195036229
 20
-40.537778469506009
 30
0.0
 42
0.0157923906855865
  0
VERTEX
  5
1FFA
  8
SAPA_PROFIL
 62
     4
 10
-22.023354065396632
 20
-40.186319937167163
 30
0.0
  0
VERTEX
  5
1FFB
  8
SAPA_PROFIL
 62
     4
 10
-21.884684308290101
 20
-39.946136872384869
 30
0.0
 42
0.5773502691889272
  0
VERTEX
  5
1FFC
  8
SAPA_PROFIL
 62
     4
 10
-22.066549643084901
 20
-39.631136872385163
 30
0.0
  0
VERTEX
  5
1FFD
  8
SAPA_PROFIL
 62
     4
 10
-22.333664171297809
 20
-39.631136872385042
 30
0.0
  0
VERTEX
  5
1FFE
  8
SAPA_PROFIL
 62
     4
 10
-22.52988623708211
 20
-39.29999999891885
 30
0.0
  0
VERTEX
  5
1FFF
  8
SAPA_PROFIL
 62
     4
 10
-23.097530400579561
 20
-38.316679860938329
 30
0.0
 42
-0.1316524975869703
  0
VERTEX
  5
2000
  8
SAPA_PROFIL
 62
     4
 10
-23.125665065784119
 20
-38.211679860939512
 30
0.0
  0
VERTEX
  5
2001
  8
SAPA_PROFIL
 62
     4
 10
-23.125665065784229
 20
-37.89999999891694
 30
0.0
 42
-0.4142135623775584
  0
VERTEX
  5
2002
  8
SAPA_PROFIL
 62
     4
 10
-22.725665065783911
 20
-37.499999998918902
 30
0.0
  0
VERTEX
  5
2003
  8
SAPA_PROFIL
 62
     4
 10
-19.325665065784161
 20
-37.499999998918838
 30
0.0
 42
-0.4142135623773978
  0
VERTEX
  5
2004
  8
SAPA_PROFIL
 62
     4
 10
-18.92566506578418
 20
-37.899999998918872
 30
0.0
  0
VERTEX
  5
2005
  8
SAPA_PROFIL
 62
     4
 10
-18.92566506578418
 20
-38.211679860942517
 30
0.0
 42
-0.1316524975869708
  0
VERTEX
  5
2006
  8
SAPA_PROFIL
 62
     4
 10
-18.953799730989431
 20
-38.316679860939473
 30
0.0
  0
VERTEX
  5
2007
  8
SAPA_PROFIL
 62
     4
 10
-19.521519877351459
 20
-39.29999999891885
 30
0.0
  0
VERTEX
  5
2008
  8
SAPA_PROFIL
 62
     4
 10
-19.864895550323581
 20
-39.894744110589727
 30
0.0
 42
0.1316524975869772
  0
VERTEX
  5
2009
  8
SAPA_PROFIL
 62
     4
 10
-20.0256650657841
 20
-40.494744110593103
 30
0.0
  0
VERTEX
  5
200A
  8
SAPA_PROFIL
 62
     4
 10
-20.025665065783869
 20
-41.446608443479533
 30
0.0
 42
-0.3152987888780149
  0
VERTEX
  5
200B
  8
SAPA_PROFIL
 62
     4
 10
-20.68364492245826
 20
-42.386301064251029
 30
0.0
  0
VERTEX
  5
200C
  8
SAPA_PROFIL
 62
     4
 10
-22.857212842111949
 20
-43.177415089160881
 30
0.0
 42
0.3152987888779391
  0
VERTEX
  5
200D
  8
SAPA_PROFIL
 62
     4
 10
-23.120404784782071
 20
-43.553292137475403
 30
0.0
  0
VERTEX
  5
200E
  8
SAPA_PROFIL
 62
     4
 10
-23.120404784782071
 20
-52.499999998918831
 30
0.0
  0
VERTEX
  5
200F
  8
SAPA_PROFIL
 62
     4
 10
-23.120404784782131
 20
-61.446707860362331
 30
0.0
 42
0.3152987888779318
  0
VERTEX
  5
2010
  8
SAPA_PROFIL
 62
     4
 10
-22.8572128421157
 20
-61.822584908675481
 30
0.0
  0
VERTEX
  5
2011
  8
SAPA_PROFIL
 62
     4
 10
-20.68364492245848
 20
-62.613698933586591
 30
0.0
 42
-0.3152987888779361
  0
VERTEX
  5
2012
  8
SAPA_PROFIL
 62
     4
 10
-20.02566506578415
 20
-63.55339155438719
 30
0.0
  0
VERTEX
  5
2013
  8
SAPA_PROFIL
 62
     4
 10
-20.02566506578415
 20
-64.505255887244687
 30
0.0
 42
0.1316524975869766
  0
VERTEX
  5
2014
  8
SAPA_PROFIL
 62
     4
 10
-19.864895550329429
 20
-65.105255887237888
 30
0.0
  0
VERTEX
  5
2015
  8
SAPA_PROFIL
 62
     4
 10
-19.52566506578421
 20
-65.692820321946385
 30
0.0
  0
VERTEX
  5
2016
  8
SAPA_PROFIL
 62
     4
 10
-18.953799730989491
 20
-66.683320136898317
 30
0.0
 42
-0.1316524975869832
  0
VERTEX
  5
2017
  8
SAPA_PROFIL
 62
     4
 10
-18.925665065784241
 20
-66.788320136901405
 30
0.0
  0
VERTEX
  5
2018
  8
SAPA_PROFIL
 62
     4
 10
-18.92566506578418
 20
-67.099999998918904
 30
0.0
 42
-0.414213562371655
  0
VERTEX
  5
2019
  8
SAPA_PROFIL
 62
     4
 10
-19.32566506578814
 20
-67.499999998918895
 30
0.0
  0
VERTEX
  5
201A
  8
SAPA_PROFIL
 62
     4
 10
-22.725665065784199
 20
-67.499999998918895
 30
0.0
 42
-0.4142135623716633
  0
VERTEX
  5
201B
  8
SAPA_PROFIL
 62
     4
 10
-23.12566506578418
 20
-67.099999998916871
 30
0.0
  0
VERTEX
  5
201C
  8
SAPA_PROFIL
 62
     4
 10
-23.12566506578418
 20
-66.788320136898221
 30
0.0
 42
-0.1316524975869709
  0
VERTEX
  5
201D
  8
SAPA_PROFIL
 62
     4
 10
-23.097530400578592
 20
-66.683320136897635
 30
0.0
  0
VERTEX
  5
201E
  8
SAPA_PROFIL
 62
     4
 10
-22.333664171297809
 20
-65.368863125452634
 30
0.0
  0
VERTEX
  5
201F
  8
SAPA_PROFIL
 62
     4
 10
-22.066549643084901
 20
-65.368863125452521
 30
0.0
 42
0.5773502691889269
  0
VERTEX
  5
2020
  8
SAPA_PROFIL
 62
     4
 10
-21.884684308290101
 20
-65.053863125452807
 30
0.0
  0
VERTEX
  5
2021
  8
SAPA_PROFIL
 62
     4
 10
-22.023354065396632
 20
-64.813680060670507
 30
0.0
 42
0.015792390685586
  0
SEQEND
  5
2022
  8
SAPA_PROFIL
 62
     4
  0
POLYLINE
  5
1B71
  8
SAPA_PROFIL
 66
     1
 10
0.0
 20
0.0
 30
0.0
 70
     1
  0
VERTEX
  5
2023
  8
SAPA_PROFIL
 10
-22.95205826806529
 20
-37.499999998918867
 30
0.0
 42
-0.2134217652834366
  0
VERTEX
  5
2024
  8
SAPA_PROFIL
 10
-23.175665065815402
 20
-37.39999999891868
 30
0.0
 42
0.7625858545243175
  0
VERTEX
  5
2025
  8
SAPA_PROFIL
 10
-23.5059911468324
 20
-37.584579201116163
 30
0.0
  0
VERTEX
  5
2026
  8
SAPA_PROFIL
 10
-23.447917509843311
 20
-37.775962201109877
 30
0.0
  0
VERTEX
  5
2027
  8
SAPA_PROFIL
 10
-22.363353062871571
 20
-39.661805892970932
 30
0.0
  0
VERTEX
  5
2028
  8
SAPA_PROFIL
 10
-22.041595334653319
 20
-39.651244526743973
 30
0.0
 42
-0.5773502691897529
  0
VERTEX
  5
2029
  8
SAPA_PROFIL
 10
-21.858641594543151
 20
-39.945400826998792
 30
0.0
  0
VERTEX
  5
202A
  8
SAPA_PROFIL
 10
-22.01077550565191
 20
-40.230083110230481
 30
0.0
 42
-0.2216946626430025
  0
VERTEX
  5
202B
  8
SAPA_PROFIL
 10
-22.55165533712869
 20
-40.635892015385217
 30
0.0
  0
VERTEX
  5
202C
  8
SAPA_PROFIL
 10
-24.364885807786951
 20
-41.01733861151294
 30
0.0
 42
-0.4769755326981438
  0
VERTEX
  5
202D
  8
SAPA_PROFIL
 10
-24.736542682732821
 20
-40.715085787006473
 30
0.0
  0
VERTEX
  5
202E
  8
SAPA_PROFIL
 10
-24.736459074849169
 20
-39.211984706244458
 30
0.0
  0
VERTEX
  5
202F
  8
SAPA_PROFIL
 10
-24.688613324850682
 20
-39.197466296997362
 30
0.0
 42
0.4142135623731001
  0
VERTEX
  5
2030
  8
SAPA_PROFIL
 10
-24.488649280343282
 20
-38.82328134152155
 30
0.0
  0
VERTEX
  5
2031
  8
SAPA_PROFIL
 10
-25.000000000000739
 20
-37.500280500000287
 30
0.0
  0
VERTEX
  5
2032
  8
SAPA_PROFIL
 10
-25.000000000000739
 20
-35.800000000001802
 30
0.0
 42
-0.4142135623730951
  0
VERTEX
  5
2033
  8
SAPA_PROFIL
 10
-24.700000000000561
 20
-35.500000000001847
 30
0.0
  0
VERTEX
  5
2034
  8
SAPA_PROFIL
 10
-21.699999999999871
 20
-35.500000000001727
 30
0.0
 42
0.4142135623730951
  0
VERTEX
  5
2035
  8
SAPA_PROFIL
 10
-21.39999999999992
 20
-35.200000000001779
 30
0.0
  0
VERTEX
  5
2036
  8
SAPA_PROFIL
 10
-21.39999999999992
 20
-34.80000000000198
 30
0.0
 42
-0.4142135623731506
  0
VERTEX
  5
2037
  8
SAPA_PROFIL
 10
-21.099999999999969
 20
-34.500000000001961
 30
0.0
  0
VERTEX
  5
2038
  8
SAPA_PROFIL
 10
-19.700000000000209
 20
-34.500000000002082
 30
0.0
 42
-0.4142135623731505
  0
VERTEX
  5
2039
  8
SAPA_PROFIL
 10
-19.400000000000261
 20
-34.800000000002093
 30
0.0
  0
VERTEX
  5
203A
  8
SAPA_PROFIL
 10
-19.400000000000261
 20
-35.200000000001843
 30
0.0
 42
0.4142135623731506
  0
VERTEX
  5
203B
  8
SAPA_PROFIL
 10
-19.100000000000311
 20
-35.500000000001847
 30
0.0
  0
VERTEX
  5
203C
  8
SAPA_PROFIL
 10
-10.89999999999389
 20
-35.500000000001847
 30
0.0
 42
0.4142135623731506
  0
VERTEX
  5
203D
  8
SAPA_PROFIL
 10
-10.59999999999394
 20
-35.200000000001843
 30
0.0
  0
VERTEX
  5
203E
  8
SAPA_PROFIL
 10
-10.59999999999388
 20
-34.800000000002029
 30
0.0
 42
-0.4142135623730951
  0
VERTEX
  5
203F
  8
SAPA_PROFIL
 10
-10.299999999993981
 20
-34.500000000002018
 30
0.0
  0
VERTEX
  5
2040
  8
SAPA_PROFIL
 10
-8.8999999999942361
 20
-34.500000000001847
 30
0.0
 42
-0.4142135623731505
  0
VERTEX
  5
2041
  8
SAPA_PROFIL
 10
-8.5999999999942816
 20
-34.800000000001859
 30
0.0
  0
VERTEX
  5
2042
  8
SAPA_PROFIL
 10
-8.5999999999942247
 20
-35.200000000001779
 30
0.0
 42
0.4142135623730951
  0
VERTEX
  5
2043
  8
SAPA_PROFIL
 10
-8.299999999994327
 20
-35.500000000001791
 30
0.0
  0
VERTEX
  5
2044
  8
SAPA_PROFIL
 10
-5.2999999999935881
 20
-35.500000000001911
 30
0.0
 42
-0.4142135623743715
  0
VERTEX
  5
2045
  8
SAPA_PROFIL
 10
-4.9999999999934062
 20
-35.800000000001802
 30
0.0
  0
VERTEX
  5
2046
  8
SAPA_PROFIL
 10
-4.9999999999934062
 20
-37.500280500035068
 30
0.0
  0
VERTEX
  5
2047
  8
SAPA_PROFIL
 10
-5.5113507196373339
 20
-38.82328134152155
 30
0.0
 42
0.4142135623730744
  0
VERTEX
  5
2048
  8
SAPA_PROFIL
 10
-5.3113866751299383
 20
-39.197466296997362
 30
0.0
  0
VERTEX
  5
2049
  8
SAPA_PROFIL
 10
-5.2635409251314513
 20
-39.211984706244458
 30
0.0
  0
VERTEX
  5
204A
  8
SAPA_PROFIL
 10
-5.2634573172477976
 20
-40.715085787006473
 30
0.0
 42
-0.4769755326981443
  0
VERTEX
  5
204B
  8
SAPA_PROFIL
 10
-5.6351141921936678
 20
-41.01733861151294
 30
0.0
  0
VERTEX
  5
204C
  8
SAPA_PROFIL
 10
-7.4483446628519232
 20
-40.635892015385281
 30
0.0
 42
-0.2216946626430325
  0
VERTEX
  5
204D
  8
SAPA_PROFIL
 10
-7.9892244943287087
 20
-40.230083110230417
 30
0.0
  0
VERTEX
  5
204E
  8
SAPA_PROFIL
 10
-8.1413584054374724
 20
-39.945400826998792
 30
0.0
 42
-0.5773502691897529
  0
VERTEX
  5
204F
  8
SAPA_PROFIL
 10
-7.9584046653272926
 20
-39.651244526743973
 30
0.0
  0
VERTEX
  5
2050
  8
SAPA_PROFIL
 10
-7.636646937109048
 20
-39.661805892970932
 30
0.0
  0
VERTEX
  5
2051
  8
SAPA_PROFIL
 10
-6.552082490137308
 20
-37.775962201109877
 30
0.0
  0
VERTEX
  5
2052
  8
SAPA_PROFIL
 10
-6.4940088531483289
 20
-37.584579201116163
 30
0.0
 42
0.7625858545243173
  0
VERTEX
  5
2053
  8
SAPA_PROFIL
 10
-6.8243349341652211
 20
-37.39999999891873
 30
0.0
 42
-0.2134217652834366
  0
VERTEX
  5
2054
  8
SAPA_PROFIL
 10
-7.047941731915329
 20
-37.499999998918867
 30
0.0
  0
VERTEX
  5
2055
  8
SAPA_PROFIL
 10
-10.900728136491351
 20
-37.499999998918867
 30
0.0
 42
0.4142135623730951
  0
VERTEX
  5
2056
  8
SAPA_PROFIL
 10
-11.2007281364913
 20
-37.799999998918821
 30
0.0
  0
VERTEX
  5
2057
  8
SAPA_PROFIL
 10
-11.2007281364913
 20
-38.09999999891923
 30
0.0
  0
VERTEX
  5
2058
  8
SAPA_PROFIL
 10
-10.27696770578768
 20
-39.699999998918678
 30
0.0
 42
-0.577350269189529
  0
VERTEX
  5
2059
  8
SAPA_PROFIL
 10
-10.450172786544719
 20
-39.999999998918867
 30
0.0
  0
VERTEX
  5
205A
  8
SAPA_PROFIL
 10
-19.549827213449419
 20
-39.999999998918867
 30
0.0
 42
-0.577350269189529
  0
VERTEX
  5
205B
  8
SAPA_PROFIL
 10
-19.723032294206462
 20
-39.699999998918678
 30
0.0
  0
VERTEX
  5
205C
  8
SAPA_PROFIL
 10
-18.799271863502842
 20
-38.09999999891923
 30
0.0
  0
VERTEX
  5
205D
  8
SAPA_PROFIL
 10
-18.799271863502842
 20
-37.799999998918821
 30
0.0
 42
0.4142135623730951
  0
VERTEX
  5
205E
  8
SAPA_PROFIL
 10
-19.099271863502789
 20
-37.499999998918867
 30
0.0
  0
SEQEND
  5
205F
  8
SAPA_PROFIL
  0
POLYLINE
  5
1B72
  8
SAPA_PROFIL
  6
CONTINUOUS
 62
     7
 66
     1
 10
0.0
 20
0.0
 30
0.0
 70
     1
  0
VERTEX
  5
2060
  8
SAPA_PROFIL
  6
CONTINUOUS
 62
     7
 10
-23.000000000035499
 20
-87.300003047092844
 30
0.0
  0
VERTEX
  5
2061
  8
SAPA_PROFIL
  6
CONTINUOUS
 62
     7
 10
-21.350000000043138
 20
-87.300003047092844
 30
0.0
 42
0.4142135623729003
  0
VERTEX
  5
2062
  8
SAPA_PROFIL
  6
CONTINUOUS
 62
     7
 10
-21.05000000004296
 20
-87.000003047092889
 30
0.0
  0
VERTEX
  5
2063
  8
SAPA_PROFIL
  6
CONTINUOUS
 62
     7
 10
-21.05000000004296
 20
-85.400000001070865
 30
0.0
 42
-0.1806877882261281
  0
VERTEX
  5
2064
  8
SAPA_PROFIL
  6
CONTINUOUS
 62
     7
 10
-20.30296190612529
 20
-83.400283406662723
 30
0.0
 42
-0.9538213995949648
  0
VERTEX
  5
2065
  8
SAPA_PROFIL
  6
CONTINUOUS
 62
     7
 10
-19.126474928900301
 20
-84.328106923347434
 30
0.0
  0
VERTEX
  5
2066
  8
SAPA_PROFIL
  6
CONTINUOUS
 62
     7
 10
-19.057559183678698
 20
-84.585303985957879
 30
0.0
 42
-0.4142135623719595
  0
VERTEX
  5
2067
  8
SAPA_PROFIL
  6
CONTINUOUS
 62
     7
 10
-19.234330616393919
 20
-84.891481088747057
 30
0.0
  0
VERTEX
  5
2068
  8
SAPA_PROFIL
  6
CONTINUOUS
 62
     7
 10
-19.485908111498318
 20
-84.958891075394575
 30
0.0
 42
0.4299878773908156
  0
VERTEX
  5
2069
  8
SAPA_PROFIL
  6
CONTINUOUS
 62
     7
 10
-18.360936748081279
 20
-86.907390018256649
 30
0.0
  0
VERTEX
  5
206A
  8
SAPA_PROFIL
  6
CONTINUOUS
 62
     7
 10
-18.17676785573985
 20
-86.723221125915671
 30
0.0
 42
-0.4142135623718706
  0
VERTEX
  5
206B
  8
SAPA_PROFIL
  6
CONTINUOUS
 62
     7
 10
-17.823224990309448
 20
-86.723221125915714
 30
0.0
  0
VERTEX
  5
206C
  8
SAPA_PROFIL
  6
CONTINUOUS
 62
     7
 10
-17.63905748004478
 20
-86.907388636179277
 30
0.0
 42
0.429987877699598
  0
VERTEX
  5
206D
  8
SAPA_PROFIL
  6
CONTINUOUS
 62
     7
 10
-16.514093578112831
 20
-84.958885384142661
 30
0.0
  0
VERTEX
  5
206E
  8
SAPA_PROFIL
  6
CONTINUOUS
 62
     7
 10
-16.765672965318942
 20
-84.891474890507965
 30
0.0
 42
-0.4142135623733942
  0
VERTEX
  5
206F
  8
SAPA_PROFIL
  6
CONTINUOUS
 62
     7
 10
-16.942444398034269
 20
-84.585297787718744
 30
0.0
  0
VERTEX
  5
2070
  8
SAPA_PROFIL
  6
CONTINUOUS
 62
     7
 10
-16.873528884146381
 20
-84.328101588455098
 30
0.0
 42
-0.9538172250823233
  0
VERTEX
  5
2071
  8
SAPA_PROFIL
  6
CONTINUOUS
 62
     7
 10
-15.69703809381474
 20
-83.400283406534726
 30
0.0
 42
-0.1806877881352354
  0
VERTEX
  5
2072
  8
SAPA_PROFIL
  6
CONTINUOUS
 62
     7
 10
-14.9500000000435
 20
-85.40000000107085
 30
0.0
  0
VERTEX
  5
2073
  8
SAPA_PROFIL
  6
CONTINUOUS
 62
     7
 10
-14.9500000000435
 20
-87.300000003219822
 30
0.0
 42
0.4142135623728949
  0
VERTEX
  5
2074
  8
SAPA_PROFIL
  6
CONTINUOUS
 62
     7
 10
-14.650000000042411
 20
-87.600000003220714
 30
0.0
  0
VERTEX
  5
2075
  8
SAPA_PROFIL
  6
CONTINUOUS
 62
     7
 10
-13.00000000004542
 20
-87.600000003219805
 30
0.0
 42
0.4142135623747599
  0
VERTEX
  5
2076
  8
SAPA_PROFIL
  6
CONTINUOUS
 62
     7
 10
-12.700000000045319
 20
-87.300000003218699
 30
0.0
  0
VERTEX
  5
2077
  8
SAPA_PROFIL
  6
CONTINUOUS
 62
     7
 10
-12.70000000005655
 20
-82.599999998920126
 30
0.0
 42
-0.414213562374087
  0
VERTEX
  5
2078
  8
SAPA_PROFIL
  6
CONTINUOUS
 62
     7
 10
-12.400000000056361
 20
-82.299999998920214
 30
0.0
  0
VERTEX
  5
2079
  8
SAPA_PROFIL
  6
CONTINUOUS
 62
     7
 10
-11.30000000002499
 20
-82.299999998919077
 30
0.0
 42
-0.4142135623632305
  0
VERTEX
  5
207A
  8
SAPA_PROFIL
  6
CONTINUOUS
 62
     7
 10
-11.00000000003179
 20
-82.599999998918165
 30
0.0
  0
VERTEX
  5
207B
  8
SAPA_PROFIL
  6
CONTINUOUS
 62
     7
 10
-11.00000000001458
 20
-92.700000003219714
 30
0.0
 42
-0.4142135623563092
  0
VERTEX
  5
207C
  8
SAPA_PROFIL
  6
CONTINUOUS
 62
     7
 10
-11.30000000001476
 20
-93.000000003220805
 30
0.0
  0
VERTEX
  5
207D
  8
SAPA_PROFIL
  6
CONTINUOUS
 62
     7
 10
-19.2000000000134
 20
-93.000000003221714
 30
0.0
 42
-0.414213562392466
  0
VERTEX
  5
207E
  8
SAPA_PROFIL
  6
CONTINUOUS
 62
     7
 10
-19.50000000001458
 20
-92.70000000322085
 30
0.0
  0
VERTEX
  5
207F
  8
SAPA_PROFIL
  6
CONTINUOUS
 62
     7
 10
-19.500000000035499
 20
-91.600000003220714
 30
0.0
 42
-0.4142135623952085
  0
VERTEX
  5
2080
  8
SAPA_PROFIL
  6
CONTINUOUS
 62
     7
 10
-19.200000000013489
 20
-91.300000003220745
 30
0.0
  0
VERTEX
  5
2081
  8
SAPA_PROFIL
  6
CONTINUOUS
 62
     7
 10
-13.70000000003804
 20
-91.300000003219836
 30
0.0
 42
0.9999999999999998
  0
VERTEX
  5
2082
  8
SAPA_PROFIL
  6
CONTINUOUS
 62
     7
 10
-13.70000000003804
 20
-89.30000000321985
 30
0.0
  0
VERTEX
  5
2083
  8
SAPA_PROFIL
  6
CONTINUOUS
 62
     7
 10
-15.605410363374199
 20
-89.30000000321985
 30
0.0
 42
-0.1539147210606419
  0
VERTEX
  5
2084
  8
SAPA_PROFIL
  6
CONTINUOUS
 62
     7
 10
-15.777483294280531
 20
-89.245745616505758
 30
0.0
  0
VERTEX
  5
2085
  8
SAPA_PROFIL
  6
CONTINUOUS
 62
     7
 10
-17.050664712538449
 20
-88.354254389933772
 30
0.0
 42
0.1539147210594121
  0
VERTEX
  5
2086
  8
SAPA_PROFIL
  6
CONTINUOUS
 62
     7
 10
-17.222737643443018
 20
-88.300000003220305
 30
0.0
  0
VERTEX
  5
2087
  8
SAPA_PROFIL
  6
CONTINUOUS
 62
     7
 10
-19.98934162652316
 20
-88.300000003219864
 30
0.0
 42
0.1872522264746358
  0
VERTEX
  5
2088
  8
SAPA_PROFIL
  6
CONTINUOUS
 62
     7
 10
-20.191724201034081
 20
-88.378547314063383
 30
0.0
  0
VERTEX
  5
2089
  8
SAPA_PROFIL
  6
CONTINUOUS
 62
     7
 10
-21.114054906551331
 20
-89.221452692375919
 30
0.0
 42
-0.1872522264746339
  0
VERTEX
  5
208A
  8
SAPA_PROFIL
  6
CONTINUOUS
 62
     7
 10
-21.316437481061278
 20
-89.30000000321985
 30
0.0
  0
VERTEX
  5
208B
  8
SAPA_PROFIL
  6
CONTINUOUS
 62
     7
 10
-24.700000000013581
 20
-89.30000000321985
 30
0.0
 42
-0.4142135623952092
  0
VERTEX
  5
208C
  8
SAPA_PROFIL
  6
CONTINUOUS
 62
     7
 10
-25.000000000033339
 20
-89.000000003219967
 30
0.0
  0
VERTEX
  5
208D
  8
SAPA_PROFIL
  6
CONTINUOUS
 62
     7
 10
-25.000000000033349
 20
-86.08038780482218
 30
0.0
 42
-0.131652497587394
  0
VERTEX
  5
208E
  8
SAPA_PROFIL
  6
CONTINUOUS
 62
     7
 10
-24.959807621168679
 20
-85.930387804822189
 30
0.0
  0
VERTEX
  5
208F
  8
SAPA_PROFIL
  6
CONTINUOUS
 62
     7
 10
-24.740192378898019
 20
-85.550003047092858
 30
0.0
 42
0.2679491924311264
  0
VERTEX
  5
2090
  8
SAPA_PROFIL
  6
CONTINUOUS
 62
     7
 10
-24.74019237889803
 20
-85.250003047092846
 30
0.0
  0
VERTEX
  5
2091
  8
SAPA_PROFIL
  6
CONTINUOUS
 62
     7
 10
-24.959807621166139
 20
-84.869618289367963
 30
0.0
 42
-0.1316524975876173
  0
VERTEX
  5
2092
  8
SAPA_PROFIL
  6
CONTINUOUS
 62
     7
 10
-25.000000000030798
 20
-84.719618289367716
 30
0.0
  0
VERTEX
  5
2093
  8
SAPA_PROFIL
  6
CONTINUOUS
 62
     7
 10
-25.000000000015479
 20
-67.499719497750803
 30
0.0
  0
VERTEX
  5
2094
  8
SAPA_PROFIL
  6
CONTINUOUS
 62
     7
 10
-24.488649280391598
 20
-66.176718656316211
 30
0.0
 42
0.4142135623730732
  0
VERTEX
  5
2095
  8
SAPA_PROFIL
  6
CONTINUOUS
 62
     7
 10
-24.688613324898999
 20
-65.802533700840399
 30
0.0
  0
VERTEX
  5
2096
  8
SAPA_PROFIL
  6
CONTINUOUS
 62
     7
 10
-24.736459074897478
 20
-65.788015291593297
 30
0.0
  0
VERTEX
  5
2097
  8
SAPA_PROFIL
  6
CONTINUOUS
 62
     7
 10
-24.736542682781138
 20
-64.284914210831289
 30
0.0
 42
-0.4769755326981473
  0
VERTEX
  5
2098
  8
SAPA_PROFIL
  6
CONTINUOUS
 62
     7
 10
-24.364885807835272
 20
-63.982661386324821
 30
0.0
  0
VERTEX
  5
2099
  8
SAPA_PROFIL
  6
CONTINUOUS
 62
     7
 10
-22.55165533717701
 20
-64.364107982452481
 30
0.0
 42
-0.2216946626430328
  0
VERTEX
  5
209A
  8
SAPA_PROFIL
  6
CONTINUOUS
 62
     7
 10
-22.010775505700231
 20
-64.769916887607323
 30
0.0
  0
VERTEX
  5
209B
  8
SAPA_PROFIL
  6
CONTINUOUS
 62
     7
 10
-21.858641594591461
 20
-65.054599170838955
 30
0.0
 42
-0.5773502691897292
  0
VERTEX
  5
209C
  8
SAPA_PROFIL
  6
CONTINUOUS
 62
     7
 10
-22.04159533470164
 20
-65.348755471093796
 30
0.0
  0
VERTEX
  5
209D
  8
SAPA_PROFIL
  6
CONTINUOUS
 62
     7
 10
-22.363353062919892
 20
-65.33819410486683
 30
0.0
  0
VERTEX
  5
209E
  8
SAPA_PROFIL
  6
CONTINUOUS
 62
     7
 10
-23.447917509891631
 20
-67.224037796727885
 30
0.0
  0
VERTEX
  5
209F
  8
SAPA_PROFIL
  6
CONTINUOUS
 62
     7
 10
-23.5059911468806
 20
-67.415420796721605
 30
0.0
 42
0.7625858545243111
  0
VERTEX
  5
20A0
  8
SAPA_PROFIL
  6
CONTINUOUS
 62
     7
 10
-23.175665065863711
 20
-67.599999998919031
 30
0.0
 42
-0.2134217652834384
  0
VERTEX
  5
20A1
  8
SAPA_PROFIL
  6
CONTINUOUS
 62
     7
 10
-22.952058268077991
 20
-67.499999998918895
 30
0.0
  0
VERTEX
  5
20A2
  8
SAPA_PROFIL
  6
CONTINUOUS
 62
     7
 10
-19.099271863494351
 20
-67.499999998918895
 30
0.0
 42
0.4142135623719642
  0
VERTEX
  5
20A3
  8
SAPA_PROFIL
  6
CONTINUOUS
 62
     7
 10
-18.79927186349326
 20
-67.199999998918955
 30
0.0
  0
VERTEX
  5
20A4
  8
SAPA_PROFIL
  6
CONTINUOUS
 62
     7
 10
-18.79927186349417
 20
-66.899999998918759
 30
0.0
  0
VERTEX
  5
20A5
  8
SAPA_PROFIL
  6
CONTINUOUS
 62
     7
 10
-19.723032294198688
 20
-65.299999998918878
 30
0.0
 42
-0.5773502691885648
  0
VERTEX
  5
20A6
  8
SAPA_PROFIL
  6
CONTINUOUS
 62
     7
 10
-19.549827213440981
 20
-64.999999998918895
 30
0.0
  0
VERTEX
  5
20A7
  8
SAPA_PROFIL
  6
CONTINUOUS
 62
     7
 10
-10.450172786622741
 20
-64.999999998918895
 30
0.0
 42
-0.5773502691885171
  0
VERTEX
  5
20A8
  8
SAPA_PROFIL
  6
CONTINUOUS
 62
     7
 10
-10.276967705865021
 20
-65.299999998918835
 30
0.0
  0
VERTEX
  5
20A9
  8
SAPA_PROFIL
  6
CONTINUOUS
 62
     7
 10
-11.20072813656955
 20
-66.899999998918759
 30
0.0
  0
VERTEX
  5
20AA
  8
SAPA_PROFIL
  6
CONTINUOUS
 62
     7
 10
-11.20072813656955
 20
-67.199999998918955
 30
0.0
 42
0.4142135623719644
  0
VERTEX
  5
20AB
  8
SAPA_PROFIL
  6
CONTINUOUS
 62
     7
 10
-10.90072813656937
 20
-67.499999998917986
 30
0.0
  0
VERTEX
  5
20AC
  8
SAPA_PROFIL
  6
CONTINUOUS
 62
     7
 10
-7.0479417319636459
 20
-67.499999998918895
 30
0.0
 42
-0.2134217652834359
  0
VERTEX
  5
20AD
  8
SAPA_PROFIL
  6
CONTINUOUS
 62
     7
 10
-6.824334934213538
 20
-67.599999998919088
 30
0.0
 42
0.7625858545243172
  0
VERTEX
  5
20AE
  8
SAPA_PROFIL
  6
CONTINUOUS
 62
     7
 10
-6.4940088531965321
 20
-67.415420796721605
 30
0.0
  0
VERTEX
  5
20AF
  8
SAPA_PROFIL
  6
CONTINUOUS
 62
     7
 10
-6.5520824901856249
 20
-67.224037796727885
 30
0.0
  0
VERTEX
  5
20B0
  8
SAPA_PROFIL
  6
CONTINUOUS
 62
     7
 10
-7.6366469371573649
 20
-65.33819410486683
 30
0.0
  0
VERTEX
  5
20B1
  8
SAPA_PROFIL
  6
CONTINUOUS
 62
     7
 10
-7.9584046653756104
 20
-65.348755471093796
 30
0.0
 42
-0.5773502691897293
  0
VERTEX
  5
20B2
  8
SAPA_PROFIL
  6
CONTINUOUS
 62
     7
 10
-8.1413584054857893
 20
-65.054599170838955
 30
0.0
  0
VERTEX
  5
20B3
  8
SAPA_PROFIL
  6
CONTINUOUS
 62
     7
 10
-7.9892244943770256
 20
-64.76991688760728
 30
0.0
 42
-0.2216946626430043
  0
VERTEX
  5
20B4
  8
SAPA_PROFIL
  6
CONTINUOUS
 62
     7
 10
-7.4483446629002401
 20
-64.364107982452538
 30
0.0
  0
VERTEX
  5
20B5
  8
SAPA_PROFIL
  6
CONTINUOUS
 62
     7
 10
-5.6351141922419847
 20
-63.982661386324821
 30
0.0
 42
-0.4769755326981317
  0
VERTEX
  5
20B6
  8
SAPA_PROFIL
  6
CONTINUOUS
 62
     7
 10
-5.2634573172961154
 20
-64.284914210831289
 30
0.0
  0
VERTEX
  5
20B7
  8
SAPA_PROFIL
  6
CONTINUOUS
 62
     7
 10
-5.2635409251797682
 20
-65.788015291593297
 30
0.0
  0
VERTEX
  5
20B8
  8
SAPA_PROFIL
  6
CONTINUOUS
 62
     7
 10
-5.3113866751782552
 20
-65.802533700840399
 30
0.0
 42
0.4142135623730951
  0
VERTEX
  5
20B9
  8
SAPA_PROFIL
  6
CONTINUOUS
 62
     7
 10
-5.5113507196856508
 20
-66.176718656316211
 30
0.0
  0
VERTEX
  5
20BA
  8
SAPA_PROFIL
  6
CONTINUOUS
 62
     7
 10
-5.0000000000554499
 20
-67.499719497766961
 30
0.0
  0
VERTEX
  5
20BB
  8
SAPA_PROFIL
  6
CONTINUOUS
 62
     7
 10
-5.0000000000672173
 20
-69.699999998919864
 30
0.0
 42
-0.4142135623531162
  0
VERTEX
  5
20BC
  8
SAPA_PROFIL
  6
CONTINUOUS
 62
     7
 10
-5.3000000000469072
 20
-69.999999998919108
 30
0.0
  0
VERTEX
  5
20BD
  8
SAPA_PROFIL
  6
CONTINUOUS
 62
     7
 10
-10.000000000031211
 20
-69.999999998919108
 30
0.0
 42
0.4142135623737027
  0
VERTEX
  5
20BE
  8
SAPA_PROFIL
  6
CONTINUOUS
 62
     7
 10
-11.0000000000312
 20
-70.999999998921183
 30
0.0
  0
VERTEX
  5
20BF
  8
SAPA_PROFIL
  6
CONTINUOUS
 62
     7
 10
-11.000000000024979
 20
-73.99999999891844
 30
0.0
 42
-0.4142135623737057
  0
VERTEX
  5
20C0
  8
SAPA_PROFIL
  6
CONTINUOUS
 62
     7
 10
-11.30000000002499
 20
-74.299999998919034
 30
0.0
  0
VERTEX
  5
20C1
  8
SAPA_PROFIL
  6
CONTINUOUS
 62
     7
 10
-12.57343848380285
 20
-74.299999998919063
 30
0.0
 42
-0.1962615682814401
  0
VERTEX
  5
20C2
  8
SAPA_PROFIL
  6
CONTINUOUS
 62
     7
 10
-12.78339474747054
 20
-74.214285713204774
 30
0.0
 42
0.1962615682813938
  0
VERTEX
  5
20C3
  8
SAPA_PROFIL
  6
CONTINUOUS
 62
     7
 10
-14.53303027802974
 20
-73.499999998919094
 30
0.0
  0
VERTEX
  5
20C4
  8
SAPA_PROFIL
  6
CONTINUOUS
 62
     7
 10
-23.000000000034991
 20
-73.499999998919094
 30
0.0
 42
0.414213562373709
  0
VERTEX
  5
20C5
  8
SAPA_PROFIL
  6
CONTINUOUS
 62
     7
 10
-23.300000000036022
 20
-73.799999998919063
 30
0.0
  0
VERTEX
  5
20C6
  8
SAPA_PROFIL
  6
CONTINUOUS
 62
     7
 10
-23.300000000035681
 20
-87.000003047092861
 30
0.0
 42
0.4142135623728949
  0
SEQEND
  5
20C7
  8
SAPA_PROFIL
  6
CONTINUOUS
 62
     7
  0
POLYLINE
  5
1B73
  8
SAPA_PROFIL
 62
     4
 66
     1
 10
0.0
 20
0.0
 30
0.0
 70
     1
  0
VERTEX
  5
20C8
  8
SAPA_PROFIL
 62
     4
 10
-7.9732428049592272
 20
-64.462221528366854
 30
0.0
 42
-0.3137019356282051
  0
VERTEX
  5
20C9
  8
SAPA_PROFIL
 62
     4
 10
-7.7756171794258071
 20
-64.181271744820549
 30
0.0
  0
VERTEX
  5
20CA
  8
SAPA_PROFIL
 62
     4
 10
-5.3427871578817872
 20
-63.295794031949349
 30
0.0
 42
0.3152987888779321
  0
VERTEX
  5
20CB
  8
SAPA_PROFIL
 62
     4
 10
-5.0795952152120663
 20
-62.919916983632959
 30
0.0
  0
VERTEX
  5
20CC
  8
SAPA_PROFIL
 62
     4
 10
-5.0795952152120938
 20
-52.499999998918831
 30
0.0
  0
VERTEX
  5
20CD
  8
SAPA_PROFIL
 62
     4
 10
-5.0795952152121506
 20
-42.080083014200738
 30
0.0
 42
0.3152987888779395
  0
VERTEX
  5
20CE
  8
SAPA_PROFIL
 62
     4
 10
-5.3427871578818724
 20
-41.70420596588837
 30
0.0
  0
VERTEX
  5
20CF
  8
SAPA_PROFIL
 62
     4
 10
-7.7756171794175648
 20
-40.818728253020197
 30
0.0
 42
-0.3138982169096283
  0
VERTEX
  5
20D0
  8
SAPA_PROFIL
 62
     4
 10
-7.9732428049579189
 20
-40.537778469506009
 30
0.0
 42
-0.0157923906855865
  0
VERTEX
  5
20D1
  8
SAPA_PROFIL
 62
     4
 10
-7.9766459345975154
 20
-40.186319937167163
 30
0.0
  0
VERTEX
  5
20D2
  8
SAPA_PROFIL
 62
     4
 10
-8.1153156917040405
 20
-39.946136872384869
 30
0.0
 42
-0.5773502691889272
  0
VERTEX
  5
20D3
  8
SAPA_PROFIL
 62
     4
 10
-7.9334503569092467
 20
-39.631136872385163
 30
0.0
  0
VERTEX
  5
20D4
  8
SAPA_PROFIL
 62
     4
 10
-7.666335828696333
 20
-39.631136872385042
 30
0.0
  0
VERTEX
  5
20D5
  8
SAPA_PROFIL
 62
     4
 10
-7.4701137629120353
 20
-39.29999999891885
 30
0.0
  0
VERTEX
  5
20D6
  8
SAPA_PROFIL
 62
     4
 10
-6.9024695994145873
 20
-38.316679860938329
 30
0.0
 42
0.1316524975869703
  0
VERTEX
  5
20D7
  8
SAPA_PROFIL
 62
     4
 10
-6.8743349342100251
 20
-38.211679860939512
 30
0.0
  0
VERTEX
  5
20D8
  8
SAPA_PROFIL
 62
     4
 10
-6.8743349342099123
 20
-37.89999999891694
 30
0.0
 42
0.4142135623775584
  0
VERTEX
  5
20D9
  8
SAPA_PROFIL
 62
     4
 10
-7.2743349342102297
 20
-37.499999998918902
 30
0.0
  0
VERTEX
  5
20DA
  8
SAPA_PROFIL
 62
     4
 10
-10.67433493420998
 20
-37.499999998918838
 30
0.0
 42
0.4142135623773978
  0
VERTEX
  5
20DB
  8
SAPA_PROFIL
 62
     4
 10
-11.074334934209951
 20
-37.899999998918872
 30
0.0
  0
VERTEX
  5
20DC
  8
SAPA_PROFIL
 62
     4
 10
-11.074334934209951
 20
-38.211679860942517
 30
0.0
 42
0.1316524975869708
  0
VERTEX
  5
20DD
  8
SAPA_PROFIL
 62
     4
 10
-11.046200269004711
 20
-38.316679860939473
 30
0.0
  0
VERTEX
  5
20DE
  8
SAPA_PROFIL
 62
     4
 10
-10.478480122642679
 20
-39.29999999891885
 30
0.0
  0
VERTEX
  5
20DF
  8
SAPA_PROFIL
 62
     4
 10
-10.13510444967056
 20
-39.894744110589727
 30
0.0
 42
-0.1316524975869772
  0
VERTEX
  5
20E0
  8
SAPA_PROFIL
 62
     4
 10
-9.9743349342100487
 20
-40.494744110593103
 30
0.0
  0
VERTEX
  5
20E1
  8
SAPA_PROFIL
 62
     4
 10
-9.9743349342102761
 20
-41.446608443479533
 30
0.0
 42
0.3152987888780149
  0
VERTEX
  5
20E2
  8
SAPA_PROFIL
 62
     4
 10
-9.3163550775358885
 20
-42.386301064251029
 30
0.0
  0
VERTEX
  5
20E3
  8
SAPA_PROFIL
 62
     4
 10
-7.1427871578821964
 20
-43.177415089160881
 30
0.0
 42
-0.3152987888779391
  0
VERTEX
  5
20E4
  8
SAPA_PROFIL
 62
     4
 10
-6.8795952152120767
 20
-43.553292137475403
 30
0.0
  0
VERTEX
  5
20E5
  8
SAPA_PROFIL
 62
     4
 10
-6.8795952152120767
 20
-52.499999998918831
 30
0.0
  0
VERTEX
  5
20E6
  8
SAPA_PROFIL
 62
     4
 10
-6.8795952152120199
 20
-61.446707860362331
 30
0.0
 42
-0.3152987888779318
  0
VERTEX
  5
20E7
  8
SAPA_PROFIL
 62
     4
 10
-7.1427871578784439
 20
-61.822584908675481
 30
0.0
  0
VERTEX
  5
20E8
  8
SAPA_PROFIL
 62
     4
 10
-9.3163550775356612
 20
-62.613698933586591
 30
0.0
 42
0.3152987888779361
  0
VERTEX
  5
20E9
  8
SAPA_PROFIL
 62
     4
 10
-9.9743349342099918
 20
-63.55339155438719
 30
0.0
  0
VERTEX
  5
20EA
  8
SAPA_PROFIL
 62
     4
 10
-9.9743349342099918
 20
-64.505255887244687
 30
0.0
 42
-0.1316524975869766
  0
VERTEX
  5
20EB
  8
SAPA_PROFIL
 62
     4
 10
-10.135104449664709
 20
-65.105255887237888
 30
0.0
  0
VERTEX
  5
20EC
  8
SAPA_PROFIL
 62
     4
 10
-10.47433493420993
 20
-65.692820321946385
 30
0.0
  0
VERTEX
  5
20ED
  8
SAPA_PROFIL
 62
     4
 10
-11.046200269004659
 20
-66.683320136898317
 30
0.0
 42
0.1316524975869832
  0
VERTEX
  5
20EE
  8
SAPA_PROFIL
 62
     4
 10
-11.074334934209899
 20
-66.788320136901405
 30
0.0
  0
VERTEX
  5
20EF
  8
SAPA_PROFIL
 62
     4
 10
-11.074334934209951
 20
-67.099999998918904
 30
0.0
 42
0.414213562371655
  0
VERTEX
  5
20F0
  8
SAPA_PROFIL
 62
     4
 10
-10.674334934206
 20
-67.499999998918895
 30
0.0
  0
VERTEX
  5
20F1
  8
SAPA_PROFIL
 62
     4
 10
-7.2743349342099464
 20
-67.499999998918895
 30
0.0
 42
0.4142135623716633
  0
VERTEX
  5
20F2
  8
SAPA_PROFIL
 62
     4
 10
-6.8743349342099691
 20
-67.099999998916871
 30
0.0
  0
VERTEX
  5
20F3
  8
SAPA_PROFIL
 62
     4
 10
-6.8743349342099691
 20
-66.788320136898221
 30
0.0
 42
0.1316524975869709
  0
VERTEX
  5
20F4
  8
SAPA_PROFIL
 62
     4
 10
-6.9024695994155527
 20
-66.683320136897635
 30
0.0
  0
VERTEX
  5
20F5
  8
SAPA_PROFIL
 62
     4
 10
-7.666335828696333
 20
-65.368863125452634
 30
0.0
  0
VERTEX
  5
20F6
  8
SAPA_PROFIL
 62
     4
 10
-7.9334503569092467
 20
-65.368863125452521
 30
0.0
 42
-0.5773502691889269
  0
VERTEX
  5
20F7
  8
SAPA_PROFIL
 62
     4
 10
-8.1153156917040405
 20
-65.053863125452807
 30
0.0
  0
VERTEX
  5
20F8
  8
SAPA_PROFIL
 62
     4
 10
-7.9766459345975171
 20
-64.813680060670507
 30
0.0
 42
-0.015792390685586
  0
SEQEND
  5
20F9
  8
SAPA_PROFIL
 62
     4
  0
POLYLINE
  5
1B74
  8
SAPA_PROFIL
 66
     1
 10
0.0
 20
0.0
 30
0.0
 70
     1
  0
VERTEX
  5
20FA
  8
SAPA_PROFIL
 10
-22.600000373537799
 20
-25.000000000002899
 30
0.0
 42
-0.767326987974136
  0
VERTEX
  5
20FB
  8
SAPA_PROFIL
 10
-22.04019275240432
 20
-24.849999999999739
 30
0.0
 42
0.2679491924279902
  0
VERTEX
  5
20FC
  8
SAPA_PROFIL
 10
-21.780385131280809
 20
-25.000000000002451
 30
0.0
  0
VERTEX
  5
20FD
  8
SAPA_PROFIL
 10
-18.800000373537561
 20
-25.000000000001819
 30
0.0
 42
0.4142135623730395
  0
VERTEX
  5
20FE
  8
SAPA_PROFIL
 10
-17.300000373537841
 20
-23.500000000001759
 30
0.0
  0
VERTEX
  5
20FF
  8
SAPA_PROFIL
 10
-17.300000373537841
 20
-22.400000000002361
 30
0.0
 42
0.4142135623730951
  0
VERTEX
  5
2100
  8
SAPA_PROFIL
 10
-17.600000373537569
 20
-22.10000000000241
 30
0.0
  0
VERTEX
  5
2101
  8
SAPA_PROFIL
 10
-18.100000373537569
 20
-22.10000000000241
 30
0.0
 42
0.4142135623730948
  0
VERTEX
  5
2102
  8
SAPA_PROFIL
 10
-18.40000037353775
 20
-22.400000000002361
 30
0.0
  0
VERTEX
  5
2103
  8
SAPA_PROFIL
 10
-18.40000037353775
 20
-22.736626924636539
 30
0.0
 42
-0.5643553431119927
  0
VERTEX
  5
2104
  8
SAPA_PROFIL
 10
-22.72439541677204
 20
-20.87439504323947
 30
0.0
  0
VERTEX
  5
2105
  8
SAPA_PROFIL
 10
-22.350000373539839
 20
-20.500000000002501
 30
0.0
  0
VERTEX
  5
2106
  8
SAPA_PROFIL
 10
-22.72439541677295
 20
-20.125604956769621
 30
0.0
 42
-0.564355343112654
  0
VERTEX
  5
2107
  8
SAPA_PROFIL
 10
-18.40000037353775
 20
-18.263373075367099
 30
0.0
  0
VERTEX
  5
2108
  8
SAPA_PROFIL
 10
-18.40000037353775
 20
-18.600000000002641
 30
0.0
 42
0.4142135623729843
  0
VERTEX
  5
2109
  8
SAPA_PROFIL
 10
-18.10000037353802
 20
-18.900000000002699
 30
0.0
  0
VERTEX
  5
210A
  8
SAPA_PROFIL
 10
-17.600000373537569
 20
-18.900000000002589
 30
0.0
 42
0.4142135623730951
  0
VERTEX
  5
210B
  8
SAPA_PROFIL
 10
-17.300000373537841
 20
-18.600000000002641
 30
0.0
  0
VERTEX
  5
210C
  8
SAPA_PROFIL
 10
-17.300000373537841
 20
-16.300000000002679
 30
0.0
 42
0.4142135623732062
  0
VERTEX
  5
210D
  8
SAPA_PROFIL
 10
-17.600000373537569
 20
-16.000000000002391
 30
0.0
  0
VERTEX
  5
210E
  8
SAPA_PROFIL
 10
-22.00000037353772
 20
-16.000000000002501
 30
0.0
 42
-0.4142135623731117
  0
VERTEX
  5
210F
  8
SAPA_PROFIL
 10
-23.00000037353783
 20
-15.000000000002499
 30
0.0
  0
VERTEX
  5
2110
  8
SAPA_PROFIL
 10
-23.000000373538061
 20
19.999999999995559
 30
0.0
 42
-0.7673269879789009
  0
VERTEX
  5
2111
  8
SAPA_PROFIL
 10
-22.066987671645901
 20
20.24999999999574
 30
0.0
 42
0.2679491924311131
  0
VERTEX
  5
2112
  8
SAPA_PROFIL
 10
-21.633974969753641
 20
19.99999999999585
 30
0.0
  0
VERTEX
  5
2113
  8
SAPA_PROFIL
 10
-18.800000373537781
 20
19.999999999996639
 30
0.0
 42
0.4142135623730395
  0
VERTEX
  5
2114
  8
SAPA_PROFIL
 10
-17.300000373538069
 20
21.4999999999967
 30
0.0
  0
VERTEX
  5
2115
  8
SAPA_PROFIL
 10
-17.300000373538069
 20
22.599999999996101
 30
0.0
 42
0.4142135623730951
  0
VERTEX
  5
2116
  8
SAPA_PROFIL
 10
-17.600000373537789
 20
22.899999999996059
 30
0.0
  0
VERTEX
  5
2117
  8
SAPA_PROFIL
 10
-18.100000373537789
 20
22.899999999996059
 30
0.0
 42
0.4142135623730948
  0
VERTEX
  5
2118
  8
SAPA_PROFIL
 10
-18.400000373537981
 20
22.599999999996101
 30
0.0
  0
VERTEX
  5
2119
  8
SAPA_PROFIL
 10
-18.400000373537981
 20
22.263373075361919
 30
0.0
 42
-0.5643553431119927
  0
VERTEX
  5
211A
  8
SAPA_PROFIL
 10
-22.724395416772271
 20
24.125604956758991
 30
0.0
  0
VERTEX
  5
211B
  8
SAPA_PROFIL
 10
-22.35000037354007
 20
24.499999999995961
 30
0.0
  0
VERTEX
  5
211C
  8
SAPA_PROFIL
 10
-22.724395416773181
 20
24.874395043228841
 30
0.0
 42
-0.564355343112654
  0
VERTEX
  5
211D
  8
SAPA_PROFIL
 10
-18.400000373537981
 20
26.73662692463137
 30
0.0
  0
VERTEX
  5
211E
  8
SAPA_PROFIL
 10
-18.400000373537981
 20
26.399999999995831
 30
0.0
 42
0.4142135623729843
  0
VERTEX
  5
211F
  8
SAPA_PROFIL
 10
-18.100000373538251
 20
26.099999999995759
 30
0.0
  0
VERTEX
  5
2120
  8
SAPA_PROFIL
 10
-17.600000373537789
 20
26.09999999999587
 30
0.0
 42
0.4142135623730951
  0
VERTEX
  5
2121
  8
SAPA_PROFIL
 10
-17.300000373538069
 20
26.399999999995831
 30
0.0
  0
VERTEX
  5
2122
  8
SAPA_PROFIL
 10
-17.300000373538069
 20
28.699999999995779
 30
0.0
 42
0.4142135623732062
  0
VERTEX
  5
2123
  8
SAPA_PROFIL
 10
-17.600000373537789
 20
28.999999999996081
 30
0.0
  0
VERTEX
  5
2124
  8
SAPA_PROFIL
 10
-22.00000037353794
 20
28.999999999995971
 30
0.0
 42
-0.4142135623730951
  0
VERTEX
  5
2125
  8
SAPA_PROFIL
 10
-23.00000037353794
 20
29.999999999995971
 30
0.0
  0
VERTEX
  5
2126
  8
SAPA_PROFIL
 10
-23.000000373538111
 20
34.699999999996351
 30
0.0
 42
-0.4142135623730984
  0
VERTEX
  5
2127
  8
SAPA_PROFIL
 10
-22.700000373538099
 20
34.999999999996362
 30
0.0
  0
VERTEX
  5
2128
  8
SAPA_PROFIL
 10
-21.400000373538091
 20
34.999999999996362
 30
0.0
 42
0.4142135623730951
  0
VERTEX
  5
2129
  8
SAPA_PROFIL
 10
-21.10000037353808
 20
35.299999999996373
 30
0.0
  0
VERTEX
  5
212A
  8
SAPA_PROFIL
 10
-21.10000037353808
 20
35.875735931284403
 30
0.0
 42
0.198912367379637
  0
VERTEX
  5
212B
  8
SAPA_PROFIL
 10
-21.187868339182099
 20
36.087867965640392
 30
0.0
  0
VERTEX
  5
212C
  8
SAPA_PROFIL
 10
-22.912132407893981
 20
37.812132034352153
 30
0.0
 42
-0.1989123673796579
  0
VERTEX
  5
212D
  8
SAPA_PROFIL
 10
-23.000000373538001
 20
38.024264068708142
 30
0.0
  0
VERTEX
  5
212E
  8
SAPA_PROFIL
 10
-23.000000373538061
 20
41.499999999996469
 30
0.0
 42
-0.4142135623730951
  0
VERTEX
  5
212F
  8
SAPA_PROFIL
 10
-22.000000373538061
 20
42.499999999996469
 30
0.0
  0
VERTEX
  5
2130
  8
SAPA_PROFIL
 10
21.999999626461829
 20
42.499999999996469
 30
0.0
 42
-0.4142135623730951
  0
VERTEX
  5
2131
  8
SAPA_PROFIL
 10
22.999999626461829
 20
41.499999999996469
 30
0.0
  0
VERTEX
  5
2132
  8
SAPA_PROFIL
 10
22.999999626461769
 20
38.024264068708078
 30
0.0
 42
-0.1989123673796579
  0
VERTEX
  5
2133
  8
SAPA_PROFIL
 10
22.912131660817749
 20
37.812132034352089
 30
0.0
  0
VERTEX
  5
2134
  8
SAPA_PROFIL
 10
21.187867592105931
 20
36.087867965640442
 30
0.0
 42
0.198912367379658
  0
VERTEX
  5
2135
  8
SAPA_PROFIL
 10
21.099999626461909
 20
35.875735931284453
 30
0.0
  0
VERTEX
  5
2136
  8
SAPA_PROFIL
 10
21.099999626461909
 20
35.299999999996373
 30
0.0
 42
0.4142135623730951
  0
VERTEX
  5
2137
  8
SAPA_PROFIL
 10
21.39999962646192
 20
34.999999999996362
 30
0.0
  0
VERTEX
  5
2138
  8
SAPA_PROFIL
 10
22.699999626461821
 20
34.999999999996362
 30
0.0
 42
-0.4142135623730984
  0
VERTEX
  5
2139
  8
SAPA_PROFIL
 10
22.999999626461829
 20
34.699999999996351
 30
0.0
  0
VERTEX
  5
213A
  8
SAPA_PROFIL
 10
22.999999626461719
 20
29.999999999995971
 30
0.0
 42
-0.4142135623730951
  0
VERTEX
  5
213B
  8
SAPA_PROFIL
 10
21.999999626461719
 20
28.999999999995971
 30
0.0
  0
VERTEX
  5
213C
  8
SAPA_PROFIL
 10
17.599999626461571
 20
28.999999999996081
 30
0.0
 42
0.4142135623732062
  0
VERTEX
  5
213D
  8
SAPA_PROFIL
 10
17.29999962646184
 20
28.699999999995779
 30
0.0
  0
VERTEX
  5
213E
  8
SAPA_PROFIL
 10
17.29999962646184
 20
26.399999999995831
 30
0.0
 42
0.4142135623730951
  0
VERTEX
  5
213F
  8
SAPA_PROFIL
 10
17.599999626461571
 20
26.09999999999587
 30
0.0
  0
VERTEX
  5
2140
  8
SAPA_PROFIL
 10
18.099999626462019
 20
26.099999999995759
 30
0.0
 42
0.414213562372984
  0
VERTEX
  5
2141
  8
SAPA_PROFIL
 10
18.399999626461749
 20
26.399999999995831
 30
0.0
  0
VERTEX
  5
2142
  8
SAPA_PROFIL
 10
18.399999626461749
 20
26.73662692463137
 30
0.0
 42
-0.5643553431126542
  0
VERTEX
  5
2143
  8
SAPA_PROFIL
 10
22.724394669696949
 20
24.874395043228841
 30
0.0
  0
VERTEX
  5
2144
  8
SAPA_PROFIL
 10
22.349999626463841
 20
24.499999999995961
 30
0.0
  0
VERTEX
  5
2145
  8
SAPA_PROFIL
 10
22.724394669696039
 20
24.125604956758991
 30
0.0
 42
-0.5643553431119927
  0
VERTEX
  5
2146
  8
SAPA_PROFIL
 10
18.399999626461749
 20
22.263373075361919
 30
0.0
  0
VERTEX
  5
2147
  8
SAPA_PROFIL
 10
18.399999626461749
 20
22.599999999996101
 30
0.0
 42
0.414213562373095
  0
VERTEX
  5
2148
  8
SAPA_PROFIL
 10
18.099999626461571
 20
22.899999999996059
 30
0.0
  0
VERTEX
  5
2149
  8
SAPA_PROFIL
 10
17.599999626461571
 20
22.899999999996059
 30
0.0
 42
0.4142135623730953
  0
VERTEX
  5
214A
  8
SAPA_PROFIL
 10
17.29999962646184
 20
22.599999999996101
 30
0.0
  0
VERTEX
  5
214B
  8
SAPA_PROFIL
 10
17.299999626461609
 20
21.4999999999967
 30
0.0
 42
0.4142135623730508
  0
VERTEX
  5
214C
  8
SAPA_PROFIL
 10
18.799999626461329
 20
19.999999999996639
 30
0.0
  0
VERTEX
  5
214D
  8
SAPA_PROFIL
 10
21.633974222677178
 20
19.999999999995911
 30
0.0
 42
0.2679491924311283
  0
VERTEX
  5
214E
  8
SAPA_PROFIL
 10
22.066986924569449
 20
20.24999999999574
 30
0.0
 42
-0.7673269879788167
  0
VERTEX
  5
214F
  8
SAPA_PROFIL
 10
22.999999626461602
 20
19.999999999995559
 30
0.0
  0
VERTEX
  5
2150
  8
SAPA_PROFIL
 10
22.999999626461381
 20
-15.000000000002499
 30
0.0
 42
-0.4142135623730951
  0
VERTEX
  5
2151
  8
SAPA_PROFIL
 10
21.999999626461371
 20
-16.000000000002501
 30
0.0
  0
VERTEX
  5
2152
  8
SAPA_PROFIL
 10
17.599999626461219
 20
-16.000000000002391
 30
0.0
 42
0.4142135623732062
  0
VERTEX
  5
2153
  8
SAPA_PROFIL
 10
17.299999626461499
 20
-16.300000000002679
 30
0.0
  0
VERTEX
  5
2154
  8
SAPA_PROFIL
 10
17.299999626461499
 20
-18.600000000002641
 30
0.0
 42
0.4142135623730951
  0
VERTEX
  5
2155
  8
SAPA_PROFIL
 10
17.599999626461219
 20
-18.900000000002589
 30
0.0
  0
VERTEX
  5
2156
  8
SAPA_PROFIL
 10
18.099999626461681
 20
-18.900000000002699
 30
0.0
 42
0.414213562372984
  0
VERTEX
  5
2157
  8
SAPA_PROFIL
 10
18.399999626461408
 20
-18.600000000002641
 30
0.0
  0
VERTEX
  5
2158
  8
SAPA_PROFIL
 10
18.399999626461408
 20
-18.263373075367099
 30
0.0
 42
-0.5643553431126542
  0
VERTEX
  5
2159
  8
SAPA_PROFIL
 10
22.724394669696611
 20
-20.125604956769621
 30
0.0
  0
VERTEX
  5
215A
  8
SAPA_PROFIL
 10
22.3499996264635
 20
-20.500000000002501
 30
0.0
  0
VERTEX
  5
215B
  8
SAPA_PROFIL
 10
22.724394669695702
 20
-20.87439504323947
 30
0.0
 42
-0.5643553431119927
  0
VERTEX
  5
215C
  8
SAPA_PROFIL
 10
18.399999626461408
 20
-22.736626924636539
 30
0.0
  0
VERTEX
  5
215D
  8
SAPA_PROFIL
 10
18.399999626461408
 20
-22.400000000002361
 30
0.0
 42
0.414213562373095
  0
VERTEX
  5
215E
  8
SAPA_PROFIL
 10
18.099999626461219
 20
-22.10000000000241
 30
0.0
  0
VERTEX
  5
215F
  8
SAPA_PROFIL
 10
17.599999626461219
 20
-22.10000000000241
 30
0.0
 42
0.4142135623730951
  0
VERTEX
  5
2160
  8
SAPA_PROFIL
 10
17.299999626461378
 20
-22.400000000002361
 30
0.0
  0
VERTEX
  5
2161
  8
SAPA_PROFIL
 10
17.299999626461378
 20
-23.500000000001759
 30
0.0
 42
0.4142135623730508
  0
VERTEX
  5
2162
  8
SAPA_PROFIL
 10
18.799999626461101
 20
-25.000000000001819
 30
0.0
  0
VERTEX
  5
2163
  8
SAPA_PROFIL
 10
21.78038438420435
 20
-25.000000000002451
 30
0.0
 42
0.2679491924279903
  0
VERTEX
  5
2164
  8
SAPA_PROFIL
 10
22.040192005327871
 20
-24.849999999999739
 30
0.0
 42
-0.767326987974136
  0
VERTEX
  5
2165
  8
SAPA_PROFIL
 10
22.5999996264614
 20
-25.000000000002899
 30
0.0
  0
VERTEX
  5
2166
  8
SAPA_PROFIL
 10
22.59999962646134
 20
-27.000000000001819
 30
0.0
 42
-0.4142135623730951
  0
VERTEX
  5
2167
  8
SAPA_PROFIL
 10
21.59999962646134
 20
-28.000000000001819
 30
0.0
  0
VERTEX
  5
2168
  8
SAPA_PROFIL
 10
-21.600000373537799
 20
-28.000000000001819
 30
0.0
 42
-0.4142135623731284
  0
VERTEX
  5
2169
  8
SAPA_PROFIL
 10
-22.60000037353791
 20
-27.000000000001819
 30
0.0
  0
SEQEND
  5
216A
  8
SAPA_PROFIL
  0
POLYLINE
  5
1B75
  8
SAPA_PROFIL
 66
     1
 10
0.0
 20
0.0
 30
0.0
 70
     1
  0
VERTEX
  5
216B
  8
SAPA_PROFIL
 10
2.6999996264622719
 20
-30.999999999011781
 30
0.0
  0
VERTEX
  5
216C
  8
SAPA_PROFIL
 10
2.6999996264622719
 20
-31.249999999011781
 30
0.0
  0
VERTEX
  5
216D
  8
SAPA_PROFIL
 10
2.3499996264623628
 20
-31.24999999901183
 30
0.0
 42
0.5450207774094042
  0
VERTEX
  5
216E
  8
SAPA_PROFIL
 10
2.076719322210351
 20
-31.67376540333731
 30
0.0
  0
VERTEX
  5
216F
  8
SAPA_PROFIL
 10
2.6999996264622719
 20
-33.049999999011959
 30
0.0
  0
VERTEX
  5
2170
  8
SAPA_PROFIL
 10
2.3499996264623628
 20
-33.04999999901208
 30
0.0
 42
0.5450207774090177
  0
VERTEX
  5
2171
  8
SAPA_PROFIL
 10
2.0767193222102369
 20
-33.473765403337161
 30
0.0
  0
VERTEX
  5
2172
  8
SAPA_PROFIL
 10
2.6999996264622719
 20
-34.849999999011906
 30
0.0
  0
VERTEX
  5
2173
  8
SAPA_PROFIL
 10
2.3499996264623628
 20
-34.84999999901197
 30
0.0
 42
0.5450207774094042
  0
VERTEX
  5
2174
  8
SAPA_PROFIL
 10
2.076719322210351
 20
-35.27376540333745
 30
0.0
  0
VERTEX
  5
2175
  8
SAPA_PROFIL
 10
2.6999996264622719
 20
-36.649999999011868
 30
0.0
  0
VERTEX
  5
2176
  8
SAPA_PROFIL
 10
2.3499996264623628
 20
-36.649999999011868
 30
0.0
 42
0.545020777409516
  0
VERTEX
  5
2177
  8
SAPA_PROFIL
 10
2.076719322210351
 20
-37.073765403337518
 30
0.0
  0
VERTEX
  5
2178
  8
SAPA_PROFIL
 10
2.6999996264622719
 20
-38.44999999901205
 30
0.0
  0
VERTEX
  5
2179
  8
SAPA_PROFIL
 10
2.3499996264623628
 20
-38.44999999901205
 30
0.0
 42
0.545020777409516
  0
VERTEX
  5
217A
  8
SAPA_PROFIL
 10
2.076719322210351
 20
-38.8737654033377
 30
0.0
  0
VERTEX
  5
217B
  8
SAPA_PROFIL
 10
2.6999996264622719
 20
-40.249999999012232
 30
0.0
  0
VERTEX
  5
217C
  8
SAPA_PROFIL
 10
2.3499996264623628
 20
-40.249999999012232
 30
0.0
 42
0.5450207774090177
  0
VERTEX
  5
217D
  8
SAPA_PROFIL
 10
2.0767193222102369
 20
-40.67376540333742
 30
0.0
  0
VERTEX
  5
217E
  8
SAPA_PROFIL
 10
2.4282667520477039
 20
-41.449999999012043
 30
0.0
  0
VERTEX
  5
217F
  8
SAPA_PROFIL
 10
-1.0006707898188549
 20
-41.449999999012107
 30
0.0
  0
VERTEX
  5
2180
  8
SAPA_PROFIL
 10
-2.7000003735378182
 20
-41.449999999012107
 30
0.0
  0
VERTEX
  5
2181
  8
SAPA_PROFIL
 10
-2.7000003735378182
 20
-41.149999999012088
 30
0.0
  0
VERTEX
  5
2182
  8
SAPA_PROFIL
 10
-2.0767200692854431
 20
-39.773765403337791
 30
0.0
 42
0.5450207774093642
  0
VERTEX
  5
2183
  8
SAPA_PROFIL
 10
-2.3500003735376822
 20
-39.349999999012368
 30
0.0
  0
VERTEX
  5
2184
  8
SAPA_PROFIL
 10
-2.7000003735378182
 20
-39.349999999012141
 30
0.0
  0
VERTEX
  5
2185
  8
SAPA_PROFIL
 10
-2.0767200692856131
 20
-37.973765403337609
 30
0.0
 42
0.5450207774088696
  0
VERTEX
  5
2186
  8
SAPA_PROFIL
 10
-2.3500003735376822
 20
-37.549999999012421
 30
0.0
  0
VERTEX
  5
2187
  8
SAPA_PROFIL
 10
-2.7000003735378182
 20
-37.549999999012194
 30
0.0
  0
VERTEX
  5
2188
  8
SAPA_PROFIL
 10
-2.0767200692856131
 20
-36.173765403337647
 30
0.0
 42
0.5450207774094402
  0
VERTEX
  5
2189
  8
SAPA_PROFIL
 10
-2.3500003735376822
 20
-35.749999999012353
 30
0.0
  0
VERTEX
  5
218A
  8
SAPA_PROFIL
 10
-2.7000003735378182
 20
-35.749999999012232
 30
0.0
  0
VERTEX
  5
218B
  8
SAPA_PROFIL
 10
-2.0767200692854431
 20
-34.373765403337927
 30
0.0
 42
0.5450207774093642
  0
VERTEX
  5
218C
  8
SAPA_PROFIL
 10
-2.3500003735376822
 20
-33.949999999012512
 30
0.0
  0
VERTEX
  5
218D
  8
SAPA_PROFIL
 10
-2.7000003735378182
 20
-33.949999999012277
 30
0.0
  0
VERTEX
  5
218E
  8
SAPA_PROFIL
 10
-2.0767200692856131
 20
-32.573765403337752
 30
0.0
 42
0.5450207774088696
  0
VERTEX
  5
218F
  8
SAPA_PROFIL
 10
-2.3500003735376822
 20
-32.149999999012607
 30
0.0
  0
VERTEX
  5
2190
  8
SAPA_PROFIL
 10
-2.7000003735378182
 20
-32.149999999011868
 30
0.0
  0
VERTEX
  5
2191
  8
SAPA_PROFIL
 10
-2.7000003735378182
 20
-30.999999999011781
 30
0.0
 42
-0.4142135623730951
  0
VERTEX
  5
2192
  8
SAPA_PROFIL
 10
-1.700000373537818
 20
-29.999999999011781
 30
0.0
  0
VERTEX
  5
2193
  8
SAPA_PROFIL
 10
1.6999996264622721
 20
-29.999999999011781
 30
0.0
 42
-0.4142135623730951
  0
SEQEND
  5
2194
  8
SAPA_PROFIL
  0
POLYLINE
  5
1B76
  8
SAPA_PROFIL
 66
     1
 10
0.0
 20
0.0
 30
0.0
 70
     1
  0
VERTEX
  5
2195
  8
SAPA_PROFIL
 10
-16.700000373538671
 20
-30.000000000001759
 30
0.0
  0
VERTEX
  5
2196
  8
SAPA_PROFIL
 10
-23.20000037353833
 20
-30.000000000001759
 30
0.0
 42
0.4142135623732062
  0
VERTEX
  5
2197
  8
SAPA_PROFIL
 10
-23.500000373538288
 20
-30.30000000000183
 30
0.0
  0
VERTEX
  5
2198
  8
SAPA_PROFIL
 10
-23.500000373538288
 20
-34.20000000000158
 30
0.0
 42
0.4142135623730951
  0
VERTEX
  5
2199
  8
SAPA_PROFIL
 10
-23.20000037353833
 20
-34.500000000001542
 30
0.0
  0
VERTEX
  5
219A
  8
SAPA_PROFIL
 10
-22.000000373538452
 20
-34.500000000001648
 30
0.0
 42
-0.7105995015650612
  0
VERTEX
  5
219B
  8
SAPA_PROFIL
 10
-21.813616357777619
 20
-35.03507658043651
 30
0.0
  0
VERTEX
  5
219C
  8
SAPA_PROFIL
 10
-22.127051798357339
 20
-35.283588601450958
 30
0.0
 42
-0.169180745212488
  0
VERTEX
  5
219D
  8
SAPA_PROFIL
 10
-22.748331850893241
 20
-35.500000000001769
 30
0.0
  0
VERTEX
  5
219E
  8
SAPA_PROFIL
 10
-24.700000373538501
 20
-35.500000000001648
 30
0.0
 42
-0.4142135623730951
  0
VERTEX
  5
219F
  8
SAPA_PROFIL
 10
-25.000000373538459
 20
-35.200000000001701
 30
0.0
  0
VERTEX
  5
21A0
  8
SAPA_PROFIL
 10
-25.000000373538121
 20
43.999999999996419
 30
0.0
 42
-0.4142135623730951
  0
VERTEX
  5
21A1
  8
SAPA_PROFIL
 10
-24.500000373538121
 20
44.499999999996419
 30
0.0
  0
VERTEX
  5
21A2
  8
SAPA_PROFIL
 10
24.499999626461889
 20
44.499999999996419
 30
0.0
 42
-0.4142135623730951
  0
VERTEX
  5
21A3
  8
SAPA_PROFIL
 10
24.999999626461889
 20
43.999999999996419
 30
0.0
  0
VERTEX
  5
21A4
  8
SAPA_PROFIL
 10
24.999999626461999
 20
-35.200000000001808
 30
0.0
 42
-0.4142135623730951
  0
VERTEX
  5
21A5
  8
SAPA_PROFIL
 10
24.699999626462048
 20
-35.500000000001769
 30
0.0
  0
VERTEX
  5
21A6
  8
SAPA_PROFIL
 10
22.748331103816948
 20
-35.500000000001769
 30
0.0
 42
-0.1691807452125303
  0
VERTEX
  5
21A7
  8
SAPA_PROFIL
 10
22.12705105128094
 20
-35.283588601450852
 30
0.0
  0
VERTEX
  5
21A8
  8
SAPA_PROFIL
 10
21.81361561070128
 20
-35.035076580436403
 30
0.0
 42
-0.7105995015650845
  0
VERTEX
  5
21A9
  8
SAPA_PROFIL
 10
21.999999626461999
 20
-34.500000000001762
 30
0.0
  0
VERTEX
  5
21AA
  8
SAPA_PROFIL
 10
23.199999626461931
 20
-34.500000000001762
 30
0.0
 42
0.4142135623732061
  0
VERTEX
  5
21AB
  8
SAPA_PROFIL
 10
23.499999626461879
 20
-34.200000000001701
 30
0.0
  0
VERTEX
  5
21AC
  8
SAPA_PROFIL
 10
23.499999626461879
 20
-30.300000000001951
 30
0.0
 42
0.4142135623732061
  0
VERTEX
  5
21AD
  8
SAPA_PROFIL
 10
23.199999626461931
 20
-30.000000000001879
 30
0.0
  0
VERTEX
  5
21AE
  8
SAPA_PROFIL
 10
16.699999626461992
 20
-30.000000000001759
 30
0.0
 42
0.4142135623730951
  0
VERTEX
  5
21AF
  8
SAPA_PROFIL
 10
16.199999626461992
 20
-30.500000000001769
 30
0.0
  0
VERTEX
  5
21B0
  8
SAPA_PROFIL
 10
16.199999626461871
 20
-34.20000000000158
 30
0.0
 42
0.4142135623733172
  0
VERTEX
  5
21B1
  8
SAPA_PROFIL
 10
16.499999626462049
 20
-34.500000000001762
 30
0.0
  0
VERTEX
  5
21B2
  8
SAPA_PROFIL
 10
18.39999962646198
 20
-34.500000000001542
 30
0.0
 42
-0.7105995015650612
  0
VERTEX
  5
21B3
  8
SAPA_PROFIL
 10
18.58638364222281
 20
-35.035076580436403
 30
0.0
  0
VERTEX
  5
21B4
  8
SAPA_PROFIL
 10
18.27294820164326
 20
-35.283588601450852
 30
0.0
 42
-0.1691807452125303
  0
VERTEX
  5
21B5
  8
SAPA_PROFIL
 10
17.651668149107248
 20
-35.500000000001769
 30
0.0
  0
VERTEX
  5
21B6
  8
SAPA_PROFIL
 10
11.29999962646195
 20
-35.500000000001769
 30
0.0
 42
-0.4142135623728731
  0
VERTEX
  5
21B7
  8
SAPA_PROFIL
 10
10.999999626461999
 20
-35.200000000001808
 30
0.0
  0
VERTEX
  5
21B8
  8
SAPA_PROFIL
 10
10.99999962646222
 20
-34.500000000001542
 30
0.0
 42
-0.4142135623730951
  0
VERTEX
  5
21B9
  8
SAPA_PROFIL
 10
11.29999962646218
 20
-34.20000000000158
 30
0.0
  0
VERTEX
  5
21BA
  8
SAPA_PROFIL
 10
14.199999626461761
 20
-34.20000000000158
 30
0.0
 42
0.4142135623730951
  0
VERTEX
  5
21BB
  8
SAPA_PROFIL
 10
14.699999626461761
 20
-33.70000000000158
 30
0.0
  0
VERTEX
  5
21BC
  8
SAPA_PROFIL
 10
14.699999626461979
 20
-30.500000000001769
 30
0.0
 42
0.4142135623731617
  0
VERTEX
  5
21BD
  8
SAPA_PROFIL
 10
14.19999962646199
 20
-30.000000000001759
 30
0.0
  0
VERTEX
  5
21BE
  8
SAPA_PROFIL
 10
5.999999626462567
 20
-30.00000000000199
 30
0.0
 42
0.4142135623730951
  0
VERTEX
  5
21BF
  8
SAPA_PROFIL
 10
4.999999626462567
 20
-31.00000000000199
 30
0.0
  0
VERTEX
  5
21C0
  8
SAPA_PROFIL
 10
4.9999996264623396
 20
-52.199999999011879
 30
0.0
 42
-0.4142135623730951
  0
VERTEX
  5
21C1
  8
SAPA_PROFIL
 10
4.6999996264623292
 20
-52.499999999011891
 30
0.0
  0
VERTEX
  5
21C2
  8
SAPA_PROFIL
 10
3.0750101561756078
 20
-52.499999999011827
 30
0.0
  0
VERTEX
  5
21C3
  8
SAPA_PROFIL
 10
2.21447477739133
 20
-51.535790539647849
 30
0.0
 42
-0.6264792893017398
  0
VERTEX
  5
21C4
  8
SAPA_PROFIL
 10
2.450020685889398
 20
-51.049999999012421
 30
0.0
  0
VERTEX
  5
21C5
  8
SAPA_PROFIL
 10
2.6999996264623292
 20
-51.049999999012179
 30
0.0
  0
VERTEX
  5
21C6
  8
SAPA_PROFIL
 10
2.1767193222102028
 20
-49.673765403337882
 30
0.0
 42
-0.5450207774090681
  0
VERTEX
  5
21C7
  8
SAPA_PROFIL
 10
2.4499996264623292
 20
-49.249999999012353
 30
0.0
  0
VERTEX
  5
21C8
  8
SAPA_PROFIL
 10
2.6999996264622719
 20
-49.249999999012232
 30
0.0
  0
VERTEX
  5
21C9
  8
SAPA_PROFIL
 10
2.1767193222103169
 20
-47.87376540333792
 30
0.0
 42
-0.545020777409516
  0
VERTEX
  5
21CA
  8
SAPA_PROFIL
 10
2.4499996264623292
 20
-47.44999999901227
 30
0.0
  0
VERTEX
  5
21CB
  8
SAPA_PROFIL
 10
2.6999996264622719
 20
-47.44999999901227
 30
0.0
  0
VERTEX
  5
21CC
  8
SAPA_PROFIL
 10
2.1767193222102028
 20
-46.073765403337617
 30
0.0
 42
-0.5450207774091295
  0
VERTEX
  5
21CD
  8
SAPA_PROFIL
 10
2.4499996264623292
 20
-45.64999999901238
 30
0.0
  0
VERTEX
  5
21CE
  8
SAPA_PROFIL
 10
2.6999996264622719
 20
-45.649999999012323
 30
0.0
  0
VERTEX
  5
21CF
  8
SAPA_PROFIL
 10
2.1767193222103169
 20
-44.273765403337791
 30
0.0
 42
-0.545020777409516
  0
VERTEX
  5
21D0
  8
SAPA_PROFIL
 10
2.4499996264623292
 20
-43.849999999012127
 30
0.0
  0
VERTEX
  5
21D1
  8
SAPA_PROFIL
 10
2.6999996264622719
 20
-43.849999999012127
 30
0.0
  0
VERTEX
  5
21D2
  8
SAPA_PROFIL
 10
2.446046474292018
 20
-43.182570825615642
 30
0.0
 42
0.3492695052203141
  0
VERTEX
  5
21D3
  8
SAPA_PROFIL
 10
2.1537224989238548
 20
-42.949999999012221
 30
0.0
  0
VERTEX
  5
21D4
  8
SAPA_PROFIL
 10
1.2649106905294041
 20
-42.949999999012221
 30
0.0
 42
-0.3475404855924057
  0
VERTEX
  5
21D5
  8
SAPA_PROFIL
 10
0.9730081372830454
 20
-42.71923076824293
 30
0.0
 42
0.7905694150422074
  0
VERTEX
  5
21D6
  8
SAPA_PROFIL
 10
-0.973008884359956
 20
-42.719230768243101
 30
0.0
 42
-0.3475404855923888
  0
VERTEX
  5
21D7
  8
SAPA_PROFIL
 10
-1.2649114376071671
 20
-42.949999999012221
 30
0.0
  0
VERTEX
  5
21D8
  8
SAPA_PROFIL
 10
-1.8767200692856809
 20
-42.9499999990121
 30
0.0
 42
0.4142135623730951
  0
VERTEX
  5
21D9
  8
SAPA_PROFIL
 10
-2.1767200692856932
 20
-43.249999999012111
 30
0.0
  0
VERTEX
  5
21DA
  8
SAPA_PROFIL
 10
-2.1767200692856359
 20
-43.3737654033377
 30
0.0
  0
VERTEX
  5
21DB
  8
SAPA_PROFIL
 10
-2.7000003735378182
 20
-44.749999999012232
 30
0.0
  0
VERTEX
  5
21DC
  8
SAPA_PROFIL
 10
-2.4500003735376481
 20
-44.749999999012452
 30
0.0
 42
-0.5450207774088696
  0
VERTEX
  5
21DD
  8
SAPA_PROFIL
 10
-2.176720069285579
 20
-45.173765403337647
 30
0.0
  0
VERTEX
  5
21DE
  8
SAPA_PROFIL
 10
-2.7000003735378182
 20
-46.549999999012179
 30
0.0
  0
VERTEX
  5
21DF
  8
SAPA_PROFIL
 10
-2.4500003735376481
 20
-46.549999999012407
 30
0.0
 42
-0.5450207774091855
  0
VERTEX
  5
21E0
  8
SAPA_PROFIL
 10
-2.1767200692855222
 20
-46.973765403337772
 30
0.0
  0
VERTEX
  5
21E1
  8
SAPA_PROFIL
 10
-2.7000003735378182
 20
-48.349999999012141
 30
0.0
  0
VERTEX
  5
21E2
  8
SAPA_PROFIL
 10
-2.4500003735376481
 20
-48.349999999012141
 30
0.0
 42
-0.5450207774093374
  0
VERTEX
  5
21E3
  8
SAPA_PROFIL
 10
-2.17672006928575
 20
-48.773765403337741
 30
0.0
  0
VERTEX
  5
21E4
  8
SAPA_PROFIL
 10
-2.7000003735378182
 20
-50.149999999012323
 30
0.0
  0
VERTEX
  5
21E5
  8
SAPA_PROFIL
 10
-2.1499793141106229
 20
-50.149999999011918
 30
0.0
  0
VERTEX
  5
21E6
  8
SAPA_PROFIL
 10
-2.1499793141105661
 20
-51.347075010161461
 30
0.0
 42
-0.1681572645226206
  0
VERTEX
  5
21E7
  8
SAPA_PROFIL
 10
-2.2141626638721159
 20
-51.532521788160693
 30
0.0
  0
VERTEX
  5
21E8
  8
SAPA_PROFIL
 10
-3.074989843824369
 20
-52.49999999901177
 30
0.0
  0
VERTEX
  5
21E9
  8
SAPA_PROFIL
 10
-4.7000003735403189
 20
-52.499999999011827
 30
0.0
 42
-0.4142135623730951
  0
VERTEX
  5
21EA
  8
SAPA_PROFIL
 10
-5.0000003735403311
 20
-52.199999999011823
 30
0.0
  0
VERTEX
  5
21EB
  8
SAPA_PROFIL
 10
-5.0000003735401597
 20
-31.000000000001879
 30
0.0
 42
0.4142135623730951
  0
VERTEX
  5
21EC
  8
SAPA_PROFIL
 10
-6.0000003735401597
 20
-30.000000000001879
 30
0.0
  0
VERTEX
  5
21ED
  8
SAPA_PROFIL
 10
-14.200000373538559
 20
-30.000000000001759
 30
0.0
 42
0.4142135623730951
  0
VERTEX
  5
21EE
  8
SAPA_PROFIL
 10
-14.70000037353855
 20
-30.500000000001769
 30
0.0
  0
VERTEX
  5
21EF
  8
SAPA_PROFIL
 10
-14.70000037353855
 20
-33.700000000001808
 30
0.0
 42
0.4142135623730951
  0
VERTEX
  5
21F0
  8
SAPA_PROFIL
 10
-14.200000373538559
 20
-34.200000000001808
 30
0.0
  0
VERTEX
  5
21F1
  8
SAPA_PROFIL
 10
-11.30000037353863
 20
-34.20000000000158
 30
0.0
 42
-0.4142135623730951
  0
VERTEX
  5
21F2
  8
SAPA_PROFIL
 10
-11.000000373538681
 20
-34.500000000001542
 30
0.0
  0
VERTEX
  5
21F3
  8
SAPA_PROFIL
 10
-11.000000373538571
 20
-35.200000000001701
 30
0.0
 42
-0.4142135623730951
  0
VERTEX
  5
21F4
  8
SAPA_PROFIL
 10
-11.30000037353841
 20
-35.500000000001769
 30
0.0
  0
VERTEX
  5
21F5
  8
SAPA_PROFIL
 10
-17.6516688961837
 20
-35.500000000001648
 30
0.0
 42
-0.1691807452124953
  0
VERTEX
  5
21F6
  8
SAPA_PROFIL
 10
-18.272948948719598
 20
-35.283588601450788
 30
0.0
  0
VERTEX
  5
21F7
  8
SAPA_PROFIL
 10
-18.586384389299269
 20
-35.035076580436403
 30
0.0
 42
-0.7105995015650612
  0
VERTEX
  5
21F8
  8
SAPA_PROFIL
 10
-18.400000373538429
 20
-34.500000000001542
 30
0.0
  0
VERTEX
  5
21F9
  8
SAPA_PROFIL
 10
-16.500000373538619
 20
-34.500000000001762
 30
0.0
 42
0.4142135623732061
  0
VERTEX
  5
21FA
  8
SAPA_PROFIL
 10
-16.200000373538561
 20
-34.20000000000158
 30
0.0
  0
VERTEX
  5
21FB
  8
SAPA_PROFIL
 10
-16.200000373538671
 20
-30.500000000001769
 30
0.0
 42
0.4142135623730951
  0
SEQEND
  5
21FC
  8
SAPA_PROFIL
  0
LINE
  5
1B77
  8
SAPA_PROFIL
 62
     0
 10
26.696373426103211
 20
41.387268607697081
 30
0.0
 11
27.180520577157981
 21
40.903121456642339
 31
0.0
  0
LINE
  5
1B78
  8
SAPA_PROFIL
 62
     0
 10
25.009383818257561
 20
41.306491262576387
 30
0.0
 11
27.180520577157981
 21
39.135354503675963
 31
0.0
  0
LINE
  5
1B79
  8
SAPA_PROFIL
 62
     0
 10
25.009383818257561
 20
39.538724309610018
 30
0.0
 11
27.180520577157981
 21
37.367587550709572
 31
0.0
  0
LINE
  5
1B7A
  8
SAPA_PROFIL
 62
     0
 10
25.009383818257561
 20
37.770957356643642
 30
0.0
 11
27.180520577157981
 21
35.599820597743253
 31
0.0
  0
LINE
  5
1B7B
  8
SAPA_PROFIL
 62
     0
 10
25.009383818257561
 20
36.003190403677252
 30
0.0
 11
27.180520577157981
 21
33.832053644776863
 31
0.0
  0
LINE
  5
1B7C
  8
SAPA_PROFIL
 62
     0
 10
25.009383818257561
 20
27.16435563884545
 30
0.0
 11
25.743190744053209
 21
26.430548713049799
 31
0.0
  0
LINE
  5
1B7D
  8
SAPA_PROFIL
 62
     0
 10
25.009383818257561
 20
28.93212259181178
 30
0.0
 11
27.180520577157981
 21
26.760985832911391
 31
0.0
  0
LINE
  5
1B7E
  8
SAPA_PROFIL
 62
     0
 10
25.009383818257561
 20
30.699889544778159
 30
0.0
 11
27.180520577157981
 21
28.528752785877771
 31
0.0
  0
LINE
  5
1B7F
  8
SAPA_PROFIL
 62
     0
 10
25.009383818257561
 20
32.467656497744549
 30
0.0
 11
27.180520577157981
 21
30.296519738844101
 31
0.0
  0
LINE
  5
1B80
  8
SAPA_PROFIL
 62
     0
 10
25.009383818257561
 20
34.235423450710933
 30
0.0
 11
27.180520577157981
 21
32.06428669181048
 31
0.0
  0
LINE
  5
1B81
  8
SAPA_PROFIL
 62
     0
 10
25.009383818257561
 20
40.15820598116931
 30
0.0
 11
26.238446444785382
 21
41.387268607697081
 31
0.0
  0
LINE
  5
1B82
  8
SAPA_PROFIL
 62
     0
 10
25.009383818257561
 20
38.390439028202927
 30
0.0
 11
27.180520577157981
 21
40.561575787103379
 31
0.0
  0
LINE
  5
1B83
  8
SAPA_PROFIL
 62
     0
 10
25.009383818257561
 20
36.622672075236551
 30
0.0
 11
27.180520577157981
 21
38.793808834137003
 31
0.0
  0
LINE
  5
1B84
  8
SAPA_PROFIL
 62
     0
 10
25.009383818257561
 20
34.854905122270218
 30
0.0
 11
27.180520577157981
 21
37.026041881170613
 31
0.0
  0
LINE
  5
1B85
  8
SAPA_PROFIL
 62
     0
 10
25.009383818257561
 20
33.087138169303842
 30
0.0
 11
27.180520577157981
 21
35.25827492820423
 31
0.0
  0
LINE
  5
1B86
  8
SAPA_PROFIL
 62
     0
 10
25.423862173869029
 20
26.430548713049799
 30
0.0
 11
27.180520577157981
 21
28.187207116338762
 31
0.0
  0
LINE
  5
1B87
  8
SAPA_PROFIL
 62
     0
 10
25.009383818257561
 20
27.783837310404749
 30
0.0
 11
27.180520577157981
 21
29.954974069305141
 31
0.0
  0
LINE
  5
1B88
  8
SAPA_PROFIL
 62
     0
 10
25.009383818257561
 20
29.551604263371079
 30
0.0
 11
27.180520577157981
 21
31.722741022271521
 31
0.0
  0
LINE
  5
1B89
  8
SAPA_PROFIL
 62
     0
 10
25.009383818257561
 20
31.319371216337458
 30
0.0
 11
27.180520577157981
 21
33.490507975237911
 31
0.0
  0
LINE
  5
1B8A
  8
SAPA_PROFIL
 62
     0
 10
41.101219821540383
 20
42.368339987301617
 30
0.0
 11
42.369093697665328
 21
41.100466111176729
 31
0.0
  0
LINE
  5
1B8B
  8
SAPA_PROFIL
 62
     0
 10
39.333452868574
 20
42.368339987301617
 30
0.0
 11
40.684382407445348
 21
41.017410448430262
 31
0.0
  0
LINE
  5
1B8C
  8
SAPA_PROFIL
 62
     0
 10
37.565685915607681
 20
42.368339987301617
 30
0.0
 11
38.916615454479029
 21
41.017410448430262
 31
0.0
  0
LINE
  5
1B8D
  8
SAPA_PROFIL
 62
     0
 10
35.797918962641262
 20
42.368339987301617
 30
0.0
 11
37.148848501512653
 21
41.017410448430262
 31
0.0
  0
LINE
  5
1B8E
  8
SAPA_PROFIL
 62
     0
 10
29.280888981004068
 20
41.814302157073371
 30
0.0
 11
30.077780689647138
 21
41.017410448430262
 31
0.0
  0
LINE
  5
1B8F
  8
SAPA_PROFIL
 62
     0
 10
30.494618103742141
 20
42.368339987301617
 30
0.0
 11
31.8455476426135
 21
41.017410448430262
 31
0.0
  0
LINE
  5
1B90
  8
SAPA_PROFIL
 62
     0
 10
32.262385056708531
 20
42.368339987301617
 30
0.0
 11
33.61331459557988
 21
41.017410448430262
 31
0.0
  0
LINE
  5
1B91
  8
SAPA_PROFIL
 62
     0
 10
34.030152009674879
 20
42.368339987301617
 30
0.0
 11
35.381081548546241
 21
41.017410448430262
 31
0.0
  0
LINE
  5
1B92
  8
SAPA_PROFIL
 62
     0
 10
29.812843642453601
 20
41.017410448430262
 30
0.0
 11
31.163773181324931
 21
42.368339987301617
 31
0.0
  0
LINE
  5
1B93
  8
SAPA_PROFIL
 62
     0
 10
31.580610595419959
 20
41.017410448430262
 30
0.0
 11
32.931540134291311
 21
42.368339987301617
 31
0.0
  0
LINE
  5
1B94
  8
SAPA_PROFIL
 62
     0
 10
33.348377548386338
 20
41.017410448430262
 30
0.0
 11
34.699307087257672
 21
42.368339987301617
 31
0.0
  0
LINE
  5
1B95
  8
SAPA_PROFIL
 62
     0
 10
42.18721231321819
 20
41.017410448430262
 30
0.0
 11
42.369093697665328
 21
41.1992918328774
 31
0.0
  0
LINE
  5
1B96
  8
SAPA_PROFIL
 62
     0
 10
40.419445360251807
 20
41.017410448430262
 30
0.0
 11
41.770374899123169
 21
42.368339987301617
 31
0.0
  0
LINE
  5
1B97
  8
SAPA_PROFIL
 62
     0
 10
38.651678407285488
 20
41.017410448430262
 30
0.0
 11
40.002607946156779
 21
42.368339987301617
 31
0.0
  0
LINE
  5
1B98
  8
SAPA_PROFIL
 62
     0
 10
36.883911454319112
 20
41.017410448430262
 30
0.0
 11
38.23484099319046
 21
42.368339987301617
 31
0.0
  0
LINE
  5
1B99
  8
SAPA_PROFIL
 62
     0
 10
35.116144501352693
 20
41.017410448430262
 30
0.0
 11
36.467074040224077
 21
42.368339987301617
 31
0.0
  0
LINE
  5
1B9A
  8
SAPA_PROFIL
 10
28.699999626461931
 20
31.199999999996152
 30
0.0
 11
60.95715136966453
 21
31.199999999996152
 31
0.0
  0
LINE
  5
1B9B
  8
SAPA_PROFIL
 10
28.757631301788589
 20
30.44179137479566
 30
0.0
 11
60.95715136966453
 21
30.441791374795599
 31
0.0
  0
LINE
  5
1B9C
  8
SAPA_PROFIL
 10
28.757631301788589
 20
29.741791374795611
 30
0.0
 11
60.95715136966453
 21
29.741791374795561
 31
0.0
  0
LINE
  5
1B9D
  8
SAPA_PROFIL
 10
28.822692250845648
 20
40.975438248466467
 30
0.0
 11
60.957151369664579
 21
40.975438248466531
 31
0.0
  0
ARC
  5
1B9E
  8
SAPA_PROFIL
 10
-0.0000000000026477
 20
-31.577137293194181
 30
0.0
 40
52.457142857141569
 50
261.05599162060662
 51
278.94400837939361
  0
ARC
  5
1B9F
  8
SAPA_PROFIL
 10
4.6958545104039962
 20
-152.61988178597809
 30
0.0
 40
61.941521467203017
 50
84.158564115270224
 51
104.67867683537609
  0
LINE
  5
1BA0
  8
SAPA_PROFIL
 10
8.1554691837842181
 20
-83.396440251906995
 30
0.0
 11
10.9999999999996
 21
-82.653051271135723
 31
0.0
  0
LINE
  5
1BA1
  8
SAPA_PROFIL
 10
-8.1554691837893412
 20
-83.396440251907023
 30
0.0
 11
-11.00000000003201
 21
-82.262870722021447
 31
0.0
  0
INSERT
  5
1BCD
  8
SAPA_FYLLNING
  6
CONTINUOUS
  2
*X79
 10
0.0
 20
0.0
 30
0.0
1001
GRADIENTCOLOR1ACI
1070
     5
1001
GRADIENTCOLOR2ACI
1070
     2
1001
ACAD
1000
HATCH
1002
{
1070
    19
1000
ANSI37
1040
0.25
1040
0.0
1000
R14_HATCH_DATA
1000
1BCD
1011
1.0
1021
0.0
1031
0.0
1021
0.0
1031
0.0
1011
0.0
1021
0.0
1031
0.0
1021
1.0
1031
0.0
1011
0.0
1021
0.0
1031
0.0
1021
0.0
1031
1.0
1040
0.0
1010
0.0
1020
0.0
1030
1.0
1000
ANSI37
1070
     0
1070
     0
1071
        1
1071
        7
1070
     1
1070
     1
1071
        7
1040
10.9999999999996
1040
-90.999999999999488
1040
0.0
1040
10.9999999999996
1040
-84.999999999999474
1040
0.0
1040
10.9999999999996
1040
-82.653051271135723
1040
0.0
1040
8.1554691837842643
1040
-83.396440251906995
1040
-0.0782100801382208
1040
-8.1554691837893607
1040
-83.396440251906995
1040
0.0
1040
-11.00000000003191
1040
-82.262870722021503
1040
0.0
1040
-11.00000000001458
1040
-92.700000003219714
1040
-0.0897759121880709
1071
        0
1070
     1
1070
     1
1040
0.0
1040
0.25
1070
     0
1070
     2
1040
0.7853981633974483
1040
0.0
1040
0.0
1040
-0.5612660075668221
1040
0.5612660075668221
1070
     0
1040
2.3561944901923439
1040
0.0
1040
0.0
1040
-0.5612660075668221
1040
-0.5612660075668221
1070
     0
1040
0.0256191213762074
1071
        1
1040
-1.2461287122481499
1040
-87.785864515288836
1040
0.0
1002
}
  0
POLYLINE
  5
1BD7
  8
SAPA_ISOLATOR
 66
     1
 10
0.0
 20
0.0
 30
0.0
 70
     1
  0
VERTEX
  5
22F4
  8
SAPA_ISOLATOR
 10
-3.500000000000056
 20
-53.699999999999761
 30
0.0
  0
VERTEX
  5
22F5
  8
SAPA_ISOLATOR
 10
-2.602944098690215
 20
-53.699999999999761
 30
0.0
  0
VERTEX
  5
22F6
  8
SAPA_ISOLATOR
 10
-1.099999999998829
 20
-52.197055901308367
 30
0.0
  0
VERTEX
  5
22F7
  8
SAPA_ISOLATOR
 10
-1.099999999999056
 20
-46.478136728428069
 30
0.0
 42
-0.0502608893789828
  0
VERTEX
  5
22F8
  8
SAPA_ISOLATOR
 10
-0.423077722344317
 20
-45.495019712916637
 30
0.0
 42
-0.460955221230658
  0
VERTEX
  5
22F9
  8
SAPA_ISOLATOR
 10
0.4230769752679749
 20
-45.495019712917319
 30
0.0
 42
-0.0502609546985642
  0
VERTEX
  5
22FA
  8
SAPA_ISOLATOR
 10
1.100000000001216
 20
-46.478138087674722
 30
0.0
  0
VERTEX
  5
22FB
  8
SAPA_ISOLATOR
 10
1.100000000001216
 20
-52.197056648386877
 30
0.0
  0
VERTEX
  5
22FC
  8
SAPA_ISOLATOR
 10
2.6029433516138729
 20
-53.699999999999989
 30
0.0
  0
VERTEX
  5
22FD
  8
SAPA_ISOLATOR
 10
3.4999999999999432
 20
-53.699999999999989
 30
0.0
 42
-0.4142135623728733
  0
VERTEX
  5
22FE
  8
SAPA_ISOLATOR
 10
3.7999999999998968
 20
-53.99999999999995
 30
0.0
  0
VERTEX
  5
22FF
  8
SAPA_ISOLATOR
 10
3.80000000000092
 20
-61.099999999999909
 30
0.0
 42
-0.4142135623731387
  0
VERTEX
  5
2300
  8
SAPA_ISOLATOR
 10
3.30000000000092
 20
-61.599999999999959
 30
0.0
  0
VERTEX
  5
2301
  8
SAPA_ISOLATOR
 10
-3.2999999999988741
 20
-61.600000000000023
 30
0.0
 42
-0.4142135623730469
  0
VERTEX
  5
2302
  8
SAPA_ISOLATOR
 10
-3.7999999999988741
 20
-61.10000000000008
 30
0.0
  0
VERTEX
  5
2303
  8
SAPA_ISOLATOR
 10
-3.8000000000000109
 20
-53.99999999999995
 30
0.0
 42
-0.4142135623733169
  0
SEQEND
  5
2304
  8
SAPA_ISOLATOR
  0
POLYLINE
  5
1BD8
  8
SAPA_ISOLATOR
 66
     1
 10
0.0
 20
0.0
 30
0.0
 70
     1
  0
VERTEX
  5
2305
  8
SAPA_ISOLATOR
 10
-6.7999999999975103
 20
-71.49999999999801
 30
0.0
 42
-0.4142135623731284
  0
VERTEX
  5
2306
  8
SAPA_ISOLATOR
 10
-6.2999999999975103
 20
-70.999999999997897
 30
0.0
  0
VERTEX
  5
2307
  8
SAPA_ISOLATOR
 10
-5.500000000000056
 20
-70.999999999997897
 30
0.0
 42
0.4142135623730951
  0
VERTEX
  5
2308
  8
SAPA_ISOLATOR
 10
-5.000000000000056
 20
-70.499999999997897
 30
0.0
  0
VERTEX
  5
2309
  8
SAPA_ISOLATOR
 10
-4.9999999999998286
 20
-52.999999999999943
 30
0.0
 42
-0.4142135623730951
  0
VERTEX
  5
230A
  8
SAPA_ISOLATOR
 10
-4.4999999999998286
 20
-52.499999999999943
 30
0.0
  0
VERTEX
  5
230B
  8
SAPA_ISOLATOR
 10
-3.1000003735380801
 20
-52.499999999999943
 30
0.0
  0
VERTEX
  5
230C
  8
SAPA_ISOLATOR
 10
-2.2999999999986471
 20
-51.69999962646051
 30
0.0
  0
VERTEX
  5
230D
  8
SAPA_ISOLATOR
 10
-2.3000000000004661
 20
-47.241778772773209
 30
0.0
 42
-0.0970774689087859
  0
VERTEX
  5
230E
  8
SAPA_ISOLATOR
 10
-1.0313587057281091
 20
-44.975410008182678
 30
0.0
 42
-0.4609552212306134
  0
VERTEX
  5
230F
  8
SAPA_ISOLATOR
 10
1.031357958651653
 20
-44.975410008182557
 30
0.0
 42
-0.0970775585520922
  0
VERTEX
  5
2310
  8
SAPA_ISOLATOR
 10
2.300000000001261
 20
-47.241781051835851
 30
0.0
  0
VERTEX
  5
2311
  8
SAPA_ISOLATOR
 10
2.300000000001261
 20
-51.700000373539467
 30
0.0
  0
VERTEX
  5
2312
  8
SAPA_ISOLATOR
 10
3.0999996264615102
 20
-52.499999999999943
 30
0.0
  0
VERTEX
  5
2313
  8
SAPA_ISOLATOR
 10
4.4999999999997149
 20
-52.499999999999943
 30
0.0
 42
-0.4142135623730951
  0
VERTEX
  5
2314
  8
SAPA_ISOLATOR
 10
4.9999999999997149
 20
-52.999999999999943
 30
0.0
  0
VERTEX
  5
2315
  8
SAPA_ISOLATOR
 10
5.0000000000049454
 20
-70.499999999997897
 30
0.0
 42
0.4142135623730951
  0
VERTEX
  5
2316
  8
SAPA_ISOLATOR
 10
5.5000000000049454
 20
-70.999999999997897
 30
0.0
  0
VERTEX
  5
2317
  8
SAPA_ISOLATOR
 10
6.3000000000023979
 20
-70.999999999997897
 30
0.0
 42
-0.4142135623731617
  0
VERTEX
  5
2318
  8
SAPA_ISOLATOR
 10
6.8000000000023411
 20
-71.499999999998465
 30
0.0
  0
VERTEX
  5
2319
  8
SAPA_ISOLATOR
 10
6.8000000000025693
 20
-80.299999999998434
 30
0.0
 42
-0.4142135623730951
  0
VERTEX
  5
231A
  8
SAPA_ISOLATOR
 10
5.8000000000026262
 20
-81.29999999999842
 30
0.0
  0
VERTEX
  5
231B
  8
SAPA_ISOLATOR
 10
5.087371996652279
 20
-81.29999999999842
 30
0.0
 42
-0.221694662643068
  0
VERTEX
  5
231C
  8
SAPA_ISOLATOR
 10
4.8575586637165884
 20
-81.192836282904224
 30
0.0
  0
VERTEX
  5
231D
  8
SAPA_ISOLATOR
 10
4.269533616121123
 20
-80.49205531989702
 30
0.0
 42
-0.6358782360467221
  0
VERTEX
  5
231E
  8
SAPA_ISOLATOR
 10
4.5000000000017621
 20
-79.999999999998465
 30
0.0
  0
VERTEX
  5
231F
  8
SAPA_ISOLATOR
 10
5.3000000000026262
 20
-79.999999999998238
 30
0.0
 42
0.4142135623730951
  0
VERTEX
  5
2320
  8
SAPA_ISOLATOR
 10
5.6000000000023533
 20
-79.699999999998056
 30
0.0
  0
VERTEX
  5
2321
  8
SAPA_ISOLATOR
 10
5.6000000000025798
 20
-72.499999999998465
 30
0.0
 42
0.9995465490080238
  0
VERTEX
  5
2322
  8
SAPA_ISOLATOR
 10
4.9993422943206829
 20
-72.499999999998238
 30
0.0
  0
VERTEX
  5
2323
  8
SAPA_ISOLATOR
 10
0.8660254037865229
 20
-72.499999999997954
 30
0.0
  0
VERTEX
  5
2324
  8
SAPA_ISOLATOR
 10
0.0000000000022169
 20
-71.999999999998067
 30
0.0
  0
VERTEX
  5
2325
  8
SAPA_ISOLATOR
 10
-0.8660254037824302
 20
-72.499999999998181
 30
0.0
  0
VERTEX
  5
2326
  8
SAPA_ISOLATOR
 10
-4.9993422943157952
 20
-72.499999999998238
 30
0.0
 42
0.9995465490087907
  0
VERTEX
  5
2327
  8
SAPA_ISOLATOR
 10
-5.5999999999972374
 20
-72.499999999998465
 30
0.0
  0
VERTEX
  5
2328
  8
SAPA_ISOLATOR
 10
-5.5999999999974639
 20
-79.699999999998056
 30
0.0
 42
0.4142135623735446
  0
VERTEX
  5
2329
  8
SAPA_ISOLATOR
 10
-5.2999999999977367
 20
-79.99999999999801
 30
0.0
  0
VERTEX
  5
232A
  8
SAPA_ISOLATOR
 10
-4.4999999999977831
 20
-79.999999999998465
 30
0.0
 42
-0.6358782360470147
  0
VERTEX
  5
232B
  8
SAPA_ISOLATOR
 10
-4.2695336161187347
 20
-80.49205531989702
 30
0.0
  0
VERTEX
  5
232C
  8
SAPA_ISOLATOR
 10
-4.8575586637144283
 20
-81.192836282904224
 30
0.0
 42
-0.2216946626430204
  0
VERTEX
  5
232D
  8
SAPA_ISOLATOR
 10
-5.0873719966498916
 20
-81.29999999999842
 30
0.0
  0
VERTEX
  5
232E
  8
SAPA_ISOLATOR
 10
-5.7999999999981924
 20
-81.29999999999842
 30
0.0
 42
-0.4142135623731617
  0
VERTEX
  5
232F
  8
SAPA_ISOLATOR
 10
-6.7999999999981924
 20
-80.299999999998192
 30
0.0
  0
SEQEND
  5
2330
  8
SAPA_ISOLATOR
  0
POLYLINE
  5
1BD9
  8
SAPA_ISOLATOR
 66
     1
 10
0.0
 20
0.0
 30
0.0
 70
     1
  0
VERTEX
  5
2331
  8
SAPA_ISOLATOR
 10
-3.799999999998533
 20
-63.100000000000129
 30
0.0
 42
-0.4142135623731387
  0
VERTEX
  5
2332
  8
SAPA_ISOLATOR
 10
-3.299999999998533
 20
-62.60000000000008
 30
0.0
  0
VERTEX
  5
2333
  8
SAPA_ISOLATOR
 10
3.3000000000013752
 20
-62.600000000000023
 30
0.0
 42
-0.4142135623730514
  0
VERTEX
  5
2334
  8
SAPA_ISOLATOR
 10
3.8000000000013752
 20
-63.099999999999959
 30
0.0
  0
VERTEX
  5
2335
  8
SAPA_ISOLATOR
 10
3.8000000000023979
 20
-70.200000000000102
 30
0.0
 42
-0.4142135623730951
  0
VERTEX
  5
2336
  8
SAPA_ISOLATOR
 10
3.3000000000023979
 20
-70.700000000000102
 30
0.0
  0
VERTEX
  5
2337
  8
SAPA_ISOLATOR
 10
-3.2999999999975098
 20
-70.700000000000102
 30
0.0
 42
-0.4142135623730951
  0
VERTEX
  5
2338
  8
SAPA_ISOLATOR
 10
-3.7999999999975098
 20
-70.200000000000102
 30
0.0
  0
SEQEND
  5
2339
  8
SAPA_ISOLATOR
  0
INSERT
  5
1BDA
  8
SAPA_ISOLATOR
  6
CONTINUOUS
  2
*X82
 10
0.0
 20
0.0
 30
0.0
1001
ACAD
1000
HATCH
1002
{
1070
    19
1000
ANSI31
1040
0.35
1040
5.4977871437821371
1000
R14_HATCH_DATA
1000
1BDA
1011
1.0
1021
0.0
1031
0.0
1021
0.0
1031
0.0
1011
0.0
1021
0.0
1031
0.0
1021
1.0
1031
0.0
1011
0.0
1021
0.0
1031
0.0
1021
0.0
1031
1.0
1040
0.0
1010
0.0
1020
0.0
1030
1.0
1000
ANSI31
1070
     0
1070
     0
1071
        1
1071
        1
1071
       49
1070
     2
1040
-22.32743505419041
1040
-64.463742496360354
1040
0.3006817060114675
1040
0.0050584204141675
1040
1.2209764013054469
1070
     1
1070
     1
1040
-22.224382820568341
1040
-64.181271744820549
1040
-24.657212842112362
1040
-63.295794031949349
1070
     2
1040
-24.52040478477954
1040
-62.919916983633222
1040
0.400000000002539
1040
1.919862177198238
1040
3.1415926535904428
1070
     0
1070
     1
1040
-24.920404784782079
1040
-62.919916983632959
1040
-24.92040478478205
1040
-52.499999998918831
1070
     1
1040
-24.92040478478205
1040
-52.499999998918831
1040
-24.92040478478199
1040
-42.080083014200738
1070
     2
1040
-24.52040478478235
1040
-42.080083014202494
1040
0.3999999999996488
1040
3.1415926535941709
1040
4.3633231299864041
1070
     0
1070
     1
1040
-24.657212842112269
1040
-41.70420596588837
1040
-22.224382820576579
1040
-40.818728253020197
1070
     2
1040
-22.327281263520319
1040
-40.53636568087277
1040
0.3005273892841634
1040
5.0618515338339378
1040
6.2784842586649878
1070
     1
1070
     2
1040
-27.58740027004524
1040
-40.308189705934488
1040
5.5653807064749881
1040
6.2419205770420829
1040
6.3050848890821518
1070
     1
1070
     1
1040
-22.023354065396632
1040
-40.186319937167163
1040
-21.884684308290112
1040
-39.946136872384869
1070
     2
1040
-22.066549643085001
1040
-39.841136872385157
1040
0.2100000000000017
1040
5.7595865315828716
1040
7.8539816339739712
1070
     1
1070
     1
1040
-22.066549643084901
1040
-39.631136872385163
1040
-22.333664171297809
1040
-39.631136872385042
1070
     1
1040
-22.333664171297809
1040
-39.631136872385042
1040
-22.52988623708211
1040
-39.29999999891885
1070
     1
1040
-22.52988623708211
1040
-39.29999999891885
1040
-23.097530400579561
1040
-38.316679860938329
1070
     2
1040
-22.915665065786008
1040
-38.211679860940073
1040
0.209999999998109
1040
2.6179938779958061
1040
3.1415926535924319
1070
     0
1070
     1
1040
-23.125665065784119
1040
-38.211679860939512
1040
-23.125665065784229
1040
-37.89999999891694
1070
     2
1040
-22.7256650657881
1040
-37.899999998915028
1040
0.3999999999961332
1040
3.1415926535850138
1040
4.7123889803951498
1070
     0
1070
     1
1040
-22.725665065783911
1040
-37.499999998918902
1040
-19.325665065784161
1040
-37.499999998918838
1070
     2
1040
-19.325665065781251
1040
-37.899999998915902
1040
0.3999999999970676
1040
4.7123889803774146
1040
6.2831853071870016
1070
     0
1070
     1
1040
-18.92566506578418
1040
-37.899999998918872
1040
-18.92566506578418
1040
-38.211679860942517
1070
     2
1040
-19.135665065779129
1040
-38.211679860940869
1040
0.2099999999949489
1040
0.0000000000078835
1040
0.5235987756045111
1070
     0
1070
     1
1040
-18.953799730989431
1040
-38.316679860939473
1040
-19.521519877351459
1040
-39.29999999891885
1070
     1
1040
-19.521519877351459
1040
-39.29999999891885
1040
-19.864895550323581
1040
-39.894744110589727
1070
     2
1040
-18.82566506577319
1040
-40.494744110595832
1040
1.2000000000109059
1040
2.6179938779908598
1040
3.1415926535875132
1070
     1
1070
     1
1040
-20.0256650657841
1040
-40.494744110593103
1040
-20.025665065783869
1040
-41.446608443479533
1070
     2
1040
-21.025665065776121
1040
-41.446608443470517
1040
0.9999999999922533
1040
0.0000000000090097
1040
1.221730476401516
1070
     0
1070
     1
1040
-20.68364492245826
1040
-42.386301064251029
1040
-22.857212842111949
1040
-43.177415089160881
1070
     2
1040
-22.72040478478068
1040
-43.553292137476362
1040
0.4000000000013905
1040
1.9198621771951729
1040
3.141592653587403
1070
     1
1070
     1
1040
-23.120404784782071
1040
-43.553292137475403
1040
-23.120404784782071
1040
-52.499999998918831
1070
     1
1040
-23.120404784782071
1040
-52.499999998918831
1040
-23.120404784782131
1040
-61.446707860362331
1070
     2
1040
-22.72040478478355
1040
-61.446707860363318
1040
0.3999999999985775
1040
3.141592653587308
1040
4.363323129979511
1070
     1
1070
     1
1040
-22.8572128421157
1040
-61.822584908675481
1040
-20.68364492245848
1040
-62.613698933586591
1070
     2
1040
-21.025665065797359
1040
-63.553391554381747
1040
1.000000000013211
1040
5.0614548307928056
1040
6.2831853071850263
1070
     0
1070
     1
1040
-20.02566506578415
1040
-63.55339155438719
1040
-20.02566506578415
1040
-64.505255887244687
1070
     2
1040
-18.825665065795128
1040
-64.505255887247685
1040
1.1999999999890261
1040
3.1415926535872978
1040
3.665191429183948
1070
     1
1070
     1
1040
-19.864895550329429
1040
-65.105255887237888
1040
-19.52566506578421
1040
-65.692820321946385
1070
     1
1040
-19.52566506578421
1040
-65.692820321946385
1040
-18.953799730989491
1040
-66.683320136898317
1070
     2
1040
-19.135665065790629
1040
-66.788320136899983
1040
0.2100000000063851
1040
5.759586531589667
1040
6.2831853071863426
1070
     0
1070
     1
1040
-18.925665065784241
1040
-66.788320136901405
1040
-18.92566506578418
1040
-67.099999998918904
1070
     2
1040
-19.325665065787138
1040
-67.099999998915948
1040
0.40000000000295
1040
0.0000000000074323
1040
1.570796326797411
1070
     0
1070
     1
1040
-19.32566506578814
1040
-67.499999998918895
1040
-22.725665065784199
1040
-67.499999998918895
1070
     2
1040
-22.725665065782199
1040
-67.099999998916914
1040
0.4000000000019782
1040
1.5707963267998979
1040
3.1415926535899059
1070
     0
1070
     1
1040
-23.12566506578418
1040
-67.099999998916871
1040
-23.12566506578418
1040
-66.788320136898221
1070
     2
1040
-22.915665065782271
1040
-66.78832013689869
1040
0.2100000000019078
1040
3.1415926535920451
1040
3.6651914291886731
1070
     0
1070
     1
1040
-23.097530400578592
1040
-66.683320136897635
1040
-22.333664171297809
1040
-65.368863125452634
1070
     1
1040
-22.333664171297809
1040
-65.368863125452634
1040
-22.066549643084901
1040
-65.368863125452521
1070
     2
1040
-22.066549643085001
1040
-65.158863125452513
1040
0.2100000000000017
1040
4.7123889803851959
1040
6.8067840827762964
1070
     1
1070
     1
1040
-21.884684308290101
1040
-65.053863125452807
1040
-22.023354065396632
1040
-64.813680060670507
1070
     2
1040
-27.587400269487748
1040
-64.691810291900111
1040
5.5653807059176952
1040
6.2612857252742726
1040
6.3244500373143397
1070
     1
1071
        0
1070
     0
1070
     1
1040
5.4977871437821371
1040
0.35
1070
     0
1070
     1
1040
0.0
1040
-24.920404977802271
1040
-67.50000014973466
1040
0.0000000000000003
1040
1.111249999999999
1070
     0
1071
        1
1040
-24.920404977802271
1040
-67.50000014973466
1040
0.0
1002
}
  0
INSERT
  5
1BDB
  8
SAPA_ISOLATOR
  6
CONTINUOUS
  2
*X83
 10
0.0
 20
0.0
 30
0.0
1001
ACAD
1000
HATCH
1002
{
1070
    19
1000
ANSI31
1040
0.35
1040
5.4977871437821371
1000
R14_HATCH_DATA
1000
1BDB
1011
1.0
1021
0.0
1031
0.0
1021
0.0
1031
0.0
1011
0.0
1021
0.0
1031
0.0
1021
1.0
1031
0.0
1011
0.0
1021
0.0
1031
0.0
1021
0.0
1031
1.0
1040
0.0
1010
0.0
1020
0.0
1030
1.0
1000
ANSI31
1070
     0
1070
     0
1071
        1
1071
        1
1071
       49
1070
     2
1040
-7.6725649458037353
1040
-64.463742496360354
1040
0.3006817060114675
1040
-3.1365342331756252
1040
-1.9206162522843451
1070
     0
1070
     1
1040
-7.7756171794258071
1040
-64.181271744820549
1040
-5.3427871578817872
1040
-63.295794031949349
1070
     2
1040
-5.479595215214605
1040
-62.919916983633222
1040
0.400000000002539
1040
5.0614548307880307
1040
6.2831853071802364
1070
     1
1070
     1
1040
-5.0795952152120663
1040
-62.919916983632959
1040
-5.0795952152120938
1040
-52.499999998918831
1070
     1
1040
-5.0795952152120938
1040
-52.499999998918831
1040
-5.0795952152121524
1040
-42.080083014200738
1070
     2
1040
-5.479595215211801
1040
-42.080083014202494
1040
0.3999999999996488
1040
6.2831853071839641
1040
7.5049157835761973
1070
     1
1070
     1
1040
-5.3427871578818724
1040
-41.70420596588837
1040
-7.7756171794175648
1040
-40.818728253020197
1070
     2
1040
-7.6727187364738247
1040
-40.53636568087277
1040
0.3005273892841634
1040
1.9202588802441449
1040
3.1368916050751952
1070
     0
1070
     2
1040
-2.412599729948901
1040
-40.308189705934488
1040
5.5653807064749881
1040
3.1003279234522898
1040
3.1634922354923591
1070
     0
1070
     1
1040
-7.9766459345975154
1040
-40.186319937167163
1040
-8.1153156917040388
1040
-39.946136872384869
1070
     2
1040
-7.9334503569091392
1040
-39.841136872385157
1040
0.2100000000000017
1040
2.6179938779930789
1040
4.7123889803841781
1070
     0
1070
     1
1040
-7.9334503569092467
1040
-39.631136872385163
1040
-7.666335828696333
1040
-39.631136872385042
1070
     1
1040
-7.666335828696333
1040
-39.631136872385042
1040
-7.4701137629120353
1040
-39.29999999891885
1070
     1
1040
-7.4701137629120353
1040
-39.29999999891885
1040
-6.9024695994145873
1040
-38.316679860938329
1070
     2
1040
-7.0843349342081332
1040
-38.211679860940073
1040
0.209999999998109
1040
5.7595865315855992
1040
6.283185307182225
1070
     1
1070
     1
1040
-6.8743349342100251
1040
-38.211679860939512
1040
-6.874334934209914
1040
-37.89999999891694
1070
     2
1040
-7.2743349342060446
1040
-37.899999998915028
1040
0.3999999999961332
1040
6.2831853071748069
1040
7.8539816339849429
1070
     1
1070
     1
1040
-7.2743349342102297
1040
-37.499999998918902
1040
-10.67433493420998
1040
-37.499999998918838
1070
     2
1040
-10.67433493421289
1040
-37.899999998915902
1040
0.3999999999970676
1040
7.8539816339672077
1040
9.4247779607767956
1070
     1
1070
     1
1040
-11.074334934209951
1040
-37.899999998918872
1040
-11.074334934209951
1040
-38.211679860942517
1070
     2
1040
-10.864334934215011
1040
-38.211679860940869
1040
0.2099999999949489
1040
3.1415926535976761
1040
3.6651914291943042
1070
     1
1070
     1
1040
-11.046200269004711
1040
-38.316679860939473
1040
-10.478480122642679
1040
-39.29999999891885
1070
     1
1040
-10.478480122642679
1040
-39.29999999891885
1040
-10.13510444967056
1040
-39.894744110589727
1070
     2
1040
-11.174334934220949
1040
-40.494744110595832
1040
1.2000000000109059
1040
-0.5235987755989325
1040
-0.0000000000022795
1070
     0
1070
     1
1040
-9.9743349342100487
1040
-40.494744110593103
1040
-9.9743349342102761
1040
-41.446608443479533
1070
     2
1040
-8.9743349342180245
1040
-41.446608443470517
1040
0.9999999999922533
1040
3.1415926535988019
1040
4.3633231299913087
1070
     1
1070
     1
1040
-9.3163550775358885
1040
-42.386301064251029
1040
-7.1427871578821973
1040
-43.177415089160881
1070
     2
1040
-7.279595215213468
1040
-43.553292137476362
1040
0.4000000000013905
1040
-1.2217304763946191
1040
-0.0000000000023892
1070
     0
1070
     1
1040
-6.8795952152120767
1040
-43.553292137475403
1040
-6.879595215212075
1040
-52.499999998918831
1070
     1
1040
-6.8795952152120767
1040
-52.499999998918831
1040
-6.8795952152120199
1040
-61.446707860362331
1070
     2
1040
-7.2795952152105983
1040
-61.446707860363318
1040
0.3999999999985775
1040
-0.0000000000024847
1040
1.2217304763897181
1070
     0
1070
     1
1040
-7.1427871578784439
1040
-61.822584908675481
1040
-9.3163550775356612
1040
-62.613698933586591
1070
     2
1040
-8.9743349341967811
1040
-63.553391554381747
1040
1.000000000013211
1040
8.2030474843825996
1040
9.4247779607748186
1070
     1
1070
     1
1040
-9.9743349342099918
1040
-63.55339155438719
1040
-9.9743349342099918
1040
-64.505255887244687
1070
     2
1040
-11.17433493419902
1040
-64.505255887247685
1040
1.1999999999890261
1040
-0.0000000000024949
1040
0.5235987755941554
1070
     0
1070
     1
1040
-10.135104449664709
1040
-65.105255887237888
1040
-10.47433493420993
1040
-65.692820321946385
1070
     1
1040
-10.47433493420993
1040
-65.692820321946385
1040
-11.046200269004659
1040
-66.683320136898317
1070
     2
1040
-10.86433493420351
1040
-66.788320136899983
1040
0.2100000000063851
1040
8.9011791851794602
1040
9.4247779607761366
1070
     1
1070
     1
1040
-11.074334934209899
1040
-66.788320136901405
1040
-11.074334934209951
1040
-67.099999998918904
1070
     2
1040
-10.67433493420701
1040
-67.099999998915948
1040
0.40000000000295
1040
3.1415926535972249
1040
4.7123889803872041
1070
     1
1070
     1
1040
-10.674334934206
1040
-67.499999998918895
1040
-7.2743349342099464
1040
-67.499999998918895
1070
     2
1040
-7.2743349342119457
1040
-67.099999998916914
1040
0.4000000000019782
1040
4.712388980389691
1040
6.283185307179699
1070
     1
1070
     1
1040
-6.8743349342099691
1040
-67.099999998916871
1040
-6.8743349342099691
1040
-66.788320136898221
1070
     2
1040
-7.0843349342118769
1040
-66.78832013689869
1040
0.2100000000019078
1040
6.2831853071818378
1040
6.8067840827784662
1070
     1
1070
     1
1040
-6.9024695994155527
1040
-66.683320136897635
1040
-7.666335828696333
1040
-65.368863125452634
1070
     1
1040
-7.666335828696333
1040
-65.368863125452634
1040
-7.9334503569092467
1040
-65.368863125452521
1070
     2
1040
-7.933450356909141
1040
-65.158863125452513
1040
0.2100000000000017
1040
1.570796326795403
1040
3.6651914291865029
1070
     0
1070
     1
1040
-8.1153156917040405
1040
-65.053863125452807
1040
-7.9766459345975171
1040
-64.813680060670507
1070
     2
1040
-2.412599730506396
1040
-64.691810291900111
1040
5.5653807059176952
1040
3.11969307168448
1040
3.1828573837245471
1070
     0
1071
        0
1070
     0
1070
     1
1040
5.4977871437821371
1040
0.35
1070
     0
1070
     1
1040
0.0
1040
0.0
1040
0.0
1040
0.0000000000000003
1040
1.111249999999999
1070
     0
1071
        1
1040
-5.0795950221918806
1040
-67.50000014973466
1040
0.0
1002
}
  0
POLYLINE
  5
1BFC
  8
SAPA_FOGBAND
 66
     1
 10
0.0
 20
0.0
 30
0.0
 70
     1
  0
VERTEX
  5
23F0
  8
SAPA_FOGBAND
 10
4.178740179216982
 20
-80.768193081411013
 30
0.0
  0
VERTEX
  5
23F1
  8
SAPA_FOGBAND
 10
4.1787401792169669
 20
-80.544896306152935
 30
0.0
 42
-0.3500011104185251
  0
VERTEX
  5
23F2
  8
SAPA_FOGBAND
 10
4.8009624014392021
 20
-79.764899471718081
 30
0.0
 42
0.3500011104185275
  0
VERTEX
  5
23F3
  8
SAPA_FOGBAND
 10
5.5787401792169726
 20
-78.789903428674506
 30
0.0
  0
VERTEX
  5
23F4
  8
SAPA_FOGBAND
 10
5.5787401792169726
 20
-78.46489947171807
 30
0.0
 42
0.4142135623730992
  0
VERTEX
  5
23F5
  8
SAPA_FOGBAND
 10
4.5787401792169726
 20
-77.46489947171807
 30
0.0
  0
VERTEX
  5
23F6
  8
SAPA_FOGBAND
 10
-4.6212598207830453
 20
-77.46489947171807
 30
0.0
 42
0.4142135623730909
  0
VERTEX
  5
23F7
  8
SAPA_FOGBAND
 10
-5.6212598207830311
 20
-78.46489947171807
 30
0.0
  0
VERTEX
  5
23F8
  8
SAPA_FOGBAND
 10
-5.6212598207830453
 20
-78.789903428674506
 30
0.0
 42
0.3500011104185275
  0
VERTEX
  5
23F9
  8
SAPA_FOGBAND
 10
-4.843482043005273
 20
-79.764899471718053
 30
0.0
 42
-0.3500011104185328
  0
VERTEX
  5
23FA
  8
SAPA_FOGBAND
 10
-4.2212598207830254
 20
-80.544896306152935
 30
0.0
  0
VERTEX
  5
23FB
  8
SAPA_FOGBAND
 10
-4.2212598207830254
 20
-80.768193081411013
 30
0.0
 42
-0.380963100045198
  0
VERTEX
  5
23FC
  8
SAPA_FOGBAND
 10
-4.6639644297978791
 20
-81.264899471718081
 30
0.0
 42
-0.0458039546811979
  0
VERTEX
  5
23FD
  8
SAPA_FOGBAND
 10
-7.9530679894324461
 20
-81.341546602805465
 30
0.0
 42
0.9570085662280619
  0
VERTEX
  5
23FE
  8
SAPA_FOGBAND
 10
-8.1767290045698129
 20
-83.327059573289304
 30
0.0
 42
0.0782100801382191
  0
VERTEX
  5
23FF
  8
SAPA_FOGBAND
 10
8.1342093630037429
 20
-83.327059573289347
 30
0.0
 42
0.9570085662280891
  0
VERTEX
  5
2400
  8
SAPA_FOGBAND
 10
7.9105483478663468
 20
-81.341546602805465
 30
0.0
 42
-0.0458039546811975
  0
VERTEX
  5
2401
  8
SAPA_FOGBAND
 10
4.621444788231833
 20
-81.264899471718081
 30
0.0
 42
-0.380963100045198
  0
SEQEND
  5
2402
  8
SAPA_FOGBAND
  0
CIRCLE
  5
1BFD
  8
SAPA_FOGBAND
 10
23.106096809031239
 20
-36.800000000002029
 30
0.0
 40
0.2549509756796394
  0
POLYLINE
  5
1BFE
  8
SAPA_FOGBAND
 66
     1
 10
0.0
 20
0.0
 30
0.0
 70
     1
  0
VERTEX
  5
2403
  8
SAPA_FOGBAND
 10
20.756096809031281
 20
-35.500000000002018
 30
0.0
 42
0.4142135623730951
  0
VERTEX
  5
2404
  8
SAPA_FOGBAND
 10
20.956096809031269
 20
-35.300000000002029
 30
0.0
  0
VERTEX
  5
2405
  8
SAPA_FOGBAND
 10
20.956096809031269
 20
-33.500000000002018
 30
0.0
 42
0.9999999999999998
  0
VERTEX
  5
2406
  8
SAPA_FOGBAND
 10
19.656096809031251
 20
-33.500000000002018
 30
0.0
  0
VERTEX
  5
2407
  8
SAPA_FOGBAND
 10
19.656096809031251
 20
-35.300000000002029
 30
0.0
 42
0.4142135623730951
  0
VERTEX
  5
2408
  8
SAPA_FOGBAND
 10
19.856096809031239
 20
-35.500000000002018
 30
0.0
  0
VERTEX
  5
2409
  8
SAPA_FOGBAND
 10
20.606096809031239
 20
-35.500000000002018
 30
0.0
  0
SEQEND
  5
240A
  8
SAPA_FOGBAND
  0
POLYLINE
  5
1BFF
  8
SAPA_FOGBAND
 66
     1
 10
0.0
 20
0.0
 30
0.0
 70
     1
  0
VERTEX
  5
240B
  8
SAPA_FOGBAND
 10
16.352506970545019
 20
-35.500000000002018
 30
0.0
 42
-0.267949192431121
  0
VERTEX
  5
240C
  8
SAPA_FOGBAND
 10
16.17930188978815
 20
-35.400000000002002
 30
0.0
 42
0.7673269879789569
  0
VERTEX
  5
240D
  8
SAPA_FOGBAND
 10
15.80609680903129
 20
-35.500000000002018
 30
0.0
  0
VERTEX
  5
240E
  8
SAPA_FOGBAND
 10
15.80609680903129
 20
-42.782887030406272
 30
0.0
 42
0.4602937089574736
  0
VERTEX
  5
240F
  8
SAPA_FOGBAND
 10
16.036919116371649
 20
-42.9804977218433
 30
0.0
  0
VERTEX
  5
2410
  8
SAPA_FOGBAND
 10
18.49625524789835
 20
-42.38740673784784
 30
0.0
 42
-0.6910703998708235
  0
VERTEX
  5
2411
  8
SAPA_FOGBAND
 10
18.680904965233619
 20
-42.712834204139568
 30
0.0
  0
VERTEX
  5
2412
  8
SAPA_FOGBAND
 10
15.982704242490881
 20
-43.008274837719988
 30
0.0
 42
0.928378177954751
  0
VERTEX
  5
2413
  8
SAPA_FOGBAND
 10
16.413281290025079
 20
-43.423753435875398
 30
0.0
  0
VERTEX
  5
2414
  8
SAPA_FOGBAND
 10
19.558520559312591
 20
-43.228542559027417
 30
0.0
 42
-0.6076316918600427
  0
VERTEX
  5
2415
  8
SAPA_FOGBAND
 10
19.807434932775411
 20
-43.32309672969464
 30
0.0
 42
0.38070580105552
  0
VERTEX
  5
2416
  8
SAPA_FOGBAND
 10
20.006096809031281
 20
-43.500000000001947
 30
0.0
  0
VERTEX
  5
2417
  8
SAPA_FOGBAND
 10
20.306096809031288
 20
-43.500000000001947
 30
0.0
  0
VERTEX
  5
2418
  8
SAPA_FOGBAND
 10
20.606096809031239
 20
-43.500000000001947
 30
0.0
 42
0.3807058010555201
  0
VERTEX
  5
2419
  8
SAPA_FOGBAND
 10
20.804758685287059
 20
-43.323096729694583
 30
0.0
 42
-0.6076316918600374
  0
VERTEX
  5
241A
  8
SAPA_FOGBAND
 10
21.053673058749919
 20
-43.228542559027417
 30
0.0
  0
VERTEX
  5
241B
  8
SAPA_FOGBAND
 10
24.307287975458589
 20
-43.423753435875277
 30
0.0
 42
0.9283781779547513
  0
VERTEX
  5
241C
  8
SAPA_FOGBAND
 10
24.737865022992789
 20
-43.008274837719817
 30
0.0
  0
VERTEX
  5
241D
  8
SAPA_FOGBAND
 10
21.90135079951628
 20
-42.70992292487167
 30
0.0
 42
-0.6910703998708235
  0
VERTEX
  5
241E
  8
SAPA_FOGBAND
 10
22.086000516851559
 20
-42.384495458579948
 30
0.0
  0
VERTEX
  5
241F
  8
SAPA_FOGBAND
 10
24.57527450169087
 20
-42.9804977218433
 30
0.0
 42
0.4602937089574736
  0
VERTEX
  5
2420
  8
SAPA_FOGBAND
 10
24.806096809031288
 20
-42.782887030406272
 30
0.0
  0
VERTEX
  5
2421
  8
SAPA_FOGBAND
 10
24.806096809031288
 20
-35.500000000002018
 30
0.0
 42
0.7673269879789572
  0
VERTEX
  5
2422
  8
SAPA_FOGBAND
 10
24.43289172827437
 20
-35.400000000002002
 30
0.0
 42
-0.267949192431121
  0
VERTEX
  5
2423
  8
SAPA_FOGBAND
 10
24.259686647517501
 20
-35.500000000002018
 30
0.0
  0
VERTEX
  5
2424
  8
SAPA_FOGBAND
 10
22.056096809031288
 20
-35.500000000002018
 30
0.0
 42
-0.4142135623730946
  0
VERTEX
  5
2425
  8
SAPA_FOGBAND
 10
21.956096809031258
 20
-35.400000000002002
 30
0.0
  0
VERTEX
  5
2426
  8
SAPA_FOGBAND
 10
21.956096809031258
 20
-34.400000000002002
 30
0.0
  0
VERTEX
  5
2427
  8
SAPA_FOGBAND
 10
22.3141520552571
 20
-34.291388579561129
 30
0.0
 42
0.4364998583843341
  0
VERTEX
  5
2428
  8
SAPA_FOGBAND
 10
22.442562145127539
 20
-34.027676570641212
 30
0.0
  0
VERTEX
  5
2429
  8
SAPA_FOGBAND
 10
21.90370335164593
 20
-32.638382853197839
 30
0.0
 42
0.3095538907669666
  0
VERTEX
  5
242A
  8
SAPA_FOGBAND
 10
20.971376671164681
 20
-32.000000000002018
 30
0.0
  0
VERTEX
  5
242B
  8
SAPA_FOGBAND
 10
19.640816946897839
 20
-32.000000000002018
 30
0.0
 42
0.3095538907669666
  0
VERTEX
  5
242C
  8
SAPA_FOGBAND
 10
18.70849026641659
 20
-32.638382853197839
 30
0.0
  0
VERTEX
  5
242D
  8
SAPA_FOGBAND
 10
18.169631472935041
 20
-34.027676570641212
 30
0.0
 42
0.4364998583843343
  0
VERTEX
  5
242E
  8
SAPA_FOGBAND
 10
18.29804156280548
 20
-34.291388579561129
 30
0.0
  0
VERTEX
  5
242F
  8
SAPA_FOGBAND
 10
18.656096809031251
 20
-34.400000000002002
 30
0.0
  0
VERTEX
  5
2430
  8
SAPA_FOGBAND
 10
18.656096809031251
 20
-35.400000000002002
 30
0.0
 42
-0.4142135623730946
  0
VERTEX
  5
2431
  8
SAPA_FOGBAND
 10
18.556096809031288
 20
-35.500000000002018
 30
0.0
  0
SEQEND
  5
2432
  8
SAPA_FOGBAND
  0
POLYLINE
  5
1C00
  8
SAPA_FOGBAND
 66
     1
 10
0.0
 20
0.0
 30
0.0
 70
     1
  0
VERTEX
  5
2433
  8
SAPA_FOGBAND
 10
18.482229251553029
 20
-37.800000000002029
 30
0.0
 42
0.3042268896177264
  0
VERTEX
  5
2434
  8
SAPA_FOGBAND
 10
18.204696775250369
 20
-37.986088961918341
 30
0.0
 42
0.2901372376591382
  0
VERTEX
  5
2435
  8
SAPA_FOGBAND
 10
18.254982069468578
 20
-40.213945402555296
 30
0.0
 42
0.1927175523564936
  0
VERTEX
  5
2436
  8
SAPA_FOGBAND
 10
18.415282049455669
 20
-40.368941574663857
 30
0.0
 42
0.1963728951991371
  0
VERTEX
  5
2437
  8
SAPA_FOGBAND
 10
22.196911568606851
 20
-40.368941574663857
 30
0.0
 42
0.1927175523564951
  0
VERTEX
  5
2438
  8
SAPA_FOGBAND
 10
22.357211548593941
 20
-40.213945402555296
 30
0.0
 42
0.2901372376591384
  0
VERTEX
  5
2439
  8
SAPA_FOGBAND
 10
22.407496842812211
 20
-37.986088961918341
 30
0.0
 42
0.3042268896177278
  0
VERTEX
  5
243A
  8
SAPA_FOGBAND
 10
22.12996436650948
 20
-37.800000000002029
 30
0.0
  0
SEQEND
  5
243B
  8
SAPA_FOGBAND
  0
POLYLINE
  5
1C01
  8
SAPA_FOGBAND
 66
     1
 10
0.0
 20
0.0
 30
0.0
 70
     1
  0
VERTEX
  5
243C
  8
SAPA_FOGBAND
 10
8.6651512261995265
 20
-64.360800493659823
 30
0.0
  0
VERTEX
  5
243D
  8
SAPA_FOGBAND
 10
11.666478388768009
 20
-64.852752833549673
 30
0.0
 42
0.4464785874932524
  0
VERTEX
  5
243E
  8
SAPA_FOGBAND
 10
12.775153645719771
 20
-63.858675528443918
 30
0.0
  0
VERTEX
  5
243F
  8
SAPA_FOGBAND
 10
12.775153645719771
 20
-62.313435434751042
 30
0.0
 42
0.622676997742357
  0
VERTEX
  5
2440
  8
SAPA_FOGBAND
 10
11.16447915910598
 20
-61.521553706587653
 30
0.0
  0
VERTEX
  5
2441
  8
SAPA_FOGBAND
 10
8.1631519965365822
 20
-62.440776968640243
 30
0.0
 42
0.232531183213058
  0
VERTEX
  5
2442
  8
SAPA_FOGBAND
 10
7.7738264831494632
 20
-63.23265869680408
 30
0.0
  0
VERTEX
  5
2443
  8
SAPA_FOGBAND
 10
7.7738264831503718
 20
-63.366723188554069
 30
0.0
 42
0.3826682380870913
  0
SEQEND
  5
2444
  8
SAPA_FOGBAND
  0
POLYLINE
  5
1C02
  8
SAPA_FOGBAND
 66
     1
 10
0.0
 20
0.0
 30
0.0
 70
     1
  0
VERTEX
  5
2445
  8
SAPA_FOGBAND
 10
21.762136882491951
 20
-57.296201445460881
 30
0.0
 42
0.4740571810231764
  0
VERTEX
  5
2446
  8
SAPA_FOGBAND
 10
21.889430744855279
 20
-57.013918859822567
 30
0.0
  0
VERTEX
  5
2447
  8
SAPA_FOGBAND
 10
21.269330242097428
 20
-55.567712723062229
 30
0.0
 42
0.2846003776496257
  0
VERTEX
  5
2448
  8
SAPA_FOGBAND
 10
20.82168606363652
 20
-55.290456274014367
 30
0.0
  0
VERTEX
  5
2449
  8
SAPA_FOGBAND
 10
19.199060083306762
 20
-55.290456274014367
 30
0.0
 42
0.2846003776496159
  0
VERTEX
  5
244A
  8
SAPA_FOGBAND
 10
18.75141590484586
 20
-55.567712723062677
 30
0.0
  0
VERTEX
  5
244B
  8
SAPA_FOGBAND
 10
18.131315402087999
 20
-57.013918859822567
 30
0.0
 42
0.4740571810232354
  0
VERTEX
  5
244C
  8
SAPA_FOGBAND
 10
18.258609264450431
 20
-57.296201445460881
 30
0.0
  0
VERTEX
  5
244D
  8
SAPA_FOGBAND
 10
18.510373073471641
 20
-57.363661354771281
 30
0.0
  0
VERTEX
  5
244E
  8
SAPA_FOGBAND
 10
18.510373073471641
 20
-58.30508677165362
 30
0.0
 42
-0.4142135623730951
  0
VERTEX
  5
244F
  8
SAPA_FOGBAND
 10
18.010373073471641
 20
-58.80508677165362
 30
0.0
  0
VERTEX
  5
2450
  8
SAPA_FOGBAND
 10
14.98227352273701
 20
-58.805086771653158
 30
0.0
 42
0.1657205760184635
  0
VERTEX
  5
2451
  8
SAPA_FOGBAND
 10
14.37159903612323
 20
-59.013205043489769
 30
0.0
  0
VERTEX
  5
2452
  8
SAPA_FOGBAND
 10
5.0037086456466966
 20
-62.407790128345638
 30
0.0
 42
0.2325311832130358
  0
VERTEX
  5
2453
  8
SAPA_FOGBAND
 10
4.8090458889526824
 20
-62.803730992427788
 30
0.0
  0
VERTEX
  5
2454
  8
SAPA_FOGBAND
 10
4.8090458889526806
 20
-64.034474548865361
 30
0.0
 42
0.3826682380870913
  0
VERTEX
  5
2455
  8
SAPA_FOGBAND
 10
5.7003706320027439
 20
-65.028551853971109
 30
0.0
  0
VERTEX
  5
2456
  8
SAPA_FOGBAND
 10
11.304839392298931
 20
-65.80508677165362
 30
0.0
  0
VERTEX
  5
2457
  8
SAPA_FOGBAND
 10
25.010373051521899
 20
-65.80508677165362
 30
0.0
 42
0.4257917699693507
  0
VERTEX
  5
2458
  8
SAPA_FOGBAND
 10
25.310140605120839
 20
-65.493279409123076
 30
0.0
  0
VERTEX
  5
2459
  8
SAPA_FOGBAND
 10
24.822300790450608
 20
-59.09327940912253
 30
0.0
 42
0.4027293761437475
  0
VERTEX
  5
245A
  8
SAPA_FOGBAND
 10
24.522533236853491
 20
-58.805086771653158
 30
0.0
  0
VERTEX
  5
245B
  8
SAPA_FOGBAND
 10
22.010373073471641
 20
-58.80508677165362
 30
0.0
 42
-0.4142135623730951
  0
VERTEX
  5
245C
  8
SAPA_FOGBAND
 10
21.510373073471641
 20
-58.30508677165362
 30
0.0
  0
VERTEX
  5
245D
  8
SAPA_FOGBAND
 10
21.510373073471651
 20
-57.363661354771281
 30
0.0
  0
SEQEND
  5
245E
  8
SAPA_FOGBAND
  0
POLYLINE
  5
1C03
  8
SAPA_FOGBAND
 66
     1
 10
0.0
 20
0.0
 30
0.0
 70
     1
  0
VERTEX
  5
245F
  8
SAPA_FOGBAND
 10
19.110373073472001
 20
-56.890456274014738
 30
0.0
  0
VERTEX
  5
2460
  8
SAPA_FOGBAND
 10
19.110373073472001
 20
-57.49045627401464
 30
0.0
 42
0.9999999999999998
  0
VERTEX
  5
2461
  8
SAPA_FOGBAND
 10
20.91037307347128
 20
-57.49045627401464
 30
0.0
  0
VERTEX
  5
2462
  8
SAPA_FOGBAND
 10
20.91037307347128
 20
-56.890456274014738
 30
0.0
 42
0.9999999999999998
  0
SEQEND
  5
2463
  8
SAPA_FOGBAND
  0
POLYLINE
  5
1C04
  8
SAPA_FOGBAND
 66
     1
 10
0.0
 20
0.0
 30
0.0
  0
VERTEX
  5
2464
  8
SAPA_FOGBAND
 10
23.610373073472012
 20
-58.805086771653158
 30
0.0
  0
VERTEX
  5
2465
  8
SAPA_FOGBAND
 10
23.610373073472012
 20
-59.105086771653347
 30
0.0
 42
-0.4142135623730951
  0
VERTEX
  5
2466
  8
SAPA_FOGBAND
 10
23.110373073472001
 20
-59.605086771653347
 30
0.0
  0
VERTEX
  5
2467
  8
SAPA_FOGBAND
 10
15.81037307347091
 20
-59.605086771653347
 30
0.0
 42
-0.4142135623730951
  0
VERTEX
  5
2468
  8
SAPA_FOGBAND
 10
15.31037307347091
 20
-59.105086771653347
 30
0.0
  0
VERTEX
  5
2469
  8
SAPA_FOGBAND
 10
15.310373073471821
 20
-58.805086771653158
 30
0.0
  0
SEQEND
  5
246A
  8
SAPA_FOGBAND
  0
POLYLINE
  5
1C05
  8
SAPA_FOGBAND
 10
22.073620207308853
 20
-62.826656685503096
 30
0.0
 66
     1
 70
     8
  0
VERTEX
  8
SAPA_FOGBAND
  5
246B
 10
22.0736
 20
-62.8267
 30
0.000000
  70
    32
  0
VERTEX
  8
SAPA_FOGBAND
  5
246C
 10
22.0703
 20
-62.7660
 30
0.000000
  70
    32
  0
VERTEX
  8
SAPA_FOGBAND
  5
246D
 10
22.0589
 20
-62.7055
 30
0.000000
  70
    32
  0
VERTEX
  8
SAPA_FOGBAND
  5
246E
 10
22.0397
 20
-62.6451
 30
0.000000
  70
    32
  0
VERTEX
  8
SAPA_FOGBAND
  5
246F
 10
22.0126
 20
-62.5851
 30
0.000000
  70
    32
  0
VERTEX
  8
SAPA_FOGBAND
  5
2470
 10
21.9778
 20
-62.5256
 30
0.000000
  70
    32
  0
VERTEX
  8
SAPA_FOGBAND
  5
2471
 10
21.9352
 20
-62.4668
 30
0.000000
  70
    32
  0
VERTEX
  8
SAPA_FOGBAND
  5
2472
 10
21.8850
 20
-62.4087
 30
0.000000
  70
    32
  0
VERTEX
  8
SAPA_FOGBAND
  5
2473
 10
21.8273
 20
-62.3516
 30
0.000000
  70
    32
  0
VERTEX
  8
SAPA_FOGBAND
  5
2474
 10
21.7622
 20
-62.2955
 30
0.000000
  70
    32
  0
VERTEX
  8
SAPA_FOGBAND
  5
2475
 10
21.6900
 20
-62.2406
 30
0.000000
  70
    32
  0
VERTEX
  8
SAPA_FOGBAND
  5
2476
 10
21.6107
 20
-62.1871
 30
0.000000
  70
    32
  0
VERTEX
  8
SAPA_FOGBAND
  5
2477
 10
21.5246
 20
-62.1350
 30
0.000000
  70
    32
  0
VERTEX
  8
SAPA_FOGBAND
  5
2478
 10
21.4319
 20
-62.0846
 30
0.000000
  70
    32
  0
VERTEX
  8
SAPA_FOGBAND
  5
2479
 10
21.3327
 20
-62.0358
 30
0.000000
  70
    32
  0
VERTEX
  8
SAPA_FOGBAND
  5
247A
 10
21.2275
 20
-61.9888
 30
0.000000
  70
    32
  0
VERTEX
  8
SAPA_FOGBAND
  5
247B
 10
21.1163
 20
-61.9438
 30
0.000000
  70
    32
  0
VERTEX
  8
SAPA_FOGBAND
  5
247C
 10
20.9994
 20
-61.9009
 30
0.000000
  70
    32
  0
VERTEX
  8
SAPA_FOGBAND
  5
247D
 10
20.8773
 20
-61.8601
 30
0.000000
  70
    32
  0
VERTEX
  8
SAPA_FOGBAND
  5
247E
 10
20.7500
 20
-61.8215
 30
0.000000
  70
    32
  0
VERTEX
  8
SAPA_FOGBAND
  5
247F
 10
20.6180
 20
-61.7853
 30
0.000000
  70
    32
  0
VERTEX
  8
SAPA_FOGBAND
  5
2480
 10
20.4815
 20
-61.7515
 30
0.000000
  70
    32
  0
VERTEX
  8
SAPA_FOGBAND
  5
2481
 10
20.3410
 20
-61.7202
 30
0.000000
  70
    32
  0
VERTEX
  8
SAPA_FOGBAND
  5
2482
 10
20.1967
 20
-61.6915
 30
0.000000
  70
    32
  0
VERTEX
  8
SAPA_FOGBAND
  5
2483
 10
20.0489
 20
-61.6655
 30
0.000000
  70
    32
  0
VERTEX
  8
SAPA_FOGBAND
  5
2484
 10
19.8981
 20
-61.6422
 30
0.000000
  70
    32
  0
VERTEX
  8
SAPA_FOGBAND
  5
2485
 10
19.7446
 20
-61.6216
 30
0.000000
  70
    32
  0
VERTEX
  8
SAPA_FOGBAND
  5
2486
 10
19.5887
 20
-61.6039
 30
0.000000
  70
    32
  0
VERTEX
  8
SAPA_FOGBAND
  5
2487
 10
19.4309
 20
-61.5891
 30
0.000000
  70
    32
  0
VERTEX
  8
SAPA_FOGBAND
  5
2488
 10
19.2715
 20
-61.5771
 30
0.000000
  70
    32
  0
VERTEX
  8
SAPA_FOGBAND
  5
2489
 10
19.1109
 20
-61.5681
 30
0.000000
  70
    32
  0
VERTEX
  8
SAPA_FOGBAND
  5
248A
 10
18.9495
 20
-61.5620
 30
0.000000
  70
    32
  0
VERTEX
  8
SAPA_FOGBAND
  5
248B
 10
18.7876
 20
-61.5589
 30
0.000000
  70
    32
  0
VERTEX
  8
SAPA_FOGBAND
  5
248C
 10
18.6258
 20
-61.5588
 30
0.000000
  70
    32
  0
VERTEX
  8
SAPA_FOGBAND
  5
248D
 10
18.4643
 20
-61.5616
 30
0.000000
  70
    32
  0
VERTEX
  8
SAPA_FOGBAND
  5
248E
 10
18.3036
 20
-61.5675
 30
0.000000
  70
    32
  0
VERTEX
  8
SAPA_FOGBAND
  5
248F
 10
18.1439
 20
-61.5762
 30
0.000000
  70
    32
  0
VERTEX
  8
SAPA_FOGBAND
  5
2490
 10
17.9859
 20
-61.5879
 30
0.000000
  70
    32
  0
VERTEX
  8
SAPA_FOGBAND
  5
2491
 10
17.8297
 20
-61.6026
 30
0.000000
  70
    32
  0
VERTEX
  8
SAPA_FOGBAND
  5
2492
 10
17.6758
 20
-61.6200
 30
0.000000
  70
    32
  0
VERTEX
  8
SAPA_FOGBAND
  5
2493
 10
17.5245
 20
-61.6404
 30
0.000000
  70
    32
  0
VERTEX
  8
SAPA_FOGBAND
  5
2494
 10
17.3763
 20
-61.6634
 30
0.000000
  70
    32
  0
VERTEX
  8
SAPA_FOGBAND
  5
2495
 10
17.2314
 20
-61.6893
 30
0.000000
  70
    32
  0
VERTEX
  8
SAPA_FOGBAND
  5
2496
 10
17.0902
 20
-61.7177
 30
0.000000
  70
    32
  0
VERTEX
  8
SAPA_FOGBAND
  5
2497
 10
16.9532
 20
-61.7488
 30
0.000000
  70
    32
  0
VERTEX
  8
SAPA_FOGBAND
  5
2498
 10
16.8204
 20
-61.7824
 30
0.000000
  70
    32
  0
VERTEX
  8
SAPA_FOGBAND
  5
2499
 10
16.6925
 20
-61.8184
 30
0.000000
  70
    32
  0
VERTEX
  8
SAPA_FOGBAND
  5
249A
 10
16.5695
 20
-61.8568
 30
0.000000
  70
    32
  0
VERTEX
  8
SAPA_FOGBAND
  5
249B
 10
16.4518
 20
-61.8974
 30
0.000000
  70
    32
  0
VERTEX
  8
SAPA_FOGBAND
  5
249C
 10
16.3398
 20
-61.9402
 30
0.000000
  70
    32
  0
VERTEX
  8
SAPA_FOGBAND
  5
249D
 10
16.2336
 20
-61.9850
 30
0.000000
  70
    32
  0
VERTEX
  8
SAPA_FOGBAND
  5
249E
 10
16.1335
 20
-62.0318
 30
0.000000
  70
    32
  0
VERTEX
  8
SAPA_FOGBAND
  5
249F
 10
16.0398
 20
-62.0805
 30
0.000000
  70
    32
  0
VERTEX
  8
SAPA_FOGBAND
  5
24A0
 10
15.9527
 20
-62.1308
 30
0.000000
  70
    32
  0
VERTEX
  8
SAPA_FOGBAND
  5
24A1
 10
15.8723
 20
-62.1827
 30
0.000000
  70
    32
  0
VERTEX
  8
SAPA_FOGBAND
  5
24A2
 10
15.7990
 20
-62.2362
 30
0.000000
  70
    32
  0
VERTEX
  8
SAPA_FOGBAND
  5
24A3
 10
15.7329
 20
-62.2909
 30
0.000000
  70
    32
  0
VERTEX
  8
SAPA_FOGBAND
  5
24A4
 10
15.6740
 20
-62.3469
 30
0.000000
  70
    32
  0
VERTEX
  8
SAPA_FOGBAND
  5
24A5
 10
15.6227
 20
-62.4039
 30
0.000000
  70
    32
  0
VERTEX
  8
SAPA_FOGBAND
  5
24A6
 10
15.5789
 20
-62.4619
 30
0.000000
  70
    32
  0
VERTEX
  8
SAPA_FOGBAND
  5
24A7
 10
15.5429
 20
-62.5207
 30
0.000000
  70
    32
  0
VERTEX
  8
SAPA_FOGBAND
  5
24A8
 10
15.5146
 20
-62.5802
 30
0.000000
  70
    32
  0
VERTEX
  8
SAPA_FOGBAND
  5
24A9
 10
15.4942
 20
-62.6401
 30
0.000000
  70
    32
  0
VERTEX
  8
SAPA_FOGBAND
  5
24AA
 10
15.4817
 20
-62.7004
 30
0.000000
  70
    32
  0
VERTEX
  8
SAPA_FOGBAND
  5
24AB
 10
15.4771
 20
-62.7610
 30
0.000000
  70
    32
  0
VERTEX
  8
SAPA_FOGBAND
  5
24AC
 10
15.4805
 20
-62.8216
 30
0.000000
  70
    32
  0
VERTEX
  8
SAPA_FOGBAND
  5
24AD
 10
15.4918
 20
-62.8822
 30
0.000000
  70
    32
  0
VERTEX
  8
SAPA_FOGBAND
  5
24AE
 10
15.5110
 20
-62.9426
 30
0.000000
  70
    32
  0
VERTEX
  8
SAPA_FOGBAND
  5
24AF
 10
15.5381
 20
-63.0025
 30
0.000000
  70
    32
  0
VERTEX
  8
SAPA_FOGBAND
  5
24B0
 10
15.5729
 20
-63.0620
 30
0.000000
  70
    32
  0
VERTEX
  8
SAPA_FOGBAND
  5
24B1
 10
15.6155
 20
-63.1209
 30
0.000000
  70
    32
  0
VERTEX
  8
SAPA_FOGBAND
  5
24B2
 10
15.6657
 20
-63.1789
 30
0.000000
  70
    32
  0
VERTEX
  8
SAPA_FOGBAND
  5
24B3
 10
15.7234
 20
-63.2361
 30
0.000000
  70
    32
  0
VERTEX
  8
SAPA_FOGBAND
  5
24B4
 10
15.7885
 20
-63.2921
 30
0.000000
  70
    32
  0
VERTEX
  8
SAPA_FOGBAND
  5
24B5
 10
15.8607
 20
-63.3470
 30
0.000000
  70
    32
  0
VERTEX
  8
SAPA_FOGBAND
  5
24B6
 10
15.9400
 20
-63.4005
 30
0.000000
  70
    32
  0
VERTEX
  8
SAPA_FOGBAND
  5
24B7
 10
16.0261
 20
-63.4526
 30
0.000000
  70
    32
  0
VERTEX
  8
SAPA_FOGBAND
  5
24B8
 10
16.1188
 20
-63.5031
 30
0.000000
  70
    32
  0
VERTEX
  8
SAPA_FOGBAND
  5
24B9
 10
16.2180
 20
-63.5519
 30
0.000000
  70
    32
  0
VERTEX
  8
SAPA_FOGBAND
  5
24BA
 10
16.3232
 20
-63.5988
 30
0.000000
  70
    32
  0
VERTEX
  8
SAPA_FOGBAND
  5
24BB
 10
16.4344
 20
-63.6438
 30
0.000000
  70
    32
  0
VERTEX
  8
SAPA_FOGBAND
  5
24BC
 10
16.5513
 20
-63.6868
 30
0.000000
  70
    32
  0
VERTEX
  8
SAPA_FOGBAND
  5
24BD
 10
16.6735
 20
-63.7276
 30
0.000000
  70
    32
  0
VERTEX
  8
SAPA_FOGBAND
  5
24BE
 10
16.8007
 20
-63.7662
 30
0.000000
  70
    32
  0
VERTEX
  8
SAPA_FOGBAND
  5
24BF
 10
16.9327
 20
-63.8024
 30
0.000000
  70
    32
  0
VERTEX
  8
SAPA_FOGBAND
  5
24C0
 10
17.0692
 20
-63.8362
 30
0.000000
  70
    32
  0
VERTEX
  8
SAPA_FOGBAND
  5
24C1
 10
17.2097
 20
-63.8674
 30
0.000000
  70
    32
  0
VERTEX
  8
SAPA_FOGBAND
  5
24C2
 10
17.3540
 20
-63.8961
 30
0.000000
  70
    32
  0
VERTEX
  8
SAPA_FOGBAND
  5
24C3
 10
17.5018
 20
-63.9222
 30
0.000000
  70
    32
  0
VERTEX
  8
SAPA_FOGBAND
  5
24C4
 10
17.6526
 20
-63.9455
 30
0.000000
  70
    32
  0
VERTEX
  8
SAPA_FOGBAND
  5
24C5
 10
17.8062
 20
-63.9660
 30
0.000000
  70
    32
  0
VERTEX
  8
SAPA_FOGBAND
  5
24C6
 10
17.9620
 20
-63.9838
 30
0.000000
  70
    32
  0
VERTEX
  8
SAPA_FOGBAND
  5
24C7
 10
18.1198
 20
-63.9986
 30
0.000000
  70
    32
  0
VERTEX
  8
SAPA_FOGBAND
  5
24C8
 10
18.2792
 20
-64.0106
 30
0.000000
  70
    32
  0
VERTEX
  8
SAPA_FOGBAND
  5
24C9
 10
18.4398
 20
-64.0196
 30
0.000000
  70
    32
  0
VERTEX
  8
SAPA_FOGBAND
  5
24CA
 10
18.6012
 20
-64.0256
 30
0.000000
  70
    32
  0
VERTEX
  8
SAPA_FOGBAND
  5
24CB
 10
18.7631
 20
-64.0287
 30
0.000000
  70
    32
  0
VERTEX
  8
SAPA_FOGBAND
  5
24CC
 10
18.9249
 20
-64.0289
 30
0.000000
  70
    32
  0
VERTEX
  8
SAPA_FOGBAND
  5
24CD
 10
19.0864
 20
-64.0260
 30
0.000000
  70
    32
  0
VERTEX
  8
SAPA_FOGBAND
  5
24CE
 10
19.2471
 20
-64.0202
 30
0.000000
  70
    32
  0
VERTEX
  8
SAPA_FOGBAND
  5
24CF
 10
19.4068
 20
-64.0114
 30
0.000000
  70
    32
  0
VERTEX
  8
SAPA_FOGBAND
  5
24D0
 10
19.5648
 20
-63.9997
 30
0.000000
  70
    32
  0
VERTEX
  8
SAPA_FOGBAND
  5
24D1
 10
19.7210
 20
-63.9851
 30
0.000000
  70
    32
  0
VERTEX
  8
SAPA_FOGBAND
  5
24D2
 10
19.8749
 20
-63.9676
 30
0.000000
  70
    32
  0
VERTEX
  8
SAPA_FOGBAND
  5
24D3
 10
20.0262
 20
-63.9473
 30
0.000000
  70
    32
  0
VERTEX
  8
SAPA_FOGBAND
  5
24D4
 10
20.1744
 20
-63.9242
 30
0.000000
  70
    32
  0
VERTEX
  8
SAPA_FOGBAND
  5
24D5
 10
20.3193
 20
-63.8984
 30
0.000000
  70
    32
  0
VERTEX
  8
SAPA_FOGBAND
  5
24D6
 10
20.4605
 20
-63.8699
 30
0.000000
  70
    32
  0
VERTEX
  8
SAPA_FOGBAND
  5
24D7
 10
20.5976
 20
-63.8389
 30
0.000000
  70
    32
  0
VERTEX
  8
SAPA_FOGBAND
  5
24D8
 10
20.7303
 20
-63.8053
 30
0.000000
  70
    32
  0
VERTEX
  8
SAPA_FOGBAND
  5
24D9
 10
20.8582
 20
-63.7693
 30
0.000000
  70
    32
  0
VERTEX
  8
SAPA_FOGBAND
  5
24DA
 10
20.9812
 20
-63.7309
 30
0.000000
  70
    32
  0
VERTEX
  8
SAPA_FOGBAND
  5
24DB
 10
21.0989
 20
-63.6903
 30
0.000000
  70
    32
  0
VERTEX
  8
SAPA_FOGBAND
  5
24DC
 10
21.2110
 20
-63.6475
 30
0.000000
  70
    32
  0
VERTEX
  8
SAPA_FOGBAND
  5
24DD
 10
21.3172
 20
-63.6026
 30
0.000000
  70
    32
  0
VERTEX
  8
SAPA_FOGBAND
  5
24DE
 10
21.4172
 20
-63.5558
 30
0.000000
  70
    32
  0
VERTEX
  8
SAPA_FOGBAND
  5
24DF
 10
21.5109
 20
-63.5072
 30
0.000000
  70
    32
  0
VERTEX
  8
SAPA_FOGBAND
  5
24E0
 10
21.5981
 20
-63.4569
 30
0.000000
  70
    32
  0
VERTEX
  8
SAPA_FOGBAND
  5
24E1
 10
21.6784
 20
-63.4049
 30
0.000000
  70
    32
  0
VERTEX
  8
SAPA_FOGBAND
  5
24E2
 10
21.7517
 20
-63.3515
 30
0.000000
  70
    32
  0
VERTEX
  8
SAPA_FOGBAND
  5
24E3
 10
21.8179
 20
-63.2967
 30
0.000000
  70
    32
  0
VERTEX
  8
SAPA_FOGBAND
  5
24E4
 10
21.8767
 20
-63.2408
 30
0.000000
  70
    32
  0
VERTEX
  8
SAPA_FOGBAND
  5
24E5
 10
21.9280
 20
-63.1837
 30
0.000000
  70
    32
  0
VERTEX
  8
SAPA_FOGBAND
  5
24E6
 10
21.9718
 20
-63.1257
 30
0.000000
  70
    32
  0
VERTEX
  8
SAPA_FOGBAND
  5
24E7
 10
22.0078
 20
-63.0669
 30
0.000000
  70
    32
  0
VERTEX
  8
SAPA_FOGBAND
  5
24E8
 10
22.0361
 20
-63.0075
 30
0.000000
  70
    32
  0
VERTEX
  8
SAPA_FOGBAND
  5
24E9
 10
22.0565
 20
-62.9475
 30
0.000000
  70
    32
  0
VERTEX
  8
SAPA_FOGBAND
  5
24EA
 10
22.0690
 20
-62.8872
 30
0.000000
  70
    32
  0
VERTEX
  8
SAPA_FOGBAND
  5
24EB
 10
22.0736
 20
-62.8267
 30
0.000000
  70
    32
  0
SEQEND
  8
SAPA_FOGBAND
  5
24EC
  0
VIEWPORT
  5
C4
 67
     1
  8
0
 10
160.5543545598442
 20
116.00969601843509
 30
0.0
 40
404.96977709277462
 41
256.8421457311839
 68
     1
 69
     1
1001
ACAD
1000
MVIEW
1002
{
1070
    16
1010
0.0
1020
0.0
1030
0.0
1010
0.0
1020
0.0
1030
1.0
1040
0.0
1040
256.8421457311839
1040
99.206250190734863
1040
130.70624923706049
1040
50.0
1040
0.0
1040
0.0
1070
     0
1070
     0
1070
     1
1070
     1
1070
     0
1070
     0
1070
     0
1070
     0
1040
0.0
1040
0.0
1040
0.0
1040
10.0
1040
10.0
1040
10.0
1040
10.0
1070
     0
1002
{
1002
}
1002
}
  0
ENDSEC
  0
EOF
