  0
SECTION
  2
HEADER
  9
$ACADVER
  1
AC1009
  9
$INSBASE
 10
0.0
 20
0.0
 30
0.0
  9
$EXTMIN
 10
-41.810758944054477
 20
-95.524445940289809
 30
0.0
  9
$EXTMAX
 10
47.597770331070933
 20
58.822858504106861
 30
0.0
  9
$LIMMIN
 10
0.0
 20
0.0
  9
$LIMMAX
 10
790.0
 20
790.0
  9
$ORTHOMODE
 70
     1
  9
$REGENMODE
 70
     1
  9
$FILLMODE
 70
     1
  9
$QTEXTMODE
 70
     0
  9
$MIRRTEXT
 70
     1
  9
$DRAGMODE
 70
     2
  9
$LTSCALE
 40
4.0
  9
$OSMODE
 70
   167
  9
$ATTMODE
 70
     1
  9
$TEXTSIZE
 40
3.5
  9
$TRACEWID
 40
0.05
  9
$TEXTSTYLE
  7
ISO
  9
$CLAYER
  8
0
  9
$CELTYPE
  6
BYLAYER
  9
$CECOLOR
 62
   256
  9
$DIMSCALE
 40
0.0
  9
$DIMASZ
 40
3.0
  9
$DIMEXO
 40
1.5
  9
$DIMDLI
 40
10.0
  9
$DIMRND
 40
0.0
  9
$DIMDLE
 40
0.0
  9
$DIMEXE
 40
1.5
  9
$DIMTP
 40
0.0
  9
$DIMTM
 40
0.0
  9
$DIMTXT
 40
3.0
  9
$DIMCEN
 40
-5.0
  9
$DIMTSZ
 40
0.0
  9
$DIMTOL
 70
     0
  9
$DIMLIM
 70
     0
  9
$DIMTIH
 70
     0
  9
$DIMTOH
 70
     0
  9
$DIMSE1
 70
     0
  9
$DIMSE2
 70
     0
  9
$DIMTAD
 70
     1
  9
$DIMZIN
 70
     8
  9
$DIMBLK
  1

  9
$DIMASO
 70
     1
  9
$DIMSHO
 70
     1
  9
$DIMPOST
  1

  9
$DIMAPOST
  1

  9
$DIMALT
 70
     0
  9
$DIMALTD
 70
     0
  9
$DIMALTF
 40
25.399999999999999
  9
$DIMLFAC
 40
-1.0
  9
$DIMTOFL
 70
     1
  9
$DIMTVP
 40
0.0
  9
$DIMTIX
 70
     0
  9
$DIMSOXD
 70
     0
  9
$DIMSAH
 70
     0
  9
$DIMBLK1
  1

  9
$DIMBLK2
  1

  9
$DIMSTYLE
  2
MASKIN
  9
$DIMCLRD
 70
   256
  9
$DIMCLRE
 70
   256
  9
$DIMCLRT
 70
     2
  9
$DIMTFAC
 40
1.0
  9
$DIMGAP
 40
1.0
  9
$LUNITS
 70
     2
  9
$LUPREC
 70
     8
  9
$SKETCHINC
 40
0.1
  9
$FILLETRAD
 40
0.0
  9
$AUNITS
 70
     0
  9
$AUPREC
 70
     8
  9
$MENU
  1
ACAD
  9
$ELEVATION
 40
0.0
  9
$PELEVATION
 40
0.0
  9
$THICKNESS
 40
0.0
  9
$LIMCHECK
 70
     0
  9
$BLIPMODE
 70
     0
  9
$CHAMFERA
 40
0.0
  9
$CHAMFERB
 40
0.0
  9
$SKPOLY
 70
     0
  9
$TDCREATE
 40
2456232.5290560769
  9
$TDUPDATE
 40
2456577.5904659149
  9
$TDINDWG
 40
0.114867963
  9
$TDUSRTIMER
 40
0.1148677778
  9
$USRTIMER
 70
     1
  9
$ANGBASE
 50
0.0
  9
$ANGDIR
 70
     0
  9
$PDMODE
 70
     0
  9
$PDSIZE
 40
0.0
  9
$PLINEWID
 40
0.0
  9
$COORDS
 70
     1
  9
$SPLFRAME
 70
     0
  9
$SPLINETYPE
 70
     6
  9
$SPLINESEGS
 70
     8
  9
$ATTDIA
 70
     0
  9
$ATTREQ
 70
     1
  9
$HANDLING
 70
     1
  9
$HANDSEED
  5
227E
  9
$SURFTAB1
 70
     6
  9
$SURFTAB2
 70
     6
  9
$SURFTYPE
 70
     6
  9
$SURFU
 70
     6
  9
$SURFV
 70
     6
  9
$UCSNAME
  2

  9
$UCSORG
 10
0.0
 20
0.0
 30
0.0
  9
$UCSXDIR
 10
1.0
 20
0.0
 30
0.0
  9
$UCSYDIR
 10
0.0
 20
1.0
 30
0.0
  9
$PUCSNAME
  2

  9
$PUCSORG
 10
0.0
 20
0.0
 30
0.0
  9
$PUCSXDIR
 10
1.0
 20
0.0
 30
0.0
  9
$PUCSYDIR
 10
0.0
 20
1.0
 30
0.0
  9
$USERI1
 70
     0
  9
$USERI2
 70
     0
  9
$USERI3
 70
     0
  9
$USERI4
 70
     0
  9
$USERI5
 70
     0
  9
$USERR1
 40
0.0
  9
$USERR2
 40
0.0
  9
$USERR3
 40
0.0
  9
$USERR4
 40
0.0
  9
$USERR5
 40
0.0
  9
$WORLDVIEW
 70
     1
  9
$SHADEDGE
 70
     3
  9
$SHADEDIF
 70
    70
  9
$TILEMODE
 70
     1
  9
$MAXACTVP
 70
    16
  9
$PLIMCHECK
 70
     0
  9
$PEXTMIN
 10
1.0000000000000000E+020
 20
1.0000000000000000E+020
 30
1.0000000000000000E+020
  9
$PEXTMAX
 10
-1.0000000000000000E+020
 20
-1.0000000000000000E+020
 30
-1.0000000000000000E+020
  9
$PLIMMIN
 10
-5.069427490234375
 20
-5.8737497329711914
  9
$PLIMMAX
 10
291.89889526367187
 20
204.0995779037475
  9
$UNITMODE
 70
     0
  9
$VISRETAIN
 70
     1
  9
$PLINEGEN
 70
     0
  9
$PSLTSCALE
 70
     1
  0
ENDSEC
  0
SECTION
  2
TABLES
  0
TABLE
  2
VPORT
 70
     1
  0
VPORT
  2
*ACTIVE
 70
     0
 10
0.0
 20
0.0
 11
1.0
 21
1.0
 12
11.04826810936552
 22
21.0112451442035
 13
0.0
 23
0.0
 14
1.0
 24
1.0
 15
0.0
 25
0.0
 16
0.0
 26
0.0
 36
1.0
 17
0.0
 27
0.0
 37
0.0
 40
184.85738175034271
 41
2.112307692307692
 42
50.0
 43
0.0
 44
0.0
 50
0.0
 51
0.0
 71
     0
 72
   100
 73
     1
 74
     1
 75
     0
 76
     0
 77
     0
 78
     0
  0
ENDTAB
  0
TABLE
  2
LTYPE
 70
    52
  0
LTYPE
  2
CONTINUOUS
 70
     0
  3
Solid line
 72
    65
 73
     0
 40
0.0
  0
LTYPE
  2
NEWDOT
 70
     0
  3
____ . ____ . ____ . ____ . ____ . ____ . ____
 72
    65
 73
     4
 40
2.0
 49
1.0
 49
-0.5
 49
0.0
 49
-0.5
  0
LTYPE
  2
DASHDOT
 70
     0
  3
__ . __ . __ . __ . __ . __ . __ . __ . __ . __
 72
    65
 73
     4
 40
1.0
 49
0.5
 49
-0.25
 49
0.0
 49
-0.25
  0
LTYPE
  2
DASHED
 70
     0
  3
__ __ __ __ __ __ __ __ __ __ __ __ __ __ __
 72
    65
 73
     2
 40
0.75
 49
0.5
 49
-0.25
  0
LTYPE
  2
PHANTOM
 70
     0
  3
Phantom ______  __  __  ______  __  __  ______
 72
    65
 73
     6
 40
63.5
 49
31.75
 49
-6.3499999999999988
 49
6.3499999999999988
 49
-6.3499999999999988
 49
6.3499999999999988
 49
-6.3499999999999988
  0
LTYPE
  2
BYGG-018516$0$NEWDOT
 70
     0
  3
____ . ____ . ____ . ____ . ____ . ____ . ____
 72
    65
 73
     4
 40
2.0
 49
1.0
 49
-0.5
 49
0.0
 49
-0.5
  0
LTYPE
  2
BYGG-018516$0$ZIGZAG
 70
     0
  3
Zig zag /\/\/\/\/\/\/\/\/\/\/\/\/\/\/\/\/\/\/\/\/\/\/\/
 72
    65
 73
     4
 40
20.32254
 49
0.00254
 49
-5.0800000000000001
 49
-10.16
 49
-5.0800000000000001
  0
LTYPE
  2
BYGG-018731$0$NEWDOT
 70
     0
  3
____ . ____ . ____ . ____ . ____ . ____ . ____
 72
    65
 73
     4
 40
2.0
 49
1.0
 49
-0.5
 49
0.0
 49
-0.5
  0
LTYPE
  2
BYGG-018731$0$DASHDOT
 70
     0
  3
__ . __ . __ . __ . __ . __ . __ . __ . __ . __
 72
    65
 73
     4
 40
1.0
 49
0.5
 49
-0.25
 49
0.0
 49
-0.25
  0
LTYPE
  2
BYGG-018731$0$DASHED
 70
     0
  3
__ __ __ __ __ __ __ __ __ __ __ __ __ __ __
 72
    65
 73
     2
 40
0.75
 49
0.5
 49
-0.25
  0
LTYPE
  2
BYGG-018731$0$PHANTOM
 70
     0
  3
Phantom ______  __  __  ______  __  __  ______
 72
    65
 73
     6
 40
63.5
 49
31.75
 49
-6.3499999999999988
 49
6.3499999999999988
 49
-6.3499999999999988
 49
6.3499999999999988
 49
-6.3499999999999988
  0
LTYPE
  2
BYGG-029261$0$NEWDOT
 70
     0
  3
____ . ____ . ____ . ____ . ____ . ____ . ____
 72
    65
 73
     4
 40
2.0
 49
1.0
 49
-0.5
 49
0.0
 49
-0.5
  0
LTYPE
  2
BYGG-029261$0$DASHDOT
 70
     0
  3
__ . __ . __ . __ . __ . __ . __ . __ . __ . __
 72
    65
 73
     4
 40
1.0
 49
0.5
 49
-0.25
 49
0.0
 49
-0.25
  0
LTYPE
  2
BYGG-029261$0$DASHED
 70
     0
  3
__ __ __ __ __ __ __ __ __ __ __ __ __ __ __
 72
    65
 73
     2
 40
0.75
 49
0.5
 49
-0.25
  0
LTYPE
  2
BYGG-029261$0$PHANTOM
 70
     0
  3
Phantom ______  __  __  ______  __  __  ______
 72
    65
 73
     6
 40
63.5
 49
31.75
 49
-6.3499999999999988
 49
6.3499999999999988
 49
-6.3499999999999988
 49
6.3499999999999988
 49
-6.3499999999999988
  0
LTYPE
  2
BYGG-024894$0$DASHDOT
 70
     0
  3
__ . __ . __ . __ . __ . __ . __ . __ . __ . __
 72
    65
 73
     4
 40
1.0
 49
0.5
 49
-0.25
 49
0.0
 49
-0.25
  0
LTYPE
  2
BYGG-019612$0$NEWDOT
 70
     0
  3
____ . ____ . ____ . ____ . ____ . ____ . ____
 72
    65
 73
     4
 40
2.0
 49
1.0
 49
-0.5
 49
0.0
 49
-0.5
  0
LTYPE
  2
BYGG-019612$0$DASHDOT
 70
     0
  3
__ . __ . __ . __ . __ . __ . __ . __ . __ . __
 72
    65
 73
     4
 40
1.0
 49
0.5
 49
-0.25
 49
0.0
 49
-0.25
  0
LTYPE
  2
BYGG-019612$0$DASHED
 70
     0
  3
__ __ __ __ __ __ __ __ __ __ __ __ __ __ __
 72
    65
 73
     2
 40
0.75
 49
0.5
 49
-0.25
  0
LTYPE
  2
BYGG-019612$0$PHANTOM
 70
     0
  3
Phantom ______  __  __  ______  __  __  ______
 72
    65
 73
     6
 40
63.5
 49
31.75
 49
-6.3499999999999988
 49
6.3499999999999988
 49
-6.3499999999999988
 49
6.3499999999999988
 49
-6.3499999999999988
  0
LTYPE
  2
BYGG-019653$0$NEWDOT
 70
     0
  3
____ . ____ . ____ . ____ . ____ . ____ . ____
 72
    65
 73
     4
 40
2.0
 49
1.0
 49
-0.5
 49
0.0
 49
-0.5
  0
LTYPE
  2
BYGG-019653$0$DASHDOT
 70
     0
  3
__ . __ . __ . __ . __ . __ . __ . __ . __ . __
 72
    65
 73
     4
 40
1.0
 49
0.5
 49
-0.25
 49
0.0
 49
-0.25
  0
LTYPE
  2
BYGG-019653$0$DASHED
 70
     0
  3
__ __ __ __ __ __ __ __ __ __ __ __ __ __ __
 72
    65
 73
     2
 40
0.75
 49
0.5
 49
-0.25
  0
LTYPE
  2
BYGG-019653$0$PHANTOM
 70
     0
  3
Phantom ______  __  __  ______  __  __  ______
 72
    65
 73
     6
 40
63.5
 49
31.75
 49
-6.3499999999999988
 49
6.3499999999999988
 49
-6.3499999999999988
 49
6.3499999999999988
 49
-6.3499999999999988
  0
LTYPE
  2
BYGG-019652$0$NEWDOT
 70
     0
  3
____ . ____ . ____ . ____ . ____ . ____ . ____
 72
    65
 73
     4
 40
2.0
 49
1.0
 49
-0.5
 49
0.0
 49
-0.5
  0
LTYPE
  2
BYGG-019652$0$DASHDOT
 70
     0
  3
__ . __ . __ . __ . __ . __ . __ . __ . __ . __
 72
    65
 73
     4
 40
1.0
 49
0.5
 49
-0.25
 49
0.0
 49
-0.25
  0
LTYPE
  2
BYGG-019652$0$DASHED
 70
     0
  3
__ __ __ __ __ __ __ __ __ __ __ __ __ __ __
 72
    65
 73
     2
 40
0.75
 49
0.5
 49
-0.25
  0
LTYPE
  2
BYGG-019652$0$PHANTOM
 70
     0
  3
Phantom ______  __  __  ______  __  __  ______
 72
    65
 73
     6
 40
63.5
 49
31.75
 49
-6.3499999999999988
 49
6.3499999999999988
 49
-6.3499999999999988
 49
6.3499999999999988
 49
-6.3499999999999988
  0
LTYPE
  2
PHANTOM2
 70
     0
  3
Phantom (.5x) ___ _ _ ___ _ _ ___ _ _ ___ _ _
 72
    65
 73
     6
 40
1.25
 49
0.625
 49
-0.125
 49
0.125
 49
-0.125
 49
0.125
 49
-0.125
  0
LTYPE
  2
BYGG-019612$0$ZIGZAG
 70
     0
  3
Zig zag /\/\/\/\/\/\/\/\/\/\/\/\/\/\/\/\/\/\/\/\/\/\/\/
 72
    65
 73
     4
 40
20.32254
 49
0.00254
 49
-5.0800000000000001
 49
-10.16
 49
-5.0800000000000001
  0
LTYPE
  2
BYGG-019718$0$NEWDOT
 70
     0
  3
____ . ____ . ____ . ____ . ____ . ____ . ____
 72
    65
 73
     4
 40
2.0
 49
1.0
 49
-0.5
 49
0.0
 49
-0.5
  0
LTYPE
  2
BYGG-019718$0$DASHDOT
 70
     0
  3
__ . __ . __ . __ . __ . __ . __ . __ . __ . __
 72
    65
 73
     4
 40
1.0
 49
0.5
 49
-0.25
 49
0.0
 49
-0.25
  0
LTYPE
  2
BYGG-019718$0$DASHED
 70
     0
  3
__ __ __ __ __ __ __ __ __ __ __ __ __ __ __
 72
    65
 73
     2
 40
0.75
 49
0.5
 49
-0.25
  0
LTYPE
  2
BYGG-019718$0$PHANTOM
 70
     0
  3
Phantom ______  __  __  ______  __  __  ______
 72
    65
 73
     6
 40
63.5
 49
31.75
 49
-6.3499999999999988
 49
6.3499999999999988
 49
-6.3499999999999988
 49
6.3499999999999988
 49
-6.3499999999999988
  0
LTYPE
  2
BYGG-019716$0$NEWDOT
 70
     0
  3
____ . ____ . ____ . ____ . ____ . ____ . ____
 72
    65
 73
     4
 40
2.0
 49
1.0
 49
-0.5
 49
0.0
 49
-0.5
  0
LTYPE
  2
BYGG-019716$0$DASHDOT
 70
     0
  3
__ . __ . __ . __ . __ . __ . __ . __ . __ . __
 72
    65
 73
     4
 40
1.0
 49
0.5
 49
-0.25
 49
0.0
 49
-0.25
  0
LTYPE
  2
BYGG-019716$0$DASHED
 70
     0
  3
__ __ __ __ __ __ __ __ __ __ __ __ __ __ __
 72
    65
 73
     2
 40
0.75
 49
0.5
 49
-0.25
  0
LTYPE
  2
BYGG-019716$0$PHANTOM
 70
     0
  3
Phantom ______  __  __  ______  __  __  ______
 72
    65
 73
     6
 40
63.5
 49
31.75
 49
-6.3499999999999988
 49
6.3499999999999988
 49
-6.3499999999999988
 49
6.3499999999999988
 49
-6.3499999999999988
  0
LTYPE
  2
BYGG-019705$0$NEWDOT
 70
     0
  3
____ . ____ . ____ . ____ . ____ . ____ . ____
 72
    65
 73
     4
 40
2.0
 49
1.0
 49
-0.5
 49
0.0
 49
-0.5
  0
LTYPE
  2
BYGG-019705$0$DASHDOT
 70
     0
  3
__ . __ . __ . __ . __ . __ . __ . __ . __ . __
 72
    65
 73
     4
 40
1.0
 49
0.5
 49
-0.25
 49
0.0
 49
-0.25
  0
LTYPE
  2
BYGG-019705$0$DASHED
 70
     0
  3
__ __ __ __ __ __ __ __ __ __ __ __ __ __ __
 72
    65
 73
     2
 40
0.75
 49
0.5
 49
-0.25
  0
LTYPE
  2
BYGG-019705$0$PHANTOM
 70
     0
  3
Phantom ______  __  __  ______  __  __  ______
 72
    65
 73
     6
 40
63.5
 49
31.75
 49
-6.3499999999999988
 49
6.3499999999999988
 49
-6.3499999999999988
 49
6.3499999999999988
 49
-6.3499999999999988
  0
LTYPE
  2
BYGG-022089$0$NEWDOT
 70
     0
  3
____ . ____ . ____ . ____ . ____ . ____ . ____
 72
    65
 73
     4
 40
2.0
 49
1.0
 49
-0.5
 49
0.0
 49
-0.5
  0
LTYPE
  2
BYGG-022089$0$DASHDOT
 70
     0
  3
__ . __ . __ . __ . __ . __ . __ . __ . __ . __
 72
    65
 73
     4
 40
1.0
 49
0.5
 49
-0.25
 49
0.0
 49
-0.25
  0
LTYPE
  2
BYGG-022089$0$DASHED
 70
     0
  3
__ __ __ __ __ __ __ __ __ __ __ __ __ __ __
 72
    65
 73
     2
 40
0.75
 49
0.5
 49
-0.25
  0
LTYPE
  2
BYGG-022089$0$PHANTOM
 70
     0
  3
Phantom ______  __  __  ______  __  __  ______
 72
    65
 73
     6
 40
63.5
 49
31.75
 49
-6.3499999999999988
 49
6.3499999999999988
 49
-6.3499999999999988
 49
6.3499999999999988
 49
-6.3499999999999988
  0
LTYPE
  2
BYGG-019653$0$DOT_CENTER
 70
     0
  3
Dot_Center
 72
    65
 73
     4
 40
14.0
 49
12.0
 49
-1.0
 49
0.0
 49
-1.0
  0
LTYPE
  2
BYGG-019653$0$DASH_CENTER
 70
     0
  3
Dash_Center
 72
    65
 73
     4
 40
14.0
 49
11.0
 49
-1.0
 49
1.0
 49
-1.0
  0
LTYPE
  2
BYGG-019716$0$PHANTOM2
 70
     0
  3
Phantom (.5x) ___ _ _ ___ _ _ ___ _ _ ___ _ _
 72
    65
 73
     6
 40
1.25
 49
0.625
 49
-0.125
 49
0.125
 49
-0.125
 49
0.125
 49
-0.125
  0
LTYPE
  2
BYGG-019652$0$DOT_CENTER
 70
     0
  3
Dot_Center
 72
    65
 73
     4
 40
14.0
 49
12.0
 49
-1.0
 49
0.0
 49
-1.0
  0
LTYPE
  2
BYGG-019652$0$DASH_CENTER
 70
     0
  3
Dash_Center
 72
    65
 73
     4
 40
14.0
 49
11.0
 49
-1.0
 49
1.0
 49
-1.0
  0
LTYPE
  2
BYGG-022089$0$PHANTOM2
 70
     0
  3
Phantom (.5x) ___ _ _ ___ _ _ ___ _ _ ___ _ _
 72
    65
 73
     6
 40
1.25
 49
0.625
 49
-0.125
 49
0.125
 49
-0.125
 49
0.125
 49
-0.125
  0
ENDTAB
  0
TABLE
  2
LAYER
 70
   280
  0
LAYER
  2
0
 70
     0
 62
     7
  6
CONTINUOUS
  0
LAYER
  2
SAPA_ANSLUTNING
 70
     0
 62
     6
  6
CONTINUOUS
  0
LAYER
  2
SAPA_GLAS
 70
     0
 62
     4
  6
CONTINUOUS
  0
LAYER
  2
SAPA_FYLLNING
 70
     0
 62
     4
  6
CONTINUOUS
  0
LAYER
  2
SAPA_ISOLATOR
 70
     0
 62
     4
  6
CONTINUOUS
  0
LAYER
  2
SAPA_FOGBAND
 70
     0
 62
     2
  6
CONTINUOUS
  0
LAYER
  2
SAPA_PROFIL
 70
     0
 62
     7
  6
CONTINUOUS
  0
ENDTAB
  0
TABLE
  2
STYLE
 70
    34
  0
STYLE
  2
STANDARD
 70
     0
 40
0.0
 41
1.0
 50
0.0
 71
     0
 42
0.2
  3
txt
  4

  0
STYLE
  2
ISO
 70
     0
 40
0.0
 41
1.0
 50
0.0
 71
     0
 42
3.5
  3
txt
  4

  0
STYLE
  2

 70
     1
 40
0.0
 41
1.0
 50
0.0
 71
     0
 42
0.2
  3
ltypeshp.shx
  4

  0
STYLE
  2
ANNOTATIVE
 70
     0
 40
0.0
 41
1.0
 50
0.0
 71
     0
 42
0.2
  3
txt
  4

  0
STYLE
  2
BYGG-021665$0$STANDARD
 70
     0
 40
0.0
 41
1.0
 50
0.0
 71
     0
 42
0.2
  3
txt
  4

  0
STYLE
  2
BYGG-021665$0$ISO
 70
     0
 40
0.0
 41
1.0
 50
0.0
 71
     0
 42
3.5
  3
isocp3.shx
  4

  0
STYLE
  2
BYGG-018516$0$STANDARD
 70
     0
 40
0.0
 41
1.0
 50
0.0
 71
     0
 42
0.2
  3
txt
  4

  0
STYLE
  2
BYGG-018516$0$ISO
 70
     0
 40
0.0
 41
1.0
 50
0.0
 71
     0
 42
3.5
  3
isocp3.shx
  4

  0
STYLE
  2
BYGG-019718$0$STANDARD
 70
     0
 40
0.0
 41
1.0
 50
0.0
 71
     0
 42
0.2
  3
txt
  4

  0
STYLE
  2
BYGG-019718$0$ISO
 70
     0
 40
0.0
 41
1.0
 50
0.0
 71
     0
 42
3.5
  3
txt
  4

  0
STYLE
  2
BYGG-024973$0$STANDARD
 70
     0
 40
0.0
 41
1.0
 50
0.0
 71
     0
 42
0.2
  3
txt
  4

  0
STYLE
  2
BYGG-024973$0$ISO
 70
     0
 40
0.0
 41
1.0
 50
0.0
 71
     0
 42
3.5
  3
txt
  4

  0
STYLE
  2
BYGG-024894$0$STANDARD
 70
     0
 40
0.0
 41
1.0
 50
0.0
 71
     0
 42
0.2
  3
txt
  4

  0
STYLE
  2
BYGG-024894$0$ISO
 70
     0
 40
0.0
 41
1.0
 50
0.0
 71
     0
 42
3.5
  3
txt
  4

  0
STYLE
  2
BYGG-019612$0$STANDARD
 70
     0
 40
0.0
 41
1.0
 50
0.0
 71
     0
 42
0.2
  3
txt
  4

  0
STYLE
  2
BYGG-019612$0$ISO
 70
     0
 40
0.0
 41
1.0
 50
0.0
 71
     0
 42
3.5
  3
txt
  4

  0
STYLE
  2
BYGG-019653$0$STANDARD
 70
     0
 40
0.0
 41
1.0
 50
0.0
 71
     0
 42
0.2
  3
txt
  4

  0
STYLE
  2
BYGG-019653$0$ISO
 70
     0
 40
0.0
 41
1.0
 50
0.0
 71
     0
 42
3.5
  3
txt
  4

  0
STYLE
  2
BYGG-019653$0$CONVERTER_11
 70
     0
 40
0.0
 41
0.72
 50
0.0
 71
     0
 42
0.2
  3
txt.shx
  4

  0
STYLE
  2
BYGG-019716$0$STANDARD
 70
     0
 40
0.0
 41
1.0
 50
0.0
 71
     0
 42
0.2
  3
txt
  4

  0
STYLE
  2
BYGG-019716$0$ISO
 70
     0
 40
0.0
 41
1.0
 50
0.0
 71
     0
 42
3.5
  3
txt
  4

  0
STYLE
  2
BYGG-019716$0$ANNOTATIVE
 70
     0
 40
0.0
 41
1.0
 50
0.0
 71
     0
 42
0.2
  3
txt
  4

  0
STYLE
  2
BYGG-019652$0$STANDARD
 70
     0
 40
0.0
 41
1.0
 50
0.0
 71
     0
 42
0.2
  3
txt
  4

  0
STYLE
  2
BYGG-019652$0$ISO
 70
     0
 40
0.0
 41
1.0
 50
0.0
 71
     0
 42
3.5
  3
txt
  4

  0
STYLE
  2
BYGG-019652$0$CONVERTER_11
 70
     0
 40
0.0
 41
0.72
 50
0.0
 71
     0
 42
0.2
  3
txt.shx
  4

  0
STYLE
  2
BYGG-019705$0$STANDARD
 70
     0
 40
0.0
 41
1.0
 50
0.0
 71
     0
 42
0.2
  3
txt
  4

  0
STYLE
  2
BYGG-019705$0$ISO
 70
     0
 40
0.0
 41
1.0
 50
0.0
 71
     0
 42
3.5
  3
txt
  4

  0
STYLE
  2
BYGG-022089$0$STANDARD
 70
     0
 40
0.0
 41
1.0
 50
0.0
 71
     0
 42
0.2
  3
txt
  4

  0
STYLE
  2
BYGG-022089$0$ISO
 70
     0
 40
0.0
 41
1.0
 50
0.0
 71
     0
 42
3.5
  3
txt
  4

  0
STYLE
  2
BYGG-022089$0$ANNOTATIVE
 70
     0
 40
0.0
 41
1.0
 50
0.0
 71
     0
 42
0.2
  3
txt
  4

  0
STYLE
  2
BYGG-018731$0$STANDARD
 70
     0
 40
0.0
 41
1.0
 50
0.0
 71
     0
 42
0.2
  3
txt
  4

  0
STYLE
  2
BYGG-018731$0$ISO
 70
     0
 40
0.0
 41
1.0
 50
0.0
 71
     0
 42
3.5
  3
txt
  4

  0
STYLE
  2
BYGG-029261$0$STANDARD
 70
     0
 40
0.0
 41
1.0
 50
0.0
 71
     0
 42
0.2
  3
txt
  4

  0
STYLE
  2
BYGG-029261$0$ISO
 70
     0
 40
0.0
 41
1.0
 50
0.0
 71
     0
 42
3.5
  3
txt
  4

  0
ENDTAB
  0
TABLE
  2
VIEW
 70
     0
  0
ENDTAB
  0
TABLE
  2
UCS
 70
     0
  0
ENDTAB
  0
TABLE
  2
APPID
 70
    20
  0
APPID
  2
ACAD
 70
     0
  0
APPID
  2
ACAD_DSTYLE_DIMTEXT_FILL
 70
     0
  0
APPID
  2
ACAD_DSTYLE_DIMEXT_LENGTH
 70
     0
  0
APPID
  2
ACAD_DSTYLE_DIMEXT_ENABLED
 70
     0
  0
APPID
  2
ACAD_DSTYLE_DIM_LINETYPE
 70
     0
  0
APPID
  2
ACAD_DSTYLE_DIM_EXT1_LINETYPE
 70
     0
  0
APPID
  2
ACAD_DSTYLE_DIM_EXT2_LINETYPE
 70
     0
  0
APPID
  2
ACAD_DSTYLE_DIMJOGGED_JOGA
 70
     0
  0
APPID
  2
ACAD_DSTYLE_DIMARC_LENGTH_
 70
     0
  0
APPID
  2
ACAD_PSEXT
 70
     0
  0
APPID
  2
ACAD_MLEADERVER
 70
     0
  0
APPID
  2
ACAD_NAV_VCDISPLAY
 70
     0
  0
APPID
  2
ACADANNOTATIVE
 70
     0
  0
APPID
  2
ACAECLAYERSTANDARD
 70
     0
  0
APPID
  2
ACDBDYNAMICBLOCKGUID
 70
     0
  0
APPID
  2
ACDBBLOCKREPETAG
 70
     0
  0
APPID
  2
ACAD_EXEMPT_FROM_CAD_STANDARDS
 70
     0
  0
APPID
  2
GRADIENTCOLOR1ACI
 70
     0
  0
APPID
  2
GRADIENTCOLOR2ACI
 70
     0
  0
APPID
  2
ACCMTRANSPARENCY
 70
     0
  0
ENDTAB
  0
TABLE
  2
DIMSTYLE
 70
    65
  0
DIMSTYLE
  2
STANDARD
 70
     0
  3

  4

  5

  6

  7

 40
1.0
 41
0.18
 42
0.0625
 43
0.38
 44
0.18
 45
0.0
 46
0.0
 47
0.0
 48
0.0
140
0.18
141
0.09
142
0.0
143
25.399999999999999
144
1.0
145
0.0
146
1.0
147
0.09
 71
     0
 72
     0
 73
     1
 74
     1
 75
     0
 76
     0
 77
     0
 78
     0
170
     0
171
     2
172
     0
173
     0
174
     0
175
     0
176
     0
177
     0
178
     0
  0
DIMSTYLE
  2
MASKIN
 70
     0
  3

  4

  5

  6

  7

 40
0.0
 41
3.0
 42
1.5
 43
10.0
 44
1.5
 45
0.0
 46
0.0
 47
0.0
 48
0.0
140
3.0
141
-5.0
142
0.0
143
25.399999999999999
144
-1.0
145
0.0
146
1.0
147
1.0
 71
     0
 72
     0
 73
     0
 74
     0
 75
     0
 76
     0
 77
     1
 78
     8
170
     0
171
     0
172
     1
173
     0
174
     0
175
     0
176
   256
177
   256
178
     2
  0
DIMSTYLE
  2
ANNOTATIVE
 70
     0
  3

  4

  5

  6

  7

 40
1.0
 41
0.18
 42
0.0625
 43
0.38
 44
0.18
 45
0.0
 46
0.0
 47
0.0
 48
0.0
140
0.18
141
0.09
142
0.0
143
25.399999999999999
144
1.0
145
0.0
146
1.0
147
0.09
 71
     0
 72
     0
 73
     1
 74
     1
 75
     0
 76
     0
 77
     0
 78
     0
170
     0
171
     2
172
     0
173
     0
174
     0
175
     0
176
     0
177
     0
178
     0
  0
DIMSTYLE
  2
BYGG-021665$0$MASKIN
 70
     0
  3

  4

  5

  6

  7

 40
0.0
 41
3.0
 42
1.5
 43
10.0
 44
1.5
 45
0.0
 46
0.0
 47
0.0
 48
0.0
140
3.0
141
-5.0
142
0.0
143
25.399999999999999
144
-1.0
145
0.0
146
1.0
147
1.0
 71
     0
 72
     0
 73
     0
 74
     0
 75
     0
 76
     0
 77
     1
 78
     8
170
     0
171
     0
172
     1
173
     0
174
     0
175
     0
176
   256
177
   256
178
   256
  0
DIMSTYLE
  2
BYGG-018516$0$STANDARD
 70
     0
  3

  4

  5

  6

  7

 40
1.0
 41
0.18
 42
0.0625
 43
0.38
 44
0.18
 45
0.0
 46
0.0
 47
0.0
 48
0.0
140
0.18
141
0.09
142
0.0
143
25.399999999999999
144
1.0
145
0.0
146
1.0
147
0.09
 71
     0
 72
     0
 73
     1
 74
     1
 75
     0
 76
     0
 77
     0
 78
     0
170
     0
171
     2
172
     0
173
     0
174
     0
175
     0
176
     0
177
     0
178
     0
  0
DIMSTYLE
  2
BYGG-018516$0$MASKIN
 70
     0
  3

  4

  5

  6

  7

 40
0.0
 41
3.0
 42
1.5
 43
10.0
 44
1.5
 45
0.0
 46
0.0
 47
0.0
 48
0.0
140
3.0
141
-5.0
142
0.0
143
25.399999999999999
144
-1.0
145
0.0
146
1.0
147
1.0
 71
     0
 72
     0
 73
     0
 74
     0
 75
     0
 76
     0
 77
     1
 78
     8
170
     0
171
     0
172
     1
173
     0
174
     0
175
     0
176
   256
177
   256
178
     2
  0
DIMSTYLE
  2
BYGG-019718$0$STANDARD
 70
     0
  3

  4

  5

  6

  7

 40
1.0
 41
0.18
 42
0.0625
 43
0.38
 44
0.18
 45
0.0
 46
0.0
 47
0.0
 48
0.0
140
0.18
141
0.09
142
0.0
143
25.399999999999999
144
1.0
145
0.0
146
1.0
147
0.09
 71
     0
 72
     0
 73
     1
 74
     1
 75
     0
 76
     0
 77
     0
 78
     0
170
     0
171
     2
172
     0
173
     0
174
     0
175
     0
176
     0
177
     0
178
     0
  0
DIMSTYLE
  2
BYGG-019718$0$MASKIN
 70
     0
  3

  4

  5

  6

  7

 40
0.0
 41
3.0
 42
1.5
 43
10.0
 44
1.5
 45
0.0
 46
0.0
 47
0.0
 48
0.0
140
3.0
141
-5.0
142
0.0
143
25.399999999999999
144
-1.0
145
0.0
146
1.0
147
1.0
 71
     0
 72
     0
 73
     0
 74
     0
 75
     0
 76
     0
 77
     1
 78
     8
170
     0
171
     0
172
     1
173
     0
174
     0
175
     0
176
   256
177
   256
178
     2
  0
DIMSTYLE
  2
BYGG-024973$0$STANDARD
 70
     0
  3

  4

  5

  6

  7

 40
1.0
 41
0.18
 42
0.0625
 43
0.38
 44
0.18
 45
0.0
 46
0.0
 47
0.0
 48
0.0
140
0.18
141
0.09
142
0.0
143
25.399999999999999
144
1.0
145
0.0
146
1.0
147
0.09
 71
     0
 72
     0
 73
     1
 74
     1
 75
     0
 76
     0
 77
     0
 78
     0
170
     0
171
     2
172
     0
173
     0
174
     0
175
     0
176
     0
177
     0
178
     0
  0
DIMSTYLE
  2
BYGG-024973$0$MASKIN
 70
     0
  3

  4

  5

  6

  7

 40
0.0
 41
3.0
 42
1.5
 43
10.0
 44
1.5
 45
0.0
 46
0.0
 47
0.0
 48
0.0
140
3.0
141
-5.0
142
0.0
143
25.399999999999999
144
-1.0
145
0.0
146
1.0
147
1.0
 71
     0
 72
     0
 73
     0
 74
     0
 75
     0
 76
     0
 77
     1
 78
     8
170
     0
171
     0
172
     1
173
     0
174
     0
175
     0
176
   256
177
   256
178
     2
  0
DIMSTYLE
  2
BYGG-024894$0$STANDARD
 70
     0
  3

  4

  5

  6

  7

 40
1.0
 41
0.18
 42
0.0625
 43
0.38
 44
0.18
 45
0.0
 46
0.0
 47
0.0
 48
0.0
140
0.18
141
0.09
142
0.0
143
25.399999999999999
144
1.0
145
0.0
146
1.0
147
0.09
 71
     0
 72
     0
 73
     1
 74
     1
 75
     0
 76
     0
 77
     0
 78
     0
170
     0
171
     2
172
     0
173
     0
174
     0
175
     0
176
     0
177
     0
178
     0
  0
DIMSTYLE
  2
BYGG-024894$0$MASKIN
 70
     0
  3

  4

  5

  6

  7

 40
0.0
 41
3.0
 42
1.5
 43
10.0
 44
1.5
 45
0.0
 46
0.0
 47
0.0
 48
0.0
140
3.0
141
-5.0
142
0.0
143
25.399999999999999
144
-1.0
145
0.0
146
1.0
147
1.0
 71
     0
 72
     0
 73
     0
 74
     0
 75
     0
 76
     0
 77
     1
 78
     8
170
     0
171
     0
172
     1
173
     0
174
     0
175
     0
176
   256
177
   256
178
     2
  0
DIMSTYLE
  2
BYGG-019612$0$STANDARD
 70
     0
  3

  4

  5

  6

  7

 40
1.0
 41
0.18
 42
0.0625
 43
0.38
 44
0.18
 45
0.0
 46
0.0
 47
0.0
 48
0.0
140
0.18
141
0.09
142
0.0
143
25.399999999999999
144
1.0
145
0.0
146
1.0
147
0.09
 71
     0
 72
     0
 73
     1
 74
     1
 75
     0
 76
     0
 77
     0
 78
     0
170
     0
171
     2
172
     0
173
     0
174
     0
175
     0
176
     0
177
     0
178
     0
  0
DIMSTYLE
  2
BYGG-019612$0$MASKIN
 70
     0
  3

  4

  5

  6

  7

 40
0.0
 41
3.0
 42
1.5
 43
10.0
 44
1.5
 45
0.0
 46
0.0
 47
0.0
 48
0.0
140
3.0
141
-5.0
142
0.0
143
25.399999999999999
144
-1.0
145
0.0
146
1.0
147
1.0
 71
     0
 72
     0
 73
     0
 74
     0
 75
     0
 76
     0
 77
     1
 78
     8
170
     0
171
     0
172
     1
173
     0
174
     0
175
     0
176
   256
177
   256
178
     2
  0
DIMSTYLE
  2
BYGG-019653$0$STANDARD
 70
     0
  3

  4

  5

  6

  7

 40
1.0
 41
0.18
 42
0.0625
 43
0.38
 44
0.18
 45
0.0
 46
0.0
 47
0.0
 48
0.0
140
0.18
141
0.09
142
0.0
143
25.399999999999999
144
1.0
145
0.0
146
1.0
147
0.09
 71
     0
 72
     0
 73
     1
 74
     1
 75
     0
 76
     0
 77
     0
 78
     0
170
     0
171
     2
172
     0
173
     0
174
     0
175
     0
176
     0
177
     0
178
     0
  0
DIMSTYLE
  2
BYGG-019653$0$MASKIN
 70
     0
  3

  4

  5

  6

  7

 40
0.0
 41
3.0
 42
1.5
 43
10.0
 44
1.5
 45
0.0
 46
0.0
 47
0.0
 48
0.0
140
3.0
141
-5.0
142
0.0
143
25.399999999999999
144
-1.0
145
0.0
146
1.0
147
1.0
 71
     0
 72
     0
 73
     0
 74
     0
 75
     0
 76
     0
 77
     1
 78
     8
170
     0
171
     0
172
     1
173
     0
174
     0
175
     0
176
   256
177
   256
178
     2
  0
DIMSTYLE
  2
BYGG-019653$0$ME10_DIM_10
 70
     0
  3

  4

  5

  6

  7

 40
1.0
 41
0.7
 42
0.0
 43
0.38
 44
0.4
 45
0.0
 46
0.0
 47
0.0
 48
0.0
140
0.7
141
0.09
142
0.0
143
25.399999999999999
144
1.0
145
0.0
146
1.0
147
0.4
 71
     0
 72
     0
 73
     0
 74
     0
 75
     0
 76
     0
 77
     1
 78
     8
170
     0
171
     2
172
     1
173
     1
174
     0
175
     0
176
     1
177
     1
178
     2
  0
DIMSTYLE
  2
BYGG-019653$0$ME10_DIM_11
 70
     0
  3

  4

  5

  6

  7

 40
1.0
 41
0.7
 42
0.0
 43
0.38
 44
0.4
 45
0.0
 46
0.0
 47
0.0
 48
0.0
140
0.7
141
0.09
142
0.0
143
25.399999999999999
144
1.0
145
0.0
146
1.0
147
0.4
 71
     0
 72
     0
 73
     0
 74
     0
 75
     0
 76
     0
 77
     1
 78
     8
170
     0
171
     2
172
     1
173
     1
174
     0
175
     0
176
     1
177
     1
178
     2
  0
DIMSTYLE
  2
BYGG-019653$0$ME10_DIM_12
 70
     0
  3
(<>)
  4

  5

  6

  7

 40
1.0
 41
0.7
 42
0.0
 43
0.38
 44
0.4
 45
0.0
 46
0.0
 47
0.0
 48
0.0
140
0.7
141
0.09
142
0.0
143
25.399999999999999
144
1.0
145
0.0
146
1.0
147
0.4
 71
     0
 72
     0
 73
     0
 74
     0
 75
     0
 76
     0
 77
     1
 78
     8
170
     0
171
     2
172
     1
173
     1
174
     0
175
     0
176
     1
177
     1
178
     2
  0
DIMSTYLE
  2
BYGG-019653$0$ME10_DIM_13
 70
     0
  3

  4

  5

  6

  7

 40
1.0
 41
0.7
 42
0.0
 43
0.38
 44
0.4
 45
0.0
 46
0.0
 47
0.0
 48
0.0
140
0.7
141
0.09
142
0.0
143
25.399999999999999
144
1.0
145
0.0
146
1.0
147
0.4
 71
     0
 72
     0
 73
     0
 74
     0
 75
     0
 76
     0
 77
     1
 78
     8
170
     0
171
     2
172
     1
173
     1
174
     0
175
     0
176
     1
177
     1
178
     2
  0
DIMSTYLE
  2
BYGG-019653$0$ME10_DIM_14
 70
     0
  3

  4

  5

  6

  7

 40
1.0
 41
0.7
 42
0.0
 43
0.38
 44
0.4
 45
0.0
 46
0.0
 47
0.0
 48
0.0
140
0.7
141
0.09
142
0.0
143
25.399999999999999
144
1.0
145
0.0
146
1.0
147
0.4
 71
     0
 72
     0
 73
     0
 74
     0
 75
     0
 76
     0
 77
     1
 78
     8
170
     0
171
     2
172
     1
173
     1
174
     0
175
     0
176
     1
177
     1
178
     2
  0
DIMSTYLE
  2
BYGG-019653$0$ME10_DIM_15
 70
     0
  3

  4

  5

  6

  7

 40
1.0
 41
0.7
 42
0.0
 43
0.38
 44
0.4
 45
0.0
 46
0.0
 47
0.0
 48
0.0
140
0.7
141
0.09
142
0.0
143
25.399999999999999
144
1.0
145
0.0
146
1.0
147
0.4
 71
     0
 72
     0
 73
     0
 74
     0
 75
     0
 76
     0
 77
     1
 78
     8
170
     0
171
     2
172
     1
173
     1
174
     0
175
     0
176
     1
177
     1
178
     2
  0
DIMSTYLE
  2
BYGG-019653$0$ME10_DIM_16
 70
     0
  3

  4

  5

  6

  7

 40
1.0
 41
0.7
 42
0.0
 43
0.38
 44
0.4
 45
0.0
 46
0.0
 47
0.3
 48
0.3
140
0.7
141
0.09
142
0.0
143
25.399999999999999
144
1.0
145
0.0
146
0.6
147
0.4
 71
     1
 72
     0
 73
     0
 74
     0
 75
     0
 76
     0
 77
     1
 78
     8
170
     0
171
     2
172
     1
173
     1
174
     0
175
     0
176
     1
177
     1
178
     2
  0
DIMSTYLE
  2
BYGG-019653$0$ME10_DIM_17
 70
     0
  3

  4

  5

  6

  7

 40
1.0
 41
0.7
 42
0.0
 43
0.38
 44
0.4
 45
0.0
 46
0.0
 47
0.0
 48
0.0
140
0.7
141
0.09
142
0.0
143
25.399999999999999
144
1.0
145
0.0
146
1.0
147
0.4
 71
     0
 72
     0
 73
     0
 74
     0
 75
     0
 76
     0
 77
     1
 78
     8
170
     0
171
     2
172
     1
173
     1
174
     0
175
     0
176
     1
177
     1
178
     2
  0
DIMSTYLE
  2
BYGG-019653$0$ME10_DIM_18
 70
     0
  3

  4

  5

  6

  7

 40
1.0
 41
0.7
 42
0.0
 43
0.38
 44
0.4
 45
0.0
 46
0.0
 47
0.3
 48
0.3
140
0.7
141
0.09
142
0.0
143
25.399999999999999
144
1.0
145
0.0
146
0.6
147
0.4
 71
     1
 72
     0
 73
     0
 74
     0
 75
     0
 76
     0
 77
     1
 78
     8
170
     0
171
     2
172
     1
173
     1
174
     0
175
     0
176
     1
177
     1
178
     2
  0
DIMSTYLE
  2
BYGG-019653$0$ME10_DIM_19
 70
     0
  3

  4

  5

  6

  7

 40
1.0
 41
0.7
 42
0.0
 43
0.38
 44
0.4
 45
0.0
 46
0.0
 47
0.0
 48
0.0
140
0.7
141
0.09
142
0.0
143
25.399999999999999
144
1.0
145
0.0
146
1.0
147
0.4
 71
     0
 72
     0
 73
     0
 74
     0
 75
     0
 76
     0
 77
     1
 78
     8
170
     0
171
     2
172
     1
173
     1
174
     0
175
     0
176
     1
177
     1
178
     2
  0
DIMSTYLE
  2
BYGG-019653$0$ME10_DIM_20
 70
     0
  3

  4

  5

  6

  7

 40
1.0
 41
0.7
 42
0.0
 43
0.38
 44
0.4
 45
0.0
 46
0.0
 47
0.0
 48
0.0
140
0.7
141
0.09
142
0.0
143
25.399999999999999
144
1.0
145
0.0
146
1.0
147
0.4
 71
     0
 72
     0
 73
     0
 74
     0
 75
     0
 76
     0
 77
     1
 78
     8
170
     0
171
     2
172
     1
173
     1
174
     0
175
     0
176
     1
177
     1
178
     2
  0
DIMSTYLE
  2
BYGG-019653$0$ME10_DIM_21
 70
     0
  3
(<>)
  4

  5

  6

  7

 40
1.0
 41
0.7
 42
0.0
 43
0.38
 44
0.4
 45
0.0
 46
0.0
 47
0.0
 48
0.0
140
0.7
141
0.09
142
0.0
143
25.399999999999999
144
1.0
145
0.0
146
1.0
147
0.4
 71
     0
 72
     0
 73
     0
 74
     0
 75
     0
 76
     0
 77
     1
 78
     8
170
     0
171
     2
172
     1
173
     1
174
     0
175
     0
176
     1
177
     1
178
     2
  0
DIMSTYLE
  2
BYGG-019653$0$ME10_DIM_22
 70
     0
  3

  4

  5

  6

  7

 40
1.0
 41
0.7
 42
0.0
 43
0.38
 44
0.4
 45
0.0
 46
0.0
 47
0.0
 48
0.0
140
0.7
141
0.09
142
0.0
143
25.399999999999999
144
1.0
145
0.0
146
1.0
147
0.4
 71
     0
 72
     0
 73
     0
 74
     0
 75
     0
 76
     0
 77
     1
 78
     8
170
     0
171
     2
172
     1
173
     1
174
     0
175
     0
176
     1
177
     1
178
     2
  0
DIMSTYLE
  2
BYGG-019653$0$ME10_DIM_23
 70
     0
  3

  4

  5

  6

  7

 40
1.0
 41
0.7
 42
0.0
 43
0.38
 44
0.4
 45
0.0
 46
0.0
 47
0.0
 48
0.0
140
0.7
141
0.09
142
0.0
143
25.399999999999999
144
1.0
145
0.0
146
1.0
147
0.4
 71
     0
 72
     0
 73
     0
 74
     0
 75
     0
 76
     0
 77
     1
 78
     8
170
     0
171
     2
172
     1
173
     1
174
     0
175
     0
176
     1
177
     1
178
     2
  0
DIMSTYLE
  2
BYGG-019716$0$STANDARD
 70
     0
  3

  4

  5

  6

  7

 40
1.0
 41
0.18
 42
0.0625
 43
0.38
 44
0.18
 45
0.0
 46
0.0
 47
0.0
 48
0.0
140
0.18
141
0.09
142
0.0
143
25.399999999999999
144
1.0
145
0.0
146
1.0
147
0.09
 71
     0
 72
     0
 73
     1
 74
     1
 75
     0
 76
     0
 77
     0
 78
     0
170
     0
171
     2
172
     0
173
     0
174
     0
175
     0
176
     0
177
     0
178
     0
  0
DIMSTYLE
  2
BYGG-019716$0$MASKIN
 70
     0
  3

  4

  5

  6

  7

 40
0.0
 41
3.0
 42
1.5
 43
10.0
 44
1.5
 45
0.0
 46
0.0
 47
0.0
 48
0.0
140
3.0
141
-5.0
142
0.0
143
25.399999999999999
144
-1.0
145
0.0
146
1.0
147
1.0
 71
     0
 72
     0
 73
     0
 74
     0
 75
     0
 76
     0
 77
     1
 78
     8
170
     0
171
     0
172
     1
173
     0
174
     0
175
     0
176
   256
177
   256
178
     2
  0
DIMSTYLE
  2
BYGG-019716$0$ANNOTATIVE
 70
     0
  3

  4

  5

  6

  7

 40
1.0
 41
0.18
 42
0.0625
 43
0.38
 44
0.18
 45
0.0
 46
0.0
 47
0.0
 48
0.0
140
0.18
141
0.09
142
0.0
143
25.399999999999999
144
1.0
145
0.0
146
1.0
147
0.09
 71
     0
 72
     0
 73
     1
 74
     1
 75
     0
 76
     0
 77
     0
 78
     0
170
     0
171
     2
172
     0
173
     0
174
     0
175
     0
176
     0
177
     0
178
     0
  0
DIMSTYLE
  2
BYGG-019652$0$STANDARD
 70
     0
  3

  4

  5

  6

  7

 40
1.0
 41
0.18
 42
0.0625
 43
0.38
 44
0.18
 45
0.0
 46
0.0
 47
0.0
 48
0.0
140
0.18
141
0.09
142
0.0
143
25.399999999999999
144
1.0
145
0.0
146
1.0
147
0.09
 71
     0
 72
     0
 73
     1
 74
     1
 75
     0
 76
     0
 77
     0
 78
     0
170
     0
171
     2
172
     0
173
     0
174
     0
175
     0
176
     0
177
     0
178
     0
  0
DIMSTYLE
  2
BYGG-019652$0$MASKIN
 70
     0
  3

  4

  5

  6

  7

 40
0.0
 41
3.0
 42
1.5
 43
10.0
 44
1.5
 45
0.0
 46
0.0
 47
0.0
 48
0.0
140
3.0
141
-5.0
142
0.0
143
25.399999999999999
144
-1.0
145
0.0
146
1.0
147
1.0
 71
     0
 72
     0
 73
     0
 74
     0
 75
     0
 76
     0
 77
     1
 78
     8
170
     0
171
     0
172
     1
173
     0
174
     0
175
     0
176
   256
177
   256
178
     2
  0
DIMSTYLE
  2
BYGG-019652$0$ME10_DIM_10
 70
     0
  3

  4

  5

  6

  7

 40
1.0
 41
0.35
 42
0.0
 43
0.38
 44
0.2
 45
0.0
 46
0.0
 47
0.0
 48
0.0
140
0.35
141
0.09
142
0.0
143
25.399999999999999
144
1.0
145
0.0
146
1.0
147
0.2
 71
     0
 72
     0
 73
     0
 74
     0
 75
     0
 76
     0
 77
     1
 78
     8
170
     0
171
     2
172
     1
173
     1
174
     0
175
     0
176
     1
177
     1
178
     2
  0
DIMSTYLE
  2
BYGG-019652$0$ME10_DIM_11
 70
     0
  3

  4

  5

  6

  7

 40
1.0
 41
0.35
 42
0.0
 43
0.38
 44
0.2
 45
0.0
 46
0.0
 47
0.0
 48
0.0
140
0.35
141
0.09
142
0.0
143
25.399999999999999
144
1.0
145
0.0
146
1.0
147
0.2
 71
     0
 72
     0
 73
     0
 74
     0
 75
     0
 76
     0
 77
     1
 78
     8
170
     0
171
     2
172
     1
173
     1
174
     0
175
     0
176
     1
177
     1
178
     2
  0
DIMSTYLE
  2
BYGG-019652$0$ME10_DIM_12
 70
     0
  3

  4

  5

  6

  7

 40
1.0
 41
0.35
 42
0.0
 43
0.38
 44
0.2
 45
0.0
 46
0.0
 47
0.0
 48
0.0
140
0.35
141
0.09
142
0.0
143
25.399999999999999
144
1.0
145
0.0
146
1.0
147
0.2
 71
     0
 72
     0
 73
     0
 74
     0
 75
     0
 76
     0
 77
     1
 78
     8
170
     0
171
     2
172
     1
173
     1
174
     0
175
     0
176
     1
177
     1
178
     2
  0
DIMSTYLE
  2
BYGG-019652$0$ME10_DIM_13
 70
     0
  3

  4

  5

  6

  7

 40
1.0
 41
0.35
 42
0.0
 43
0.38
 44
0.2
 45
0.0
 46
0.0
 47
0.0
 48
0.0
140
0.35
141
0.09
142
0.0
143
25.399999999999999
144
1.0
145
0.0
146
1.0
147
0.2
 71
     0
 72
     0
 73
     0
 74
     0
 75
     0
 76
     0
 77
     1
 78
     8
170
     0
171
     2
172
     1
173
     1
174
     0
175
     0
176
     1
177
     1
178
     2
  0
DIMSTYLE
  2
BYGG-019652$0$ME10_DIM_14
 70
     0
  3

  4

  5

  6

  7

 40
1.0
 41
0.35
 42
0.0
 43
0.38
 44
0.2
 45
0.0
 46
0.0
 47
0.0
 48
0.0
140
0.35
141
0.09
142
0.0
143
25.399999999999999
144
1.0
145
0.0
146
1.0
147
0.2
 71
     0
 72
     0
 73
     0
 74
     0
 75
     0
 76
     0
 77
     1
 78
     8
170
     0
171
     2
172
     1
173
     1
174
     0
175
     0
176
     1
177
     1
178
     2
  0
DIMSTYLE
  2
BYGG-019652$0$ME10_DIM_15
 70
     0
  3

  4

  5

  6

  7

 40
1.0
 41
0.35
 42
0.0
 43
0.38
 44
0.2
 45
0.0
 46
0.0
 47
0.0
 48
0.0
140
0.35
141
0.09
142
0.0
143
25.399999999999999
144
1.0
145
0.0
146
1.0
147
0.2
 71
     0
 72
     0
 73
     0
 74
     0
 75
     0
 76
     0
 77
     1
 78
     8
170
     0
171
     2
172
     1
173
     1
174
     0
175
     0
176
     1
177
     1
178
     2
  0
DIMSTYLE
  2
BYGG-019652$0$ME10_DIM_16
 70
     0
  3

  4

  5

  6

  7

 40
1.0
 41
0.35
 42
0.0
 43
0.38
 44
0.2
 45
0.0
 46
0.0
 47
0.0
 48
0.0
140
0.35
141
0.09
142
0.0
143
25.399999999999999
144
1.0
145
0.0
146
1.0
147
0.2
 71
     0
 72
     0
 73
     0
 74
     0
 75
     0
 76
     0
 77
     1
 78
     8
170
     0
171
     2
172
     1
173
     1
174
     0
175
     0
176
     1
177
     1
178
     2
  0
DIMSTYLE
  2
BYGG-019652$0$ME10_DIM_17
 70
     0
  3

  4

  5

  6

  7

 40
1.0
 41
0.7
 42
0.0
 43
0.38
 44
0.4
 45
0.0
 46
0.0
 47
0.0
 48
0.0
140
0.7
141
0.09
142
0.0
143
25.399999999999999
144
1.0
145
0.0
146
1.0
147
0.4
 71
     0
 72
     0
 73
     0
 74
     0
 75
     0
 76
     0
 77
     1
 78
     8
170
     0
171
     2
172
     1
173
     1
174
     0
175
     0
176
     1
177
     1
178
     2
  0
DIMSTYLE
  2
BYGG-019652$0$ME10_DIM_18
 70
     0
  3

  4

  5

  6

  7

 40
1.0
 41
0.7
 42
0.0
 43
0.38
 44
0.4
 45
0.0
 46
0.0
 47
0.0
 48
0.0
140
0.7
141
0.09
142
0.0
143
25.399999999999999
144
1.0
145
0.0
146
1.0
147
0.4
 71
     0
 72
     0
 73
     0
 74
     0
 75
     0
 76
     0
 77
     1
 78
     8
170
     0
171
     2
172
     1
173
     1
174
     0
175
     0
176
     1
177
     1
178
     2
  0
DIMSTYLE
  2
BYGG-019652$0$ME10_DIM_19
 70
     0
  3

  4

  5

  6

  7

 40
1.0
 41
0.7
 42
0.0
 43
0.38
 44
0.4
 45
0.0
 46
0.0
 47
0.0
 48
0.0
140
0.7
141
0.09
142
0.0
143
25.399999999999999
144
1.0
145
0.0
146
1.0
147
0.4
 71
     0
 72
     0
 73
     0
 74
     0
 75
     0
 76
     0
 77
     1
 78
     8
170
     0
171
     2
172
     1
173
     1
174
     0
175
     0
176
     1
177
     1
178
     2
  0
DIMSTYLE
  2
BYGG-019652$0$ME10_DIM_20
 70
     0
  3

  4

  5

  6

  7

 40
1.0
 41
0.7
 42
0.0
 43
0.38
 44
0.4
 45
0.0
 46
0.0
 47
0.0
 48
0.0
140
0.7
141
0.09
142
0.0
143
25.399999999999999
144
1.0
145
0.0
146
1.0
147
0.4
 71
     0
 72
     0
 73
     0
 74
     0
 75
     0
 76
     0
 77
     1
 78
     8
170
     0
171
     2
172
     1
173
     1
174
     0
175
     0
176
     1
177
     1
178
     2
  0
DIMSTYLE
  2
BYGG-019652$0$ME10_DIM_21
 70
     0
  3

  4

  5

  6

  7

 40
1.0
 41
0.7
 42
0.0
 43
0.38
 44
0.4
 45
0.0
 46
0.0
 47
0.0
 48
0.0
140
0.7
141
0.09
142
0.0
143
25.399999999999999
144
1.0
145
0.0
146
1.0
147
0.4
 71
     0
 72
     0
 73
     0
 74
     0
 75
     0
 76
     0
 77
     1
 78
     8
170
     0
171
     2
172
     1
173
     1
174
     0
175
     0
176
     1
177
     1
178
     2
  0
DIMSTYLE
  2
BYGG-019652$0$ME10_DIM_22
 70
     0
  3

  4

  5

  6

  7

 40
1.0
 41
0.7
 42
0.0
 43
0.38
 44
0.4
 45
0.0
 46
0.0
 47
0.0
 48
0.0
140
0.7
141
0.09
142
0.0
143
25.399999999999999
144
1.0
145
0.0
146
1.0
147
0.4
 71
     0
 72
     0
 73
     0
 74
     0
 75
     0
 76
     0
 77
     1
 78
     8
170
     0
171
     2
172
     1
173
     1
174
     0
175
     0
176
     1
177
     1
178
     2
  0
DIMSTYLE
  2
BYGG-019652$0$ME10_DIM_23
 70
     0
  3

  4

  5

  6

  7

 40
1.0
 41
0.7
 42
0.0
 43
0.38
 44
0.4
 45
0.0
 46
0.0
 47
0.0
 48
0.0
140
0.7
141
0.09
142
0.0
143
25.399999999999999
144
1.0
145
0.0
146
1.0
147
0.4
 71
     0
 72
     0
 73
     0
 74
     0
 75
     0
 76
     0
 77
     1
 78
     8
170
     0
171
     2
172
     1
173
     1
174
     0
175
     0
176
     1
177
     1
178
     2
  0
DIMSTYLE
  2
BYGG-019652$0$ME10_DIM_24
 70
     0
  3

  4

  5

  6

  7

 40
1.0
 41
0.7
 42
0.0
 43
0.38
 44
0.4
 45
0.0
 46
0.0
 47
0.0
 48
0.0
140
0.7
141
0.09
142
0.0
143
25.399999999999999
144
1.0
145
0.0
146
1.0
147
0.4
 71
     0
 72
     0
 73
     0
 74
     0
 75
     0
 76
     0
 77
     1
 78
     8
170
     0
171
     2
172
     1
173
     1
174
     0
175
     0
176
     1
177
     1
178
     2
  0
DIMSTYLE
  2
BYGG-019652$0$ME10_DIM_25
 70
     0
  3

  4

  5

  6

  7

 40
1.0
 41
0.7
 42
0.0
 43
0.38
 44
0.4
 45
0.0
 46
0.0
 47
0.0
 48
0.0
140
0.7
141
0.09
142
0.0
143
25.399999999999999
144
1.0
145
0.0
146
1.0
147
0.4
 71
     0
 72
     0
 73
     0
 74
     0
 75
     0
 76
     0
 77
     1
 78
     8
170
     0
171
     2
172
     1
173
     1
174
     0
175
     0
176
     1
177
     1
178
     2
  0
DIMSTYLE
  2
BYGG-019652$0$ME10_DIM_26
 70
     0
  3

  4

  5

  6

  7

 40
1.0
 41
0.7
 42
0.0
 43
0.38
 44
0.4
 45
0.0
 46
0.0
 47
0.0
 48
0.0
140
0.7
141
0.09
142
0.0
143
25.399999999999999
144
1.0
145
0.0
146
1.0
147
0.4
 71
     0
 72
     0
 73
     0
 74
     0
 75
     0
 76
     0
 77
     1
 78
     8
170
     0
171
     2
172
     1
173
     1
174
     0
175
     0
176
     1
177
     1
178
     2
  0
DIMSTYLE
  2
BYGG-019652$0$ME10_DIM_27
 70
     0
  3

  4

  5

  6

  7

 40
1.0
 41
0.7
 42
0.0
 43
0.38
 44
0.4
 45
0.0
 46
0.0
 47
0.0
 48
0.0
140
0.7
141
0.09
142
0.0
143
25.399999999999999
144
1.0
145
0.0
146
1.0
147
0.4
 71
     0
 72
     0
 73
     0
 74
     0
 75
     0
 76
     0
 77
     1
 78
     8
170
     0
171
     2
172
     1
173
     1
174
     0
175
     0
176
     1
177
     1
178
     2
  0
DIMSTYLE
  2
BYGG-019652$0$ME10_DIM_28
 70
     0
  3

  4

  5

  6

  7

 40
1.0
 41
0.7
 42
0.0
 43
0.38
 44
0.4
 45
0.0
 46
0.0
 47
0.0
 48
0.0
140
0.7
141
0.09
142
0.0
143
25.399999999999999
144
1.0
145
0.0
146
1.0
147
0.4
 71
     0
 72
     0
 73
     0
 74
     0
 75
     0
 76
     0
 77
     1
 78
     8
170
     0
171
     2
172
     1
173
     1
174
     0
175
     0
176
     1
177
     1
178
     2
  0
DIMSTYLE
  2
BYGG-019652$0$ME10_DIM_29
 70
     0
  3

  4

  5

  6

  7

 40
1.0
 41
0.7
 42
0.0
 43
0.38
 44
0.4
 45
0.0
 46
0.0
 47
0.0
 48
0.0
140
0.7
141
0.09
142
0.0
143
25.399999999999999
144
1.0
145
0.0
146
1.0
147
0.4
 71
     0
 72
     0
 73
     0
 74
     0
 75
     0
 76
     0
 77
     1
 78
     8
170
     0
171
     2
172
     1
173
     1
174
     0
175
     0
176
     1
177
     1
178
     2
  0
DIMSTYLE
  2
BYGG-019705$0$STANDARD
 70
     0
  3

  4

  5

  6

  7

 40
1.0
 41
0.18
 42
0.0625
 43
0.38
 44
0.18
 45
0.0
 46
0.0
 47
0.0
 48
0.0
140
0.18
141
0.09
142
0.0
143
25.399999999999999
144
1.0
145
0.0
146
1.0
147
0.09
 71
     0
 72
     0
 73
     1
 74
     1
 75
     0
 76
     0
 77
     0
 78
     0
170
     0
171
     2
172
     0
173
     0
174
     0
175
     0
176
     0
177
     0
178
     0
  0
DIMSTYLE
  2
BYGG-019705$0$MASKIN
 70
     0
  3

  4

  5

  6

  7

 40
0.0
 41
3.0
 42
1.5
 43
10.0
 44
1.5
 45
0.0
 46
0.0
 47
0.0
 48
0.0
140
3.0
141
-5.0
142
0.0
143
25.399999999999999
144
-1.0
145
0.0
146
1.0
147
1.0
 71
     0
 72
     0
 73
     0
 74
     0
 75
     0
 76
     0
 77
     1
 78
     8
170
     0
171
     0
172
     1
173
     0
174
     0
175
     0
176
   256
177
   256
178
     2
  0
DIMSTYLE
  2
BYGG-022089$0$STANDARD
 70
     0
  3

  4

  5

  6

  7

 40
1.0
 41
0.18
 42
0.0625
 43
0.38
 44
0.18
 45
0.0
 46
0.0
 47
0.0
 48
0.0
140
0.18
141
0.09
142
0.0
143
25.399999999999999
144
1.0
145
0.0
146
1.0
147
0.09
 71
     0
 72
     0
 73
     1
 74
     1
 75
     0
 76
     0
 77
     0
 78
     0
170
     0
171
     2
172
     0
173
     0
174
     0
175
     0
176
     0
177
     0
178
     0
  0
DIMSTYLE
  2
BYGG-022089$0$MASKIN
 70
     0
  3

  4

  5

  6

  7

 40
0.0
 41
3.0
 42
1.5
 43
10.0
 44
1.5
 45
0.0
 46
0.0
 47
0.0
 48
0.0
140
3.0
141
-5.0
142
0.0
143
25.399999999999999
144
-1.0
145
0.0
146
1.0
147
1.0
 71
     0
 72
     0
 73
     0
 74
     0
 75
     0
 76
     0
 77
     1
 78
     8
170
     0
171
     0
172
     1
173
     0
174
     0
175
     0
176
   256
177
   256
178
     2
  0
DIMSTYLE
  2
BYGG-022089$0$ANNOTATIVE
 70
     0
  3

  4

  5

  6

  7

 40
1.0
 41
0.18
 42
0.0625
 43
0.38
 44
0.18
 45
0.0
 46
0.0
 47
0.0
 48
0.0
140
0.18
141
0.09
142
0.0
143
25.399999999999999
144
1.0
145
0.0
146
1.0
147
0.09
 71
     0
 72
     0
 73
     1
 74
     1
 75
     0
 76
     0
 77
     0
 78
     0
170
     0
171
     2
172
     0
173
     0
174
     0
175
     0
176
     0
177
     0
178
     0
  0
DIMSTYLE
  2
BYGG-018731$0$STANDARD
 70
     0
  3

  4

  5

  6

  7

 40
1.0
 41
0.18
 42
0.0625
 43
0.38
 44
0.18
 45
0.0
 46
0.0
 47
0.0
 48
0.0
140
0.18
141
0.09
142
0.0
143
25.399999999999999
144
1.0
145
0.0
146
1.0
147
0.09
 71
     0
 72
     0
 73
     1
 74
     1
 75
     0
 76
     0
 77
     0
 78
     0
170
     0
171
     2
172
     0
173
     0
174
     0
175
     0
176
     0
177
     0
178
     0
  0
DIMSTYLE
  2
BYGG-018731$0$MASKIN
 70
     0
  3

  4

  5

  6

  7

 40
0.0
 41
3.0
 42
1.5
 43
10.0
 44
1.5
 45
0.0
 46
0.0
 47
0.0
 48
0.0
140
3.0
141
-5.0
142
0.0
143
25.399999999999999
144
-1.0
145
0.0
146
1.0
147
1.0
 71
     0
 72
     0
 73
     0
 74
     0
 75
     0
 76
     0
 77
     1
 78
     8
170
     0
171
     0
172
     1
173
     0
174
     0
175
     0
176
   256
177
   256
178
     2
  0
DIMSTYLE
  2
BYGG-029261$0$STANDARD
 70
     0
  3

  4

  5

  6

  7

 40
1.0
 41
0.18
 42
0.0625
 43
0.38
 44
0.18
 45
0.0
 46
0.0
 47
0.0
 48
0.0
140
0.18
141
0.09
142
0.0
143
25.399999999999999
144
1.0
145
0.0
146
1.0
147
0.09
 71
     0
 72
     0
 73
     1
 74
     1
 75
     0
 76
     0
 77
     0
 78
     0
170
     0
171
     2
172
     0
173
     0
174
     0
175
     0
176
     0
177
     0
178
     0
  0
DIMSTYLE
  2
BYGG-029261$0$MASKIN
 70
     0
  3

  4

  5

  6

  7

 40
0.0
 41
3.0
 42
1.5
 43
10.0
 44
1.5
 45
0.0
 46
0.0
 47
0.0
 48
0.0
140
3.0
141
-5.0
142
0.0
143
25.399999999999999
144
-1.0
145
0.0
146
1.0
147
1.0
 71
     0
 72
     0
 73
     0
 74
     0
 75
     0
 76
     0
 77
     1
 78
     8
170
     0
171
     0
172
     1
173
     0
174
     0
175
     0
176
   256
177
   256
178
     2
  0
DIMSTYLE
  2
BYGG-029261$0$ISO-25
 70
     0
  3

  4

  5

  6

  7

 40
1.0
 41
2.5
 42
0.625
 43
3.75
 44
1.25
 45
0.0
 46
0.0
 47
0.0
 48
0.0
140
2.5
141
2.5
142
0.0
143
0.03937007874016
144
1.0
145
0.0
146
1.0
147
0.625
 71
     0
 72
     0
 73
     0
 74
     0
 75
     0
 76
     0
 77
     1
 78
     8
170
     0
171
     3
172
     1
173
     0
174
     0
175
     0
176
     0
177
     0
178
     0
  0
ENDTAB
  0
ENDSEC
  0
SECTION
  2
BLOCKS
  0
BLOCK
  8
0
  2
$MODEL_SPACE
 70
     0
 10
0.0
 20
0.0
 30
0.0
  3
$MODEL_SPACE
  1

  0
ENDBLK
  5
37
  8
0
  0
BLOCK
 67
     1
  8
0
  2
$PAPER_SPACE
 70
     0
 10
0.0
 20
0.0
 30
0.0
  3
$PAPER_SPACE
  1

  0
ENDBLK
  5
35
 67
     1
  8
0
  0
BLOCK
  8
0
  2
*X9
 70
     1
 10
0.0
 20
0.0
 30
0.0
  3
*X9
  1

  0
LINE
  5
DFA
  8
0
 62
     0
 10
652.5
 20
643.02386247000004
 30
0.0
 11
653.43749999999989
 21
643.02386247000004
 31
0.0
  0
LINE
  5
DFB
  8
0
 62
     0
 10
655.3125
 20
643.02386247000004
 30
0.0
 11
656.25
 21
643.02386247000004
 31
0.0
  0
LINE
  5
DFC
  8
0
 62
     0
 10
658.12499999999989
 20
643.02386247000004
 30
0.0
 11
659.0625
 21
643.02386247000004
 31
0.0
  0
LINE
  5
DFD
  8
0
 62
     0
 10
660.9375
 20
643.02386247000004
 30
0.0
 11
661.875
 21
643.02386247000004
 31
0.0
  0
LINE
  5
DFE
  8
0
 62
     0
 10
663.75
 20
643.02386247000004
 30
0.0
 11
664.6875
 21
643.02386247000004
 31
0.0
  0
LINE
  5
DFF
  8
0
 62
     0
 10
652.5
 20
644.64766010250003
 30
0.0
 11
653.43749999999989
 21
644.64766010250003
 31
0.0
  0
LINE
  5
E00
  8
0
 62
     0
 10
655.3125
 20
644.64766010250003
 30
0.0
 11
656.25
 21
644.64766010250003
 31
0.0
  0
LINE
  5
E01
  8
0
 62
     0
 10
658.12499999999989
 20
644.64766010250003
 30
0.0
 11
659.0625
 21
644.64766010250003
 31
0.0
  0
LINE
  5
E02
  8
0
 62
     0
 10
660.9375
 20
644.64766010250003
 30
0.0
 11
661.875
 21
644.64766010250003
 31
0.0
  0
LINE
  5
E03
  8
0
 62
     0
 10
663.75
 20
644.64766010250003
 30
0.0
 11
664.6875
 21
644.64766010250003
 31
0.0
  0
LINE
  5
E04
  8
0
 62
     0
 10
652.5
 20
646.2714577349999
 30
0.0
 11
653.43749999999989
 21
646.2714577349999
 31
0.0
  0
LINE
  5
E05
  8
0
 62
     0
 10
655.3125
 20
646.2714577349999
 30
0.0
 11
656.25
 21
646.2714577349999
 31
0.0
  0
LINE
  5
E06
  8
0
 62
     0
 10
658.12499999999989
 20
646.2714577349999
 30
0.0
 11
659.0625
 21
646.2714577349999
 31
0.0
  0
LINE
  5
E07
  8
0
 62
     0
 10
660.9375
 20
646.2714577349999
 30
0.0
 11
661.875
 21
646.2714577349999
 31
0.0
  0
LINE
  5
E08
  8
0
 62
     0
 10
663.75
 20
646.2714577349999
 30
0.0
 11
664.67805486722375
 21
646.2714577349999
 31
0.0
  0
LINE
  5
E09
  8
0
 62
     0
 10
652.5
 20
647.8952553675
 30
0.0
 11
653.43749999999989
 21
647.8952553675
 31
0.0
  0
LINE
  5
E0A
  8
0
 62
     0
 10
655.3125
 20
647.8952553675
 30
0.0
 11
656.25
 21
647.8952553675
 31
0.0
  0
LINE
  5
E0B
  8
0
 62
     0
 10
658.12499999999989
 20
647.8952553675
 30
0.0
 11
659.0625
 21
647.8952553675
 31
0.0
  0
LINE
  5
E0C
  8
0
 62
     0
 10
660.9375
 20
647.8952553675
 30
0.0
 11
661.875
 21
647.8952553675
 31
0.0
  0
LINE
  5
E0D
  8
0
 62
     0
 10
663.75
 20
647.8952553675
 30
0.0
 11
664.19384133892459
 21
647.8952553675
 31
0.0
  0
LINE
  5
E0E
  8
0
 62
     0
 10
652.5
 20
649.51905299999999
 30
0.0
 11
653.43749999999989
 21
649.51905299999999
 31
0.0
  0
LINE
  5
E0F
  8
0
 62
     0
 10
655.3125
 20
649.51905299999999
 30
0.0
 11
656.25
 21
649.51905299999999
 31
0.0
  0
LINE
  5
E10
  8
0
 62
     0
 10
658.12499999999989
 20
649.51905299999999
 30
0.0
 11
659.0625
 21
649.51905299999999
 31
0.0
  0
LINE
  5
E11
  8
0
 62
     0
 10
660.9375
 20
649.51905299999999
 30
0.0
 11
661.875
 21
649.51905299999999
 31
0.0
  0
LINE
  5
E12
  8
0
 62
     0
 10
655.3125
 20
651.14285063250009
 30
0.0
 11
656.25
 21
651.14285063250009
 31
0.0
  0
LINE
  5
E13
  8
0
 62
     0
 10
658.12499999999989
 20
651.14285063250009
 30
0.0
 11
659.0625
 21
651.14285063250009
 31
0.0
  0
LINE
  5
E14
  8
0
 62
     0
 10
660.9375
 20
651.14285063250009
 30
0.0
 11
661.87200755723472
 21
651.14285063250009
 31
0.0
  0
LINE
  5
E15
  8
0
 62
     0
 10
652.5
 20
641.40006483750005
 30
0.0
 11
653.43749999999989
 21
641.40006483750005
 31
0.0
  0
LINE
  5
E16
  8
0
 62
     0
 10
655.3125
 20
641.40006483750005
 30
0.0
 11
656.25
 21
641.40006483750005
 31
0.0
  0
LINE
  5
E17
  8
0
 62
     0
 10
658.12499999999989
 20
641.40006483750005
 30
0.0
 11
659.0625
 21
641.40006483750005
 31
0.0
  0
LINE
  5
E18
  8
0
 62
     0
 10
660.9375
 20
641.40006483750005
 30
0.0
 11
661.875
 21
641.40006483750005
 31
0.0
  0
LINE
  5
E19
  8
0
 62
     0
 10
663.75
 20
641.40006483750005
 30
0.0
 11
664.21401629789841
 21
641.40006483750005
 31
0.0
  0
LINE
  5
E1A
  8
0
 62
     0
 10
652.5
 20
639.77626720499995
 30
0.0
 11
653.43749999999989
 21
639.77626720499995
 31
0.0
  0
LINE
  5
E1B
  8
0
 62
     0
 10
655.3125
 20
639.77626720499995
 30
0.0
 11
656.25
 21
639.77626720499995
 31
0.0
  0
LINE
  5
E1C
  8
0
 62
     0
 10
658.12499999999989
 20
639.77626720499995
 30
0.0
 11
659.0625
 21
639.77626720499995
 31
0.0
  0
LINE
  5
E1D
  8
0
 62
     0
 10
660.9375
 20
639.77626720499995
 30
0.0
 11
661.875
 21
639.77626720499995
 31
0.0
  0
LINE
  5
E1E
  8
0
 62
     0
 10
655.3125
 20
638.15246957249997
 30
0.0
 11
656.25
 21
638.15246957249997
 31
0.0
  0
LINE
  5
E1F
  8
0
 62
     0
 10
658.12499999999989
 20
638.15246957249997
 30
0.0
 11
659.0625
 21
638.15246957249997
 31
0.0
  0
LINE
  5
E20
  8
0
 62
     0
 10
660.9375
 20
638.15246957249997
 30
0.0
 11
661.875
 21
638.15246957249997
 31
0.0
  0
LINE
  5
E21
  8
0
 62
     0
 10
660.93750019216554
 20
638.15246952460484
 30
0.0
 11
660.46875019216554
 21
638.96436834065275
 31
0.0
  0
LINE
  5
E22
  8
0
 62
     0
 10
659.53125019216554
 20
640.58816597274847
 30
0.0
 11
659.06250019216554
 21
641.4000647887965
 31
0.0
  0
LINE
  5
E23
  8
0
 62
     0
 10
658.12500019216554
 20
643.02386242089233
 30
0.0
 11
657.65625019216554
 21
643.83576123694024
 31
0.0
  0
LINE
  5
E24
  8
0
 62
     0
 10
656.71875019216554
 20
645.45955886903596
 30
0.0
 11
656.25000019216554
 21
646.27145768508399
 31
0.0
  0
LINE
  5
E25
  8
0
 62
     0
 10
655.31250019216554
 20
647.89525531717982
 30
0.0
 11
654.84375019216554
 21
648.70715413322773
 31
0.0
  0
LINE
  5
E26
  8
0
 62
     0
 10
653.90625019216554
 20
650.33095176532345
 30
0.0
 11
653.51494448795324
 21
651.00871312631091
 31
0.0
  0
LINE
  5
E27
  8
0
 62
     0
 10
659.53125019181539
 20
637.34057070835479
 30
0.0
 11
659.0625001918155
 21
638.1524695244027
 31
0.0
  0
LINE
  5
E28
  8
0
 62
     0
 10
658.1250001918155
 20
639.77626715649853
 30
0.0
 11
657.6562501918155
 21
640.58816597254645
 31
0.0
  0
LINE
  5
E29
  8
0
 62
     0
 10
656.7187501918155
 20
642.21196360464216
 30
0.0
 11
656.2500001918155
 21
643.02386242069019
 31
0.0
  0
LINE
  5
E2A
  8
0
 62
     0
 10
655.3125001918155
 20
644.64766005278591
 30
0.0
 11
654.84375019181539
 21
645.45955886883394
 31
0.0
  0
LINE
  5
E2B
  8
0
 62
     0
 10
653.9062501918155
 20
647.08335650092965
 30
0.0
 11
653.4375001918155
 21
647.89525531697768
 31
0.0
  0
LINE
  5
E2C
  8
0
 62
     0
 10
652.50000019181539
 20
649.5190529490734
 30
0.0
 11
652.37394461146403
 21
649.73738761881975
 31
0.0
  0
LINE
  5
E2D
  8
0
 62
     0
 10
658.00591026387121
 20
636.73494169736773
 30
0.0
 11
657.65625019146535
 21
637.34057070815265
 31
0.0
  0
LINE
  5
E2E
  8
0
 62
     0
 10
656.71875019146535
 20
638.9643683402486
 30
0.0
 11
656.25000019146546
 21
639.77626715629651
 31
0.0
  0
LINE
  5
E2F
  8
0
 62
     0
 10
655.31250019146535
 20
641.40006478839234
 30
0.0
 11
654.84375019146535
 21
642.21196360444014
 31
0.0
  0
LINE
  5
E30
  8
0
 62
     0
 10
653.90625019146546
 20
643.83576123653597
 30
0.0
 11
653.43750019146535
 21
644.647660052584
 31
0.0
  0
LINE
  5
E31
  8
0
 62
     0
 10
652.50000019146535
 20
646.27145768467983
 30
0.0
 11
652.03125019146535
 21
647.08335650072775
 31
0.0
  0
LINE
  5
E32
  8
0
 62
     0
 10
655.3125001911153
 20
638.15246952399855
 30
0.0
 11
654.8437501911153
 21
638.96436834004635
 31
0.0
  0
LINE
  5
E33
  8
0
 62
     0
 10
653.9062501911153
 20
640.58816597214229
 30
0.0
 11
653.43750019111519
 21
641.40006478819021
 31
0.0
  0
LINE
  5
E34
  8
0
 62
     0
 10
652.5000001911153
 20
643.02386242028604
 30
0.0
 11
652.0312501911153
 21
643.83576123633395
 31
0.0
  0
LINE
  5
E35
  8
0
 62
     0
 10
651.09375019111519
 20
645.45955886842978
 30
0.0
 11
650.80423117281941
 21
645.96102051787568
 31
0.0
  0
LINE
  5
E36
  8
0
 62
     0
 10
652.50000019076526
 20
639.77626715589236
 30
0.0
 11
652.03125019076526
 21
640.58816597194016
 31
0.0
  0
LINE
  5
E37
  8
0
 62
     0
 10
651.09375019076538
 20
642.2119636040361
 30
0.0
 11
650.99485068706429
 21
642.38326256928951
 31
0.0
  0
LINE
  5
E38
  8
0
 62
     0
 10
662.34375019251547
 20
638.96436834085478
 30
0.0
 11
661.87500019251559
 21
639.7762671569028
 31
0.0
  0
LINE
  5
E39
  8
0
 62
     0
 10
660.93750019251559
 20
641.40006478899863
 30
0.0
 11
660.46875019251547
 21
642.21196360504655
 31
0.0
  0
LINE
  5
E3A
  8
0
 62
     0
 10
659.53125019251559
 20
643.83576123714226
 30
0.0
 11
659.06250019251559
 21
644.64766005319018
 31
0.0
  0
LINE
  5
E3B
  8
0
 62
     0
 10
658.12500019251547
 20
646.27145768528612
 30
0.0
 11
657.65625019251547
 21
647.08335650133404
 31
0.0
  0
LINE
  5
E3C
  8
0
 62
     0
 10
656.71875019251559
 20
648.70715413342975
 30
0.0
 11
656.25000019251559
 21
649.51905294947767
 31
0.0
  0
LINE
  5
E3D
  8
0
 62
     0
 10
655.31250019251547
 20
651.14285058157361
 30
0.0
 11
654.98947507134699
 21
651.7023465035586
 31
0.0
  0
LINE
  5
E3E
  8
0
 62
     0
 10
663.56178133362096
 20
640.10227178425896
 30
0.0
 11
663.28125019286563
 21
640.58816597315274
 31
0.0
  0
LINE
  5
E3F
  8
0
 62
     0
 10
662.34375019286551
 20
642.21196360524846
 30
0.0
 11
661.87500019286563
 21
643.02386242129637
 31
0.0
  0
LINE
  5
E40
  8
0
 62
     0
 10
660.93750019286563
 20
644.64766005339231
 30
0.0
 11
660.46875019286563
 21
645.45955886944023
 31
0.0
  0
LINE
  5
E41
  8
0
 62
     0
 10
659.53125019286563
 20
647.08335650153595
 30
0.0
 11
659.06250019286563
 21
647.89525531758386
 31
0.0
  0
LINE
  5
E42
  8
0
 62
     0
 10
658.12500019286563
 20
649.5190529496798
 30
0.0
 11
657.65625019286551
 21
650.33095176572772
 31
0.0
  0
LINE
  5
E43
  8
0
 62
     0
 10
663.75000019321556
 20
643.02386242149862
 30
0.0
 11
663.28125019321556
 21
643.83576123754654
 31
0.0
  0
LINE
  5
E44
  8
0
 62
     0
 10
662.34375019321556
 20
645.45955886964225
 30
0.0
 11
661.87500019321556
 21
646.27145768569017
 31
0.0
  0
LINE
  5
E45
  8
0
 62
     0
 10
660.93750019321556
 20
647.89525531778611
 30
0.0
 11
660.46875019321556
 21
648.70715413383402
 31
0.0
  0
LINE
  5
E46
  8
0
 62
     0
 10
659.53125019321556
 20
650.33095176592985
 30
0.0
 11
659.06250019321556
 21
651.14285058197765
 31
0.0
  0
LINE
  5
E47
  8
0
 62
     0
 10
664.83358285314341
 20
644.39463746530294
 30
0.0
 11
664.68750019356548
 21
644.64766005379636
 31
0.0
  0
LINE
  5
E48
  8
0
 62
     0
 10
663.7500001935656
 20
646.2714576858923
 30
0.0
 11
663.2812501935656
 21
647.08335650194022
 31
0.0
  0
LINE
  5
E49
  8
0
 62
     0
 10
662.34375019356548
 20
648.70715413403605
 30
0.0
 11
661.8750001935656
 21
649.51905295008385
 31
0.0
  0
LINE
  5
E4A
  8
0
 62
     0
 10
660.9375001935656
 20
651.14285058217979
 30
0.0
 11
660.61464782451731
 21
651.70204728871533
 31
0.0
  0
LINE
  5
E4B
  8
0
 62
     0
 10
653.43750005285438
 20
639.77626701523855
 30
0.0
 11
653.90625005285438
 21
640.58816583128635
 31
0.0
  0
LINE
  5
E4C
  8
0
 62
     0
 10
654.84375005285426
 20
642.21196346338229
 30
0.0
 11
655.31250005285426
 21
643.0238622794302
 31
0.0
  0
LINE
  5
E4D
  8
0
 62
     0
 10
656.25000005285438
 20
644.64765991152603
 30
0.0
 11
656.71875005285426
 21
645.45955872757395
 31
0.0
  0
LINE
  5
E4E
  8
0
 62
     0
 10
657.65625005285426
 20
647.08335635966978
 30
0.0
 11
658.12500005285438
 21
647.89525517571769
 31
0.0
  0
LINE
  5
E4F
  8
0
 62
     0
 10
659.06250005285426
 20
649.51905280781352
 30
0.0
 11
659.53125005285426
 21
650.33095162386144
 31
0.0
  0
LINE
  5
E50
  8
0
 62
     0
 10
652.03125005250433
 20
640.5881658314886
 30
0.0
 11
652.50000005250433
 21
641.40006464753651
 31
0.0
  0
LINE
  5
E51
  8
0
 62
     0
 10
653.43750005250433
 20
643.02386227963234
 30
0.0
 11
653.90625005250433
 21
643.83576109568025
 31
0.0
  0
LINE
  5
E52
  8
0
 62
     0
 10
654.84375005250433
 20
645.45955872777597
 30
0.0
 11
655.31250005250433
 21
646.271457543824
 31
0.0
  0
LINE
  5
E53
  8
0
 62
     0
 10
656.25000005250433
 20
647.89525517591983
 30
0.0
 11
656.71875005250433
 21
648.70715399196774
 31
0.0
  0
LINE
  5
E54
  8
0
 62
     0
 10
657.65625005250433
 20
650.33095162406346
 30
0.0
 11
658.12500005250433
 21
651.14285044011149
 31
0.0
  0
LINE
  5
E55
  8
0
 62
     0
 10
651.05988341627722
 20
642.15330472976609
 30
0.0
 11
651.09375005215418
 21
642.21196346378656
 31
0.0
  0
LINE
  5
E56
  8
0
 62
     0
 10
652.03125005215418
 20
643.83576109588228
 30
0.0
 11
652.50000005215429
 21
644.6476599119303
 31
0.0
  0
LINE
  5
E57
  8
0
 62
     0
 10
653.43750005215418
 20
646.27145754402613
 30
0.0
 11
653.90625005215418
 21
647.08335636007405
 31
0.0
  0
LINE
  5
E58
  8
0
 62
     0
 10
654.84375005215429
 20
648.70715399216976
 30
0.0
 11
655.31250005215429
 21
649.51905280821779
 31
0.0
  0
LINE
  5
E59
  8
0
 62
     0
 10
656.25000005215418
 20
651.14285044031362
 30
0.0
 11
656.57297662478243
 21
651.70226227375997
 31
0.0
  0
LINE
  5
E5A
  8
0
 62
     0
 10
650.70149549931818
 20
644.78015391377414
 30
0.0
 11
651.09375005180425
 21
645.45955872818024
 31
0.0
  0
LINE
  5
E5B
  8
0
 62
     0
 10
652.03125005180425
 20
647.08335636027596
 30
0.0
 11
652.50000005180425
 21
647.89525517632399
 31
0.0
  0
LINE
  5
E5C
  8
0
 62
     0
 10
653.43750005180425
 20
649.51905280841981
 30
0.0
 11
653.90625005180425
 21
650.33095162446773
 31
0.0
  0
LINE
  5
E5D
  8
0
 62
     0
 10
654.84375005320442
 20
638.96436819898861
 30
0.0
 11
655.31250005320442
 21
639.77626701503652
 31
0.0
  0
LINE
  5
E5E
  8
0
 62
     0
 10
656.25000005320442
 20
641.40006464713235
 30
0.0
 11
656.7187500532043
 21
642.21196346318015
 31
0.0
  0
LINE
  5
E5F
  8
0
 62
     0
 10
657.65625005320442
 20
643.8357610952761
 30
0.0
 11
658.12500005320442
 21
644.64765991132401
 31
0.0
  0
LINE
  5
E60
  8
0
 62
     0
 10
659.0625000532043
 20
646.27145754341984
 30
0.0
 11
659.53125005320442
 21
647.08335635946764
 31
0.0
  0
LINE
  5
E61
  8
0
 62
     0
 10
660.46875005320442
 20
648.70715399156359
 30
0.0
 11
660.93750005320442
 21
649.5190528076115
 31
0.0
  0
LINE
  5
E62
  8
0
 62
     0
 10
656.25000005355434
 20
638.15246938273845
 30
0.0
 11
656.71875005355434
 21
638.96436819878636
 31
0.0
  0
LINE
  5
E63
  8
0
 62
     0
 10
657.65625005355434
 20
640.5881658308823
 30
0.0
 11
658.12500005355434
 21
641.40006464693022
 31
0.0
  0
LINE
  5
E64
  8
0
 62
     0
 10
659.06250005355434
 20
643.02386227902605
 30
0.0
 11
659.53125005355434
 21
643.83576109507385
 31
0.0
  0
LINE
  5
E65
  8
0
 62
     0
 10
660.46875005355434
 20
645.45955872716979
 30
0.0
 11
660.93750005355434
 21
646.27145754321771
 31
0.0
  0
LINE
  5
E66
  8
0
 62
     0
 10
661.87500005355434
 20
647.89525517531354
 30
0.0
 11
662.34375005355434
 21
648.70715399136145
 31
0.0
  0
LINE
  5
E67
  8
0
 62
     0
 10
657.65625005390439
 20
637.34057056648851
 30
0.0
 11
658.12500005390439
 21
638.15246938253642
 31
0.0
  0
LINE
  5
E68
  8
0
 62
     0
 10
659.06250005390427
 20
639.77626701463225
 30
0.0
 11
659.53125005390427
 21
640.58816583068005
 31
0.0
  0
LINE
  5
E69
  8
0
 62
     0
 10
660.46875005390439
 20
642.211963462776
 30
0.0
 11
660.93750005390439
 21
643.0238622788238
 31
0.0
  0
LINE
  5
E6A
  8
0
 62
     0
 10
661.87500005390427
 20
644.64765991091974
 30
0.0
 11
662.34375005390439
 21
645.45955872696754
 31
0.0
  0
LINE
  5
E6B
  8
0
 62
     0
 10
663.28125005390439
 20
647.08335635906349
 30
0.0
 11
663.75000005390427
 21
647.89525517511129
 31
0.0
  0
LINE
  5
E6C
  8
0
 62
     0
 10
659.18159006375561
 20
636.73494169736853
 30
0.0
 11
659.53125005425443
 21
637.34057056628649
 31
0.0
  0
LINE
  5
E6D
  8
0
 62
     0
 10
660.46875005425443
 20
638.96436819838232
 30
0.0
 11
660.93750005425443
 21
639.77626701443023
 31
0.0
  0
LINE
  5
E6E
  8
0
 62
     0
 10
661.87500005425443
 20
641.40006464652595
 30
0.0
 11
662.34375005425443
 21
642.21196346257386
 31
0.0
  0
LINE
  5
E6F
  8
0
 62
     0
 10
663.28125005425443
 20
643.83576109466981
 30
0.0
 11
663.75000005425443
 21
644.64765991071772
 31
0.0
  0
LINE
  5
E70
  8
0
 62
     0
 10
661.87500005460436
 20
638.15246938213215
 30
0.0
 11
662.34375005460436
 21
638.96436819818018
 31
0.0
  0
LINE
  5
E71
  8
0
 62
     0
 10
663.28125005460436
 20
640.58816583027601
 30
0.0
 11
663.75000005460447
 21
641.40006464632393
 31
0.0
  0
LINE
  5
E72
  8
0
 62
     0
 10
664.68750005460436
 20
643.02386227841976
 30
0.0
 11
664.68760953831224
 21
643.02405190976435
 31
0.0
  0
ENDBLK
  5
E73
  8
0
  0
BLOCK
  8
0
  2
*X10
 70
     1
 10
0.0
 20
0.0
 30
0.0
  3
*X10
  1

  0
LINE
  5
E76
  8
0
 62
     0
 10
664.09178699241295
 20
641.11081660385003
 30
0.0
 11
674.71335800871032
 21
651.73238762014739
 31
0.0
  0
LINE
  5
E77
  8
0
 62
     0
 10
664.77077248925355
 20
643.55756905365706
 30
0.0
 11
672.94162144396012
 21
651.72841800836363
 31
0.0
  0
LINE
  5
E78
  8
0
 62
     0
 10
664.80514764081295
 20
645.35971115818279
 30
0.0
 11
671.1698848792098
 21
651.72444839657965
 31
0.0
  0
LINE
  5
E79
  8
0
 62
     0
 10
664.54135172436111
 20
646.86368219469728
 30
0.0
 11
669.39814831445983
 21
651.72047878479589
 31
0.0
  0
LINE
  5
E7A
  8
0
 62
     0
 10
664.07721491841846
 20
648.16731234172096
 30
0.0
 11
667.62641174970963
 21
651.71650917301224
 31
0.0
  0
LINE
  5
E7B
  8
0
 62
     0
 10
663.45507075806029
 20
649.31293513432934
 30
0.0
 11
665.85467518495955
 21
651.71253956122848
 31
0.0
  0
LINE
  5
E7C
  8
0
 62
     0
 10
662.69527746216227
 20
650.32090879139764
 30
0.0
 11
664.08293862020935
 21
651.70856994944461
 31
0.0
  0
LINE
  5
E7D
  8
0
 62
     0
 10
661.80624212129135
 20
651.19964040349305
 30
0.0
 11
662.31120205545915
 21
651.70460033766085
 31
0.0
  0
LINE
  5
E7E
  8
0
 62
     0
 10
661.48367903889755
 20
636.7349416973683
 30
0.0
 11
674.96855701858385
 21
650.21981967705472
 31
0.0
  0
LINE
  5
E7F
  8
0
 62
     0
 10
663.25144599186308
 20
636.7349416973675
 30
0.0
 11
673.99871814906226
 21
647.48221385456657
 31
0.0
  0
LINE
  5
E80
  8
0
 62
     0
 10
665.01921294482895
 20
636.73494169736693
 30
0.0
 11
673.71020570551673
 21
645.42593445805471
 31
0.0
  0
LINE
  5
E81
  8
0
 62
     0
 10
666.78697989779459
 20
636.73494169736625
 30
0.0
 11
673.73571980871316
 21
643.68368160828493
 31
0.0
  0
LINE
  5
E82
  8
0
 62
     0
 10
668.55474685076024
 20
636.73494169736546
 30
0.0
 11
673.9646008262381
 21
642.14479567284332
 31
0.0
  0
LINE
  5
E83
  8
0
 62
     0
 10
670.32251380372577
 20
636.73494169736466
 30
0.0
 11
674.34587723605989
 21
640.75830512969878
 31
0.0
  0
LINE
  5
E84
  8
0
 62
     0
 10
672.09028075669164
 20
636.73494169736409
 30
0.0
 11
674.85162751525343
 21
639.49628845592599
 31
0.0
  0
LINE
  5
E85
  8
0
 62
     0
 10
673.85804770965717
 20
636.73494169736341
 30
0.0
 11
675.46525045857607
 21
638.3421444462823
 31
0.0
  0
LINE
  5
E86
  8
0
 62
     0
 10
675.62581466262293
 20
636.73494169736273
 30
0.0
 11
676.17667142569439
 21
637.28579846043431
 31
0.0
  0
LINE
  5
E87
  8
0
 62
     0
 10
674.94813740368249
 20
636.73494169736296
 30
0.0
 11
664.42571164845106
 21
647.25736745259451
 31
0.0
  0
LINE
  5
E88
  8
0
 62
     0
 10
673.18037045071549
 20
636.73494169736375
 30
0.0
 11
664.82388750735845
 21
645.0914246407209
 31
0.0
  0
LINE
  5
E89
  8
0
 62
     0
 10
671.41260349774848
 20
636.73494169736443
 30
0.0
 11
664.74947775175656
 21
643.39806744335624
 31
0.0
  0
LINE
  5
E8A
  8
0
 62
     0
 10
669.64483654478136
 20
636.73494169736512
 30
0.0
 11
664.417425608092
 21
641.96235263405447
 31
0.0
  0
LINE
  5
E8B
  8
0
 62
     0
 10
667.87706959181435
 20
636.7349416973658
 30
0.0
 11
663.90155215498339
 21
640.71045913419675
 31
0.0
  0
LINE
  5
E8C
  8
0
 62
     0
 10
666.10930263884734
 20
636.73494169736648
 30
0.0
 11
663.23559263250309
 21
639.60865170371073
 31
0.0
  0
LINE
  5
E8D
  8
0
 62
     0
 10
664.34153568588022
 20
636.73494169736705
 30
0.0
 11
662.43561015776459
 21
638.64086722548279
 31
0.0
  0
LINE
  5
E8E
  8
0
 62
     0
 10
662.57376873291321
 20
636.73494169736784
 30
0.0
 11
661.50716293782148
 21
637.80154749245946
 31
0.0
  0
LINE
  5
E8F
  8
0
 62
     0
 10
660.80600177994597
 20
636.73494169736864
 30
0.0
 11
660.44733879488956
 21
637.09360468242505
 31
0.0
  0
LINE
  5
E90
  8
0
 62
     0
 10
676.21241305586818
 20
637.23843299814371
 30
0.0
 11
661.74750868280955
 21
651.70333737120245
 31
0.0
  0
LINE
  5
E91
  8
0
 62
     0
 10
674.28942041755818
 20
640.92919258942015
 30
0.0
 11
663.51132377221882
 21
651.70728923475963
 31
0.0
  0
LINE
  5
E92
  8
0
 62
     0
 10
673.78646674670892
 20
643.19991321323585
 30
0.0
 11
665.27513886162785
 21
651.71124109831692
 31
0.0
  0
LINE
  5
E93
  8
0
 62
     0
 10
673.69521395697404
 20
645.05893295593705
 30
0.0
 11
667.03895395103677
 21
651.71519296187421
 31
0.0
  0
LINE
  5
E94
  8
0
 62
     0
 10
673.84391769434785
 20
646.67799617152957
 30
0.0
 11
668.80276904044604
 21
651.71914482543139
 31
0.0
  0
LINE
  5
E95
  8
0
 62
     0
 10
674.16320206832222
 20
648.12647875052164
 30
0.0
 11
670.56658412985496
 21
651.72309668898868
 31
0.0
  0
LINE
  5
E96
  8
0
 62
     0
 10
674.61728679401642
 20
649.44016097779388
 30
0.0
 11
672.33039921926422
 21
651.72704855254597
 31
0.0
  0
LINE
  5
E97
  8
0
 62
     0
 10
675.1854759545937
 20
650.63973877018293
 30
0.0
 11
674.09421430867326
 21
651.73100041610326
 31
0.0
  0
ENDBLK
  5
E98
  8
0
  0
BLOCK
  8
0
  2
*X80
 70
     1
 10
0.0
 20
0.0
 30
0.0
  3
*X80
  1

  0
LINE
  5
184B
  8
0
 62
     0
 10
-25.365503404480179
 20
-72.480494727145611
 30
0.0
 11
-25.329153658894889
 21
-72.417535120949694
 31
0.0
  0
LINE
  5
184C
  8
0
 62
     0
 10
-25.726028374398769
 20
-70.355312292441852
 30
0.0
 11
-25.329153374398771
 21
-69.667904628187955
 31
0.0
  0
LINE
  5
184D
  8
0
 62
     0
 10
-26.91665337439877
 20
-72.417535285203542
 30
0.0
 11
-26.519778374398769
 21
-71.730127620949645
 31
0.0
  0
LINE
  5
184E
  8
0
 62
     0
 10
-25.726028089902691
 20
-67.605681799680227
 30
0.0
 11
-25.32915308990269
 21
-66.918274135426316
 31
0.0
  0
LINE
  5
184F
  8
0
 62
     0
 10
-26.916653089902692
 20
-69.667904792441917
 30
0.0
 11
-26.51977808990269
 21
-68.98049712818802
 31
0.0
  0
LINE
  5
1850
  8
0
 62
     0
 10
-28.107278089902689
 20
-71.730127785203607
 30
0.0
 11
-27.710403089902691
 21
-71.04272012094971
 31
0.0
  0
LINE
  5
1851
  8
0
 62
     0
 10
-25.726027805406581
 20
-64.856051306918459
 30
0.0
 11
-25.329152805406569
 21
-64.168643642664563
 31
0.0
  0
LINE
  5
1852
  8
0
 62
     0
 10
-26.916652805406581
 20
-66.918274299680135
 30
0.0
 11
-26.519777805406569
 21
-66.230866635426253
 31
0.0
  0
LINE
  5
1853
  8
0
 62
     0
 10
-28.107277805406579
 20
-68.980497292441839
 30
0.0
 11
-27.71040280540657
 21
-68.293089628187943
 31
0.0
  0
LINE
  5
1854
  8
0
 62
     0
 10
-29.297902805406579
 20
-71.042720285203529
 30
0.0
 11
-28.901027805406581
 21
-70.355312620949633
 31
0.0
  0
LINE
  5
1855
  8
0
 62
     0
 10
-30.128002266495791
 20
-72.480494727145583
 30
0.0
 11
-30.091652805406579
 21
-72.417535613711323
 31
0.0
  0
LINE
  5
1856
  8
0
 62
     0
 10
-25.726027520910488
 20
-62.106420814156827
 30
0.0
 11
-25.32915252091048
 21
-61.419013149902938
 31
0.0
  0
LINE
  5
1857
  8
0
 62
     0
 10
-26.916652520910489
 20
-64.168643806918524
 30
0.0
 11
-26.519777520910491
 21
-63.481236142664621
 31
0.0
  0
LINE
  5
1858
  8
0
 62
     0
 10
-28.10727752091049
 20
-66.230866799680214
 30
0.0
 11
-27.710402520910488
 21
-65.543459135426318
 31
0.0
  0
LINE
  5
1859
  8
0
 62
     0
 10
-29.29790252091049
 20
-68.293089792441904
 30
0.0
 11
-28.901027520910489
 21
-67.605682128187993
 31
0.0
  0
LINE
  5
185A
  8
0
 62
     0
 10
-30.488527520910491
 20
-70.355312785203594
 30
0.0
 11
-30.09165252091049
 21
-69.667905120949698
 31
0.0
  0
LINE
  5
185B
  8
0
 62
     0
 10
-31.679152520910488
 20
-72.417535777965284
 30
0.0
 11
-31.28227752091049
 21
-71.730128113711388
 31
0.0
  0
LINE
  5
185C
  8
0
 62
     0
 10
-25.726027236414389
 20
-59.356790321395152
 30
0.0
 11
-25.329152236414391
 21
-58.669382657141249
 31
0.0
  0
LINE
  5
185D
  8
0
 62
     0
 10
-26.916652236414389
 20
-61.419013314156842
 30
0.0
 11
-26.519777236414392
 21
-60.731605649902953
 31
0.0
  0
LINE
  5
185E
  8
0
 62
     0
 10
-28.10727723641439
 20
-63.481236306918532
 30
0.0
 11
-27.710402236414389
 21
-62.793828642664629
 31
0.0
  0
LINE
  5
185F
  8
0
 62
     0
 10
-29.297902236414391
 20
-65.543459299680222
 30
0.0
 11
-28.901027236414389
 21
-64.856051635426326
 31
0.0
  0
LINE
  5
1860
  8
0
 62
     0
 10
-30.488527236414392
 20
-67.605682292441912
 30
0.0
 11
-30.09165223641439
 21
-66.918274628188016
 31
0.0
  0
LINE
  5
1861
  8
0
 62
     0
 10
-31.679152236414389
 20
-69.667905285203602
 30
0.0
 11
-31.282277236414391
 21
-68.980497620949706
 31
0.0
  0
LINE
  5
1862
  8
0
 62
     0
 10
-32.869777236414393
 20
-71.730128277965292
 30
0.0
 11
-32.472902236414392
 21
-71.042720613711396
 31
0.0
  0
LINE
  5
1863
  8
0
 62
     0
 10
-26.91665195191829
 20
-58.66938282139516
 30
0.0
 11
-26.519776951918288
 21
-57.981975157141257
 31
0.0
  0
LINE
  5
1864
  8
0
 62
     0
 10
-28.107276951918291
 20
-60.73160581415685
 30
0.0
 11
-27.710401951918289
 21
-60.044198149902961
 31
0.0
  0
LINE
  5
1865
  8
0
 62
     0
 10
-29.297901951918291
 20
-62.79382880691854
 30
0.0
 11
-28.901026951918301
 21
-62.106421142664637
 31
0.0
  0
LINE
  5
1866
  8
0
 62
     0
 10
-30.488526951918288
 20
-64.85605179968023
 30
0.0
 11
-30.091651951918301
 21
-64.168644135426334
 31
0.0
  0
LINE
  5
1867
  8
0
 62
     0
 10
-31.6791519519183
 20
-66.91827479244192
 30
0.0
 11
-31.282276951918298
 21
-66.230867128188024
 31
0.0
  0
LINE
  5
1868
  8
0
 62
     0
 10
-32.869776951918297
 20
-68.98049778520361
 30
0.0
 11
-32.472901951918303
 21
-68.293090120949714
 31
0.0
  0
LINE
  5
1869
  8
0
 62
     0
 10
-34.060401951918301
 20
-71.0427207779653
 30
0.0
 11
-33.6635269519183
 21
-70.355313113711404
 31
0.0
  0
LINE
  5
186A
  8
0
 62
     0
 10
-34.890501128511389
 20
-72.480494727145611
 30
0.0
 11
-34.854151951918297
 21
-72.417536106473094
 31
0.0
  0
LINE
  5
186B
  8
0
 62
     0
 10
-28.107276667422191
 20
-57.98197532139514
 30
0.0
 11
-27.817746711338859
 21
-57.480494727145619
 31
0.0
  0
LINE
  5
186C
  8
0
 62
     0
 10
-29.297901667422192
 20
-60.04419831415683
 30
0.0
 11
-28.90102666742219
 21
-59.356790649902933
 31
0.0
  0
LINE
  5
186D
  8
0
 62
     0
 10
-30.488526667422189
 20
-62.10642130691852
 30
0.0
 11
-30.091651667422191
 21
-61.41901364266463
 31
0.0
  0
LINE
  5
186E
  8
0
 62
     0
 10
-31.67915166742219
 20
-64.16864429968021
 30
0.0
 11
-31.282276667422192
 21
-63.481236635426313
 31
0.0
  0
LINE
  5
186F
  8
0
 62
     0
 10
-32.869776667422187
 20
-66.2308672924419
 30
0.0
 11
-32.4729016674222
 21
-65.543459628188003
 31
0.0
  0
LINE
  5
1870
  8
0
 62
     0
 10
-34.060401667422198
 20
-68.29309028520359
 30
0.0
 11
-33.663526667422197
 21
-67.605682620949693
 31
0.0
  0
LINE
  5
1871
  8
0
 62
     0
 10
-35.251026667422202
 20
-70.35531327796528
 30
0.0
 11
-34.854151667422201
 21
-69.667905613711383
 31
0.0
  0
LINE
  5
1872
  8
0
 62
     0
 10
-36.441651667422207
 20
-72.417536270726956
 30
0.0
 11
-36.044776667422212
 21
-71.730128606473073
 31
0.0
  0
LINE
  5
1873
  8
0
 62
     0
 10
-30.488526382926089
 20
-59.356790814156838
 30
0.0
 11
-30.091651382926091
 21
-58.669383149902941
 31
0.0
  0
LINE
  5
1874
  8
0
 62
     0
 10
-31.67915138292609
 20
-61.419013806918521
 30
0.0
 11
-31.282276382926089
 21
-60.731606142664631
 31
0.0
  0
LINE
  5
1875
  8
0
 62
     0
 10
-32.869776382926091
 20
-63.481236799680218
 30
0.0
 11
-32.472901382926089
 21
-62.793829135426321
 31
0.0
  0
LINE
  5
1876
  8
0
 62
     0
 10
-34.060401382926102
 20
-65.543459792441908
 30
0.0
 11
-33.663526382926086
 21
-64.856052128188011
 31
0.0
  0
LINE
  5
1877
  8
0
 62
     0
 10
-35.251026382926099
 20
-67.605682785203584
 30
0.0
 11
-34.854151382926098
 21
-66.918275120949701
 31
0.0
  0
LINE
  5
1878
  8
0
 62
     0
 10
-36.441651382926104
 20
-69.667905777965288
 30
0.0
 11
-36.044776382926102
 21
-68.980498113711391
 31
0.0
  0
LINE
  5
1879
  8
0
 62
     0
 10
-37.632276382926108
 20
-71.730128770726964
 30
0.0
 11
-37.235401382926113
 21
-71.042721106473081
 31
0.0
  0
LINE
  5
187A
  8
0
 62
     0
 10
-31.679151098429969
 20
-58.669383314156804
 30
0.0
 11
-31.282276098429961
 21
-57.981975649902907
 31
0.0
  0
LINE
  5
187B
  8
0
 62
     0
 10
-32.869776098429973
 20
-60.731606306918493
 30
0.0
 11
-32.472901098429958
 21
-60.04419864266459
 31
0.0
  0
LINE
  5
187C
  8
0
 62
     0
 10
-34.060401098429971
 20
-62.793829299680191
 30
0.0
 11
-33.663526098429969
 21
-62.106421635426287
 31
0.0
  0
LINE
  5
187D
  8
0
 62
     0
 10
-35.251026098429982
 20
-64.856052292441873
 30
0.0
 11
-34.854151098429973
 21
-64.168644628187977
 31
0.0
  0
LINE
  5
187E
  8
0
 62
     0
 10
-36.441651098429979
 20
-66.918275285203563
 30
0.0
 11
-36.044776098429978
 21
-66.230867620949667
 31
0.0
  0
LINE
  5
187F
  8
0
 62
     0
 10
-37.632276098429983
 20
-68.980498277965253
 30
0.0
 11
-37.235401098429982
 21
-68.293090613711357
 31
0.0
  0
LINE
  5
1880
  8
0
 62
     0
 10
-38.822901098429988
 20
-71.042721270726943
 30
0.0
 11
-38.426026098429979
 21
-70.355313606473047
 31
0.0
  0
LINE
  5
1881
  8
0
 62
     0
 10
-39.652999990526979
 20
-72.480494727145555
 30
0.0
 11
-39.61665109842999
 21
-72.417536599234737
 31
0.0
  0
LINE
  5
1882
  8
0
 62
     0
 10
-32.869775813933863
 20
-57.981975814156797
 30
0.0
 11
-32.580245573354418
 21
-57.480494727145583
 31
0.0
  0
LINE
  5
1883
  8
0
 62
     0
 10
-34.06040081393386
 20
-60.04419880691848
 30
0.0
 11
-33.663525813933859
 21
-59.356791142664591
 31
0.0
  0
LINE
  5
1884
  8
0
 62
     0
 10
-35.251025813933872
 20
-62.106421799680177
 30
0.0
 11
-34.854150813933863
 21
-61.419014135426281
 31
0.0
  0
LINE
  5
1885
  8
0
 62
     0
 10
-36.441650813933869
 20
-64.168644792441853
 30
0.0
 11
-36.044775813933867
 21
-63.481237128187971
 31
0.0
  0
LINE
  5
1886
  8
0
 62
     0
 10
-37.632275813933873
 20
-66.230867785203557
 30
0.0
 11
-37.235400813933872
 21
-65.543460120949661
 31
0.0
  0
LINE
  5
1887
  8
0
 62
     0
 10
-38.822900813933877
 20
-68.293090777965247
 30
0.0
 11
-38.426025813933883
 21
-67.605683113711351
 31
0.0
  0
LINE
  5
1888
  8
0
 62
     0
 10
-40.00568131193252
 20
-70.341726694700483
 30
0.0
 11
-39.61665081393388
 21
-69.66790610647304
 31
0.0
  0
LINE
  5
1889
  8
0
 62
     0
 10
-35.251025529437811
 20
-59.356791306918581
 30
0.0
 11
-34.85415052943781
 21
-58.669383642664677
 31
0.0
  0
LINE
  5
188A
  8
0
 62
     0
 10
-36.441650529437823
 20
-61.419014299680271
 30
0.0
 11
-36.044775529437821
 21
-60.731606635426367
 31
0.0
  0
LINE
  5
188B
  8
0
 62
     0
 10
-37.63227552943782
 20
-63.481237292441961
 30
0.0
 11
-37.235400529437818
 21
-62.793829628188057
 31
0.0
  0
LINE
  5
188C
  8
0
 62
     0
 10
-38.822900529437817
 20
-65.543460285203651
 30
0.0
 11
-38.426025529437823
 21
-64.856052620949754
 31
0.0
  0
LINE
  5
188D
  8
0
 62
     0
 10
-40.005681311932527
 20
-67.592096694700558
 30
0.0
 11
-39.616650529437827
 21
-66.918275613711444
 31
0.0
  0
LINE
  5
188E
  8
0
 62
     0
 10
-36.441650244941677
 20
-58.669383806918461
 30
0.0
 11
-36.044775244941683
 21
-57.981976142664557
 31
0.0
  0
LINE
  5
188F
  8
0
 62
     0
 10
-37.632275244941681
 20
-60.731606799680151
 30
0.0
 11
-37.23540024494168
 21
-60.044199135426247
 31
0.0
  0
LINE
  5
1890
  8
0
 62
     0
 10
-38.822900244941692
 20
-62.793829792441841
 30
0.0
 11
-38.426025244941677
 21
-62.106422128187937
 31
0.0
  0
LINE
  5
1891
  8
0
 62
     0
 10
-40.00568131193252
 20
-64.842466694700477
 30
0.0
 11
-39.616650244941688
 21
-64.168645120949634
 31
0.0
  0
LINE
  5
1892
  8
0
 62
     0
 10
-37.632274960445592
 20
-57.981976306918519
 30
0.0
 11
-37.342744435370058
 21
-57.480494727145611
 31
0.0
  0
LINE
  5
1893
  8
0
 62
     0
 10
-38.822899960445589
 20
-60.044199299680209
 30
0.0
 11
-38.426024960445588
 21
-59.356791635426312
 31
0.0
  0
LINE
  5
1894
  8
0
 62
     0
 10
-40.005681311932527
 20
-62.092836694700573
 30
0.0
 11
-39.616649960445592
 21
-61.419014628188002
 31
0.0
  0
LINE
  5
1895
  8
0
 62
     0
 10
-40.00568131193252
 20
-59.343206694700541
 30
0.0
 11
-39.616649675949503
 21
-58.669384135426299
 31
0.0
  0
LINE
  5
1896
  8
0
 62
     0
 10
-25.329207713153
 20
-58.669384792442152
 30
0.0
 11
-25.726082713153001
 21
-57.981977128188262
 31
0.0
  0
LINE
  5
1897
  8
0
 62
     0
 10
-26.519832428656901
 20
-59.356792292442151
 30
0.0
 11
-26.916707428656899
 21
-58.669384628188261
 31
0.0
  0
LINE
  5
1898
  8
0
 62
     0
 10
-25.3292074286569
 20
-61.419015285203848
 30
0.0
 11
-25.726082428656898
 21
-60.731607620949951
 31
0.0
  0
LINE
  5
1899
  8
0
 62
     0
 10
-28.901082144160771
 20
-57.98197679968051
 30
0.0
 11
-29.19061295373265
 21
-57.480494727145448
 31
0.0
  0
LINE
  5
189A
  8
0
 62
     0
 10
-27.71045714416077
 20
-60.0441997924422
 30
0.0
 11
-28.107332144160772
 21
-59.356792128188303
 31
0.0
  0
LINE
  5
189B
  8
0
 62
     0
 10
-26.51983214416077
 20
-62.106422785203883
 30
0.0
 11
-26.916707144160771
 21
-61.41901512095
 31
0.0
  0
LINE
  5
189C
  8
0
 62
     0
 10
-25.32920714416078
 20
-64.16864577796558
 30
0.0
 11
-25.726082144160781
 21
-63.481238113711683
 31
0.0
  0
LINE
  5
189D
  8
0
 62
     0
 10
-30.091706859664701
 20
-58.669384299680459
 30
0.0
 11
-30.488581859664698
 21
-57.981976635426562
 31
0.0
  0
LINE
  5
189E
  8
0
 62
     0
 10
-28.9010818596647
 20
-60.731607292442142
 30
0.0
 11
-29.297956859664701
 21
-60.044199628188252
 31
0.0
  0
LINE
  5
189F
  8
0
 62
     0
 10
-27.710456859664699
 20
-62.793830285203839
 30
0.0
 11
-28.107331859664701
 21
-62.106422620949942
 31
0.0
  0
LINE
  5
18A0
  8
0
 62
     0
 10
-26.519831859664709
 20
-64.856053277965529
 30
0.0
 11
-26.9167068596647
 21
-64.168645613711632
 31
0.0
  0
LINE
  5
18A1
  8
0
 62
     0
 10
-25.329206859664708
 20
-66.918276270727219
 30
0.0
 11
-25.72608185966471
 21
-66.230868606473322
 31
0.0
  0
LINE
  5
18A2
  8
0
 62
     0
 10
-31.282331575168559
 20
-59.356791799680508
 30
0.0
 11
-31.679206575168561
 21
-58.669384135426611
 31
0.0
  0
LINE
  5
18A3
  8
0
 62
     0
 10
-30.091706575168558
 20
-61.419014792442198
 30
0.0
 11
-30.48858157516856
 21
-60.731607128188301
 31
0.0
  0
LINE
  5
18A4
  8
0
 62
     0
 10
-28.901081575168561
 20
-63.481237785203881
 30
0.0
 11
-29.297956575168559
 21
-62.793830120949991
 31
0.0
  0
LINE
  5
18A5
  8
0
 62
     0
 10
-27.710456575168561
 20
-65.543460777965578
 30
0.0
 11
-28.107331575168558
 21
-64.856053113711681
 31
0.0
  0
LINE
  5
18A6
  8
0
 62
     0
 10
-26.51983157516857
 20
-67.605683770727254
 30
0.0
 11
-26.916706575168568
 21
-66.918276106473371
 31
0.0
  0
LINE
  5
18A7
  8
0
 62
     0
 10
-25.32920657516857
 20
-69.667906763488958
 30
0.0
 11
-25.726081575168571
 21
-68.980499099235061
 31
0.0
  0
LINE
  5
18A8
  8
0
 62
     0
 10
-33.663581290672511
 20
-57.981976306918781
 30
0.0
 11
-33.953111815748237
 21
-57.480494727145519
 31
0.0
  0
LINE
  5
18A9
  8
0
 62
     0
 10
-32.472956290672514
 20
-60.044199299680471
 30
0.0
 11
-32.869831290672522
 21
-59.356791635426582
 31
0.0
  0
LINE
  5
18AA
  8
0
 62
     0
 10
-31.28233129067252
 20
-62.106422292442161
 30
0.0
 11
-31.679206290672521
 21
-61.419014628188258
 31
0.0
  0
LINE
  5
18AB
  8
0
 62
     0
 10
-30.091706290672519
 20
-64.168645285203851
 30
0.0
 11
-30.488581290672521
 21
-63.481237620949962
 31
0.0
  0
LINE
  5
18AC
  8
0
 62
     0
 10
-28.901081290672519
 20
-66.230868277965541
 30
0.0
 11
-29.29795629067252
 21
-65.543460613711645
 31
0.0
  0
LINE
  5
18AD
  8
0
 62
     0
 10
-27.710456290672521
 20
-68.293091270727231
 30
0.0
 11
-28.107331290672519
 21
-67.605683606473335
 31
0.0
  0
LINE
  5
18AE
  8
0
 62
     0
 10
-26.519831290672531
 20
-70.355314263488921
 30
0.0
 11
-26.916706290672529
 21
-69.667906599235025
 31
0.0
  0
LINE
  5
18AF
  8
0
 62
     0
 10
-25.329206290672531
 20
-72.417537256250611
 30
0.0
 11
-25.726081290672528
 21
-71.730129591996715
 31
0.0
  0
LINE
  5
18B0
  8
0
 62
     0
 10
-34.854206006176398
 20
-58.669383806918759
 30
0.0
 11
-35.251081006176399
 21
-57.981976142664863
 31
0.0
  0
LINE
  5
18B1
  8
0
 62
     0
 10
-33.6635810061764
 20
-60.731606799680449
 30
0.0
 11
-34.060456006176402
 21
-60.044199135426553
 31
0.0
  0
LINE
  5
18B2
  8
0
 62
     0
 10
-32.472956006176403
 20
-62.793829792442139
 30
0.0
 11
-32.869831006176412
 21
-62.106422128188242
 31
0.0
  0
LINE
  5
18B3
  8
0
 62
     0
 10
-31.28233100617641
 20
-64.856052785203829
 30
0.0
 11
-31.679206006176411
 21
-64.168645120949932
 31
0.0
  0
LINE
  5
18B4
  8
0
 62
     0
 10
-30.091706006176409
 20
-66.918275777965505
 30
0.0
 11
-30.48858100617641
 21
-66.230868113711622
 31
0.0
  0
LINE
  5
18B5
  8
0
 62
     0
 10
-28.901081006176408
 20
-68.980498770727209
 30
0.0
 11
-29.29795600617641
 21
-68.293091106473312
 31
0.0
  0
LINE
  5
18B6
  8
0
 62
     0
 10
-27.710456006176418
 20
-71.042721763488899
 30
0.0
 11
-28.107331006176409
 21
-70.355314099235002
 31
0.0
  0
LINE
  5
18B7
  8
0
 62
     0
 10
-26.880357398575701
 20
-72.480494727145526
 30
0.0
 11
-26.916706006176419
 21
-72.417537091996692
 31
0.0
  0
LINE
  5
18B8
  8
0
 62
     0
 10
-36.044830721680299
 20
-59.356791306918751
 30
0.0
 11
-36.4417057216803
 21
-58.669383642664847
 31
0.0
  0
LINE
  5
18B9
  8
0
 62
     0
 10
-34.854205721680302
 20
-61.419014299680441
 30
0.0
 11
-35.25108072168031
 21
-60.731606635426552
 31
0.0
  0
LINE
  5
18BA
  8
0
 62
     0
 10
-33.663580721680312
 20
-63.481237292442131
 30
0.0
 11
-34.060455721680313
 21
-62.793829628188227
 31
0.0
  0
LINE
  5
18BB
  8
0
 62
     0
 10
-32.472955721680307
 20
-65.543460285203821
 30
0.0
 11
-32.869830721680309
 21
-64.856052620949924
 31
0.0
  0
LINE
  5
18BC
  8
0
 62
     0
 10
-31.28233072168031
 20
-67.605683277965511
 30
0.0
 11
-31.679205721680312
 21
-66.918275613711614
 31
0.0
  0
LINE
  5
18BD
  8
0
 62
     0
 10
-30.091705721680309
 20
-69.667906270727201
 30
0.0
 11
-30.488580721680311
 21
-68.980498606473304
 31
0.0
  0
LINE
  5
18BE
  8
0
 62
     0
 10
-28.901080721680319
 20
-71.730129263488891
 30
0.0
 11
-29.297955721680321
 21
-71.042721599234994
 31
0.0
  0
LINE
  5
18BF
  8
0
 62
     0
 10
-38.426080437184197
 20
-57.981975814157082
 30
0.0
 11
-38.715610677763827
 21
-57.480494727145512
 31
0.0
  0
LINE
  5
18C0
  8
0
 62
     0
 10
-37.2354554371842
 20
-60.044198806918772
 30
0.0
 11
-37.632330437184201
 21
-59.356791142664882
 31
0.0
  0
LINE
  5
18C1
  8
0
 62
     0
 10
-36.044830437184203
 20
-62.106421799680462
 30
0.0
 11
-36.441705437184197
 21
-61.419014135426558
 31
0.0
  0
LINE
  5
18C2
  8
0
 62
     0
 10
-34.854205437184213
 20
-64.168644792442151
 30
0.0
 11
-35.251080437184207
 21
-63.481237128188248
 31
0.0
  0
LINE
  5
18C3
  8
0
 62
     0
 10
-33.663580437184208
 20
-66.230867785203841
 30
0.0
 11
-34.06045543718421
 21
-65.543460120949945
 31
0.0
  0
LINE
  5
18C4
  8
0
 62
     0
 10
-32.472955437184211
 20
-68.293090777965531
 30
0.0
 11
-32.869830437184213
 21
-67.605683113711635
 31
0.0
  0
LINE
  5
18C5
  8
0
 62
     0
 10
-31.282330437184221
 20
-70.355313770727221
 30
0.0
 11
-31.679205437184208
 21
-69.667906106473325
 31
0.0
  0
LINE
  5
18C6
  8
0
 62
     0
 10
-30.091705437184221
 20
-72.417536763488911
 30
0.0
 11
-30.488580437184218
 21
-71.730129099235015
 31
0.0
  0
LINE
  5
18C7
  8
0
 62
     0
 10
-39.616705152688112
 20
-58.669383314157088
 30
0.0
 11
-40.005681311932527
 21
-57.995656843412732
 31
0.0
  0
LINE
  5
18C8
  8
0
 62
     0
 10
-38.426080152688122
 20
-60.731606306918771
 30
0.0
 11
-38.822955152688117
 21
-60.044198642664881
 31
0.0
  0
LINE
  5
18C9
  8
0
 62
     0
 10
-37.235455152688118
 20
-62.793829299680468
 30
0.0
 11
-37.63233015268812
 21
-62.106421635426571
 31
0.0
  0
LINE
  5
18CA
  8
0
 62
     0
 10
-36.044830152688121
 20
-64.856052292442158
 30
0.0
 11
-36.441705152688122
 21
-64.168644628188261
 31
0.0
  0
LINE
  5
18CB
  8
0
 62
     0
 10
-34.854205152688117
 20
-66.918275285203833
 30
0.0
 11
-35.251080152688132
 21
-66.230867620949951
 31
0.0
  0
LINE
  5
18CC
  8
0
 62
     0
 10
-33.663580152688127
 20
-68.980498277965538
 30
0.0
 11
-34.060455152688128
 21
-68.293090613711641
 31
0.0
  0
LINE
  5
18CD
  8
0
 62
     0
 10
-32.472955152688129
 20
-71.042721270727213
 30
0.0
 11
-32.869830152688131
 21
-70.355313606473331
 31
0.0
  0
LINE
  5
18CE
  8
0
 62
     0
 10
-31.64285626059133
 20
-72.480494727145526
 30
0.0
 11
-31.67920515268813
 21
-72.417536599235021
 31
0.0
  0
LINE
  5
18CF
  8
0
 62
     0
 10
-39.616704868192002
 20
-61.419013806918827
 30
0.0
 11
-40.005681311932527
 21
-60.74528684341275
 31
0.0
  0
LINE
  5
18D0
  8
0
 62
     0
 10
-38.426079868192012
 20
-63.481236799680509
 30
0.0
 11
-38.822954868192006
 21
-62.793829135426613
 31
0.0
  0
LINE
  5
18D1
  8
0
 62
     0
 10
-37.235454868192008
 20
-65.543459792442206
 30
0.0
 11
-37.632329868192009
 21
-64.85605212818831
 31
0.0
  0
LINE
  5
18D2
  8
0
 62
     0
 10
-36.044829868192011
 20
-67.605682785203896
 30
0.0
 11
-36.441704868192012
 21
-66.91827512095
 31
0.0
  0
LINE
  5
18D3
  8
0
 62
     0
 10
-34.854204868192006
 20
-69.667905777965586
 30
0.0
 11
-35.251079868192022
 21
-68.98049811371169
 31
0.0
  0
LINE
  5
18D4
  8
0
 62
     0
 10
-33.663579868192024
 20
-71.730128770727276
 30
0.0
 11
-34.060454868192018
 21
-71.04272110647338
 31
0.0
  0
LINE
  5
18D5
  8
0
 62
     0
 10
-39.616704583695942
 20
-64.168644299680452
 30
0.0
 11
-40.005681311932527
 21
-63.494916843412732
 31
0.0
  0
LINE
  5
18D6
  8
0
 62
     0
 10
-38.426079583695937
 20
-66.230867292442142
 30
0.0
 11
-38.822954583695939
 21
-65.543459628188245
 31
0.0
  0
LINE
  5
18D7
  8
0
 62
     0
 10
-37.23545458369594
 20
-68.293090285203832
 30
0.0
 11
-37.632329583695942
 21
-67.605682620949935
 31
0.0
  0
LINE
  5
18D8
  8
0
 62
     0
 10
-36.044829583695943
 20
-70.355313277965521
 30
0.0
 11
-36.441704583695952
 21
-69.667905613711625
 31
0.0
  0
LINE
  5
18D9
  8
0
 62
     0
 10
-34.854204583695953
 20
-72.417536270727211
 30
0.0
 11
-35.251079583695947
 21
-71.730128606473315
 31
0.0
  0
LINE
  5
18DA
  8
0
 62
     0
 10
-39.61670429919981
 20
-66.918274792442205
 30
0.0
 11
-40.005681311932541
 21
-66.244546843412735
 31
0.0
  0
LINE
  5
18DB
  8
0
 62
     0
 10
-38.42607929919982
 20
-68.980497785203895
 30
0.0
 11
-38.822954299199807
 21
-68.293090120949984
 31
0.0
  0
LINE
  5
18DC
  8
0
 62
     0
 10
-37.235454299199823
 20
-71.042720777965584
 30
0.0
 11
-37.632329299199817
 21
-70.355313113711688
 31
0.0
  0
LINE
  5
18DD
  8
0
 62
     0
 10
-36.405355122606949
 20
-72.480494727145526
 30
0.0
 11
-36.44170429919982
 21
-72.417536106473378
 31
0.0
  0
LINE
  5
18DE
  8
0
 62
     0
 10
-39.6167040147037
 20
-69.667905285203886
 30
0.0
 11
-40.005681311932541
 21
-68.994176843412703
 31
0.0
  0
LINE
  5
18DF
  8
0
 62
     0
 10
-38.426079014703703
 20
-71.730128277965576
 30
0.0
 11
-38.822954014703711
 21
-71.04272061371168
 31
0.0
  0
LINE
  5
18E0
  8
0
 62
     0
 10
-39.616703730207632
 20
-72.417535777965512
 30
0.0
 11
-40.00568131193252
 21
-71.743806843412713
 31
0.0
  0
LINE
  5
18E1
  8
0
 62
     0
 10
-26.519803125559221
 20
-71.730174104802842
 30
0.0
 11
-25.726053125559218
 21
-71.730174104802842
 31
0.0
  0
LINE
  5
18E2
  8
0
 62
     0
 10
-28.901053125559219
 20
-71.730174104802842
 30
0.0
 11
-28.10730312555922
 21
-71.730174104802842
 31
0.0
  0
LINE
  5
18E3
  8
0
 62
     0
 10
-31.282303125559221
 20
-71.730174104802842
 30
0.0
 11
-30.488553125559221
 21
-71.730174104802842
 31
0.0
  0
LINE
  5
18E4
  8
0
 62
     0
 10
-33.663553125559218
 20
-71.730174104802842
 30
0.0
 11
-32.869803125559223
 21
-71.730174104802842
 31
0.0
  0
LINE
  5
18E5
  8
0
 62
     0
 10
-36.04480312555922
 20
-71.730174104802842
 30
0.0
 11
-35.251053125559217
 21
-71.730174104802842
 31
0.0
  0
LINE
  5
18E6
  8
0
 62
     0
 10
-38.426053125559221
 20
-71.730174104802842
 30
0.0
 11
-37.632303125559218
 21
-71.730174104802842
 31
0.0
  0
LINE
  5
18E7
  8
0
 62
     0
 10
-26.519803125559221
 20
-70.35535910480283
 30
0.0
 11
-25.726053125559218
 21
-70.35535910480283
 31
0.0
  0
LINE
  5
18E8
  8
0
 62
     0
 10
-28.901053125559219
 20
-70.35535910480283
 30
0.0
 11
-28.10730312555922
 21
-70.35535910480283
 31
0.0
  0
LINE
  5
18E9
  8
0
 62
     0
 10
-31.282303125559221
 20
-70.35535910480283
 30
0.0
 11
-30.488553125559221
 21
-70.35535910480283
 31
0.0
  0
LINE
  5
18EA
  8
0
 62
     0
 10
-33.663553125559218
 20
-70.35535910480283
 30
0.0
 11
-32.869803125559223
 21
-70.35535910480283
 31
0.0
  0
LINE
  5
18EB
  8
0
 62
     0
 10
-36.04480312555922
 20
-70.35535910480283
 30
0.0
 11
-35.251053125559217
 21
-70.35535910480283
 31
0.0
  0
LINE
  5
18EC
  8
0
 62
     0
 10
-38.426053125559221
 20
-70.35535910480283
 30
0.0
 11
-37.632303125559218
 21
-70.35535910480283
 31
0.0
  0
LINE
  5
18ED
  8
0
 62
     0
 10
-26.519803125559221
 20
-68.980544104802846
 30
0.0
 11
-25.726053125559218
 21
-68.980544104802846
 31
0.0
  0
LINE
  5
18EE
  8
0
 62
     0
 10
-28.901053125559219
 20
-68.980544104802846
 30
0.0
 11
-28.10730312555922
 21
-68.980544104802846
 31
0.0
  0
LINE
  5
18EF
  8
0
 62
     0
 10
-31.282303125559221
 20
-68.980544104802846
 30
0.0
 11
-30.488553125559221
 21
-68.980544104802846
 31
0.0
  0
LINE
  5
18F0
  8
0
 62
     0
 10
-33.663553125559218
 20
-68.980544104802846
 30
0.0
 11
-32.869803125559223
 21
-68.980544104802846
 31
0.0
  0
LINE
  5
18F1
  8
0
 62
     0
 10
-36.04480312555922
 20
-68.980544104802846
 30
0.0
 11
-35.251053125559217
 21
-68.980544104802846
 31
0.0
  0
LINE
  5
18F2
  8
0
 62
     0
 10
-38.426053125559221
 20
-68.980544104802846
 30
0.0
 11
-37.632303125559218
 21
-68.980544104802846
 31
0.0
  0
LINE
  5
18F3
  8
0
 62
     0
 10
-26.519803125559221
 20
-67.605729104802833
 30
0.0
 11
-25.726053125559218
 21
-67.605729104802833
 31
0.0
  0
LINE
  5
18F4
  8
0
 62
     0
 10
-28.901053125559219
 20
-67.605729104802833
 30
0.0
 11
-28.10730312555922
 21
-67.605729104802833
 31
0.0
  0
LINE
  5
18F5
  8
0
 62
     0
 10
-31.282303125559221
 20
-67.605729104802833
 30
0.0
 11
-30.488553125559221
 21
-67.605729104802833
 31
0.0
  0
LINE
  5
18F6
  8
0
 62
     0
 10
-33.663553125559218
 20
-67.605729104802833
 30
0.0
 11
-32.869803125559223
 21
-67.605729104802833
 31
0.0
  0
LINE
  5
18F7
  8
0
 62
     0
 10
-36.04480312555922
 20
-67.605729104802833
 30
0.0
 11
-35.251053125559217
 21
-67.605729104802833
 31
0.0
  0
LINE
  5
18F8
  8
0
 62
     0
 10
-38.426053125559221
 20
-67.605729104802833
 30
0.0
 11
-37.632303125559218
 21
-67.605729104802833
 31
0.0
  0
LINE
  5
18F9
  8
0
 62
     0
 10
-26.519803125559221
 20
-66.230914104802821
 30
0.0
 11
-25.726053125559218
 21
-66.230914104802821
 31
0.0
  0
LINE
  5
18FA
  8
0
 62
     0
 10
-28.901053125559219
 20
-66.230914104802821
 30
0.0
 11
-28.10730312555922
 21
-66.230914104802821
 31
0.0
  0
LINE
  5
18FB
  8
0
 62
     0
 10
-31.282303125559221
 20
-66.230914104802821
 30
0.0
 11
-30.488553125559221
 21
-66.230914104802821
 31
0.0
  0
LINE
  5
18FC
  8
0
 62
     0
 10
-33.663553125559218
 20
-66.230914104802821
 30
0.0
 11
-32.869803125559223
 21
-66.230914104802821
 31
0.0
  0
LINE
  5
18FD
  8
0
 62
     0
 10
-36.04480312555922
 20
-66.230914104802821
 30
0.0
 11
-35.251053125559217
 21
-66.230914104802821
 31
0.0
  0
LINE
  5
18FE
  8
0
 62
     0
 10
-38.426053125559221
 20
-66.230914104802821
 30
0.0
 11
-37.632303125559218
 21
-66.230914104802821
 31
0.0
  0
LINE
  5
18FF
  8
0
 62
     0
 10
-26.519803125559221
 20
-64.856099104802865
 30
0.0
 11
-25.726053125559218
 21
-64.856099104802865
 31
0.0
  0
LINE
  5
1900
  8
0
 62
     0
 10
-28.901053125559219
 20
-64.856099104802865
 30
0.0
 11
-28.10730312555922
 21
-64.856099104802865
 31
0.0
  0
LINE
  5
1901
  8
0
 62
     0
 10
-31.282303125559221
 20
-64.856099104802865
 30
0.0
 11
-30.488553125559221
 21
-64.856099104802865
 31
0.0
  0
LINE
  5
1902
  8
0
 62
     0
 10
-33.663553125559218
 20
-64.856099104802865
 30
0.0
 11
-32.869803125559223
 21
-64.856099104802865
 31
0.0
  0
LINE
  5
1903
  8
0
 62
     0
 10
-36.04480312555922
 20
-64.856099104802865
 30
0.0
 11
-35.251053125559217
 21
-64.856099104802865
 31
0.0
  0
LINE
  5
1904
  8
0
 62
     0
 10
-38.426053125559221
 20
-64.856099104802865
 30
0.0
 11
-37.632303125559218
 21
-64.856099104802865
 31
0.0
  0
LINE
  5
1905
  8
0
 62
     0
 10
-26.519803125559221
 20
-63.481284104802853
 30
0.0
 11
-25.726053125559218
 21
-63.481284104802853
 31
0.0
  0
LINE
  5
1906
  8
0
 62
     0
 10
-28.901053125559219
 20
-63.481284104802853
 30
0.0
 11
-28.10730312555922
 21
-63.481284104802853
 31
0.0
  0
LINE
  5
1907
  8
0
 62
     0
 10
-31.282303125559221
 20
-63.481284104802853
 30
0.0
 11
-30.488553125559221
 21
-63.481284104802853
 31
0.0
  0
LINE
  5
1908
  8
0
 62
     0
 10
-33.663553125559218
 20
-63.481284104802853
 30
0.0
 11
-32.869803125559223
 21
-63.481284104802853
 31
0.0
  0
LINE
  5
1909
  8
0
 62
     0
 10
-36.04480312555922
 20
-63.481284104802853
 30
0.0
 11
-35.251053125559217
 21
-63.481284104802853
 31
0.0
  0
LINE
  5
190A
  8
0
 62
     0
 10
-38.426053125559221
 20
-63.481284104802853
 30
0.0
 11
-37.632303125559218
 21
-63.481284104802853
 31
0.0
  0
LINE
  5
190B
  8
0
 62
     0
 10
-26.519803125559221
 20
-62.106469104802841
 30
0.0
 11
-25.726053125559218
 21
-62.106469104802841
 31
0.0
  0
LINE
  5
190C
  8
0
 62
     0
 10
-28.901053125559219
 20
-62.106469104802841
 30
0.0
 11
-28.10730312555922
 21
-62.106469104802841
 31
0.0
  0
LINE
  5
190D
  8
0
 62
     0
 10
-31.282303125559221
 20
-62.106469104802841
 30
0.0
 11
-30.488553125559221
 21
-62.106469104802841
 31
0.0
  0
LINE
  5
190E
  8
0
 62
     0
 10
-33.663553125559218
 20
-62.106469104802841
 30
0.0
 11
-32.869803125559223
 21
-62.106469104802841
 31
0.0
  0
LINE
  5
190F
  8
0
 62
     0
 10
-36.04480312555922
 20
-62.106469104802841
 30
0.0
 11
-35.251053125559217
 21
-62.106469104802841
 31
0.0
  0
LINE
  5
1910
  8
0
 62
     0
 10
-38.426053125559221
 20
-62.106469104802841
 30
0.0
 11
-37.632303125559218
 21
-62.106469104802841
 31
0.0
  0
LINE
  5
1911
  8
0
 62
     0
 10
-26.519803125559221
 20
-60.731654104802828
 30
0.0
 11
-25.726053125559218
 21
-60.731654104802828
 31
0.0
  0
LINE
  5
1912
  8
0
 62
     0
 10
-28.901053125559219
 20
-60.731654104802828
 30
0.0
 11
-28.10730312555922
 21
-60.731654104802828
 31
0.0
  0
LINE
  5
1913
  8
0
 62
     0
 10
-31.282303125559221
 20
-60.731654104802828
 30
0.0
 11
-30.488553125559221
 21
-60.731654104802828
 31
0.0
  0
LINE
  5
1914
  8
0
 62
     0
 10
-33.663553125559218
 20
-60.731654104802828
 30
0.0
 11
-32.869803125559223
 21
-60.731654104802828
 31
0.0
  0
LINE
  5
1915
  8
0
 62
     0
 10
-36.04480312555922
 20
-60.731654104802828
 30
0.0
 11
-35.251053125559217
 21
-60.731654104802828
 31
0.0
  0
LINE
  5
1916
  8
0
 62
     0
 10
-38.426053125559221
 20
-60.731654104802828
 30
0.0
 11
-37.632303125559218
 21
-60.731654104802828
 31
0.0
  0
LINE
  5
1917
  8
0
 62
     0
 10
-26.519803125559221
 20
-59.356839104802823
 30
0.0
 11
-25.726053125559218
 21
-59.356839104802823
 31
0.0
  0
LINE
  5
1918
  8
0
 62
     0
 10
-28.901053125559219
 20
-59.356839104802823
 30
0.0
 11
-28.10730312555922
 21
-59.356839104802823
 31
0.0
  0
LINE
  5
1919
  8
0
 62
     0
 10
-31.282303125559221
 20
-59.356839104802823
 30
0.0
 11
-30.488553125559221
 21
-59.356839104802823
 31
0.0
  0
LINE
  5
191A
  8
0
 62
     0
 10
-33.663553125559218
 20
-59.356839104802823
 30
0.0
 11
-32.869803125559223
 21
-59.356839104802823
 31
0.0
  0
LINE
  5
191B
  8
0
 62
     0
 10
-36.04480312555922
 20
-59.356839104802823
 30
0.0
 11
-35.251053125559217
 21
-59.356839104802823
 31
0.0
  0
LINE
  5
191C
  8
0
 62
     0
 10
-38.426053125559221
 20
-59.356839104802823
 30
0.0
 11
-37.632303125559218
 21
-59.356839104802823
 31
0.0
  0
LINE
  5
191D
  8
0
 62
     0
 10
-26.519803125559221
 20
-57.982024104802861
 30
0.0
 11
-25.726053125559218
 21
-57.982024104802861
 31
0.0
  0
LINE
  5
191E
  8
0
 62
     0
 10
-28.901053125559219
 20
-57.982024104802861
 30
0.0
 11
-28.10730312555922
 21
-57.982024104802861
 31
0.0
  0
LINE
  5
191F
  8
0
 62
     0
 10
-31.282303125559221
 20
-57.982024104802861
 30
0.0
 11
-30.488553125559221
 21
-57.982024104802861
 31
0.0
  0
LINE
  5
1920
  8
0
 62
     0
 10
-33.663553125559218
 20
-57.982024104802861
 30
0.0
 11
-32.869803125559223
 21
-57.982024104802861
 31
0.0
  0
LINE
  5
1921
  8
0
 62
     0
 10
-36.04480312555922
 20
-57.982024104802861
 30
0.0
 11
-35.251053125559217
 21
-57.982024104802861
 31
0.0
  0
LINE
  5
1922
  8
0
 62
     0
 10
-38.426053125559221
 20
-57.982024104802861
 30
0.0
 11
-37.632303125559218
 21
-57.982024104802861
 31
0.0
  0
ENDBLK
  5
1924
  8
0
  0
BLOCK
  8
0
  2
*X81
 70
     1
 10
0.0
 20
0.0
 30
0.0
  3
*X81
  1

  0
LINE
  5
1EB0
  8
0
 62
     0
 10
25.999999999999609
 20
-69.778748590211734
 30
0.0
 11
25.221251409787349
 21
-68.999999999999474
 31
0.0
  0
LINE
  5
1EB1
  8
0
 62
     0
 10
25.999999999999609
 20
-70.901280605345391
 30
0.0
 11
24.09871939465371
 21
-68.999999999999474
 31
0.0
  0
LINE
  5
1EB2
  8
0
 62
     0
 10
25.999999999999609
 20
-72.023812620479021
 30
0.0
 11
22.976187379520059
 21
-68.999999999999474
 31
0.0
  0
LINE
  5
1EB3
  8
0
 62
     0
 10
25.999999999999609
 20
-73.146344635612664
 30
0.0
 11
21.85365536438643
 21
-68.999999999999474
 31
0.0
  0
LINE
  5
1EB4
  8
0
 62
     0
 10
25.999999999999609
 20
-74.268876650746293
 30
0.0
 11
20.73112334925278
 21
-68.999999999999474
 31
0.0
  0
LINE
  5
1EB5
  8
0
 62
     0
 10
25.999999999999609
 20
-75.391408665879965
 30
0.0
 11
19.608591334119129
 21
-68.999999999999474
 31
0.0
  0
LINE
  5
1EB6
  8
0
 62
     0
 10
25.999999999999609
 20
-76.513940681013594
 30
0.0
 11
18.48605931898549
 21
-68.999999999999474
 31
0.0
  0
LINE
  5
1EB7
  8
0
 62
     0
 10
20.36352730385185
 20
-71.999999999999488
 30
0.0
 11
17.363527303851839
 21
-68.999999999999474
 31
0.0
  0
LINE
  5
1EB8
  8
0
 62
     0
 10
25.999999999999609
 20
-77.636472696147237
 30
0.0
 11
20.999999999999599
 21
-72.636472696147237
 31
0.0
  0
LINE
  5
1EB9
  8
0
 62
     0
 10
19.240995288718199
 20
-71.999999999999488
 30
0.0
 11
16.240995288718199
 21
-68.999999999999474
 31
0.0
  0
LINE
  5
1EBA
  8
0
 62
     0
 10
25.999999999999609
 20
-78.75900471128088
 30
0.0
 11
20.999999999999609
 21
-73.75900471128088
 31
0.0
  0
LINE
  5
1EBB
  8
0
 62
     0
 10
18.11846327358456
 20
-71.999999999999488
 30
0.0
 11
15.11846327358456
 21
-68.999999999999474
 31
0.0
  0
LINE
  5
1EBC
  8
0
 62
     0
 10
25.999999999999609
 20
-79.881536726414538
 30
0.0
 11
20.999999999999609
 21
-74.881536726414538
 31
0.0
  0
LINE
  5
1EBD
  8
0
 62
     0
 10
16.995931258450909
 20
-71.999999999999488
 30
0.0
 11
13.995931258450909
 21
-68.999999999999474
 31
0.0
  0
LINE
  5
1EBE
  8
0
 62
     0
 10
25.999999999999609
 20
-81.004068741548195
 30
0.0
 11
20.999999999999609
 21
-76.004068741548181
 31
0.0
  0
LINE
  5
1EBF
  8
0
 62
     0
 10
15.873399243317269
 20
-71.999999999999488
 30
0.0
 11
12.873399243317261
 21
-68.999999999999474
 31
0.0
  0
LINE
  5
1EC0
  8
0
 62
     0
 10
25.999999999999609
 20
-82.126600756681796
 30
0.0
 11
20.999999999999599
 21
-77.12660075668181
 31
0.0
  0
LINE
  5
1EC1
  8
0
 62
     0
 10
14.75086722818363
 20
-71.999999999999488
 30
0.0
 11
11.75086722818363
 21
-68.999999999999474
 31
0.0
  0
LINE
  5
1EC2
  8
0
 62
     0
 10
25.999999999999609
 20
-83.249132771815468
 30
0.0
 11
20.999999999999609
 21
-78.249132771815468
 31
0.0
  0
LINE
  5
1EC3
  8
0
 62
     0
 10
13.628335213049979
 20
-71.999999999999488
 30
0.0
 11
10.999999999999609
 21
-69.371664786949111
 31
0.0
  0
LINE
  5
1EC4
  8
0
 62
     0
 10
25.999999999999609
 20
-84.371664786949097
 30
0.0
 11
20.999999999999609
 21
-79.371664786949111
 31
0.0
  0
LINE
  5
1EC5
  8
0
 62
     0
 10
12.50580319791634
 20
-71.999999999999488
 30
0.0
 11
10.9999999999996
 21
-70.494196802082755
 31
0.0
  0
LINE
  5
1EC6
  8
0
 62
     0
 10
25.505803197916329
 20
-84.999999999999474
 30
0.0
 11
20.999999999999609
 21
-80.494196802082755
 31
0.0
  0
LINE
  5
1EC7
  8
0
 62
     0
 10
11.383271182782689
 20
-71.999999999999488
 30
0.0
 11
10.9999999999996
 21
-71.616728817216384
 31
0.0
  0
LINE
  5
1EC8
  8
0
 62
     0
 10
24.383271182782689
 20
-84.999999999999474
 30
0.0
 11
20.999999999999609
 21
-81.616728817216398
 31
0.0
  0
LINE
  5
1EC9
  8
0
 62
     0
 10
23.260739167649039
 20
-84.999999999999474
 30
0.0
 11
20.260739167649039
 21
-81.999999999999474
 31
0.0
  0
LINE
  5
1ECA
  8
0
 62
     0
 10
22.13820715251541
 20
-84.999999999999474
 30
0.0
 11
19.138207152515399
 21
-81.999999999999474
 31
0.0
  0
LINE
  5
1ECB
  8
0
 62
     0
 10
21.01567513738177
 20
-84.999999999999474
 30
0.0
 11
18.015675137381759
 21
-81.999999999999474
 31
0.0
  0
LINE
  5
1ECC
  8
0
 62
     0
 10
19.893143122248109
 20
-84.999999999999474
 30
0.0
 11
16.893143122248109
 21
-81.999999999999488
 31
0.0
  0
LINE
  5
1ECD
  8
0
 62
     0
 10
18.770611107114469
 20
-84.999999999999474
 30
0.0
 11
15.770611107114471
 21
-81.999999999999488
 31
0.0
  0
LINE
  5
1ECE
  8
0
 62
     0
 10
17.648079091980829
 20
-84.999999999999474
 30
0.0
 11
14.64807909198082
 21
-81.999999999999488
 31
0.0
  0
LINE
  5
1ECF
  8
0
 62
     0
 10
16.525547076847189
 20
-84.999999999999474
 30
0.0
 11
13.525547076847181
 21
-81.999999999999488
 31
0.0
  0
LINE
  5
1ED0
  8
0
 62
     0
 10
15.403015061713541
 20
-84.999999999999474
 30
0.0
 11
12.403015061713541
 21
-81.999999999999488
 31
0.0
  0
LINE
  5
1ED1
  8
0
 62
     0
 10
14.28048304657989
 20
-84.999999999999474
 30
0.0
 11
11.28048304657989
 21
-81.999999999999474
 31
0.0
  0
LINE
  5
1ED2
  8
0
 62
     0
 10
13.15795103144626
 20
-84.999999999999474
 30
0.0
 11
10.999999999999609
 21
-82.842048968552845
 31
0.0
  0
LINE
  5
1ED3
  8
0
 62
     0
 10
12.035419016312609
 20
-84.999999999999474
 30
0.0
 11
10.9999999999996
 21
-83.964580983686474
 31
0.0
  0
LINE
  5
1ED4
  8
0
 62
     0
 10
25.008137483097631
 20
-84.999999999999474
 30
0.0
 11
25.999999999999609
 21
-84.008137483097514
 31
0.0
  0
LINE
  5
1ED5
  8
0
 62
     0
 10
23.885605467963991
 20
-84.999999999999474
 30
0.0
 11
25.999999999999609
 21
-82.885605467963885
 31
0.0
  0
LINE
  5
1ED6
  8
0
 62
     0
 10
22.763073452830341
 20
-84.999999999999474
 30
0.0
 11
25.999999999999599
 21
-81.763073452830227
 31
0.0
  0
LINE
  5
1ED7
  8
0
 62
     0
 10
21.640541437696701
 20
-84.999999999999474
 30
0.0
 11
25.999999999999591
 21
-80.640541437696584
 31
0.0
  0
LINE
  5
1ED8
  8
0
 62
     0
 10
20.51800942256305
 20
-84.999999999999474
 30
0.0
 11
25.999999999999599
 21
-79.51800942256294
 31
0.0
  0
LINE
  5
1ED9
  8
0
 62
     0
 10
19.3954774074294
 20
-84.999999999999474
 30
0.0
 11
25.999999999999599
 21
-78.395477407429297
 31
0.0
  0
LINE
  5
1EDA
  8
0
 62
     0
 10
18.27294539229576
 20
-84.999999999999474
 30
0.0
 11
25.999999999999599
 21
-77.272945392295654
 31
0.0
  0
LINE
  5
1EDB
  8
0
 62
     0
 10
20.999999999999599
 20
-81.15041337716201
 30
0.0
 11
25.999999999999591
 21
-76.15041337716201
 31
0.0
  0
LINE
  5
1EDC
  8
0
 62
     0
 10
17.15041337716211
 20
-84.999999999999474
 30
0.0
 11
20.150413377162121
 21
-81.999999999999488
 31
0.0
  0
LINE
  5
1EDD
  8
0
 62
     0
 10
20.999999999999599
 20
-80.027881362028353
 30
0.0
 11
25.999999999999599
 21
-75.027881362028367
 31
0.0
  0
LINE
  5
1EDE
  8
0
 62
     0
 10
16.02788136202847
 20
-84.999999999999474
 30
0.0
 11
19.027881362028481
 21
-81.999999999999488
 31
0.0
  0
LINE
  5
1EDF
  8
0
 62
     0
 10
20.999999999999599
 20
-78.905349346894724
 30
0.0
 11
25.999999999999599
 21
-73.905349346894724
 31
0.0
  0
LINE
  5
1EE0
  8
0
 62
     0
 10
14.90534934689483
 20
-84.999999999999474
 30
0.0
 11
17.90534934689483
 21
-81.999999999999488
 31
0.0
  0
LINE
  5
1EE1
  8
0
 62
     0
 10
20.999999999999599
 20
-77.78281733176108
 30
0.0
 11
25.999999999999599
 21
-72.78281733176108
 31
0.0
  0
LINE
  5
1EE2
  8
0
 62
     0
 10
13.782817331761191
 20
-84.999999999999474
 30
0.0
 11
16.782817331761191
 21
-81.999999999999488
 31
0.0
  0
LINE
  5
1EE3
  8
0
 62
     0
 10
20.999999999999599
 20
-76.660285316627423
 30
0.0
 11
25.999999999999609
 21
-71.660285316627423
 31
0.0
  0
LINE
  5
1EE4
  8
0
 62
     0
 10
12.66028531662754
 20
-84.999999999999474
 30
0.0
 11
15.66028531662754
 21
-81.999999999999488
 31
0.0
  0
LINE
  5
1EE5
  8
0
 62
     0
 10
20.999999999999599
 20
-75.537753301493765
 30
0.0
 11
25.999999999999599
 21
-70.537753301493794
 31
0.0
  0
LINE
  5
1EE6
  8
0
 62
     0
 10
11.5377533014939
 20
-84.999999999999474
 30
0.0
 11
14.5377533014939
 21
-81.999999999999488
 31
0.0
  0
LINE
  5
1EE7
  8
0
 62
     0
 10
20.999999999999599
 20
-74.415221286360136
 30
0.0
 11
25.999999999999599
 21
-69.415221286360151
 31
0.0
  0
LINE
  5
1EE8
  8
0
 62
     0
 10
10.9999999999996
 20
-84.415221286360136
 30
0.0
 11
13.41522128636025
 21
-81.999999999999488
 31
0.0
  0
LINE
  5
1EE9
  8
0
 62
     0
 10
20.999999999999599
 20
-73.292689271226493
 30
0.0
 11
25.292689271226621
 21
-68.999999999999474
 31
0.0
  0
LINE
  5
1EEA
  8
0
 62
     0
 10
10.999999999999609
 20
-83.292689271226493
 30
0.0
 11
12.29268927122661
 21
-81.999999999999488
 31
0.0
  0
LINE
  5
1EEB
  8
0
 62
     0
 10
20.979402139361031
 20
-72.190755116731424
 30
0.0
 11
24.170157256092981
 21
-68.999999999999474
 31
0.0
  0
LINE
  5
1EEC
  8
0
 62
     0
 10
10.9999999999996
 20
-82.170157256092835
 30
0.0
 11
11.17015725609297
 21
-81.999999999999488
 31
0.0
  0
LINE
  5
1EED
  8
0
 62
     0
 10
20.04762524095932
 20
-71.999999999999488
 30
0.0
 11
23.047625240959331
 21
-68.999999999999474
 31
0.0
  0
LINE
  5
1EEE
  8
0
 62
     0
 10
18.92509322582568
 20
-71.999999999999488
 30
0.0
 11
21.925093225825691
 21
-68.999999999999474
 31
0.0
  0
LINE
  5
1EEF
  8
0
 62
     0
 10
17.802561210692041
 20
-71.999999999999488
 30
0.0
 11
20.802561210692041
 21
-68.999999999999474
 31
0.0
  0
LINE
  5
1EF0
  8
0
 62
     0
 10
16.68002919555839
 20
-71.999999999999488
 30
0.0
 11
19.68002919555839
 21
-68.999999999999474
 31
0.0
  0
LINE
  5
1EF1
  8
0
 62
     0
 10
15.55749718042475
 20
-71.999999999999488
 30
0.0
 11
18.55749718042475
 21
-68.999999999999474
 31
0.0
  0
LINE
  5
1EF2
  8
0
 62
     0
 10
14.4349651652911
 20
-71.999999999999488
 30
0.0
 11
17.4349651652911
 21
-68.999999999999474
 31
0.0
  0
LINE
  5
1EF3
  8
0
 62
     0
 10
13.31243315015746
 20
-71.999999999999488
 30
0.0
 11
16.31243315015746
 21
-68.999999999999474
 31
0.0
  0
LINE
  5
1EF4
  8
0
 62
     0
 10
12.18990113502381
 20
-71.999999999999488
 30
0.0
 11
15.18990113502382
 21
-68.999999999999474
 31
0.0
  0
LINE
  5
1EF5
  8
0
 62
     0
 10
11.06736911989017
 20
-71.999999999999488
 30
0.0
 11
14.06736911989017
 21
-68.999999999999474
 31
0.0
  0
LINE
  5
1EF6
  8
0
 62
     0
 10
10.9999999999996
 20
-70.944837104756417
 30
0.0
 11
12.94483710475652
 21
-68.999999999999474
 31
0.0
  0
LINE
  5
1EF7
  8
0
 62
     0
 10
10.9999999999996
 20
-69.822305089622759
 30
0.0
 11
11.82230508962288
 21
-68.999999999999474
 31
0.0
  0
ENDBLK
  5
1EF9
  8
0
  0
BLOCK
  8
0
  2
*X82
 70
     1
 10
0.0
 20
0.0
 30
0.0
  3
*X82
  1

  0
LINE
  5
1F12
  8
0
 62
     0
 10
25.999999999999609
 20
-69.778748590211734
 30
0.0
 11
25.221251409787349
 21
-68.999999999999474
 31
0.0
  0
LINE
  5
1F13
  8
0
 62
     0
 10
25.999999999999609
 20
-70.901280605345391
 30
0.0
 11
24.09871939465371
 21
-68.999999999999474
 31
0.0
  0
LINE
  5
1F14
  8
0
 62
     0
 10
25.999999999999609
 20
-72.023812620479021
 30
0.0
 11
22.976187379520059
 21
-68.999999999999474
 31
0.0
  0
LINE
  5
1F15
  8
0
 62
     0
 10
25.999999999999609
 20
-73.146344635612664
 30
0.0
 11
21.85365536438643
 21
-68.999999999999474
 31
0.0
  0
LINE
  5
1F16
  8
0
 62
     0
 10
25.999999999999609
 20
-74.268876650746293
 30
0.0
 11
20.73112334925278
 21
-68.999999999999474
 31
0.0
  0
LINE
  5
1F17
  8
0
 62
     0
 10
25.999999999999609
 20
-75.391408665879965
 30
0.0
 11
19.608591334119129
 21
-68.999999999999474
 31
0.0
  0
LINE
  5
1F18
  8
0
 62
     0
 10
25.999999999999609
 20
-76.513940681013594
 30
0.0
 11
18.48605931898549
 21
-68.999999999999474
 31
0.0
  0
LINE
  5
1F19
  8
0
 62
     0
 10
20.36352730385185
 20
-71.999999999999488
 30
0.0
 11
17.363527303851839
 21
-68.999999999999474
 31
0.0
  0
LINE
  5
1F1A
  8
0
 62
     0
 10
25.999999999999609
 20
-77.636472696147237
 30
0.0
 11
20.999999999999599
 21
-72.636472696147237
 31
0.0
  0
LINE
  5
1F1B
  8
0
 62
     0
 10
19.240995288718199
 20
-71.999999999999488
 30
0.0
 11
16.240995288718199
 21
-68.999999999999474
 31
0.0
  0
LINE
  5
1F1C
  8
0
 62
     0
 10
25.999999999999609
 20
-78.75900471128088
 30
0.0
 11
20.999999999999609
 21
-73.75900471128088
 31
0.0
  0
LINE
  5
1F1D
  8
0
 62
     0
 10
18.11846327358456
 20
-71.999999999999488
 30
0.0
 11
15.11846327358456
 21
-68.999999999999474
 31
0.0
  0
LINE
  5
1F1E
  8
0
 62
     0
 10
25.999999999999609
 20
-79.881536726414538
 30
0.0
 11
20.999999999999609
 21
-74.881536726414538
 31
0.0
  0
LINE
  5
1F1F
  8
0
 62
     0
 10
16.995931258450909
 20
-71.999999999999488
 30
0.0
 11
13.995931258450909
 21
-68.999999999999474
 31
0.0
  0
LINE
  5
1F20
  8
0
 62
     0
 10
25.999999999999609
 20
-81.004068741548195
 30
0.0
 11
20.999999999999609
 21
-76.004068741548181
 31
0.0
  0
LINE
  5
1F21
  8
0
 62
     0
 10
15.873399243317269
 20
-71.999999999999488
 30
0.0
 11
12.873399243317261
 21
-68.999999999999474
 31
0.0
  0
LINE
  5
1F22
  8
0
 62
     0
 10
25.999999999999609
 20
-82.126600756681796
 30
0.0
 11
20.999999999999599
 21
-77.12660075668181
 31
0.0
  0
LINE
  5
1F23
  8
0
 62
     0
 10
14.75086722818363
 20
-71.999999999999488
 30
0.0
 11
11.75086722818363
 21
-68.999999999999474
 31
0.0
  0
LINE
  5
1F24
  8
0
 62
     0
 10
25.999999999999609
 20
-83.249132771815468
 30
0.0
 11
20.999999999999609
 21
-78.249132771815468
 31
0.0
  0
LINE
  5
1F25
  8
0
 62
     0
 10
13.628335213049979
 20
-71.999999999999488
 30
0.0
 11
10.999999999999609
 21
-69.371664786949111
 31
0.0
  0
LINE
  5
1F26
  8
0
 62
     0
 10
25.999999999999609
 20
-84.371664786949097
 30
0.0
 11
20.999999999999609
 21
-79.371664786949111
 31
0.0
  0
LINE
  5
1F27
  8
0
 62
     0
 10
12.50580319791634
 20
-71.999999999999488
 30
0.0
 11
10.9999999999996
 21
-70.494196802082755
 31
0.0
  0
LINE
  5
1F28
  8
0
 62
     0
 10
25.505803197916329
 20
-84.999999999999474
 30
0.0
 11
20.999999999999609
 21
-80.494196802082755
 31
0.0
  0
LINE
  5
1F29
  8
0
 62
     0
 10
11.383271182782689
 20
-71.999999999999488
 30
0.0
 11
10.9999999999996
 21
-71.616728817216384
 31
0.0
  0
LINE
  5
1F2A
  8
0
 62
     0
 10
24.383271182782689
 20
-84.999999999999474
 30
0.0
 11
20.999999999999609
 21
-81.616728817216398
 31
0.0
  0
LINE
  5
1F2B
  8
0
 62
     0
 10
23.260739167649039
 20
-84.999999999999474
 30
0.0
 11
20.260739167649039
 21
-81.999999999999474
 31
0.0
  0
LINE
  5
1F2C
  8
0
 62
     0
 10
22.13820715251541
 20
-84.999999999999474
 30
0.0
 11
19.138207152515399
 21
-81.999999999999474
 31
0.0
  0
LINE
  5
1F2D
  8
0
 62
     0
 10
21.01567513738177
 20
-84.999999999999474
 30
0.0
 11
18.015675137381759
 21
-81.999999999999474
 31
0.0
  0
LINE
  5
1F2E
  8
0
 62
     0
 10
19.893143122248109
 20
-84.999999999999474
 30
0.0
 11
16.893143122248109
 21
-81.999999999999488
 31
0.0
  0
LINE
  5
1F2F
  8
0
 62
     0
 10
18.770611107114469
 20
-84.999999999999474
 30
0.0
 11
15.770611107114471
 21
-81.999999999999488
 31
0.0
  0
LINE
  5
1F30
  8
0
 62
     0
 10
17.648079091980829
 20
-84.999999999999474
 30
0.0
 11
14.64807909198082
 21
-81.999999999999488
 31
0.0
  0
LINE
  5
1F31
  8
0
 62
     0
 10
16.525547076847189
 20
-84.999999999999474
 30
0.0
 11
13.525547076847181
 21
-81.999999999999488
 31
0.0
  0
LINE
  5
1F32
  8
0
 62
     0
 10
15.403015061713541
 20
-84.999999999999474
 30
0.0
 11
12.403015061713541
 21
-81.999999999999488
 31
0.0
  0
LINE
  5
1F33
  8
0
 62
     0
 10
14.28048304657989
 20
-84.999999999999474
 30
0.0
 11
11.28048304657989
 21
-81.999999999999474
 31
0.0
  0
LINE
  5
1F34
  8
0
 62
     0
 10
13.15795103144626
 20
-84.999999999999474
 30
0.0
 11
10.999999999999609
 21
-82.842048968552845
 31
0.0
  0
LINE
  5
1F35
  8
0
 62
     0
 10
12.035419016312609
 20
-84.999999999999474
 30
0.0
 11
10.9999999999996
 21
-83.964580983686474
 31
0.0
  0
LINE
  5
1F36
  8
0
 62
     0
 10
25.008137483097631
 20
-84.999999999999474
 30
0.0
 11
25.999999999999609
 21
-84.008137483097514
 31
0.0
  0
LINE
  5
1F37
  8
0
 62
     0
 10
23.885605467963991
 20
-84.999999999999474
 30
0.0
 11
25.999999999999609
 21
-82.885605467963885
 31
0.0
  0
LINE
  5
1F38
  8
0
 62
     0
 10
22.763073452830341
 20
-84.999999999999474
 30
0.0
 11
25.999999999999599
 21
-81.763073452830227
 31
0.0
  0
LINE
  5
1F39
  8
0
 62
     0
 10
21.640541437696701
 20
-84.999999999999474
 30
0.0
 11
25.999999999999591
 21
-80.640541437696584
 31
0.0
  0
LINE
  5
1F3A
  8
0
 62
     0
 10
20.51800942256305
 20
-84.999999999999474
 30
0.0
 11
25.999999999999599
 21
-79.51800942256294
 31
0.0
  0
LINE
  5
1F3B
  8
0
 62
     0
 10
19.3954774074294
 20
-84.999999999999474
 30
0.0
 11
25.999999999999599
 21
-78.395477407429297
 31
0.0
  0
LINE
  5
1F3C
  8
0
 62
     0
 10
18.27294539229576
 20
-84.999999999999474
 30
0.0
 11
25.999999999999599
 21
-77.272945392295654
 31
0.0
  0
LINE
  5
1F3D
  8
0
 62
     0
 10
20.999999999999599
 20
-81.15041337716201
 30
0.0
 11
25.999999999999591
 21
-76.15041337716201
 31
0.0
  0
LINE
  5
1F3E
  8
0
 62
     0
 10
17.15041337716211
 20
-84.999999999999474
 30
0.0
 11
20.150413377162121
 21
-81.999999999999488
 31
0.0
  0
LINE
  5
1F3F
  8
0
 62
     0
 10
20.999999999999599
 20
-80.027881362028353
 30
0.0
 11
25.999999999999599
 21
-75.027881362028367
 31
0.0
  0
LINE
  5
1F40
  8
0
 62
     0
 10
16.02788136202847
 20
-84.999999999999474
 30
0.0
 11
19.027881362028481
 21
-81.999999999999488
 31
0.0
  0
LINE
  5
1F41
  8
0
 62
     0
 10
20.999999999999599
 20
-78.905349346894724
 30
0.0
 11
25.999999999999599
 21
-73.905349346894724
 31
0.0
  0
LINE
  5
1F42
  8
0
 62
     0
 10
14.90534934689483
 20
-84.999999999999474
 30
0.0
 11
17.90534934689483
 21
-81.999999999999488
 31
0.0
  0
LINE
  5
1F43
  8
0
 62
     0
 10
20.999999999999599
 20
-77.78281733176108
 30
0.0
 11
25.999999999999599
 21
-72.78281733176108
 31
0.0
  0
LINE
  5
1F44
  8
0
 62
     0
 10
13.782817331761191
 20
-84.999999999999474
 30
0.0
 11
16.782817331761191
 21
-81.999999999999488
 31
0.0
  0
LINE
  5
1F45
  8
0
 62
     0
 10
20.999999999999599
 20
-76.660285316627423
 30
0.0
 11
25.999999999999609
 21
-71.660285316627423
 31
0.0
  0
LINE
  5
1F46
  8
0
 62
     0
 10
12.66028531662754
 20
-84.999999999999474
 30
0.0
 11
15.66028531662754
 21
-81.999999999999488
 31
0.0
  0
LINE
  5
1F47
  8
0
 62
     0
 10
20.999999999999599
 20
-75.537753301493765
 30
0.0
 11
25.999999999999599
 21
-70.537753301493794
 31
0.0
  0
LINE
  5
1F48
  8
0
 62
     0
 10
11.5377533014939
 20
-84.999999999999474
 30
0.0
 11
14.5377533014939
 21
-81.999999999999488
 31
0.0
  0
LINE
  5
1F49
  8
0
 62
     0
 10
20.999999999999599
 20
-74.415221286360136
 30
0.0
 11
25.999999999999599
 21
-69.415221286360151
 31
0.0
  0
LINE
  5
1F4A
  8
0
 62
     0
 10
10.9999999999996
 20
-84.415221286360136
 30
0.0
 11
13.41522128636025
 21
-81.999999999999488
 31
0.0
  0
LINE
  5
1F4B
  8
0
 62
     0
 10
20.999999999999599
 20
-73.292689271226493
 30
0.0
 11
25.292689271226621
 21
-68.999999999999474
 31
0.0
  0
LINE
  5
1F4C
  8
0
 62
     0
 10
10.999999999999609
 20
-83.292689271226493
 30
0.0
 11
12.29268927122661
 21
-81.999999999999488
 31
0.0
  0
LINE
  5
1F4D
  8
0
 62
     0
 10
20.979402139361031
 20
-72.190755116731424
 30
0.0
 11
24.170157256092981
 21
-68.999999999999474
 31
0.0
  0
LINE
  5
1F4E
  8
0
 62
     0
 10
10.9999999999996
 20
-82.170157256092835
 30
0.0
 11
11.17015725609297
 21
-81.999999999999488
 31
0.0
  0
LINE
  5
1F4F
  8
0
 62
     0
 10
20.04762524095932
 20
-71.999999999999488
 30
0.0
 11
23.047625240959331
 21
-68.999999999999474
 31
0.0
  0
LINE
  5
1F50
  8
0
 62
     0
 10
18.92509322582568
 20
-71.999999999999488
 30
0.0
 11
21.925093225825691
 21
-68.999999999999474
 31
0.0
  0
LINE
  5
1F51
  8
0
 62
     0
 10
17.802561210692041
 20
-71.999999999999488
 30
0.0
 11
20.802561210692041
 21
-68.999999999999474
 31
0.0
  0
LINE
  5
1F52
  8
0
 62
     0
 10
16.68002919555839
 20
-71.999999999999488
 30
0.0
 11
19.68002919555839
 21
-68.999999999999474
 31
0.0
  0
LINE
  5
1F53
  8
0
 62
     0
 10
15.55749718042475
 20
-71.999999999999488
 30
0.0
 11
18.55749718042475
 21
-68.999999999999474
 31
0.0
  0
LINE
  5
1F54
  8
0
 62
     0
 10
14.4349651652911
 20
-71.999999999999488
 30
0.0
 11
17.4349651652911
 21
-68.999999999999474
 31
0.0
  0
LINE
  5
1F55
  8
0
 62
     0
 10
13.31243315015746
 20
-71.999999999999488
 30
0.0
 11
16.31243315015746
 21
-68.999999999999474
 31
0.0
  0
LINE
  5
1F56
  8
0
 62
     0
 10
12.18990113502381
 20
-71.999999999999488
 30
0.0
 11
15.18990113502382
 21
-68.999999999999474
 31
0.0
  0
LINE
  5
1F57
  8
0
 62
     0
 10
11.06736911989017
 20
-71.999999999999488
 30
0.0
 11
14.06736911989017
 21
-68.999999999999474
 31
0.0
  0
LINE
  5
1F58
  8
0
 62
     0
 10
10.9999999999996
 20
-70.944837104756417
 30
0.0
 11
12.94483710475652
 21
-68.999999999999474
 31
0.0
  0
LINE
  5
1F59
  8
0
 62
     0
 10
10.9999999999996
 20
-69.822305089622759
 30
0.0
 11
11.82230508962288
 21
-68.999999999999474
 31
0.0
  0
ENDBLK
  5
1F5B
  8
0
  0
BLOCK
  8
0
  2
*X83
 70
     1
 10
0.0
 20
0.0
 30
0.0
  3
*X83
  1

  0
LINE
  5
1F5D
  8
0
 62
     0
 10
10.9999999999996
 20
-82.842048968552845
 30
0.0
 11
10.850161150494589
 21
-82.692210119047814
 31
0.0
  0
LINE
  5
1F5E
  8
0
 62
     0
 10
10.9999999999996
 20
-83.964580983686474
 30
0.0
 11
9.9602090083319652
 21
-82.924789992018844
 31
0.0
  0
LINE
  5
1F5F
  8
0
 62
     0
 10
10.9999999999996
 20
-85.087112998820118
 30
0.0
 11
9.0702568661693235
 21
-83.157369864989846
 31
0.0
  0
LINE
  5
1F60
  8
0
 62
     0
 10
10.99999999999959
 20
-86.209645013953747
 30
0.0
 11
8.1803047240066942
 21
-83.389949737960848
 31
0.0
  0
LINE
  5
1F61
  8
0
 62
     0
 10
10.9999999999996
 20
-87.332177029087404
 30
0.0
 11
7.2049499905167798
 21
-83.537127019604597
 31
0.0
  0
LINE
  5
1F62
  8
0
 62
     0
 10
10.9999999999996
 20
-88.454709044221048
 30
0.0
 11
6.2106227106755583
 21
-83.665331754897011
 31
0.0
  0
LINE
  5
1F63
  8
0
 62
     0
 10
10.9999999999996
 20
-89.577241059354691
 30
0.0
 11
5.1987892060609857
 21
-83.776030265416054
 31
0.0
  0
LINE
  5
1F64
  8
0
 62
     0
 10
10.999999999999609
 20
-90.699773074488348
 30
0.0
 11
4.168611257908629
 21
-83.868384332397355
 31
0.0
  0
LINE
  5
1F65
  8
0
 62
     0
 10
10.09150719079974
 20
-90.913812280422121
 30
0.0
 11
3.1191586667849398
 21
-83.941463756407316
 31
0.0
  0
LINE
  5
1F66
  8
0
 62
     0
 10
8.8746416075469057
 20
-90.819478712302924
 30
0.0
 11
2.0493948933680102
 21
-83.994231998124036
 31
0.0
  0
LINE
  5
1F67
  8
0
 62
     0
 10
7.683064145277398
 20
-90.750433265167061
 30
0.0
 11
0.9581596343367806
 21
-84.025528754226457
 31
0.0
  0
LINE
  5
1F68
  8
0
 62
     0
 10
6.515183354766882
 20
-90.70508448979021
 30
0.0
 11
-0.1558525075688593
 21
-84.034048627454453
 31
0.0
  0
LINE
  5
1F69
  8
0
 62
     0
 10
5.3695913893036638
 20
-90.682024539460613
 30
0.0
 11
-1.294118387988682
 21
-84.018314762168274
 31
0.0
  0
LINE
  5
1F6A
  8
0
 62
     0
 10
4.2450357352359731
 20
-90.680000900526579
 30
0.0
 11
-2.4583192563825591
 21
-83.976645908908026
 31
0.0
  0
LINE
  5
1F6B
  8
0
 62
     0
 10
3.140396333756029
 20
-90.697893514180279
 30
0.0
 11
-3.6503823871163301
 21
-83.907114793307926
 31
0.0
  0
LINE
  5
1F6C
  8
0
 62
     0
 10
2.054666886510752
 20
-90.734696082068623
 30
0.0
 11
-4.8725343954529086
 21
-83.807494800104976
 31
0.0
  0
LINE
  5
1F6D
  8
0
 62
     0
 10
0.9869394450527266
 20
-90.789500655744263
 30
0.0
 11
-6.1273705261262839
 21
-83.675190684565251
 31
0.0
  0
LINE
  5
1F6E
  8
0
 62
     0
 10
-0.0636083954044651
 20
-90.861484830420707
 30
0.0
 11
-7.4179461991311006
 21
-83.507147026694071
 31
0.0
  0
LINE
  5
1F6F
  8
0
 62
     0
 10
-1.097724217100136
 20
-90.949901023858686
 30
0.0
 11
-8.9796134209566745
 21
-83.068011820002141
 31
0.0
  0
LINE
  5
1F70
  8
0
 62
     0
 10
-2.1160898166864959
 20
-91.054067439405955
 30
0.0
 11
-10.84586073743754
 21
-82.324296518654918
 31
0.0
  0
LINE
  5
1F71
  8
0
 62
     0
 10
-3.119328870836255
 20
-91.173360400389853
 30
0.0
 11
-11.0000000000302
 21
-83.292689271195897
 31
0.0
  0
LINE
  5
1F72
  8
0
 62
     0
 10
-4.1080134767806342
 20
-91.307207809579126
 30
0.0
 11
-11.000000000028329
 21
-84.415221286331416
 31
0.0
  0
LINE
  5
1F73
  8
0
 62
     0
 10
-5.0826697633587941
 20
-91.455083538134588
 30
0.0
 11
-11.000000000026469
 21
-85.537753301466921
 31
0.0
  0
LINE
  5
1F74
  8
0
 62
     0
 10
-6.0437827291405242
 20
-91.616502587486494
 30
0.0
 11
-11.000000000024601
 21
-86.660285316602426
 31
0.0
  0
LINE
  5
1F75
  8
0
 62
     0
 10
-6.991800433886282
 20
-91.791016897874414
 30
0.0
 11
-11.00000000002275
 21
-87.782817331737931
 31
0.0
  0
LINE
  5
1F76
  8
0
 62
     0
 10
-7.92713764588526
 20
-91.978211701009059
 30
0.0
 11
-11.00000000002087
 21
-88.905349346873464
 31
0.0
  0
LINE
  5
1F77
  8
0
 62
     0
 10
-8.8501790289910982
 20
-92.177702333036876
 30
0.0
 11
-11.000000000019011
 21
-90.027881362008955
 31
0.0
  0
LINE
  5
1F78
  8
0
 62
     0
 10
-9.7612819382922993
 20
-92.389131438869313
 30
0.0
 11
-11.000000000017151
 21
-91.15041337714446
 31
0.0
  0
LINE
  5
1F79
  8
0
 62
     0
 10
-10.660778881441709
 20
-92.612166510853527
 30
0.0
 11
-11.000000000015291
 21
-92.272945392279965
 31
0.0
  0
LINE
  5
1F7A
  8
0
 62
     0
 10
10.11225164770981
 20
-90.915629714318158
 30
0.0
 11
10.99999999999959
 21
-90.027881362028353
 31
0.0
  0
LINE
  5
1F7B
  8
0
 62
     0
 10
9.0721952868629074
 20
-90.833154060031404
 30
0.0
 11
10.9999999999996
 21
-88.905349346894724
 31
0.0
  0
LINE
  5
1F7C
  8
0
 62
     0
 10
8.0154409711998014
 20
-90.767376360560874
 30
0.0
 11
10.99999999999959
 21
-87.78281733176108
 31
0.0
  0
LINE
  5
1F7D
  8
0
 62
     0
 10
6.9412148236806877
 20
-90.719070492946344
 30
0.0
 11
10.9999999999996
 21
-86.660285316627423
 31
0.0
  0
LINE
  5
1F7E
  8
0
 62
     0
 10
5.8486644295597747
 20
-90.689088871933606
 30
0.0
 11
10.99999999999959
 21
-85.537753301493765
 31
0.0
  0
LINE
  5
1F7F
  8
0
 62
     0
 10
4.7368474030370322
 20
-90.678373883322706
 30
0.0
 11
10.9999999999996
 21
-84.415221286360136
 31
0.0
  0
LINE
  5
1F80
  8
0
 62
     0
 10
3.6047176941227259
 20
-90.687971577103369
 30
0.0
 11
10.99999999999959
 21
-83.292689271226493
 31
0.0
  0
LINE
  5
1F81
  8
0
 62
     0
 10
2.451109063454318
 20
-90.719048192638127
 30
0.0
 11
10.346256933451651
 21
-82.823900322640796
 31
0.0
  0
LINE
  5
1F82
  8
0
 62
     0
 10
1.2747149728878
 20
-90.772910268071016
 30
0.0
 11
8.826570420446167
 21
-83.221054820512649
 31
0.0
  0
LINE
  5
1F83
  8
0
 62
     0
 10
0.0740638910879667
 20
-90.851029334737206
 30
0.0
 11
7.4179461991319391
 21
-83.507147026693204
 31
0.0
  0
LINE
  5
1F84
  8
0
 62
     0
 10
-1.152511335274603
 20
-90.955072545966104
 30
0.0
 11
6.1273705261269589
 21
-83.675190684564569
 31
0.0
  0
LINE
  5
1F85
  8
0
 62
     0
 10
-2.4069118909936829
 20
-91.086941086551548
 30
0.0
 11
4.8725343954534281
 21
-83.80749480010445
 31
0.0
  0
LINE
  5
1F86
  8
0
 62
     0
 10
-3.6913217497306898
 20
-91.248818930154926
 30
0.0
 11
3.6503823871167
 21
-83.907114793307514
 31
0.0
  0
LINE
  5
1F87
  8
0
 62
     0
 10
-5.0082704137541043
 20
-91.443235579044696
 30
0.0
 11
2.4583192563827931
 21
-83.976645908907798
 31
0.0
  0
LINE
  5
1F88
  8
0
 62
     0
 10
-6.3607148851693722
 20
-91.673148035326307
 30
0.0
 11
1.294118387988795
 21
-84.01831476216816
 31
0.0
  0
LINE
  5
1F89
  8
0
 62
     0
 10
-7.7521486224813003
 20
-91.942049757504606
 30
0.0
 11
0.1558525075688451
 21
-84.034048627454453
 31
0.0
  0
LINE
  5
1F8A
  8
0
 62
     0
 10
-9.1867492317523016
 20
-92.254118351641935
 30
0.0
 11
-0.9581596343368943
 21
-84.025528754226556
 31
0.0
  0
LINE
  5
1F8B
  8
0
 62
     0
 10
-10.669583221670759
 20
-92.614420326426753
 30
0.0
 11
-2.0493948933682371
 21
-83.994231998124235
 31
0.0
  0
LINE
  5
1F8C
  8
0
 62
     0
 10
-11.00000000001603
 20
-91.822305089638377
 30
0.0
 11
-3.1191586667852529
 21
-83.941463756407614
 31
0.0
  0
LINE
  5
1F8D
  8
0
 62
     0
 10
-11.00000000001789
 20
-90.699773074506609
 30
0.0
 11
-4.1686112579090269
 21
-83.868384332397724
 31
0.0
  0
LINE
  5
1F8E
  8
0
 62
     0
 10
-11.00000000001976
 20
-89.577241059374856
 30
0.0
 11
-5.198789206061476
 21
-83.776030265416537
 31
0.0
  0
LINE
  5
1F8F
  8
0
 62
     0
 10
-11.00000000002162
 20
-88.45470904424306
 30
0.0
 11
-6.2106227106761258
 21
-83.665331754897537
 31
0.0
  0
LINE
  5
1F90
  8
0
 62
     0
 10
-11.000000000023491
 20
-87.332177029111278
 30
0.0
 11
-7.2049499905174272
 21
-83.537127019605208
 31
0.0
  0
LINE
  5
1F91
  8
0
 62
     0
 10
-11.000000000025359
 20
-86.209645013979497
 30
0.0
 11
-8.1778688013621306
 21
-83.387513815316268
 31
0.0
  0
LINE
  5
1F92
  8
0
 62
     0
 10
-11.000000000027219
 20
-85.087112998847715
 30
0.0
 11
-8.9805325432092502
 21
-83.067645542029766
 31
0.0
  0
LINE
  5
1F93
  8
0
 62
     0
 10
-11.000000000029081
 20
-83.964580983715933
 30
0.0
 11
-9.7831962850563752
 21
-82.747777268743235
 31
0.0
  0
LINE
  5
1F94
  8
0
 62
     0
 10
-11.000000000030941
 20
-82.842048968584152
 30
0.0
 11
-10.585860026903511
 21
-82.427908995456718
 31
0.0
  0
ENDBLK
  5
1F96
  8
0
  0
BLOCK
  8
0
  2
*X84
 70
     1
 10
0.0
 20
0.0
 30
0.0
  3
*X84
  1

  0
LINE
  5
1F98
  8
0
 62
     0
 10
10.9999999999996
 20
-82.842048968552845
 30
0.0
 11
10.850161150494589
 21
-82.692210119047814
 31
0.0
  0
LINE
  5
1F99
  8
0
 62
     0
 10
10.9999999999996
 20
-83.964580983686474
 30
0.0
 11
9.9602090083319652
 21
-82.924789992018844
 31
0.0
  0
LINE
  5
1F9A
  8
0
 62
     0
 10
10.9999999999996
 20
-85.087112998820118
 30
0.0
 11
9.0702568661693235
 21
-83.157369864989846
 31
0.0
  0
LINE
  5
1F9B
  8
0
 62
     0
 10
10.99999999999959
 20
-86.209645013953747
 30
0.0
 11
8.1803047240066942
 21
-83.389949737960848
 31
0.0
  0
LINE
  5
1F9C
  8
0
 62
     0
 10
10.9999999999996
 20
-87.332177029087404
 30
0.0
 11
7.2049499905167798
 21
-83.537127019604597
 31
0.0
  0
LINE
  5
1F9D
  8
0
 62
     0
 10
10.9999999999996
 20
-88.454709044221048
 30
0.0
 11
6.2106227106755583
 21
-83.665331754897011
 31
0.0
  0
LINE
  5
1F9E
  8
0
 62
     0
 10
10.9999999999996
 20
-89.577241059354691
 30
0.0
 11
5.1987892060609857
 21
-83.776030265416054
 31
0.0
  0
LINE
  5
1F9F
  8
0
 62
     0
 10
10.999999999999609
 20
-90.699773074488348
 30
0.0
 11
4.168611257908629
 21
-83.868384332397355
 31
0.0
  0
LINE
  5
1FA0
  8
0
 62
     0
 10
10.09150719079974
 20
-90.913812280422121
 30
0.0
 11
3.1191586667849398
 21
-83.941463756407316
 31
0.0
  0
LINE
  5
1FA1
  8
0
 62
     0
 10
8.8746416075469057
 20
-90.819478712302924
 30
0.0
 11
2.0493948933680102
 21
-83.994231998124036
 31
0.0
  0
LINE
  5
1FA2
  8
0
 62
     0
 10
7.683064145277398
 20
-90.750433265167061
 30
0.0
 11
0.9581596343367806
 21
-84.025528754226457
 31
0.0
  0
LINE
  5
1FA3
  8
0
 62
     0
 10
6.515183354766882
 20
-90.70508448979021
 30
0.0
 11
-0.1558525075688593
 21
-84.034048627454453
 31
0.0
  0
LINE
  5
1FA4
  8
0
 62
     0
 10
5.3695913893036638
 20
-90.682024539460613
 30
0.0
 11
-1.294118387988682
 21
-84.018314762168274
 31
0.0
  0
LINE
  5
1FA5
  8
0
 62
     0
 10
4.2450357352359731
 20
-90.680000900526579
 30
0.0
 11
-2.4583192563825591
 21
-83.976645908908026
 31
0.0
  0
LINE
  5
1FA6
  8
0
 62
     0
 10
3.140396333756029
 20
-90.697893514180279
 30
0.0
 11
-3.6503823871163301
 21
-83.907114793307926
 31
0.0
  0
LINE
  5
1FA7
  8
0
 62
     0
 10
2.054666886510752
 20
-90.734696082068623
 30
0.0
 11
-4.8725343954529086
 21
-83.807494800104976
 31
0.0
  0
LINE
  5
1FA8
  8
0
 62
     0
 10
0.9869394450527266
 20
-90.789500655744263
 30
0.0
 11
-6.1273705261262839
 21
-83.675190684565251
 31
0.0
  0
LINE
  5
1FA9
  8
0
 62
     0
 10
-0.0636083954044651
 20
-90.861484830420707
 30
0.0
 11
-7.4179461991311006
 21
-83.507147026694071
 31
0.0
  0
LINE
  5
1FAA
  8
0
 62
     0
 10
-1.097724217100136
 20
-90.949901023858686
 30
0.0
 11
-8.9796134209566745
 21
-83.068011820002141
 31
0.0
  0
LINE
  5
1FAB
  8
0
 62
     0
 10
-2.1160898166864959
 20
-91.054067439405955
 30
0.0
 11
-10.84586073743754
 21
-82.324296518654918
 31
0.0
  0
LINE
  5
1FAC
  8
0
 62
     0
 10
-3.119328870836255
 20
-91.173360400389853
 30
0.0
 11
-11.0000000000302
 21
-83.292689271195897
 31
0.0
  0
LINE
  5
1FAD
  8
0
 62
     0
 10
-4.1080134767806342
 20
-91.307207809579126
 30
0.0
 11
-11.000000000028329
 21
-84.415221286331416
 31
0.0
  0
LINE
  5
1FAE
  8
0
 62
     0
 10
-5.0826697633587941
 20
-91.455083538134588
 30
0.0
 11
-11.000000000026469
 21
-85.537753301466921
 31
0.0
  0
LINE
  5
1FAF
  8
0
 62
     0
 10
-6.0437827291405242
 20
-91.616502587486494
 30
0.0
 11
-11.000000000024601
 21
-86.660285316602426
 31
0.0
  0
LINE
  5
1FB0
  8
0
 62
     0
 10
-6.991800433886282
 20
-91.791016897874414
 30
0.0
 11
-11.00000000002275
 21
-87.782817331737931
 31
0.0
  0
LINE
  5
1FB1
  8
0
 62
     0
 10
-7.92713764588526
 20
-91.978211701009059
 30
0.0
 11
-11.00000000002087
 21
-88.905349346873464
 31
0.0
  0
LINE
  5
1FB2
  8
0
 62
     0
 10
-8.8501790289910982
 20
-92.177702333036876
 30
0.0
 11
-11.000000000019011
 21
-90.027881362008955
 31
0.0
  0
LINE
  5
1FB3
  8
0
 62
     0
 10
-9.7612819382922993
 20
-92.389131438869313
 30
0.0
 11
-11.000000000017151
 21
-91.15041337714446
 31
0.0
  0
LINE
  5
1FB4
  8
0
 62
     0
 10
-10.660778881441709
 20
-92.612166510853527
 30
0.0
 11
-11.000000000015291
 21
-92.272945392279965
 31
0.0
  0
LINE
  5
1FB5
  8
0
 62
     0
 10
10.11225164770981
 20
-90.915629714318158
 30
0.0
 11
10.99999999999959
 21
-90.027881362028353
 31
0.0
  0
LINE
  5
1FB6
  8
0
 62
     0
 10
9.0721952868629074
 20
-90.833154060031404
 30
0.0
 11
10.9999999999996
 21
-88.905349346894724
 31
0.0
  0
LINE
  5
1FB7
  8
0
 62
     0
 10
8.0154409711998014
 20
-90.767376360560874
 30
0.0
 11
10.99999999999959
 21
-87.78281733176108
 31
0.0
  0
LINE
  5
1FB8
  8
0
 62
     0
 10
6.9412148236806877
 20
-90.719070492946344
 30
0.0
 11
10.9999999999996
 21
-86.660285316627423
 31
0.0
  0
LINE
  5
1FB9
  8
0
 62
     0
 10
5.8486644295597747
 20
-90.689088871933606
 30
0.0
 11
10.99999999999959
 21
-85.537753301493765
 31
0.0
  0
LINE
  5
1FBA
  8
0
 62
     0
 10
4.7368474030370322
 20
-90.678373883322706
 30
0.0
 11
10.9999999999996
 21
-84.415221286360136
 31
0.0
  0
LINE
  5
1FBB
  8
0
 62
     0
 10
3.6047176941227259
 20
-90.687971577103369
 30
0.0
 11
10.99999999999959
 21
-83.292689271226493
 31
0.0
  0
LINE
  5
1FBC
  8
0
 62
     0
 10
2.451109063454318
 20
-90.719048192638127
 30
0.0
 11
10.346256933451651
 21
-82.823900322640796
 31
0.0
  0
LINE
  5
1FBD
  8
0
 62
     0
 10
1.2747149728878
 20
-90.772910268071016
 30
0.0
 11
8.826570420446167
 21
-83.221054820512649
 31
0.0
  0
LINE
  5
1FBE
  8
0
 62
     0
 10
0.0740638910879667
 20
-90.851029334737206
 30
0.0
 11
7.4179461991319391
 21
-83.507147026693204
 31
0.0
  0
LINE
  5
1FBF
  8
0
 62
     0
 10
-1.152511335274603
 20
-90.955072545966104
 30
0.0
 11
6.1273705261269589
 21
-83.675190684564569
 31
0.0
  0
LINE
  5
1FC0
  8
0
 62
     0
 10
-2.4069118909936829
 20
-91.086941086551548
 30
0.0
 11
4.8725343954534281
 21
-83.80749480010445
 31
0.0
  0
LINE
  5
1FC1
  8
0
 62
     0
 10
-3.6913217497306898
 20
-91.248818930154926
 30
0.0
 11
3.6503823871167
 21
-83.907114793307514
 31
0.0
  0
LINE
  5
1FC2
  8
0
 62
     0
 10
-5.0082704137541043
 20
-91.443235579044696
 30
0.0
 11
2.4583192563827931
 21
-83.976645908907798
 31
0.0
  0
LINE
  5
1FC3
  8
0
 62
     0
 10
-6.3607148851693722
 20
-91.673148035326307
 30
0.0
 11
1.294118387988795
 21
-84.01831476216816
 31
0.0
  0
LINE
  5
1FC4
  8
0
 62
     0
 10
-7.7521486224813003
 20
-91.942049757504606
 30
0.0
 11
0.1558525075688451
 21
-84.034048627454453
 31
0.0
  0
LINE
  5
1FC5
  8
0
 62
     0
 10
-9.1867492317523016
 20
-92.254118351641935
 30
0.0
 11
-0.9581596343368943
 21
-84.025528754226556
 31
0.0
  0
LINE
  5
1FC6
  8
0
 62
     0
 10
-10.669583221670759
 20
-92.614420326426753
 30
0.0
 11
-2.0493948933682371
 21
-83.994231998124235
 31
0.0
  0
LINE
  5
1FC7
  8
0
 62
     0
 10
-11.00000000001603
 20
-91.822305089638377
 30
0.0
 11
-3.1191586667852529
 21
-83.941463756407614
 31
0.0
  0
LINE
  5
1FC8
  8
0
 62
     0
 10
-11.00000000001789
 20
-90.699773074506609
 30
0.0
 11
-4.1686112579090269
 21
-83.868384332397724
 31
0.0
  0
LINE
  5
1FC9
  8
0
 62
     0
 10
-11.00000000001976
 20
-89.577241059374856
 30
0.0
 11
-5.198789206061476
 21
-83.776030265416537
 31
0.0
  0
LINE
  5
1FCA
  8
0
 62
     0
 10
-11.00000000002162
 20
-88.45470904424306
 30
0.0
 11
-6.2106227106761258
 21
-83.665331754897537
 31
0.0
  0
LINE
  5
1FCB
  8
0
 62
     0
 10
-11.000000000023491
 20
-87.332177029111278
 30
0.0
 11
-7.2049499905174272
 21
-83.537127019605208
 31
0.0
  0
LINE
  5
1FCC
  8
0
 62
     0
 10
-11.000000000025359
 20
-86.209645013979497
 30
0.0
 11
-8.1778688013621306
 21
-83.387513815316268
 31
0.0
  0
LINE
  5
1FCD
  8
0
 62
     0
 10
-11.000000000027219
 20
-85.087112998847715
 30
0.0
 11
-8.9805325432092502
 21
-83.067645542029766
 31
0.0
  0
LINE
  5
1FCE
  8
0
 62
     0
 10
-11.000000000029081
 20
-83.964580983715933
 30
0.0
 11
-9.7831962850563752
 21
-82.747777268743235
 31
0.0
  0
LINE
  5
1FCF
  8
0
 62
     0
 10
-11.000000000030941
 20
-82.842048968584152
 30
0.0
 11
-10.585860026903511
 21
-82.427908995456718
 31
0.0
  0
ENDBLK
  5
1FD1
  8
0
  0
BLOCK
  8
0
  2
*X85
 70
     1
 10
0.0
 20
0.0
 30
0.0
  3
*X85
  1

  0
LINE
  5
2019
  8
0
 62
     0
 10
-22.92634787928327
 20
-66.388750149734662
 30
0.0
 11
-19.12386979237359
 21
-66.388750149734662
 31
0.0
  0
LINE
  5
201A
  8
0
 62
     0
 10
-21.893271668519631
 20
-65.277500149734664
 30
0.0
 11
-19.765450279010551
 21
-65.277500149734664
 31
0.0
  0
LINE
  5
201B
  8
0
 62
     0
 10
-22.265654313871011
 20
-64.166250149734665
 30
0.0
 11
-20.02566506578415
 21
-64.166250149734665
 31
0.0
  0
LINE
  5
201C
  8
0
 62
     0
 10
-24.896905167565588
 20
-63.05500014973466
 30
0.0
 11
-20.158712928825359
 21
-63.05500014973466
 31
0.0
  0
LINE
  5
201D
  8
0
 62
     0
 10
-24.920404784782072
 20
-61.943750149734662
 30
0.0
 11
-22.524314078282821
 21
-61.943750149734662
 31
0.0
  0
LINE
  5
201E
  8
0
 62
     0
 10
-24.920404784782072
 20
-60.832500149734663
 30
0.0
 11
-23.120404784782121
 21
-60.832500149734663
 31
0.0
  0
LINE
  5
201F
  8
0
 62
     0
 10
-24.920404784782072
 20
-59.721250149734658
 30
0.0
 11
-23.12040478478211
 21
-59.721250149734658
 31
0.0
  0
LINE
  5
2020
  8
0
 62
     0
 10
-24.920404784782072
 20
-58.61000014973466
 30
0.0
 11
-23.12040478478211
 21
-58.61000014973466
 31
0.0
  0
LINE
  5
2021
  8
0
 62
     0
 10
-24.920404784782072
 20
-57.498750149734661
 30
0.0
 11
-23.120404784782099
 21
-57.498750149734661
 31
0.0
  0
LINE
  5
2022
  8
0
 62
     0
 10
-24.920404784782061
 20
-56.387500149734663
 30
0.0
 11
-23.120404784782089
 21
-56.387500149734663
 31
0.0
  0
LINE
  5
2023
  8
0
 62
     0
 10
-24.920404784782061
 20
-55.276250149734658
 30
0.0
 11
-23.120404784782089
 21
-55.276250149734658
 31
0.0
  0
LINE
  5
2024
  8
0
 62
     0
 10
-24.920404784782061
 20
-54.165000149734666
 30
0.0
 11
-23.120404784782082
 21
-54.165000149734666
 31
0.0
  0
LINE
  5
2025
  8
0
 62
     0
 10
-24.92040478478205
 20
-53.053750149734661
 30
0.0
 11
-23.120404784782071
 21
-53.053750149734661
 31
0.0
  0
LINE
  5
2026
  8
0
 62
     0
 10
-24.92040478478205
 20
-51.942500149734663
 30
0.0
 11
-23.120404784782071
 21
-51.942500149734663
 31
0.0
  0
LINE
  5
2027
  8
0
 62
     0
 10
-24.92040478478204
 20
-50.83125014973465
 30
0.0
 11
-23.120404784782071
 21
-50.83125014973465
 31
0.0
  0
LINE
  5
2028
  8
0
 62
     0
 10
-24.92040478478204
 20
-49.720000149734659
 30
0.0
 11
-23.120404784782071
 21
-49.720000149734659
 31
0.0
  0
LINE
  5
2029
  8
0
 62
     0
 10
-24.920404784782029
 20
-48.608750149734661
 30
0.0
 11
-23.120404784782071
 21
-48.608750149734661
 31
0.0
  0
LINE
  5
202A
  8
0
 62
     0
 10
-24.920404784782018
 20
-47.497500149734663
 30
0.0
 11
-23.120404784782071
 21
-47.497500149734663
 31
0.0
  0
LINE
  5
202B
  8
0
 62
     0
 10
-24.920404784782018
 20
-46.386250149734657
 30
0.0
 11
-23.120404784782071
 21
-46.386250149734657
 31
0.0
  0
LINE
  5
202C
  8
0
 62
     0
 10
-24.920404784782011
 20
-45.275000149734659
 30
0.0
 11
-23.120404784782071
 21
-45.275000149734659
 31
0.0
  0
LINE
  5
202D
  8
0
 62
     0
 10
-24.920404784782001
 20
-44.163750149734668
 30
0.0
 11
-23.120404784782071
 21
-44.163750149734668
 31
0.0
  0
LINE
  5
202E
  8
0
 62
     0
 10
-24.920404784782001
 20
-43.052500149734662
 30
0.0
 11
-22.514011866685848
 21
-43.052500149734662
 31
0.0
  0
LINE
  5
202F
  8
0
 62
     0
 10
-24.895538675204659
 20
-41.941250149734657
 30
0.0
 11
-20.156568073255372
 21
-41.941250149734657
 31
0.0
  0
LINE
  5
2030
  8
0
 62
     0
 10
-22.255352102273999
 20
-40.830000149734673
 30
0.0
 11
-20.025665065784018
 21
-40.830000149734673
 31
0.0
  0
LINE
  5
2031
  8
0
 62
     0
 10
-21.895899444963611
 20
-39.71875014973466
 30
0.0
 11
-19.763285389648161
 21
-39.71875014973466
 31
0.0
  0
LINE
  5
2032
  8
0
 62
     0
 10
-22.929647700749051
 20
-38.607500149734662
 30
0.0
 11
-19.12170490301115
 21
-38.607500149734662
 31
0.0
  0
ENDBLK
  5
2034
  8
0
  0
BLOCK
  8
0
  2
*X86
 70
     1
 10
0.0
 20
0.0
 30
0.0
  3
*X86
  1

  0
LINE
  5
2036
  8
0
 62
     0
 10
-11.041396635726709
 20
-66.674999999999997
 30
0.0
 11
-6.9073046541520462
 21
-66.674999999999997
 31
0.0
  0
LINE
  5
2037
  8
0
 62
     0
 10
-10.399816149089791
 20
-65.563749999999985
 30
0.0
 11
-7.5530818381126812
 21
-65.563749999999985
 31
0.0
  0
LINE
  5
2038
  8
0
 62
     0
 10
-9.9743349342099918
 20
-64.452499999999986
 30
0.0
 11
-7.9730363996983664
 21
-64.452499999999986
 31
0.0
  0
LINE
  5
2039
  8
0
 62
     0
 10
-9.9515738819116741
 20
-63.341249999999988
 30
0.0
 11
-5.4676764036803567
 21
-63.341249999999988
 31
0.0
  0
LINE
  5
203A
  8
0
 62
     0
 10
-8.2621509216376197
 20
-62.229999999999983
 30
0.0
 11
-5.079595215212068
 21
-62.229999999999983
 31
0.0
  0
LINE
  5
203B
  8
0
 62
     0
 10
-6.8795952152120217
 20
-61.118749999999991
 30
0.0
 11
-5.0795952152120707
 21
-61.118749999999991
 31
0.0
  0
LINE
  5
203C
  8
0
 62
     0
 10
-6.8795952152120288
 20
-60.0075
 30
0.0
 11
-5.0795952152120742
 21
-60.0075
 31
0.0
  0
LINE
  5
203D
  8
0
 62
     0
 10
-6.8795952152120359
 20
-58.896249999999988
 30
0.0
 11
-5.079595215212076
 21
-58.896249999999988
 31
0.0
  0
LINE
  5
203E
  8
0
 62
     0
 10
-6.879595215212043
 20
-57.784999999999989
 30
0.0
 11
-5.0795952152120796
 21
-57.784999999999989
 31
0.0
  0
LINE
  5
203F
  8
0
 62
     0
 10
-6.8795952152120501
 20
-56.673749999999991
 30
0.0
 11
-5.0795952152120831
 21
-56.673749999999991
 31
0.0
  0
LINE
  5
2040
  8
0
 62
     0
 10
-6.8795952152120581
 20
-55.562499999999993
 30
0.0
 11
-5.0795952152120858
 21
-55.562499999999993
 31
0.0
  0
LINE
  5
2041
  8
0
 62
     0
 10
-6.8795952152120652
 20
-54.451249999999987
 30
0.0
 11
-5.0795952152120893
 21
-54.451249999999987
 31
0.0
  0
LINE
  5
2042
  8
0
 62
     0
 10
-6.8795952152120723
 20
-53.339999999999989
 30
0.0
 11
-5.079595215212092
 21
-53.339999999999989
 31
0.0
  0
LINE
  5
2043
  8
0
 62
     0
 10
-6.879595215212075
 20
-52.228749999999991
 30
0.0
 11
-5.0795952152120956
 21
-52.228749999999991
 31
0.0
  0
LINE
  5
2044
  8
0
 62
     0
 10
-6.879595215212075
 20
-51.117499999999993
 30
0.0
 11
-5.0795952152121018
 21
-51.117499999999993
 31
0.0
  0
LINE
  5
2045
  8
0
 62
     0
 10
-6.8795952152120758
 20
-50.006249999999987
 30
0.0
 11
-5.079595215212108
 21
-50.006249999999987
 31
0.0
  0
LINE
  5
2046
  8
0
 62
     0
 10
-6.8795952152120758
 20
-48.894999999999989
 30
0.0
 11
-5.0795952152121142
 21
-48.894999999999989
 31
0.0
  0
LINE
  5
2047
  8
0
 62
     0
 10
-6.8795952152120758
 20
-47.783749999999991
 30
0.0
 11
-5.0795952152121204
 21
-47.783749999999991
 31
0.0
  0
LINE
  5
2048
  8
0
 62
     0
 10
-6.8795952152120758
 20
-46.672499999999992
 30
0.0
 11
-5.0795952152121258
 21
-46.672499999999992
 31
0.0
  0
LINE
  5
2049
  8
0
 62
     0
 10
-6.8795952152120767
 20
-45.561249999999987
 30
0.0
 11
-5.079595215212132
 21
-45.561249999999987
 31
0.0
  0
LINE
  5
204A
  8
0
 62
     0
 10
-6.8795952152120767
 20
-44.449999999999989
 30
0.0
 11
-5.0795952152121391
 21
-44.449999999999989
 31
0.0
  0
LINE
  5
204B
  8
0
 62
     0
 10
-6.9419983087581736
 20
-43.33874999999999
 30
0.0
 11
-5.0795952152121453
 21
-43.33874999999999
 31
0.0
  0
LINE
  5
204C
  8
0
 62
     0
 10
-9.5990015468407002
 20
-42.227499999999992
 30
0.0
 11
-5.0795952152121506
 21
-42.227499999999992
 31
0.0
  0
LINE
  5
204D
  8
0
 62
     0
 10
-9.9743349342101961
 20
-41.116249999999987
 30
0.0
 11
-6.9581828977938613
 21
-41.116249999999987
 31
0.0
  0
LINE
  5
204E
  8
0
 62
     0
 10
-10.07882103373276
 20
-40.004999999999988
 30
0.0
 11
-8.0813310491301831
 21
-40.004999999999988
 31
0.0
  0
LINE
  5
204F
  8
0
 62
     0
 10
-10.71302866887679
 20
-38.893749999999997
 30
0.0
 11
-7.2355966083251904
 21
-38.893749999999997
 31
0.0
  0
LINE
  5
2050
  8
0
 62
     0
 10
-11.0566878474389
 20
-37.782499999999992
 30
0.0
 11
-6.8919820209807456
 21
-37.782499999999992
 31
0.0
  0
ENDBLK
  5
2052
  8
0
  0
BLOCK
  8
0
  2
*X87
 70
     1
 10
0.0
 20
0.0
 30
0.0
  3
*X87
  1

  0
LINE
  5
209A
  8
0
 62
     0
 10
-22.92634787928327
 20
-66.388750149734662
 30
0.0
 11
-19.12386979237359
 21
-66.388750149734662
 31
0.0
  0
LINE
  5
209B
  8
0
 62
     0
 10
-21.893271668519631
 20
-65.277500149734664
 30
0.0
 11
-19.765450279010551
 21
-65.277500149734664
 31
0.0
  0
LINE
  5
209C
  8
0
 62
     0
 10
-22.265654313871011
 20
-64.166250149734665
 30
0.0
 11
-20.02566506578415
 21
-64.166250149734665
 31
0.0
  0
LINE
  5
209D
  8
0
 62
     0
 10
-24.896905167565588
 20
-63.05500014973466
 30
0.0
 11
-20.158712928825359
 21
-63.05500014973466
 31
0.0
  0
LINE
  5
209E
  8
0
 62
     0
 10
-24.920404784782072
 20
-61.943750149734662
 30
0.0
 11
-22.524314078282821
 21
-61.943750149734662
 31
0.0
  0
LINE
  5
209F
  8
0
 62
     0
 10
-24.920404784782072
 20
-60.832500149734663
 30
0.0
 11
-23.120404784782121
 21
-60.832500149734663
 31
0.0
  0
LINE
  5
20A0
  8
0
 62
     0
 10
-24.920404784782072
 20
-59.721250149734658
 30
0.0
 11
-23.12040478478211
 21
-59.721250149734658
 31
0.0
  0
LINE
  5
20A1
  8
0
 62
     0
 10
-24.920404784782072
 20
-58.61000014973466
 30
0.0
 11
-23.12040478478211
 21
-58.61000014973466
 31
0.0
  0
LINE
  5
20A2
  8
0
 62
     0
 10
-24.920404784782072
 20
-57.498750149734661
 30
0.0
 11
-23.120404784782099
 21
-57.498750149734661
 31
0.0
  0
LINE
  5
20A3
  8
0
 62
     0
 10
-24.920404784782061
 20
-56.387500149734663
 30
0.0
 11
-23.120404784782089
 21
-56.387500149734663
 31
0.0
  0
LINE
  5
20A4
  8
0
 62
     0
 10
-24.920404784782061
 20
-55.276250149734658
 30
0.0
 11
-23.120404784782089
 21
-55.276250149734658
 31
0.0
  0
LINE
  5
20A5
  8
0
 62
     0
 10
-24.920404784782061
 20
-54.165000149734666
 30
0.0
 11
-23.120404784782082
 21
-54.165000149734666
 31
0.0
  0
LINE
  5
20A6
  8
0
 62
     0
 10
-24.92040478478205
 20
-53.053750149734661
 30
0.0
 11
-23.120404784782071
 21
-53.053750149734661
 31
0.0
  0
LINE
  5
20A7
  8
0
 62
     0
 10
-24.92040478478205
 20
-51.942500149734663
 30
0.0
 11
-23.120404784782071
 21
-51.942500149734663
 31
0.0
  0
LINE
  5
20A8
  8
0
 62
     0
 10
-24.92040478478204
 20
-50.83125014973465
 30
0.0
 11
-23.120404784782071
 21
-50.83125014973465
 31
0.0
  0
LINE
  5
20A9
  8
0
 62
     0
 10
-24.92040478478204
 20
-49.720000149734659
 30
0.0
 11
-23.120404784782071
 21
-49.720000149734659
 31
0.0
  0
LINE
  5
20AA
  8
0
 62
     0
 10
-24.920404784782029
 20
-48.608750149734661
 30
0.0
 11
-23.120404784782071
 21
-48.608750149734661
 31
0.0
  0
LINE
  5
20AB
  8
0
 62
     0
 10
-24.920404784782018
 20
-47.497500149734663
 30
0.0
 11
-23.120404784782071
 21
-47.497500149734663
 31
0.0
  0
LINE
  5
20AC
  8
0
 62
     0
 10
-24.920404784782018
 20
-46.386250149734657
 30
0.0
 11
-23.120404784782071
 21
-46.386250149734657
 31
0.0
  0
LINE
  5
20AD
  8
0
 62
     0
 10
-24.920404784782011
 20
-45.275000149734659
 30
0.0
 11
-23.120404784782071
 21
-45.275000149734659
 31
0.0
  0
LINE
  5
20AE
  8
0
 62
     0
 10
-24.920404784782001
 20
-44.163750149734668
 30
0.0
 11
-23.120404784782071
 21
-44.163750149734668
 31
0.0
  0
LINE
  5
20AF
  8
0
 62
     0
 10
-24.920404784782001
 20
-43.052500149734662
 30
0.0
 11
-22.514011866685848
 21
-43.052500149734662
 31
0.0
  0
LINE
  5
20B0
  8
0
 62
     0
 10
-24.895538675204659
 20
-41.941250149734657
 30
0.0
 11
-20.156568073255372
 21
-41.941250149734657
 31
0.0
  0
LINE
  5
20B1
  8
0
 62
     0
 10
-22.255352102273999
 20
-40.830000149734673
 30
0.0
 11
-20.025665065784018
 21
-40.830000149734673
 31
0.0
  0
LINE
  5
20B2
  8
0
 62
     0
 10
-21.895899444963611
 20
-39.71875014973466
 30
0.0
 11
-19.763285389648161
 21
-39.71875014973466
 31
0.0
  0
LINE
  5
20B3
  8
0
 62
     0
 10
-22.929647700749051
 20
-38.607500149734662
 30
0.0
 11
-19.12170490301115
 21
-38.607500149734662
 31
0.0
  0
ENDBLK
  5
20B5
  8
0
  0
BLOCK
  8
0
  2
*X88
 70
     1
 10
0.0
 20
0.0
 30
0.0
  3
*X88
  1

  0
LINE
  5
20B7
  8
0
 62
     0
 10
-11.041396635726709
 20
-66.674999999999997
 30
0.0
 11
-6.9073046541520462
 21
-66.674999999999997
 31
0.0
  0
LINE
  5
20B8
  8
0
 62
     0
 10
-10.399816149089791
 20
-65.563749999999985
 30
0.0
 11
-7.5530818381126812
 21
-65.563749999999985
 31
0.0
  0
LINE
  5
20B9
  8
0
 62
     0
 10
-9.9743349342099918
 20
-64.452499999999986
 30
0.0
 11
-7.9730363996983664
 21
-64.452499999999986
 31
0.0
  0
LINE
  5
20BA
  8
0
 62
     0
 10
-9.9515738819116741
 20
-63.341249999999988
 30
0.0
 11
-5.4676764036803567
 21
-63.341249999999988
 31
0.0
  0
LINE
  5
20BB
  8
0
 62
     0
 10
-8.2621509216376197
 20
-62.229999999999983
 30
0.0
 11
-5.079595215212068
 21
-62.229999999999983
 31
0.0
  0
LINE
  5
20BC
  8
0
 62
     0
 10
-6.8795952152120217
 20
-61.118749999999991
 30
0.0
 11
-5.0795952152120707
 21
-61.118749999999991
 31
0.0
  0
LINE
  5
20BD
  8
0
 62
     0
 10
-6.8795952152120288
 20
-60.0075
 30
0.0
 11
-5.0795952152120742
 21
-60.0075
 31
0.0
  0
LINE
  5
20BE
  8
0
 62
     0
 10
-6.8795952152120359
 20
-58.896249999999988
 30
0.0
 11
-5.079595215212076
 21
-58.896249999999988
 31
0.0
  0
LINE
  5
20BF
  8
0
 62
     0
 10
-6.879595215212043
 20
-57.784999999999989
 30
0.0
 11
-5.0795952152120796
 21
-57.784999999999989
 31
0.0
  0
LINE
  5
20C0
  8
0
 62
     0
 10
-6.8795952152120501
 20
-56.673749999999991
 30
0.0
 11
-5.0795952152120831
 21
-56.673749999999991
 31
0.0
  0
LINE
  5
20C1
  8
0
 62
     0
 10
-6.8795952152120581
 20
-55.562499999999993
 30
0.0
 11
-5.0795952152120858
 21
-55.562499999999993
 31
0.0
  0
LINE
  5
20C2
  8
0
 62
     0
 10
-6.8795952152120652
 20
-54.451249999999987
 30
0.0
 11
-5.0795952152120893
 21
-54.451249999999987
 31
0.0
  0
LINE
  5
20C3
  8
0
 62
     0
 10
-6.8795952152120723
 20
-53.339999999999989
 30
0.0
 11
-5.079595215212092
 21
-53.339999999999989
 31
0.0
  0
LINE
  5
20C4
  8
0
 62
     0
 10
-6.879595215212075
 20
-52.228749999999991
 30
0.0
 11
-5.0795952152120956
 21
-52.228749999999991
 31
0.0
  0
LINE
  5
20C5
  8
0
 62
     0
 10
-6.879595215212075
 20
-51.117499999999993
 30
0.0
 11
-5.0795952152121018
 21
-51.117499999999993
 31
0.0
  0
LINE
  5
20C6
  8
0
 62
     0
 10
-6.8795952152120758
 20
-50.006249999999987
 30
0.0
 11
-5.079595215212108
 21
-50.006249999999987
 31
0.0
  0
LINE
  5
20C7
  8
0
 62
     0
 10
-6.8795952152120758
 20
-48.894999999999989
 30
0.0
 11
-5.0795952152121142
 21
-48.894999999999989
 31
0.0
  0
LINE
  5
20C8
  8
0
 62
     0
 10
-6.8795952152120758
 20
-47.783749999999991
 30
0.0
 11
-5.0795952152121204
 21
-47.783749999999991
 31
0.0
  0
LINE
  5
20C9
  8
0
 62
     0
 10
-6.8795952152120758
 20
-46.672499999999992
 30
0.0
 11
-5.0795952152121258
 21
-46.672499999999992
 31
0.0
  0
LINE
  5
20CA
  8
0
 62
     0
 10
-6.8795952152120767
 20
-45.561249999999987
 30
0.0
 11
-5.079595215212132
 21
-45.561249999999987
 31
0.0
  0
LINE
  5
20CB
  8
0
 62
     0
 10
-6.8795952152120767
 20
-44.449999999999989
 30
0.0
 11
-5.0795952152121391
 21
-44.449999999999989
 31
0.0
  0
LINE
  5
20CC
  8
0
 62
     0
 10
-6.9419983087581736
 20
-43.33874999999999
 30
0.0
 11
-5.0795952152121453
 21
-43.33874999999999
 31
0.0
  0
LINE
  5
20CD
  8
0
 62
     0
 10
-9.5990015468407002
 20
-42.227499999999992
 30
0.0
 11
-5.0795952152121506
 21
-42.227499999999992
 31
0.0
  0
LINE
  5
20CE
  8
0
 62
     0
 10
-9.9743349342101961
 20
-41.116249999999987
 30
0.0
 11
-6.9581828977938613
 21
-41.116249999999987
 31
0.0
  0
LINE
  5
20CF
  8
0
 62
     0
 10
-10.07882103373276
 20
-40.004999999999988
 30
0.0
 11
-8.0813310491301831
 21
-40.004999999999988
 31
0.0
  0
LINE
  5
20D0
  8
0
 62
     0
 10
-10.71302866887679
 20
-38.893749999999997
 30
0.0
 11
-7.2355966083251904
 21
-38.893749999999997
 31
0.0
  0
LINE
  5
20D1
  8
0
 62
     0
 10
-11.0566878474389
 20
-37.782499999999992
 30
0.0
 11
-6.8919820209807456
 21
-37.782499999999992
 31
0.0
  0
ENDBLK
  5
20D3
  8
0
  0
BLOCK
  8
0
  2
*X89
 70
     1
 10
0.0
 20
0.0
 30
0.0
  3
*X89
  1

  0
LINE
  5
20E8
  8
0
 62
     0
 10
21.456464576061339
 20
-40.47283468383354
 30
0.0
 11
23.39655640849595
 21
-38.53274285139895
 31
0.0
  0
LINE
  5
20E9
  8
0
 62
     0
 10
20.750864645641659
 20
-40.055902599119598
 30
0.0
 11
23.494381190161629
 21
-37.312386054599628
 31
0.0
  0
LINE
  5
20EA
  8
0
 62
     0
 10
20.29397284113276
 20
-39.390262388494811
 30
0.0
 11
23.343497845916531
 21
-36.340737383711051
 31
0.0
  0
LINE
  5
20EB
  8
0
 62
     0
 10
20.008020349324809
 20
-38.553682865169129
 30
0.0
 11
23.02167518897047
 21
-35.540028025523469
 31
0.0
  0
LINE
  5
20EC
  8
0
 62
     0
 10
19.900004318014179
 20
-37.539166881346127
 30
0.0
 11
22.522309100741271
 21
-34.916862098619042
 31
0.0
  0
LINE
  5
20ED
  8
0
 62
     0
 10
20.08906895187037
 20
-36.227570232356321
 30
0.0
 11
21.72507628891691
 21
-34.591562895309771
 31
0.0
  0
LINE
  5
20EE
  8
0
 62
     0
 10
23.264657396549751
 20
-36.085103348434927
 30
0.0
 11
21.773279490638629
 21
-34.593725442523812
 31
0.0
  0
LINE
  5
20EF
  8
0
 62
     0
 10
23.498889292698841
 20
-37.44186725971764
 30
0.0
 11
20.931272445735829
 21
-34.874250412754627
 31
0.0
  0
LINE
  5
20F0
  8
0
 62
     0
 10
23.408766122814772
 20
-38.474276104967203
 30
0.0
 11
20.413620466866231
 21
-35.479130449018669
 31
0.0
  0
LINE
  5
20F1
  8
0
 62
     0
 10
23.136924279194378
 20
-39.324966276480488
 30
0.0
 11
20.077687161732861
 21
-36.265729159018981
 31
0.0
  0
LINE
  5
20F2
  8
0
 62
     0
 10
22.695966080120851
 20
-40.006540092540597
 30
0.0
 11
19.910870212052661
 21
-37.221444224472407
 31
0.0
  0
LINE
  5
20F3
  8
0
 62
     0
 10
22.019871110546831
 20
-40.452977138100259
 30
0.0
 11
19.979190032873021
 21
-38.412296060426449
 31
0.0
  0
ENDBLK
  5
20F5
  8
0
  0
BLOCK
  8
0
  2
*X90
 70
     1
 10
0.0
 20
0.0
 30
0.0
  3
*X90
  1

  0
LINE
  5
213B
  8
0
 62
     0
 10
21.456464576061339
 20
-40.47283468383354
 30
0.0
 11
23.39655640849595
 21
-38.53274285139895
 31
0.0
  0
LINE
  5
213C
  8
0
 62
     0
 10
20.750864645641659
 20
-40.055902599119598
 30
0.0
 11
23.494381190161629
 21
-37.312386054599628
 31
0.0
  0
LINE
  5
213D
  8
0
 62
     0
 10
20.29397284113276
 20
-39.390262388494811
 30
0.0
 11
23.343497845916531
 21
-36.340737383711051
 31
0.0
  0
LINE
  5
213E
  8
0
 62
     0
 10
20.008020349324809
 20
-38.553682865169129
 30
0.0
 11
23.02167518897047
 21
-35.540028025523469
 31
0.0
  0
LINE
  5
213F
  8
0
 62
     0
 10
19.900004318014179
 20
-37.539166881346127
 30
0.0
 11
22.522309100741271
 21
-34.916862098619042
 31
0.0
  0
LINE
  5
2140
  8
0
 62
     0
 10
20.08906895187037
 20
-36.227570232356321
 30
0.0
 11
21.72507628891691
 21
-34.591562895309771
 31
0.0
  0
LINE
  5
2141
  8
0
 62
     0
 10
23.264657396549751
 20
-36.085103348434927
 30
0.0
 11
21.773279490638629
 21
-34.593725442523812
 31
0.0
  0
LINE
  5
2142
  8
0
 62
     0
 10
23.498889292698841
 20
-37.44186725971764
 30
0.0
 11
20.931272445735829
 21
-34.874250412754627
 31
0.0
  0
LINE
  5
2143
  8
0
 62
     0
 10
23.408766122814772
 20
-38.474276104967203
 30
0.0
 11
20.413620466866231
 21
-35.479130449018669
 31
0.0
  0
LINE
  5
2144
  8
0
 62
     0
 10
23.136924279194378
 20
-39.324966276480488
 30
0.0
 11
20.077687161732861
 21
-36.265729159018981
 31
0.0
  0
LINE
  5
2145
  8
0
 62
     0
 10
22.695966080120851
 20
-40.006540092540597
 30
0.0
 11
19.910870212052661
 21
-37.221444224472407
 31
0.0
  0
LINE
  5
2146
  8
0
 62
     0
 10
22.019871110546831
 20
-40.452977138100259
 30
0.0
 11
19.979190032873021
 21
-38.412296060426449
 31
0.0
  0
ENDBLK
  5
2148
  8
0
  0
ENDSEC
  0
SECTION
  2
ENTITIES
  0
POLYLINE
  5
EAA
  8
SAPA_ANSLUTNING
 66
     1
 10
0.0
 20
0.0
 30
0.0
  0
VERTEX
  5
181C
  8
SAPA_ANSLUTNING
 10
-38.005684996557562
 20
18.112957719598601
 30
0.0
  0
VERTEX
  5
181D
  8
SAPA_ANSLUTNING
 10
-27.005683154245069
 20
18.112957719598381
 30
0.0
 42
-0.9999999999999998
  0
VERTEX
  5
181E
  8
SAPA_ANSLUTNING
 10
-27.005683154245069
 20
14.11295771959861
 30
0.0
  0
VERTEX
  5
181F
  8
SAPA_ANSLUTNING
 10
-38.005683154245069
 20
14.11295771959861
 30
0.0
 42
0.9999999999999998
  0
VERTEX
  5
1820
  8
SAPA_ANSLUTNING
 10
-38.005683154245013
 20
10.11295771960293
 30
0.0
  0
VERTEX
  5
1821
  8
SAPA_ANSLUTNING
 10
-27.005681311932531
 20
10.112957719602701
 30
0.0
 42
-0.9999999999999998
  0
VERTEX
  5
1822
  8
SAPA_ANSLUTNING
 10
-27.005681311932531
 20
6.1129577196029281
 30
0.0
  0
VERTEX
  5
1823
  8
SAPA_ANSLUTNING
 10
-38.005681311932527
 20
6.1129577196029281
 30
0.0
 42
0.9999999999999998
  0
VERTEX
  5
1824
  8
SAPA_ANSLUTNING
 10
-38.005681311932527
 20
2.1129577196072482
 30
0.0
  0
VERTEX
  5
1825
  8
SAPA_ANSLUTNING
 10
-27.005681311932531
 20
2.1129577196074751
 30
0.0
 42
-0.9999999999999998
  0
VERTEX
  5
1826
  8
SAPA_ANSLUTNING
 10
-27.005681311932531
 20
-1.8870422803927509
 30
0.0
  0
VERTEX
  5
1827
  8
SAPA_ANSLUTNING
 10
-38.005681311932527
 20
-1.887042280392524
 30
0.0
 42
0.9999999999999998
  0
VERTEX
  5
1828
  8
SAPA_ANSLUTNING
 10
-38.005681311932527
 20
-5.8870422803882043
 30
0.0
  0
VERTEX
  5
1829
  8
SAPA_ANSLUTNING
 10
-27.005681311932531
 20
-5.8870422803879761
 30
0.0
 42
-0.9999999999999998
  0
VERTEX
  5
182A
  8
SAPA_ANSLUTNING
 10
-27.005681311932531
 20
-9.8870422803882043
 30
0.0
  0
VERTEX
  5
182B
  8
SAPA_ANSLUTNING
 10
-38.005681311932527
 20
-9.8870422803879752
 30
0.0
 42
0.9999999999999998
  0
VERTEX
  5
182C
  8
SAPA_ANSLUTNING
 10
-38.005681311932527
 20
-13.88704228038365
 30
0.0
  0
VERTEX
  5
182D
  8
SAPA_ANSLUTNING
 10
-27.005681311932531
 20
-13.887042280383429
 30
0.0
 42
-0.9999999999999998
  0
VERTEX
  5
182E
  8
SAPA_ANSLUTNING
 10
-27.005681311932531
 20
-17.88704228038366
 30
0.0
  0
VERTEX
  5
182F
  8
SAPA_ANSLUTNING
 10
-38.005681311932527
 20
-17.887042280383429
 30
0.0
 42
0.9999999999999998
  0
VERTEX
  5
1830
  8
SAPA_ANSLUTNING
 10
-38.005681311932527
 20
-21.887042280379109
 30
0.0
  0
VERTEX
  5
1831
  8
SAPA_ANSLUTNING
 10
-27.005681311932531
 20
-21.887042280379109
 30
0.0
 42
-0.9999999999999998
  0
VERTEX
  5
1832
  8
SAPA_ANSLUTNING
 10
-27.005681311932531
 20
-25.887042280378878
 30
0.0
  0
VERTEX
  5
1833
  8
SAPA_ANSLUTNING
 10
-38.005681311932527
 20
-25.887042280374558
 30
0.0
 42
0.9999999999999998
  0
VERTEX
  5
1834
  8
SAPA_ANSLUTNING
 10
-38.005681311932527
 20
-29.887042280374342
 30
0.0
  0
VERTEX
  5
1835
  8
SAPA_ANSLUTNING
 10
-27.005681311932531
 20
-29.887042280374342
 30
0.0
 42
-0.9999999999999998
  0
VERTEX
  5
1836
  8
SAPA_ANSLUTNING
 10
-27.005681311932531
 20
-33.887042280374558
 30
0.0
  0
VERTEX
  5
1837
  8
SAPA_ANSLUTNING
 10
-38.005681311932527
 20
-33.887042280374331
 30
0.0
 42
0.9999987492793
  0
VERTEX
  5
1838
  8
SAPA_ANSLUTNING
 10
-38.005686314818462
 20
-37.887042280363637
 30
0.0
  0
VERTEX
  5
1839
  8
SAPA_ANSLUTNING
 10
-27.005684472505969
 20
-37.887042280363872
 30
0.0
 42
-0.9999999999999998
  0
VERTEX
  5
183A
  8
SAPA_ANSLUTNING
 10
-27.005684472505969
 20
-41.887042280363637
 30
0.0
  0
VERTEX
  5
183B
  8
SAPA_ANSLUTNING
 10
-38.005684472505969
 20
-41.887042280363637
 30
0.0
 42
0.9999999999999998
  0
VERTEX
  5
183C
  8
SAPA_ANSLUTNING
 10
-38.005684472505912
 20
-45.887042280359317
 30
0.0
  0
VERTEX
  5
183D
  8
SAPA_ANSLUTNING
 10
-27.00568263019343
 20
-45.887042280359552
 30
0.0
 42
-0.9999999999999998
  0
VERTEX
  5
183E
  8
SAPA_ANSLUTNING
 10
-27.00568263019343
 20
-49.887042280359317
 30
0.0
  0
VERTEX
  5
183F
  8
SAPA_ANSLUTNING
 10
-38.005682630193427
 20
-49.887042280359317
 30
0.0
 42
0.9999999999999998
  0
VERTEX
  5
1840
  8
SAPA_ANSLUTNING
 10
-38.005682630193427
 20
-53.887042280354997
 30
0.0
  0
VERTEX
  5
1841
  8
SAPA_ANSLUTNING
 10
-27.00568263019343
 20
-53.887042280354777
 30
0.0
 42
-0.6947281567971685
  0
VERTEX
  5
1842
  8
SAPA_ANSLUTNING
 10
-25.697657670190281
 20
-57.400009796202212
 30
0.0
  0
SEQEND
  5
1843
  8
SAPA_ANSLUTNING
  0
POLYLINE
  5
EAB
  8
SAPA_ANSLUTNING
 66
     1
 10
0.0
 20
0.0
 30
0.0
  0
VERTEX
  5
1844
  8
SAPA_ANSLUTNING
 10
-25.06783011044384
 20
-72.480494727145583
 30
0.0
  0
VERTEX
  5
1845
  8
SAPA_ANSLUTNING
 10
-25.11398818740879
 20
-57.48049472714559
 30
0.0
  0
VERTEX
  5
1846
  8
SAPA_ANSLUTNING
 10
-40.005681311932513
 20
-57.48049472714559
 30
0.0
  0
VERTEX
  5
1847
  8
SAPA_ANSLUTNING
 10
-40.005681311932513
 20
-72.480494727145583
 30
0.0
  0
VERTEX
  5
1848
  8
SAPA_ANSLUTNING
 10
-25.06783011044384
 20
-72.480494727145583
 30
0.0
  0
SEQEND
  5
1849
  8
SAPA_ANSLUTNING
  0
INSERT
  5
EAC
  8
SAPA_ANSLUTNING
  2
*X10
 10
611.73494132382416
 20
-632.61526454994691
 30
0.0
 50
90.0
  0
ARC
  5
EAD
  8
SAPA_ANSLUTNING
 10
-32.887808915097487
 20
23.569103473349159
 30
0.0
 40
8.6522224087403927
 50
24.26546463095379
 51
144.90523792332891
  0
INSERT
  5
EAE
  8
SAPA_ANSLUTNING
  2
*X9
 10
611.73494132382416
 20
-632.61526454994691
 30
0.0
 50
90.0
  0
ARC
  5
EAF
  8
SAPA_ANSLUTNING
 10
-32.887531478042888
 20
26.736591691074501
 30
0.0
 40
8.6517977492931522
 50
215.0834086103728
 51
335.73630323658602
  0
ARC
  5
EB0
  8
SAPA_ANSLUTNING
 10
-33.001107298147993
 20
53.483870312700091
 30
0.0
 40
12.40812266731845
 50
235.66314081641681
 51
310.1527928163589
  0
INSERT
  5
EB1
  8
SAPA_ANSLUTNING
  6
CONTINUOUS
  2
*X80
 10
0.0
 20
0.0
 30
0.0
1001
ACAD
1000
HATCH
1002
{
1070
    19
1000
HEX
1040
0.25
1040
0.0
1000
R14_HATCH_DATA
1000
EB1
1011
1.0
1021
0.0
1031
0.0
1021
0.0
1031
0.0
1011
0.0
1021
0.0
1031
0.0
1021
1.0
1031
0.0
1011
0.0
1021
0.0
1031
0.0
1021
0.0
1031
1.0
1040
0.0
1010
0.0
1020
0.0
1030
1.0
1000
HEX
1070
     0
1070
     0
1071
        1
1071
        7
1070
     0
1070
     1
1071
        4
1040
-25.06783011044384
1040
-72.480494727145626
1040
-25.11398818740879
1040
-57.48049472714559
1040
-40.005681311932513
1040
-57.48049472714559
1040
-40.005681311932513
1040
-72.480494727145583
1071
        0
1070
     0
1070
     1
1040
0.0
1040
0.25
1070
     0
1070
     3
1040
0.0
1040
-36.04480312555922
1040
-326.07094910480282
1040
0.0
1040
1.374814999999999
1070
     2
1040
0.79375
1040
-1.587499999999999
1040
2.0943951023931939
1040
-36.04480312555922
1040
-326.07094910480282
1040
-1.190624715503902
1040
-0.6874074999999996
1070
     2
1040
0.7937499999999985
1040
-1.5874999999999959
1040
1.047197551196597
1040
-35.251053125559231
1040
-326.07094910480282
1040
-1.190624715503902
1040
0.6874075000000001
1070
     2
1040
0.79375
1040
-1.587499999999999
1040
0.0491501688804417
1071
        1
1040
-24.914516039545411
1040
-62.653134327899927
1040
0.0
1002
}
  0
LINE
  5
EB2
  8
SAPA_ANSLUTNING
 62
     3
 10
-40.000000373540217
 20
58.822858504106861
 30
0.0
 11
-40.000000373540217
 21
-95.524445940289809
 31
0.0
  0
POLYLINE
  5
1770
  8
SAPA_PROFIL
  6
CONTINUOUS
 62
     7
 66
     1
 10
0.0
 20
0.0
 30
0.0
 70
     1
  0
VERTEX
  5
1BE5
  8
SAPA_PROFIL
  6
CONTINUOUS
 62
     7
 10
16.499999999997009
 20
-74.000000000956746
 30
0.0
  0
VERTEX
  5
1BE6
  8
SAPA_PROFIL
  6
CONTINUOUS
 62
     7
 10
16.499999999997009
 20
-77.00000000000297
 30
0.0
 42
-0.4142135623732074
  0
VERTEX
  5
1BE7
  8
SAPA_PROFIL
  6
CONTINUOUS
 62
     7
 10
15.99999999999681
 20
-77.50000000000297
 30
0.0
  0
VERTEX
  5
1BE8
  8
SAPA_PROFIL
  6
CONTINUOUS
 62
     7
 10
7.3999999999967194
 20
-77.499999999999133
 30
0.0
 42
0.4142135623730951
  0
VERTEX
  5
1BE9
  8
SAPA_PROFIL
  6
CONTINUOUS
 62
     7
 10
6.8999999999967194
 20
-77.999999999999147
 30
0.0
  0
VERTEX
  5
1BEA
  8
SAPA_PROFIL
  6
CONTINUOUS
 62
     7
 10
6.8999999999967194
 20
-80.299999999999812
 30
0.0
 42
-0.4142135623730951
  0
VERTEX
  5
1BEB
  8
SAPA_PROFIL
  6
CONTINUOUS
 62
     7
 10
5.8999999999967194
 20
-81.299999999999812
 30
0.0
  0
VERTEX
  5
1BEC
  8
SAPA_PROFIL
  6
CONTINUOUS
 62
     7
 10
5.0873697418213162
 20
-81.299999999999812
 30
0.0
 42
-0.2216946626429368
  0
VERTEX
  5
1BED
  8
SAPA_PROFIL
  6
CONTINUOUS
 62
     7
 10
4.8575564088856238
 20
-81.192836282905773
 30
0.0
  0
VERTEX
  5
1BEE
  8
SAPA_PROFIL
  6
CONTINUOUS
 62
     7
 10
4.2701866670610711
 20
-80.492836282905216
 30
0.0
 42
-0.6370702608061857
  0
VERTEX
  5
1BEF
  8
SAPA_PROFIL
  6
CONTINUOUS
 62
     7
 10
4.4999999999970122
 20
-79.999999999999602
 30
0.0
  0
VERTEX
  5
1BF0
  8
SAPA_PROFIL
  6
CONTINUOUS
 62
     7
 10
5.2999999999972083
 20
-79.999999999999602
 30
0.0
 42
0.4142135623730951
  0
VERTEX
  5
1BF1
  8
SAPA_PROFIL
  6
CONTINUOUS
 62
     7
 10
5.5999999999974044
 20
-79.699999999999406
 30
0.0
  0
VERTEX
  5
1BF2
  8
SAPA_PROFIL
  6
CONTINUOUS
 62
     7
 10
5.5999999999964656
 20
-75.29999999999886
 30
0.0
 42
0.4142135623730504
  0
VERTEX
  5
1BF3
  8
SAPA_PROFIL
  6
CONTINUOUS
 62
     7
 10
5.2999999999963121
 20
-74.999999999999133
 30
0.0
  0
VERTEX
  5
1BF4
  8
SAPA_PROFIL
  6
CONTINUOUS
 62
     7
 10
-5.3000000000031342
 20
-74.999999999999133
 30
0.0
 42
0.4142135623730878
  0
VERTEX
  5
1BF5
  8
SAPA_PROFIL
  6
CONTINUOUS
 62
     7
 10
-5.6000000000033081
 20
-75.29999999999886
 30
0.0
  0
VERTEX
  5
1BF6
  8
SAPA_PROFIL
  6
CONTINUOUS
 62
     7
 10
-5.6000000000032371
 20
-79.699999999999406
 30
0.0
 42
0.4142135623735842
  0
VERTEX
  5
1BF7
  8
SAPA_PROFIL
  6
CONTINUOUS
 62
     7
 10
-5.3000000000040357
 20
-79.999999999999105
 30
0.0
  0
VERTEX
  5
1BF8
  8
SAPA_PROFIL
  6
CONTINUOUS
 62
     7
 10
-4.500000000002049
 20
-79.999999999999616
 30
0.0
 42
-0.6370702608069853
  0
VERTEX
  5
1BF9
  8
SAPA_PROFIL
  6
CONTINUOUS
 62
     7
 10
-4.2701866670669624
 20
-80.492836282905216
 30
0.0
  0
VERTEX
  5
1BFA
  8
SAPA_PROFIL
  6
CONTINUOUS
 62
     7
 10
-4.8575564088915222
 20
-81.192836282905773
 30
0.0
 42
-0.2216946626431
  0
VERTEX
  5
1BFB
  8
SAPA_PROFIL
  6
CONTINUOUS
 62
     7
 10
-5.0873697418274046
 20
-81.299999999999812
 30
0.0
  0
VERTEX
  5
1BFC
  8
SAPA_PROFIL
  6
CONTINUOUS
 62
     7
 10
-5.9000000000044004
 20
-81.299999999999329
 30
0.0
 42
-0.4142135623730951
  0
VERTEX
  5
1BFD
  8
SAPA_PROFIL
  6
CONTINUOUS
 62
     7
 10
-6.9000000000044004
 20
-80.299999999999329
 30
0.0
  0
VERTEX
  5
1BFE
  8
SAPA_PROFIL
  6
CONTINUOUS
 62
     7
 10
-6.9000000000035051
 20
-72.799999999999571
 30
0.0
 42
-0.3178372451964626
  0
VERTEX
  5
1BFF
  8
SAPA_PROFIL
  6
CONTINUOUS
 62
     7
 10
-6.7000000000027766
 20
-72.517157287524725
 30
0.0
 42
0.3178372451966722
  0
VERTEX
  5
1C00
  8
SAPA_PROFIL
  6
CONTINUOUS
 62
     7
 10
-6.500000000002049
 20
-72.234314575049652
 30
0.0
  0
VERTEX
  5
1C01
  8
SAPA_PROFIL
  6
CONTINUOUS
 62
     7
 10
-6.5000000000029523
 20
-70.799999999999329
 30
0.0
 42
-0.4142135623726539
  0
VERTEX
  5
1C02
  8
SAPA_PROFIL
  6
CONTINUOUS
 62
     7
 10
-6.2000000000027704
 20
-70.499999999999602
 30
0.0
  0
VERTEX
  5
1C03
  8
SAPA_PROFIL
  6
CONTINUOUS
 62
     7
 10
-5.600000000002221
 20
-70.499999999999602
 30
0.0
 42
-0.4142135623730836
  0
VERTEX
  5
1C04
  8
SAPA_PROFIL
  6
CONTINUOUS
 62
     7
 10
-5.3000000000029557
 20
-70.799999999999329
 30
0.0
  0
VERTEX
  5
1C05
  8
SAPA_PROFIL
  6
CONTINUOUS
 62
     7
 10
-5.3000000000029486
 20
-72.199999999999406
 30
0.0
 42
0.4142135623730951
  0
VERTEX
  5
1C06
  8
SAPA_PROFIL
  6
CONTINUOUS
 62
     7
 10
-5.0000000000027738
 20
-72.499999999999588
 30
0.0
  0
VERTEX
  5
1C07
  8
SAPA_PROFIL
  6
CONTINUOUS
 62
     7
 10
4.9999999999978071
 20
-72.499999999999588
 30
0.0
 42
0.4142135623730743
  0
VERTEX
  5
1C08
  8
SAPA_PROFIL
  6
CONTINUOUS
 62
     7
 10
5.2999999999970164
 20
-72.19999999999942
 30
0.0
  0
VERTEX
  5
1C09
  8
SAPA_PROFIL
  6
CONTINUOUS
 62
     7
 10
5.2999999999979037
 20
-70.799999999999329
 30
0.0
 42
-0.4142135623721762
  0
VERTEX
  5
1C0A
  8
SAPA_PROFIL
  6
CONTINUOUS
 62
     7
 10
5.5999999999972117
 20
-70.499999999999559
 30
0.0
  0
VERTEX
  5
1C0B
  8
SAPA_PROFIL
  6
CONTINUOUS
 62
     7
 10
6.199999999997825
 20
-70.499999999999147
 30
0.0
 42
-0.4142135623730534
  0
VERTEX
  5
1C0C
  8
SAPA_PROFIL
  6
CONTINUOUS
 62
     7
 10
6.4999999999970397
 20
-70.799999999999315
 30
0.0
  0
VERTEX
  5
1C0D
  8
SAPA_PROFIL
  6
CONTINUOUS
 62
     7
 10
6.4999999999979279
 20
-72.234314575050036
 30
0.0
 42
0.3178372451963242
  0
VERTEX
  5
1C0E
  8
SAPA_PROFIL
  6
CONTINUOUS
 62
     7
 10
6.699999999996872
 20
-72.517157287524725
 30
0.0
 42
-0.3178372451964607
  0
VERTEX
  5
1C0F
  8
SAPA_PROFIL
  6
CONTINUOUS
 62
     7
 10
6.8999999999975863
 20
-72.799999999999557
 30
0.0
  0
VERTEX
  5
1C10
  8
SAPA_PROFIL
  6
CONTINUOUS
 62
     7
 10
6.8999999999978057
 20
-74.499999999999645
 30
0.0
 42
0.4142135623730597
  0
VERTEX
  5
1C11
  8
SAPA_PROFIL
  6
CONTINUOUS
 62
     7
 10
7.3999999999978057
 20
-74.999999999999588
 30
0.0
  0
VERTEX
  5
1C12
  8
SAPA_PROFIL
  6
CONTINUOUS
 62
     7
 10
12.40192378920502
 20
-74.999999999999588
 30
0.0
 42
0.2679491923306345
  0
VERTEX
  5
1C13
  8
SAPA_PROFIL
  6
CONTINUOUS
 62
     7
 10
12.834936490994311
 20
-74.750000000156476
 30
0.0
 42
-0.2679491923317589
  0
VERTEX
  5
1C14
  8
SAPA_PROFIL
  6
CONTINUOUS
 62
     7
 10
14.999999999997
 20
-73.500000000956732
 30
0.0
  0
VERTEX
  5
1C15
  8
SAPA_PROFIL
  6
CONTINUOUS
 62
     7
 10
15.99999999999701
 20
-73.500000000957527
 30
0.0
 42
-0.4142135623730951
  0
SEQEND
  5
1C16
  8
SAPA_PROFIL
  6
CONTINUOUS
 62
     7
  0
POLYLINE
  5
1771
  8
SAPA_PROFIL
  6
CONTINUOUS
 62
     7
 66
     1
 10
0.0
 20
0.0
 30
0.0
 70
     1
  0
VERTEX
  5
1C17
  8
SAPA_PROFIL
  6
CONTINUOUS
 62
     7
 10
23.200000000001729
 20
-43.000000000000441
 30
0.0
  0
VERTEX
  5
1C18
  8
SAPA_PROFIL
  6
CONTINUOUS
 62
     7
 10
20.499999999991321
 20
-43.000000000000441
 30
0.0
 42
0.4142135623730951
  0
VERTEX
  5
1C19
  8
SAPA_PROFIL
  6
CONTINUOUS
 62
     7
 10
20.199999999991341
 20
-43.300000000000431
 30
0.0
  0
VERTEX
  5
1C1A
  8
SAPA_PROFIL
  6
CONTINUOUS
 62
     7
 10
20.199999999991341
 20
-44.500000000000853
 30
0.0
 42
-0.4142135623730931
  0
VERTEX
  5
1C1B
  8
SAPA_PROFIL
  6
CONTINUOUS
 62
     7
 10
19.199999999991348
 20
-45.500000000000853
 30
0.0
  0
VERTEX
  5
1C1C
  8
SAPA_PROFIL
  6
CONTINUOUS
 62
     7
 10
16.70000000000158
 20
-45.500000000000881
 30
0.0
 42
0.4142135623739343
  0
VERTEX
  5
1C1D
  8
SAPA_PROFIL
  6
CONTINUOUS
 62
     7
 10
16.400000000000709
 20
-45.800000000000843
 30
0.0
  0
VERTEX
  5
1C1E
  8
SAPA_PROFIL
  6
CONTINUOUS
 62
     7
 10
16.400000000000709
 20
-50.20000000000087
 30
0.0
 42
0.4142135623730951
  0
VERTEX
  5
1C1F
  8
SAPA_PROFIL
  6
CONTINUOUS
 62
     7
 10
16.700000000001729
 20
-50.500000000000881
 30
0.0
  0
VERTEX
  5
1C20
  8
SAPA_PROFIL
  6
CONTINUOUS
 62
     7
 10
18.400000000000698
 20
-50.500000000000469
 30
0.0
 42
-0.7105995015650853
  0
VERTEX
  5
1C21
  8
SAPA_PROFIL
  6
CONTINUOUS
 62
     7
 10
18.586384015761691
 20
-51.035076580435863
 30
0.0
  0
VERTEX
  5
1C22
  8
SAPA_PROFIL
  6
CONTINUOUS
 62
     7
 10
18.068237143795969
 20
-51.44589715036318
 30
0.0
 42
-0.1691807452123823
  0
VERTEX
  5
1C23
  8
SAPA_PROFIL
  6
CONTINUOUS
 62
     7
 10
17.912917130662091
 20
-51.500000000000831
 30
0.0
  0
VERTEX
  5
1C24
  8
SAPA_PROFIL
  6
CONTINUOUS
 62
     7
 10
10.099999999992709
 20
-51.500000000000881
 30
0.0
 42
-0.4142135623760433
  0
VERTEX
  5
1C25
  8
SAPA_PROFIL
  6
CONTINUOUS
 62
     7
 10
9.7999999999927052
 20
-51.19999999999785
 30
0.0
  0
VERTEX
  5
1C26
  8
SAPA_PROFIL
  6
CONTINUOUS
 62
     7
 10
9.7999999999911225
 20
-33.000000000004242
 30
0.0
 42
-0.5773502691893336
  0
VERTEX
  5
1C27
  8
SAPA_PROFIL
  6
CONTINUOUS
 62
     7
 10
10.24999999999174
 20
-32.740192378868279
 30
0.0
  0
VERTEX
  5
1C28
  8
SAPA_PROFIL
  6
CONTINUOUS
 62
     7
 10
11.24999999999465
 20
-33.317542648061419
 30
0.0
 42
-0.6629740412223103
  0
VERTEX
  5
1C29
  8
SAPA_PROFIL
  6
CONTINUOUS
 62
     7
 10
11.18181818181217
 20
-33.865977684948867
 30
0.0
 42
0.3354367396460152
  0
VERTEX
  5
1C2A
  8
SAPA_PROFIL
  6
CONTINUOUS
 62
     7
 10
10.999999999991781
 20
-34.106500531409431
 30
0.0
  0
VERTEX
  5
1C2B
  8
SAPA_PROFIL
  6
CONTINUOUS
 62
     7
 10
10.999999999991671
 20
-35.199999999994951
 30
0.0
 42
0.4142135623741014
  0
VERTEX
  5
1C2C
  8
SAPA_PROFIL
  6
CONTINUOUS
 62
     7
 10
11.2999999999917
 20
-35.499999999995993
 30
0.0
  0
VERTEX
  5
1C2D
  8
SAPA_PROFIL
  6
CONTINUOUS
 62
     7
 10
11.7999999999927
 20
-35.499999999996007
 30
0.0
 42
-0.4142135623730466
  0
VERTEX
  5
1C2E
  8
SAPA_PROFIL
  6
CONTINUOUS
 62
     7
 10
12.09999999999272
 20
-35.799999999995961
 30
0.0
  0
VERTEX
  5
1C2F
  8
SAPA_PROFIL
  6
CONTINUOUS
 62
     7
 10
12.09999999999167
 20
-36.399999999997007
 30
0.0
 42
-0.4142135623730951
  0
VERTEX
  5
1C30
  8
SAPA_PROFIL
  6
CONTINUOUS
 62
     7
 10
11.799999999992711
 20
-36.699999999995967
 30
0.0
  0
VERTEX
  5
1C31
  8
SAPA_PROFIL
  6
CONTINUOUS
 62
     7
 10
11.399999999991479
 20
-36.699999999994972
 30
0.0
 42
0.4142135623731088
  0
VERTEX
  5
1C32
  8
SAPA_PROFIL
  6
CONTINUOUS
 62
     7
 10
11.099999999991489
 20
-36.999999999994969
 30
0.0
  0
VERTEX
  5
1C33
  8
SAPA_PROFIL
  6
CONTINUOUS
 62
     7
 10
11.099999999991489
 20
-49.699999999995342
 30
0.0
 42
0.4142135623730847
  0
VERTEX
  5
1C34
  8
SAPA_PROFIL
  6
CONTINUOUS
 62
     7
 10
11.39999999999147
 20
-49.999999999996028
 30
0.0
  0
VERTEX
  5
1C35
  8
SAPA_PROFIL
  6
CONTINUOUS
 62
     7
 10
14.600000000000721
 20
-49.999999999996028
 30
0.0
 42
0.4142135623730951
  0
VERTEX
  5
1C36
  8
SAPA_PROFIL
  6
CONTINUOUS
 62
     7
 10
14.900000000000951
 20
-49.699999999995327
 30
0.0
  0
VERTEX
  5
1C37
  8
SAPA_PROFIL
  6
CONTINUOUS
 62
     7
 10
14.90000000000078
 20
-45.500000000000931
 30
0.0
 42
-0.4142135623731122
  0
VERTEX
  5
1C38
  8
SAPA_PROFIL
  6
CONTINUOUS
 62
     7
 10
16.400000000000809
 20
-44.000000000000881
 30
0.0
  0
VERTEX
  5
1C39
  8
SAPA_PROFIL
  6
CONTINUOUS
 62
     7
 10
18.39999999999171
 20
-44.000000000000917
 30
0.0
 42
0.4142135623730951
  0
VERTEX
  5
1C3A
  8
SAPA_PROFIL
  6
CONTINUOUS
 62
     7
 10
18.699999999991721
 20
-43.700000000000919
 30
0.0
  0
VERTEX
  5
1C3B
  8
SAPA_PROFIL
  6
CONTINUOUS
 62
     7
 10
18.699999999991729
 20
-36.999999999998842
 30
0.0
 42
0.4142135623731017
  0
VERTEX
  5
1C3C
  8
SAPA_PROFIL
  6
CONTINUOUS
 62
     7
 10
18.399999999992669
 20
-36.699999999999783
 30
0.0
  0
VERTEX
  5
1C3D
  8
SAPA_PROFIL
  6
CONTINUOUS
 62
     7
 10
17.79999999999572
 20
-36.699999999997871
 30
0.0
 42
-0.4142135623730951
  0
VERTEX
  5
1C3E
  8
SAPA_PROFIL
  6
CONTINUOUS
 62
     7
 10
17.499999999995719
 20
-36.399999999997888
 30
0.0
  0
VERTEX
  5
1C3F
  8
SAPA_PROFIL
  6
CONTINUOUS
 62
     7
 10
17.499999999994682
 20
-35.79999999999886
 30
0.0
 42
-0.4142135623740693
  0
VERTEX
  5
1C40
  8
SAPA_PROFIL
  6
CONTINUOUS
 62
     7
 10
17.79999999999368
 20
-35.499999999998828
 30
0.0
  0
VERTEX
  5
1C41
  8
SAPA_PROFIL
  6
CONTINUOUS
 62
     7
 10
18.399999999994691
 20
-35.499999999998828
 30
0.0
 42
0.4142135623730951
  0
VERTEX
  5
1C42
  8
SAPA_PROFIL
  6
CONTINUOUS
 62
     7
 10
18.699999999994692
 20
-35.199999999998838
 30
0.0
  0
VERTEX
  5
1C43
  8
SAPA_PROFIL
  6
CONTINUOUS
 62
     7
 10
18.699999999993612
 20
-34.239949493650208
 30
0.0
 42
0.2360679774982354
  0
VERTEX
  5
1C44
  8
SAPA_PROFIL
  6
CONTINUOUS
 62
     7
 10
18.599999999994559
 20
-34.039949493651193
 30
0.0
 42
-0.4564120107634379
  0
VERTEX
  5
1C45
  8
SAPA_PROFIL
  6
CONTINUOUS
 62
     7
 10
18.492893218808089
 20
-32.532842712472487
 30
0.0
  0
VERTEX
  5
1C46
  8
SAPA_PROFIL
  6
CONTINUOUS
 62
     7
 10
19.38786796563571
 20
-31.637867965644858
 30
0.0
 42
-0.6681786379193021
  0
VERTEX
  5
1C47
  8
SAPA_PROFIL
  6
CONTINUOUS
 62
     7
 10
19.899999999991699
 20
-31.85000000000084
 30
0.0
  0
VERTEX
  5
1C48
  8
SAPA_PROFIL
  6
CONTINUOUS
 62
     7
 10
19.899999999994691
 20
-40.199999999999953
 30
0.0
 42
0.4142135623730951
  0
VERTEX
  5
1C49
  8
SAPA_PROFIL
  6
CONTINUOUS
 62
     7
 10
20.199999999994692
 20
-40.499999999999943
 30
0.0
  0
VERTEX
  5
1C4A
  8
SAPA_PROFIL
  6
CONTINUOUS
 62
     7
 10
23.199999999994699
 20
-40.500000000000981
 30
0.0
 42
0.4142135623730951
  0
VERTEX
  5
1C4B
  8
SAPA_PROFIL
  6
CONTINUOUS
 62
     7
 10
23.499999999994699
 20
-40.200000000000983
 30
0.0
  0
VERTEX
  5
1C4C
  8
SAPA_PROFIL
  6
CONTINUOUS
 62
     7
 10
23.49999999999471
 20
-35.80000000000166
 30
0.0
 42
-0.4142135623730951
  0
VERTEX
  5
1C4D
  8
SAPA_PROFIL
  6
CONTINUOUS
 62
     7
 10
23.7999999999947
 20
-35.50000000000167
 30
0.0
  0
VERTEX
  5
1C4E
  8
SAPA_PROFIL
  6
CONTINUOUS
 62
     7
 10
24.750000000000711
 20
-35.50000000000167
 30
0.0
 42
-0.4142135623730951
  0
VERTEX
  5
1C4F
  8
SAPA_PROFIL
  6
CONTINUOUS
 62
     7
 10
25.000000000000711
 20
-35.75000000000167
 30
0.0
  0
VERTEX
  5
1C50
  8
SAPA_PROFIL
  6
CONTINUOUS
 62
     7
 10
25.000000000000711
 20
-51.199999999997857
 30
0.0
 42
-0.4142135623750965
  0
VERTEX
  5
1C51
  8
SAPA_PROFIL
  6
CONTINUOUS
 62
     7
 10
24.69999999999467
 20
-51.500000000001847
 30
0.0
  0
VERTEX
  5
1C52
  8
SAPA_PROFIL
  6
CONTINUOUS
 62
     7
 10
22.487082869339371
 20
-51.500000000000867
 30
0.0
 42
-0.1691807452124803
  0
VERTEX
  5
1C53
  8
SAPA_PROFIL
  6
CONTINUOUS
 62
     7
 10
22.33176285620544
 20
-51.445897150363102
 30
0.0
  0
VERTEX
  5
1C54
  8
SAPA_PROFIL
  6
CONTINUOUS
 62
     7
 10
21.81361598424072
 20
-51.035076580435863
 30
0.0
 42
-0.7105995015660667
  0
VERTEX
  5
1C55
  8
SAPA_PROFIL
  6
CONTINUOUS
 62
     7
 10
22.000000000000711
 20
-50.500000000000831
 30
0.0
  0
VERTEX
  5
1C56
  8
SAPA_PROFIL
  6
CONTINUOUS
 62
     7
 10
23.200000000000731
 20
-50.500000000000881
 30
0.0
 42
0.4142135623730951
  0
VERTEX
  5
1C57
  8
SAPA_PROFIL
  6
CONTINUOUS
 62
     7
 10
23.500000000000739
 20
-50.20000000000087
 30
0.0
  0
VERTEX
  5
1C58
  8
SAPA_PROFIL
  6
CONTINUOUS
 62
     7
 10
23.500000000000711
 20
-43.300000000000452
 30
0.0
 42
0.4142135623731053
  0
SEQEND
  5
1C59
  8
SAPA_PROFIL
  6
CONTINUOUS
 62
     7
  0
POLYLINE
  5
1772
  8
SAPA_PROFIL
  6
CONTINUOUS
 62
     7
 66
     1
 10
0.0
 20
0.0
 30
0.0
 70
     1
  0
VERTEX
  5
1C5A
  8
SAPA_PROFIL
  6
CONTINUOUS
 62
     7
 10
-16.499999999998199
 20
-74.000000000957144
 30
0.0
  0
VERTEX
  5
1C5B
  8
SAPA_PROFIL
  6
CONTINUOUS
 62
     7
 10
-16.499999999998199
 20
-77.000000000003354
 30
0.0
 42
0.4142135623732074
  0
VERTEX
  5
1C5C
  8
SAPA_PROFIL
  6
CONTINUOUS
 62
     7
 10
-15.999999999998
 20
-77.500000000003368
 30
0.0
  0
VERTEX
  5
1C5D
  8
SAPA_PROFIL
  6
CONTINUOUS
 62
     7
 10
-7.3999999999979131
 20
-77.499999999999545
 30
0.0
 42
-0.4142135623730951
  0
VERTEX
  5
1C5E
  8
SAPA_PROFIL
  6
CONTINUOUS
 62
     7
 10
-6.8999999999979131
 20
-77.999999999999545
 30
0.0
  0
VERTEX
  5
1C5F
  8
SAPA_PROFIL
  6
CONTINUOUS
 62
     7
 10
-6.8999999999979131
 20
-80.300000000000196
 30
0.0
 42
0.4142135623730951
  0
VERTEX
  5
1C60
  8
SAPA_PROFIL
  6
CONTINUOUS
 62
     7
 10
-5.8999999999979131
 20
-81.300000000000225
 30
0.0
  0
VERTEX
  5
1C61
  8
SAPA_PROFIL
  6
CONTINUOUS
 62
     7
 10
-5.087369741822509
 20
-81.300000000000225
 30
0.0
 42
0.2216946626429368
  0
VERTEX
  5
1C62
  8
SAPA_PROFIL
  6
CONTINUOUS
 62
     7
 10
-4.8575564088868184
 20
-81.192836282906171
 30
0.0
  0
VERTEX
  5
1C63
  8
SAPA_PROFIL
  6
CONTINUOUS
 62
     7
 10
-4.2701866670622648
 20
-80.492836282905628
 30
0.0
 42
0.6370702608061857
  0
VERTEX
  5
1C64
  8
SAPA_PROFIL
  6
CONTINUOUS
 62
     7
 10
-4.499999999998205
 20
-80.0
 30
0.0
  0
VERTEX
  5
1C65
  8
SAPA_PROFIL
  6
CONTINUOUS
 62
     7
 10
-5.2999999999984011
 20
-80.0
 30
0.0
 42
-0.4142135623730951
  0
VERTEX
  5
1C66
  8
SAPA_PROFIL
  6
CONTINUOUS
 62
     7
 10
-5.5999999999985981
 20
-79.699999999999804
 30
0.0
  0
VERTEX
  5
1C67
  8
SAPA_PROFIL
  6
CONTINUOUS
 62
     7
 10
-5.5999999999976602
 20
-75.299999999999258
 30
0.0
 42
-0.4142135623730504
  0
VERTEX
  5
1C68
  8
SAPA_PROFIL
  6
CONTINUOUS
 62
     7
 10
-5.2999999999975058
 20
-74.999999999999545
 30
0.0
  0
VERTEX
  5
1C69
  8
SAPA_PROFIL
  6
CONTINUOUS
 62
     7
 10
5.3000000000019396
 20
-74.999999999999545
 30
0.0
 42
-0.4142135623730878
  0
VERTEX
  5
1C6A
  8
SAPA_PROFIL
  6
CONTINUOUS
 62
     7
 10
5.6000000000021153
 20
-75.299999999999258
 30
0.0
  0
VERTEX
  5
1C6B
  8
SAPA_PROFIL
  6
CONTINUOUS
 62
     7
 10
5.6000000000020442
 20
-79.699999999999804
 30
0.0
 42
-0.4142135623735842
  0
VERTEX
  5
1C6C
  8
SAPA_PROFIL
  6
CONTINUOUS
 62
     7
 10
5.300000000002842
 20
-79.999999999999503
 30
0.0
  0
VERTEX
  5
1C6D
  8
SAPA_PROFIL
  6
CONTINUOUS
 62
     7
 10
4.5000000000008562
 20
-80.000000000000014
 30
0.0
 42
0.6370702608069853
  0
VERTEX
  5
1C6E
  8
SAPA_PROFIL
  6
CONTINUOUS
 62
     7
 10
4.2701866670657678
 20
-80.492836282905628
 30
0.0
  0
VERTEX
  5
1C6F
  8
SAPA_PROFIL
  6
CONTINUOUS
 62
     7
 10
4.8575564088903276
 20
-81.192836282906171
 30
0.0
 42
0.2216946626431
  0
VERTEX
  5
1C70
  8
SAPA_PROFIL
  6
CONTINUOUS
 62
     7
 10
5.0873697418262109
 20
-81.300000000000225
 30
0.0
  0
VERTEX
  5
1C71
  8
SAPA_PROFIL
  6
CONTINUOUS
 62
     7
 10
5.9000000000032058
 20
-81.299999999999713
 30
0.0
 42
0.4142135623730951
  0
VERTEX
  5
1C72
  8
SAPA_PROFIL
  6
CONTINUOUS
 62
     7
 10
6.9000000000032058
 20
-80.299999999999713
 30
0.0
  0
VERTEX
  5
1C73
  8
SAPA_PROFIL
  6
CONTINUOUS
 62
     7
 10
6.9000000000023114
 20
-72.799999999999969
 30
0.0
 42
0.3178372451964626
  0
VERTEX
  5
1C74
  8
SAPA_PROFIL
  6
CONTINUOUS
 62
     7
 10
6.7000000000015829
 20
-72.517157287525123
 30
0.0
 42
-0.3178372451966722
  0
VERTEX
  5
1C75
  8
SAPA_PROFIL
  6
CONTINUOUS
 62
     7
 10
6.5000000000008562
 20
-72.23431457505005
 30
0.0
  0
VERTEX
  5
1C76
  8
SAPA_PROFIL
  6
CONTINUOUS
 62
     7
 10
6.5000000000017577
 20
-70.799999999999727
 30
0.0
 42
0.4142135623726539
  0
VERTEX
  5
1C77
  8
SAPA_PROFIL
  6
CONTINUOUS
 62
     7
 10
6.2000000000015758
 20
-70.5
 30
0.0
  0
VERTEX
  5
1C78
  8
SAPA_PROFIL
  6
CONTINUOUS
 62
     7
 10
5.6000000000010282
 20
-70.5
 30
0.0
 42
0.4142135623730836
  0
VERTEX
  5
1C79
  8
SAPA_PROFIL
  6
CONTINUOUS
 62
     7
 10
5.300000000001762
 20
-70.799999999999727
 30
0.0
  0
VERTEX
  5
1C7A
  8
SAPA_PROFIL
  6
CONTINUOUS
 62
     7
 10
5.3000000000017549
 20
-72.199999999999804
 30
0.0
 42
-0.4142135623730951
  0
VERTEX
  5
1C7B
  8
SAPA_PROFIL
  6
CONTINUOUS
 62
     7
 10
5.0000000000015801
 20
-72.499999999999986
 30
0.0
  0
VERTEX
  5
1C7C
  8
SAPA_PROFIL
  6
CONTINUOUS
 62
     7
 10
-4.9999999999990008
 20
-72.499999999999986
 30
0.0
 42
-0.4142135623730743
  0
VERTEX
  5
1C7D
  8
SAPA_PROFIL
  6
CONTINUOUS
 62
     7
 10
-5.2999999999982101
 20
-72.199999999999804
 30
0.0
  0
VERTEX
  5
1C7E
  8
SAPA_PROFIL
  6
CONTINUOUS
 62
     7
 10
-5.2999999999990983
 20
-70.799999999999727
 30
0.0
 42
0.4142135623721762
  0
VERTEX
  5
1C7F
  8
SAPA_PROFIL
  6
CONTINUOUS
 62
     7
 10
-5.5999999999984063
 20
-70.499999999999957
 30
0.0
  0
VERTEX
  5
1C80
  8
SAPA_PROFIL
  6
CONTINUOUS
 62
     7
 10
-6.1999999999990179
 20
-70.499999999999545
 30
0.0
 42
0.4142135623730534
  0
VERTEX
  5
1C81
  8
SAPA_PROFIL
  6
CONTINUOUS
 62
     7
 10
-6.4999999999982343
 20
-70.799999999999713
 30
0.0
  0
VERTEX
  5
1C82
  8
SAPA_PROFIL
  6
CONTINUOUS
 62
     7
 10
-6.4999999999991216
 20
-72.234314575050433
 30
0.0
 42
-0.3178372451963242
  0
VERTEX
  5
1C83
  8
SAPA_PROFIL
  6
CONTINUOUS
 62
     7
 10
-6.6999999999980657
 20
-72.517157287525123
 30
0.0
 42
0.3178372451964607
  0
VERTEX
  5
1C84
  8
SAPA_PROFIL
  6
CONTINUOUS
 62
     7
 10
-6.8999999999987791
 20
-72.799999999999955
 30
0.0
  0
VERTEX
  5
1C85
  8
SAPA_PROFIL
  6
CONTINUOUS
 62
     7
 10
-6.8999999999990003
 20
-74.500000000000043
 30
0.0
 42
-0.4142135623730597
  0
VERTEX
  5
1C86
  8
SAPA_PROFIL
  6
CONTINUOUS
 62
     7
 10
-7.3999999999990003
 20
-74.999999999999986
 30
0.0
  0
VERTEX
  5
1C87
  8
SAPA_PROFIL
  6
CONTINUOUS
 62
     7
 10
-12.40192378920621
 20
-74.999999999999986
 30
0.0
 42
-0.2679491923306345
  0
VERTEX
  5
1C88
  8
SAPA_PROFIL
  6
CONTINUOUS
 62
     7
 10
-12.834936490995499
 20
-74.750000000156874
 30
0.0
 42
0.2679491923317589
  0
VERTEX
  5
1C89
  8
SAPA_PROFIL
  6
CONTINUOUS
 62
     7
 10
-14.999999999998201
 20
-73.500000000957129
 30
0.0
  0
VERTEX
  5
1C8A
  8
SAPA_PROFIL
  6
CONTINUOUS
 62
     7
 10
-15.999999999998201
 20
-73.500000000957925
 30
0.0
 42
0.4142135623730951
  0
SEQEND
  5
1C8B
  8
SAPA_PROFIL
  6
CONTINUOUS
 62
     7
  0
POLYLINE
  5
1773
  8
SAPA_PROFIL
 62
     4
 66
     1
 10
0.0
 20
0.0
 30
0.0
 70
     1
  0
VERTEX
  5
1C8C
  8
SAPA_PROFIL
 62
     4
 10
-22.026757195034921
 20
-64.462221528366854
 30
0.0
 42
0.3137019356282051
  0
VERTEX
  5
1C8D
  8
SAPA_PROFIL
 62
     4
 10
-22.224382820568341
 20
-64.181271744820549
 30
0.0
  0
VERTEX
  5
1C8E
  8
SAPA_PROFIL
 62
     4
 10
-24.657212842112362
 20
-63.295794031949349
 30
0.0
 42
-0.3152987888779321
  0
VERTEX
  5
1C8F
  8
SAPA_PROFIL
 62
     4
 10
-24.920404784782079
 20
-62.919916983632959
 30
0.0
  0
VERTEX
  5
1C90
  8
SAPA_PROFIL
 62
     4
 10
-24.92040478478205
 20
-52.499999998918831
 30
0.0
  0
VERTEX
  5
1C91
  8
SAPA_PROFIL
 62
     4
 10
-24.92040478478199
 20
-42.080083014200738
 30
0.0
 42
-0.3152987888779395
  0
VERTEX
  5
1C92
  8
SAPA_PROFIL
 62
     4
 10
-24.657212842112269
 20
-41.70420596588837
 30
0.0
  0
VERTEX
  5
1C93
  8
SAPA_PROFIL
 62
     4
 10
-22.224382820576579
 20
-40.818728253020197
 30
0.0
 42
0.3138982169096283
  0
VERTEX
  5
1C94
  8
SAPA_PROFIL
 62
     4
 10
-22.026757195036229
 20
-40.537778469506009
 30
0.0
 42
0.0157923906855865
  0
VERTEX
  5
1C95
  8
SAPA_PROFIL
 62
     4
 10
-22.023354065396632
 20
-40.186319937167163
 30
0.0
  0
VERTEX
  5
1C96
  8
SAPA_PROFIL
 62
     4
 10
-21.884684308290101
 20
-39.946136872384869
 30
0.0
 42
0.5773502691889272
  0
VERTEX
  5
1C97
  8
SAPA_PROFIL
 62
     4
 10
-22.066549643084901
 20
-39.631136872385163
 30
0.0
  0
VERTEX
  5
1C98
  8
SAPA_PROFIL
 62
     4
 10
-22.333664171297809
 20
-39.631136872385042
 30
0.0
  0
VERTEX
  5
1C99
  8
SAPA_PROFIL
 62
     4
 10
-22.52988623708211
 20
-39.29999999891885
 30
0.0
  0
VERTEX
  5
1C9A
  8
SAPA_PROFIL
 62
     4
 10
-23.097530400579561
 20
-38.316679860938329
 30
0.0
 42
-0.1316524975869703
  0
VERTEX
  5
1C9B
  8
SAPA_PROFIL
 62
     4
 10
-23.125665065784119
 20
-38.211679860939512
 30
0.0
  0
VERTEX
  5
1C9C
  8
SAPA_PROFIL
 62
     4
 10
-23.125665065784229
 20
-37.89999999891694
 30
0.0
 42
-0.4142135623775584
  0
VERTEX
  5
1C9D
  8
SAPA_PROFIL
 62
     4
 10
-22.725665065783911
 20
-37.499999998918902
 30
0.0
  0
VERTEX
  5
1C9E
  8
SAPA_PROFIL
 62
     4
 10
-19.325665065784161
 20
-37.499999998918838
 30
0.0
 42
-0.4142135623773978
  0
VERTEX
  5
1C9F
  8
SAPA_PROFIL
 62
     4
 10
-18.92566506578418
 20
-37.899999998918872
 30
0.0
  0
VERTEX
  5
1CA0
  8
SAPA_PROFIL
 62
     4
 10
-18.92566506578418
 20
-38.211679860942517
 30
0.0
 42
-0.1316524975869708
  0
VERTEX
  5
1CA1
  8
SAPA_PROFIL
 62
     4
 10
-18.953799730989431
 20
-38.316679860939473
 30
0.0
  0
VERTEX
  5
1CA2
  8
SAPA_PROFIL
 62
     4
 10
-19.521519877351459
 20
-39.29999999891885
 30
0.0
  0
VERTEX
  5
1CA3
  8
SAPA_PROFIL
 62
     4
 10
-19.864895550323581
 20
-39.894744110589727
 30
0.0
 42
0.1316524975869772
  0
VERTEX
  5
1CA4
  8
SAPA_PROFIL
 62
     4
 10
-20.0256650657841
 20
-40.494744110593103
 30
0.0
  0
VERTEX
  5
1CA5
  8
SAPA_PROFIL
 62
     4
 10
-20.025665065783869
 20
-41.446608443479533
 30
0.0
 42
-0.3152987888780149
  0
VERTEX
  5
1CA6
  8
SAPA_PROFIL
 62
     4
 10
-20.68364492245826
 20
-42.386301064251029
 30
0.0
  0
VERTEX
  5
1CA7
  8
SAPA_PROFIL
 62
     4
 10
-22.857212842111949
 20
-43.177415089160881
 30
0.0
 42
0.3152987888779391
  0
VERTEX
  5
1CA8
  8
SAPA_PROFIL
 62
     4
 10
-23.120404784782071
 20
-43.553292137475403
 30
0.0
  0
VERTEX
  5
1CA9
  8
SAPA_PROFIL
 62
     4
 10
-23.120404784782071
 20
-52.499999998918831
 30
0.0
  0
VERTEX
  5
1CAA
  8
SAPA_PROFIL
 62
     4
 10
-23.120404784782131
 20
-61.446707860362331
 30
0.0
 42
0.3152987888779318
  0
VERTEX
  5
1CAB
  8
SAPA_PROFIL
 62
     4
 10
-22.8572128421157
 20
-61.822584908675481
 30
0.0
  0
VERTEX
  5
1CAC
  8
SAPA_PROFIL
 62
     4
 10
-20.68364492245848
 20
-62.613698933586591
 30
0.0
 42
-0.3152987888779361
  0
VERTEX
  5
1CAD
  8
SAPA_PROFIL
 62
     4
 10
-20.02566506578415
 20
-63.55339155438719
 30
0.0
  0
VERTEX
  5
1CAE
  8
SAPA_PROFIL
 62
     4
 10
-20.02566506578415
 20
-64.505255887244687
 30
0.0
 42
0.1316524975869766
  0
VERTEX
  5
1CAF
  8
SAPA_PROFIL
 62
     4
 10
-19.864895550329429
 20
-65.105255887237888
 30
0.0
  0
VERTEX
  5
1CB0
  8
SAPA_PROFIL
 62
     4
 10
-19.52566506578421
 20
-65.692820321946385
 30
0.0
  0
VERTEX
  5
1CB1
  8
SAPA_PROFIL
 62
     4
 10
-18.953799730989491
 20
-66.683320136898317
 30
0.0
 42
-0.1316524975869832
  0
VERTEX
  5
1CB2
  8
SAPA_PROFIL
 62
     4
 10
-18.925665065784241
 20
-66.788320136901405
 30
0.0
  0
VERTEX
  5
1CB3
  8
SAPA_PROFIL
 62
     4
 10
-18.92566506578418
 20
-67.099999998918904
 30
0.0
 42
-0.414213562371655
  0
VERTEX
  5
1CB4
  8
SAPA_PROFIL
 62
     4
 10
-19.32566506578814
 20
-67.499999998918895
 30
0.0
  0
VERTEX
  5
1CB5
  8
SAPA_PROFIL
 62
     4
 10
-22.725665065784199
 20
-67.499999998918895
 30
0.0
 42
-0.4142135623716633
  0
VERTEX
  5
1CB6
  8
SAPA_PROFIL
 62
     4
 10
-23.12566506578418
 20
-67.099999998916871
 30
0.0
  0
VERTEX
  5
1CB7
  8
SAPA_PROFIL
 62
     4
 10
-23.12566506578418
 20
-66.788320136898221
 30
0.0
 42
-0.1316524975869709
  0
VERTEX
  5
1CB8
  8
SAPA_PROFIL
 62
     4
 10
-23.097530400578592
 20
-66.683320136897635
 30
0.0
  0
VERTEX
  5
1CB9
  8
SAPA_PROFIL
 62
     4
 10
-22.333664171297809
 20
-65.368863125452634
 30
0.0
  0
VERTEX
  5
1CBA
  8
SAPA_PROFIL
 62
     4
 10
-22.066549643084901
 20
-65.368863125452521
 30
0.0
 42
0.5773502691889269
  0
VERTEX
  5
1CBB
  8
SAPA_PROFIL
 62
     4
 10
-21.884684308290101
 20
-65.053863125452807
 30
0.0
  0
VERTEX
  5
1CBC
  8
SAPA_PROFIL
 62
     4
 10
-22.023354065396632
 20
-64.813680060670507
 30
0.0
 42
0.015792390685586
  0
SEQEND
  5
1CBD
  8
SAPA_PROFIL
 62
     4
  0
POLYLINE
  5
1774
  8
SAPA_PROFIL
 66
     1
 10
0.0
 20
0.0
 30
0.0
 70
     1
  0
VERTEX
  5
1CBE
  8
SAPA_PROFIL
 10
-22.95205826806529
 20
-37.499999998918867
 30
0.0
 42
-0.2134217652834366
  0
VERTEX
  5
1CBF
  8
SAPA_PROFIL
 10
-23.175665065815402
 20
-37.39999999891868
 30
0.0
 42
0.7625858545243175
  0
VERTEX
  5
1CC0
  8
SAPA_PROFIL
 10
-23.5059911468324
 20
-37.584579201116163
 30
0.0
  0
VERTEX
  5
1CC1
  8
SAPA_PROFIL
 10
-23.447917509843311
 20
-37.775962201109877
 30
0.0
  0
VERTEX
  5
1CC2
  8
SAPA_PROFIL
 10
-22.363353062871571
 20
-39.661805892970932
 30
0.0
  0
VERTEX
  5
1CC3
  8
SAPA_PROFIL
 10
-22.041595334653319
 20
-39.651244526743973
 30
0.0
 42
-0.5773502691897529
  0
VERTEX
  5
1CC4
  8
SAPA_PROFIL
 10
-21.858641594543151
 20
-39.945400826998792
 30
0.0
  0
VERTEX
  5
1CC5
  8
SAPA_PROFIL
 10
-22.01077550565191
 20
-40.230083110230481
 30
0.0
 42
-0.2216946626430025
  0
VERTEX
  5
1CC6
  8
SAPA_PROFIL
 10
-22.55165533712869
 20
-40.635892015385217
 30
0.0
  0
VERTEX
  5
1CC7
  8
SAPA_PROFIL
 10
-24.364885807786951
 20
-41.01733861151294
 30
0.0
 42
-0.4769755326981438
  0
VERTEX
  5
1CC8
  8
SAPA_PROFIL
 10
-24.736542682732821
 20
-40.715085787006473
 30
0.0
  0
VERTEX
  5
1CC9
  8
SAPA_PROFIL
 10
-24.736459074849169
 20
-39.211984706244458
 30
0.0
  0
VERTEX
  5
1CCA
  8
SAPA_PROFIL
 10
-24.688613324850682
 20
-39.197466296997362
 30
0.0
 42
0.4142135623731001
  0
VERTEX
  5
1CCB
  8
SAPA_PROFIL
 10
-24.488649280343282
 20
-38.82328134152155
 30
0.0
  0
VERTEX
  5
1CCC
  8
SAPA_PROFIL
 10
-25.000000000000739
 20
-37.500280500000287
 30
0.0
  0
VERTEX
  5
1CCD
  8
SAPA_PROFIL
 10
-25.000000000000739
 20
-35.800000000001802
 30
0.0
 42
-0.4142135623730951
  0
VERTEX
  5
1CCE
  8
SAPA_PROFIL
 10
-24.700000000000561
 20
-35.500000000001847
 30
0.0
  0
VERTEX
  5
1CCF
  8
SAPA_PROFIL
 10
-21.699999999999871
 20
-35.500000000001727
 30
0.0
 42
0.4142135623730951
  0
VERTEX
  5
1CD0
  8
SAPA_PROFIL
 10
-21.39999999999992
 20
-35.200000000001779
 30
0.0
  0
VERTEX
  5
1CD1
  8
SAPA_PROFIL
 10
-21.39999999999992
 20
-34.80000000000198
 30
0.0
 42
-0.4142135623731506
  0
VERTEX
  5
1CD2
  8
SAPA_PROFIL
 10
-21.099999999999969
 20
-34.500000000001961
 30
0.0
  0
VERTEX
  5
1CD3
  8
SAPA_PROFIL
 10
-19.700000000000209
 20
-34.500000000002082
 30
0.0
 42
-0.4142135623731505
  0
VERTEX
  5
1CD4
  8
SAPA_PROFIL
 10
-19.400000000000261
 20
-34.800000000002093
 30
0.0
  0
VERTEX
  5
1CD5
  8
SAPA_PROFIL
 10
-19.400000000000261
 20
-35.200000000001843
 30
0.0
 42
0.4142135623731506
  0
VERTEX
  5
1CD6
  8
SAPA_PROFIL
 10
-19.100000000000311
 20
-35.500000000001847
 30
0.0
  0
VERTEX
  5
1CD7
  8
SAPA_PROFIL
 10
-10.89999999999389
 20
-35.500000000001847
 30
0.0
 42
0.4142135623731506
  0
VERTEX
  5
1CD8
  8
SAPA_PROFIL
 10
-10.59999999999394
 20
-35.200000000001843
 30
0.0
  0
VERTEX
  5
1CD9
  8
SAPA_PROFIL
 10
-10.59999999999388
 20
-34.800000000002029
 30
0.0
 42
-0.4142135623730951
  0
VERTEX
  5
1CDA
  8
SAPA_PROFIL
 10
-10.299999999993981
 20
-34.500000000002018
 30
0.0
  0
VERTEX
  5
1CDB
  8
SAPA_PROFIL
 10
-8.8999999999942361
 20
-34.500000000001847
 30
0.0
 42
-0.4142135623731505
  0
VERTEX
  5
1CDC
  8
SAPA_PROFIL
 10
-8.5999999999942816
 20
-34.800000000001859
 30
0.0
  0
VERTEX
  5
1CDD
  8
SAPA_PROFIL
 10
-8.5999999999942247
 20
-35.200000000001779
 30
0.0
 42
0.4142135623730951
  0
VERTEX
  5
1CDE
  8
SAPA_PROFIL
 10
-8.299999999994327
 20
-35.500000000001791
 30
0.0
  0
VERTEX
  5
1CDF
  8
SAPA_PROFIL
 10
-5.2999999999935881
 20
-35.500000000001911
 30
0.0
 42
-0.4142135623743715
  0
VERTEX
  5
1CE0
  8
SAPA_PROFIL
 10
-4.9999999999934062
 20
-35.800000000001802
 30
0.0
  0
VERTEX
  5
1CE1
  8
SAPA_PROFIL
 10
-4.9999999999934062
 20
-37.500280500035068
 30
0.0
  0
VERTEX
  5
1CE2
  8
SAPA_PROFIL
 10
-5.5113507196373339
 20
-38.82328134152155
 30
0.0
 42
0.4142135623730744
  0
VERTEX
  5
1CE3
  8
SAPA_PROFIL
 10
-5.3113866751299383
 20
-39.197466296997362
 30
0.0
  0
VERTEX
  5
1CE4
  8
SAPA_PROFIL
 10
-5.2635409251314513
 20
-39.211984706244458
 30
0.0
  0
VERTEX
  5
1CE5
  8
SAPA_PROFIL
 10
-5.2634573172477976
 20
-40.715085787006473
 30
0.0
 42
-0.4769755326981443
  0
VERTEX
  5
1CE6
  8
SAPA_PROFIL
 10
-5.6351141921936678
 20
-41.01733861151294
 30
0.0
  0
VERTEX
  5
1CE7
  8
SAPA_PROFIL
 10
-7.4483446628519232
 20
-40.635892015385281
 30
0.0
 42
-0.2216946626430325
  0
VERTEX
  5
1CE8
  8
SAPA_PROFIL
 10
-7.9892244943287087
 20
-40.230083110230417
 30
0.0
  0
VERTEX
  5
1CE9
  8
SAPA_PROFIL
 10
-8.1413584054374724
 20
-39.945400826998792
 30
0.0
 42
-0.5773502691897529
  0
VERTEX
  5
1CEA
  8
SAPA_PROFIL
 10
-7.9584046653272926
 20
-39.651244526743973
 30
0.0
  0
VERTEX
  5
1CEB
  8
SAPA_PROFIL
 10
-7.636646937109048
 20
-39.661805892970932
 30
0.0
  0
VERTEX
  5
1CEC
  8
SAPA_PROFIL
 10
-6.552082490137308
 20
-37.775962201109877
 30
0.0
  0
VERTEX
  5
1CED
  8
SAPA_PROFIL
 10
-6.4940088531483289
 20
-37.584579201116163
 30
0.0
 42
0.7625858545243173
  0
VERTEX
  5
1CEE
  8
SAPA_PROFIL
 10
-6.8243349341652211
 20
-37.39999999891873
 30
0.0
 42
-0.2134217652834366
  0
VERTEX
  5
1CEF
  8
SAPA_PROFIL
 10
-7.047941731915329
 20
-37.499999998918867
 30
0.0
  0
VERTEX
  5
1CF0
  8
SAPA_PROFIL
 10
-10.900728136491351
 20
-37.499999998918867
 30
0.0
 42
0.4142135623730951
  0
VERTEX
  5
1CF1
  8
SAPA_PROFIL
 10
-11.2007281364913
 20
-37.799999998918821
 30
0.0
  0
VERTEX
  5
1CF2
  8
SAPA_PROFIL
 10
-11.2007281364913
 20
-38.09999999891923
 30
0.0
  0
VERTEX
  5
1CF3
  8
SAPA_PROFIL
 10
-10.27696770578768
 20
-39.699999998918678
 30
0.0
 42
-0.577350269189529
  0
VERTEX
  5
1CF4
  8
SAPA_PROFIL
 10
-10.450172786544719
 20
-39.999999998918867
 30
0.0
  0
VERTEX
  5
1CF5
  8
SAPA_PROFIL
 10
-19.549827213449419
 20
-39.999999998918867
 30
0.0
 42
-0.577350269189529
  0
VERTEX
  5
1CF6
  8
SAPA_PROFIL
 10
-19.723032294206462
 20
-39.699999998918678
 30
0.0
  0
VERTEX
  5
1CF7
  8
SAPA_PROFIL
 10
-18.799271863502842
 20
-38.09999999891923
 30
0.0
  0
VERTEX
  5
1CF8
  8
SAPA_PROFIL
 10
-18.799271863502842
 20
-37.799999998918821
 30
0.0
 42
0.4142135623730951
  0
VERTEX
  5
1CF9
  8
SAPA_PROFIL
 10
-19.099271863502789
 20
-37.499999998918867
 30
0.0
  0
SEQEND
  5
1CFA
  8
SAPA_PROFIL
  0
POLYLINE
  5
1775
  8
SAPA_PROFIL
  6
CONTINUOUS
 62
     7
 66
     1
 10
0.0
 20
0.0
 30
0.0
 70
     1
  0
VERTEX
  5
1CFB
  8
SAPA_PROFIL
  6
CONTINUOUS
 62
     7
 10
-23.000000000035499
 20
-87.300003047092844
 30
0.0
  0
VERTEX
  5
1CFC
  8
SAPA_PROFIL
  6
CONTINUOUS
 62
     7
 10
-21.350000000043138
 20
-87.300003047092844
 30
0.0
 42
0.4142135623729003
  0
VERTEX
  5
1CFD
  8
SAPA_PROFIL
  6
CONTINUOUS
 62
     7
 10
-21.05000000004296
 20
-87.000003047092889
 30
0.0
  0
VERTEX
  5
1CFE
  8
SAPA_PROFIL
  6
CONTINUOUS
 62
     7
 10
-21.05000000004296
 20
-85.400000001070865
 30
0.0
 42
-0.1806877882261281
  0
VERTEX
  5
1CFF
  8
SAPA_PROFIL
  6
CONTINUOUS
 62
     7
 10
-20.30296190612529
 20
-83.400283406662723
 30
0.0
 42
-0.9538213995949648
  0
VERTEX
  5
1D00
  8
SAPA_PROFIL
  6
CONTINUOUS
 62
     7
 10
-19.126474928900301
 20
-84.328106923347434
 30
0.0
  0
VERTEX
  5
1D01
  8
SAPA_PROFIL
  6
CONTINUOUS
 62
     7
 10
-19.057559183678698
 20
-84.585303985957879
 30
0.0
 42
-0.4142135623719595
  0
VERTEX
  5
1D02
  8
SAPA_PROFIL
  6
CONTINUOUS
 62
     7
 10
-19.234330616393919
 20
-84.891481088747057
 30
0.0
  0
VERTEX
  5
1D03
  8
SAPA_PROFIL
  6
CONTINUOUS
 62
     7
 10
-19.485908111498318
 20
-84.958891075394575
 30
0.0
 42
0.4299878773908156
  0
VERTEX
  5
1D04
  8
SAPA_PROFIL
  6
CONTINUOUS
 62
     7
 10
-18.360936748081279
 20
-86.907390018256649
 30
0.0
  0
VERTEX
  5
1D05
  8
SAPA_PROFIL
  6
CONTINUOUS
 62
     7
 10
-18.17676785573985
 20
-86.723221125915671
 30
0.0
 42
-0.4142135623718706
  0
VERTEX
  5
1D06
  8
SAPA_PROFIL
  6
CONTINUOUS
 62
     7
 10
-17.823224990309448
 20
-86.723221125915714
 30
0.0
  0
VERTEX
  5
1D07
  8
SAPA_PROFIL
  6
CONTINUOUS
 62
     7
 10
-17.63905748004478
 20
-86.907388636179277
 30
0.0
 42
0.429987877699598
  0
VERTEX
  5
1D08
  8
SAPA_PROFIL
  6
CONTINUOUS
 62
     7
 10
-16.514093578112831
 20
-84.958885384142661
 30
0.0
  0
VERTEX
  5
1D09
  8
SAPA_PROFIL
  6
CONTINUOUS
 62
     7
 10
-16.765672965318942
 20
-84.891474890507965
 30
0.0
 42
-0.4142135623733942
  0
VERTEX
  5
1D0A
  8
SAPA_PROFIL
  6
CONTINUOUS
 62
     7
 10
-16.942444398034269
 20
-84.585297787718744
 30
0.0
  0
VERTEX
  5
1D0B
  8
SAPA_PROFIL
  6
CONTINUOUS
 62
     7
 10
-16.873528884146381
 20
-84.328101588455098
 30
0.0
 42
-0.9538172250823233
  0
VERTEX
  5
1D0C
  8
SAPA_PROFIL
  6
CONTINUOUS
 62
     7
 10
-15.69703809381474
 20
-83.400283406534726
 30
0.0
 42
-0.1806877881352354
  0
VERTEX
  5
1D0D
  8
SAPA_PROFIL
  6
CONTINUOUS
 62
     7
 10
-14.9500000000435
 20
-85.40000000107085
 30
0.0
  0
VERTEX
  5
1D0E
  8
SAPA_PROFIL
  6
CONTINUOUS
 62
     7
 10
-14.9500000000435
 20
-87.300000003219822
 30
0.0
 42
0.4142135623728949
  0
VERTEX
  5
1D0F
  8
SAPA_PROFIL
  6
CONTINUOUS
 62
     7
 10
-14.650000000042411
 20
-87.600000003220714
 30
0.0
  0
VERTEX
  5
1D10
  8
SAPA_PROFIL
  6
CONTINUOUS
 62
     7
 10
-13.00000000004542
 20
-87.600000003219805
 30
0.0
 42
0.4142135623747599
  0
VERTEX
  5
1D11
  8
SAPA_PROFIL
  6
CONTINUOUS
 62
     7
 10
-12.700000000045319
 20
-87.300000003218699
 30
0.0
  0
VERTEX
  5
1D12
  8
SAPA_PROFIL
  6
CONTINUOUS
 62
     7
 10
-12.70000000005655
 20
-82.599999998920126
 30
0.0
 42
-0.414213562374087
  0
VERTEX
  5
1D13
  8
SAPA_PROFIL
  6
CONTINUOUS
 62
     7
 10
-12.400000000056361
 20
-82.299999998920214
 30
0.0
  0
VERTEX
  5
1D14
  8
SAPA_PROFIL
  6
CONTINUOUS
 62
     7
 10
-11.30000000002499
 20
-82.299999998919077
 30
0.0
 42
-0.4142135623632305
  0
VERTEX
  5
1D15
  8
SAPA_PROFIL
  6
CONTINUOUS
 62
     7
 10
-11.00000000003179
 20
-82.599999998918165
 30
0.0
  0
VERTEX
  5
1D16
  8
SAPA_PROFIL
  6
CONTINUOUS
 62
     7
 10
-11.00000000001458
 20
-92.700000003219714
 30
0.0
 42
-0.4142135623563092
  0
VERTEX
  5
1D17
  8
SAPA_PROFIL
  6
CONTINUOUS
 62
     7
 10
-11.30000000001476
 20
-93.000000003220805
 30
0.0
  0
VERTEX
  5
1D18
  8
SAPA_PROFIL
  6
CONTINUOUS
 62
     7
 10
-19.2000000000134
 20
-93.000000003221714
 30
0.0
 42
-0.414213562392466
  0
VERTEX
  5
1D19
  8
SAPA_PROFIL
  6
CONTINUOUS
 62
     7
 10
-19.50000000001458
 20
-92.70000000322085
 30
0.0
  0
VERTEX
  5
1D1A
  8
SAPA_PROFIL
  6
CONTINUOUS
 62
     7
 10
-19.500000000035499
 20
-91.600000003220714
 30
0.0
 42
-0.4142135623952085
  0
VERTEX
  5
1D1B
  8
SAPA_PROFIL
  6
CONTINUOUS
 62
     7
 10
-19.200000000013489
 20
-91.300000003220745
 30
0.0
  0
VERTEX
  5
1D1C
  8
SAPA_PROFIL
  6
CONTINUOUS
 62
     7
 10
-13.70000000003804
 20
-91.300000003219836
 30
0.0
 42
0.9999999999999998
  0
VERTEX
  5
1D1D
  8
SAPA_PROFIL
  6
CONTINUOUS
 62
     7
 10
-13.70000000003804
 20
-89.30000000321985
 30
0.0
  0
VERTEX
  5
1D1E
  8
SAPA_PROFIL
  6
CONTINUOUS
 62
     7
 10
-15.605410363374199
 20
-89.30000000321985
 30
0.0
 42
-0.1539147210606419
  0
VERTEX
  5
1D1F
  8
SAPA_PROFIL
  6
CONTINUOUS
 62
     7
 10
-15.777483294280531
 20
-89.245745616505758
 30
0.0
  0
VERTEX
  5
1D20
  8
SAPA_PROFIL
  6
CONTINUOUS
 62
     7
 10
-17.050664712538449
 20
-88.354254389933772
 30
0.0
 42
0.1539147210594121
  0
VERTEX
  5
1D21
  8
SAPA_PROFIL
  6
CONTINUOUS
 62
     7
 10
-17.222737643443018
 20
-88.300000003220305
 30
0.0
  0
VERTEX
  5
1D22
  8
SAPA_PROFIL
  6
CONTINUOUS
 62
     7
 10
-19.98934162652316
 20
-88.300000003219864
 30
0.0
 42
0.1872522264746358
  0
VERTEX
  5
1D23
  8
SAPA_PROFIL
  6
CONTINUOUS
 62
     7
 10
-20.191724201034081
 20
-88.378547314063383
 30
0.0
  0
VERTEX
  5
1D24
  8
SAPA_PROFIL
  6
CONTINUOUS
 62
     7
 10
-21.114054906551331
 20
-89.221452692375919
 30
0.0
 42
-0.1872522264746339
  0
VERTEX
  5
1D25
  8
SAPA_PROFIL
  6
CONTINUOUS
 62
     7
 10
-21.316437481061278
 20
-89.30000000321985
 30
0.0
  0
VERTEX
  5
1D26
  8
SAPA_PROFIL
  6
CONTINUOUS
 62
     7
 10
-24.700000000013581
 20
-89.30000000321985
 30
0.0
 42
-0.4142135623952092
  0
VERTEX
  5
1D27
  8
SAPA_PROFIL
  6
CONTINUOUS
 62
     7
 10
-25.000000000033339
 20
-89.000000003219967
 30
0.0
  0
VERTEX
  5
1D28
  8
SAPA_PROFIL
  6
CONTINUOUS
 62
     7
 10
-25.000000000033349
 20
-86.08038780482218
 30
0.0
 42
-0.131652497587394
  0
VERTEX
  5
1D29
  8
SAPA_PROFIL
  6
CONTINUOUS
 62
     7
 10
-24.959807621168679
 20
-85.930387804822189
 30
0.0
  0
VERTEX
  5
1D2A
  8
SAPA_PROFIL
  6
CONTINUOUS
 62
     7
 10
-24.740192378898019
 20
-85.550003047092858
 30
0.0
 42
0.2679491924311264
  0
VERTEX
  5
1D2B
  8
SAPA_PROFIL
  6
CONTINUOUS
 62
     7
 10
-24.74019237889803
 20
-85.250003047092846
 30
0.0
  0
VERTEX
  5
1D2C
  8
SAPA_PROFIL
  6
CONTINUOUS
 62
     7
 10
-24.959807621166139
 20
-84.869618289367963
 30
0.0
 42
-0.1316524975876173
  0
VERTEX
  5
1D2D
  8
SAPA_PROFIL
  6
CONTINUOUS
 62
     7
 10
-25.000000000030798
 20
-84.719618289367716
 30
0.0
  0
VERTEX
  5
1D2E
  8
SAPA_PROFIL
  6
CONTINUOUS
 62
     7
 10
-25.000000000015479
 20
-67.499719497750803
 30
0.0
  0
VERTEX
  5
1D2F
  8
SAPA_PROFIL
  6
CONTINUOUS
 62
     7
 10
-24.488649280391598
 20
-66.176718656316211
 30
0.0
 42
0.4142135623730732
  0
VERTEX
  5
1D30
  8
SAPA_PROFIL
  6
CONTINUOUS
 62
     7
 10
-24.688613324898999
 20
-65.802533700840399
 30
0.0
  0
VERTEX
  5
1D31
  8
SAPA_PROFIL
  6
CONTINUOUS
 62
     7
 10
-24.736459074897478
 20
-65.788015291593297
 30
0.0
  0
VERTEX
  5
1D32
  8
SAPA_PROFIL
  6
CONTINUOUS
 62
     7
 10
-24.736542682781138
 20
-64.284914210831289
 30
0.0
 42
-0.4769755326981473
  0
VERTEX
  5
1D33
  8
SAPA_PROFIL
  6
CONTINUOUS
 62
     7
 10
-24.364885807835272
 20
-63.982661386324821
 30
0.0
  0
VERTEX
  5
1D34
  8
SAPA_PROFIL
  6
CONTINUOUS
 62
     7
 10
-22.55165533717701
 20
-64.364107982452481
 30
0.0
 42
-0.2216946626430328
  0
VERTEX
  5
1D35
  8
SAPA_PROFIL
  6
CONTINUOUS
 62
     7
 10
-22.010775505700231
 20
-64.769916887607323
 30
0.0
  0
VERTEX
  5
1D36
  8
SAPA_PROFIL
  6
CONTINUOUS
 62
     7
 10
-21.858641594591461
 20
-65.054599170838955
 30
0.0
 42
-0.5773502691897292
  0
VERTEX
  5
1D37
  8
SAPA_PROFIL
  6
CONTINUOUS
 62
     7
 10
-22.04159533470164
 20
-65.348755471093796
 30
0.0
  0
VERTEX
  5
1D38
  8
SAPA_PROFIL
  6
CONTINUOUS
 62
     7
 10
-22.363353062919892
 20
-65.33819410486683
 30
0.0
  0
VERTEX
  5
1D39
  8
SAPA_PROFIL
  6
CONTINUOUS
 62
     7
 10
-23.447917509891631
 20
-67.224037796727885
 30
0.0
  0
VERTEX
  5
1D3A
  8
SAPA_PROFIL
  6
CONTINUOUS
 62
     7
 10
-23.5059911468806
 20
-67.415420796721605
 30
0.0
 42
0.7625858545243111
  0
VERTEX
  5
1D3B
  8
SAPA_PROFIL
  6
CONTINUOUS
 62
     7
 10
-23.175665065863711
 20
-67.599999998919031
 30
0.0
 42
-0.2134217652834384
  0
VERTEX
  5
1D3C
  8
SAPA_PROFIL
  6
CONTINUOUS
 62
     7
 10
-22.952058268077991
 20
-67.499999998918895
 30
0.0
  0
VERTEX
  5
1D3D
  8
SAPA_PROFIL
  6
CONTINUOUS
 62
     7
 10
-19.099271863494351
 20
-67.499999998918895
 30
0.0
 42
0.4142135623719642
  0
VERTEX
  5
1D3E
  8
SAPA_PROFIL
  6
CONTINUOUS
 62
     7
 10
-18.79927186349326
 20
-67.199999998918955
 30
0.0
  0
VERTEX
  5
1D3F
  8
SAPA_PROFIL
  6
CONTINUOUS
 62
     7
 10
-18.79927186349417
 20
-66.899999998918759
 30
0.0
  0
VERTEX
  5
1D40
  8
SAPA_PROFIL
  6
CONTINUOUS
 62
     7
 10
-19.723032294198688
 20
-65.299999998918878
 30
0.0
 42
-0.5773502691885648
  0
VERTEX
  5
1D41
  8
SAPA_PROFIL
  6
CONTINUOUS
 62
     7
 10
-19.549827213440981
 20
-64.999999998918895
 30
0.0
  0
VERTEX
  5
1D42
  8
SAPA_PROFIL
  6
CONTINUOUS
 62
     7
 10
-10.450172786622741
 20
-64.999999998918895
 30
0.0
 42
-0.5773502691885171
  0
VERTEX
  5
1D43
  8
SAPA_PROFIL
  6
CONTINUOUS
 62
     7
 10
-10.276967705865021
 20
-65.299999998918835
 30
0.0
  0
VERTEX
  5
1D44
  8
SAPA_PROFIL
  6
CONTINUOUS
 62
     7
 10
-11.20072813656955
 20
-66.899999998918759
 30
0.0
  0
VERTEX
  5
1D45
  8
SAPA_PROFIL
  6
CONTINUOUS
 62
     7
 10
-11.20072813656955
 20
-67.199999998918955
 30
0.0
 42
0.4142135623719644
  0
VERTEX
  5
1D46
  8
SAPA_PROFIL
  6
CONTINUOUS
 62
     7
 10
-10.90072813656937
 20
-67.499999998917986
 30
0.0
  0
VERTEX
  5
1D47
  8
SAPA_PROFIL
  6
CONTINUOUS
 62
     7
 10
-7.0479417319636459
 20
-67.499999998918895
 30
0.0
 42
-0.2134217652834359
  0
VERTEX
  5
1D48
  8
SAPA_PROFIL
  6
CONTINUOUS
 62
     7
 10
-6.824334934213538
 20
-67.599999998919088
 30
0.0
 42
0.7625858545243172
  0
VERTEX
  5
1D49
  8
SAPA_PROFIL
  6
CONTINUOUS
 62
     7
 10
-6.4940088531965321
 20
-67.415420796721605
 30
0.0
  0
VERTEX
  5
1D4A
  8
SAPA_PROFIL
  6
CONTINUOUS
 62
     7
 10
-6.5520824901856249
 20
-67.224037796727885
 30
0.0
  0
VERTEX
  5
1D4B
  8
SAPA_PROFIL
  6
CONTINUOUS
 62
     7
 10
-7.6366469371573649
 20
-65.33819410486683
 30
0.0
  0
VERTEX
  5
1D4C
  8
SAPA_PROFIL
  6
CONTINUOUS
 62
     7
 10
-7.9584046653756104
 20
-65.348755471093796
 30
0.0
 42
-0.5773502691897293
  0
VERTEX
  5
1D4D
  8
SAPA_PROFIL
  6
CONTINUOUS
 62
     7
 10
-8.1413584054857893
 20
-65.054599170838955
 30
0.0
  0
VERTEX
  5
1D4E
  8
SAPA_PROFIL
  6
CONTINUOUS
 62
     7
 10
-7.9892244943770256
 20
-64.76991688760728
 30
0.0
 42
-0.2216946626430043
  0
VERTEX
  5
1D4F
  8
SAPA_PROFIL
  6
CONTINUOUS
 62
     7
 10
-7.4483446629002401
 20
-64.364107982452538
 30
0.0
  0
VERTEX
  5
1D50
  8
SAPA_PROFIL
  6
CONTINUOUS
 62
     7
 10
-5.6351141922419847
 20
-63.982661386324821
 30
0.0
 42
-0.4769755326981317
  0
VERTEX
  5
1D51
  8
SAPA_PROFIL
  6
CONTINUOUS
 62
     7
 10
-5.2634573172961154
 20
-64.284914210831289
 30
0.0
  0
VERTEX
  5
1D52
  8
SAPA_PROFIL
  6
CONTINUOUS
 62
     7
 10
-5.2635409251797682
 20
-65.788015291593297
 30
0.0
  0
VERTEX
  5
1D53
  8
SAPA_PROFIL
  6
CONTINUOUS
 62
     7
 10
-5.3113866751782552
 20
-65.802533700840399
 30
0.0
 42
0.4142135623730951
  0
VERTEX
  5
1D54
  8
SAPA_PROFIL
  6
CONTINUOUS
 62
     7
 10
-5.5113507196856508
 20
-66.176718656316211
 30
0.0
  0
VERTEX
  5
1D55
  8
SAPA_PROFIL
  6
CONTINUOUS
 62
     7
 10
-5.0000000000554499
 20
-67.499719497766961
 30
0.0
  0
VERTEX
  5
1D56
  8
SAPA_PROFIL
  6
CONTINUOUS
 62
     7
 10
-5.0000000000672173
 20
-69.699999998919864
 30
0.0
 42
-0.4142135623531162
  0
VERTEX
  5
1D57
  8
SAPA_PROFIL
  6
CONTINUOUS
 62
     7
 10
-5.3000000000469072
 20
-69.999999998919108
 30
0.0
  0
VERTEX
  5
1D58
  8
SAPA_PROFIL
  6
CONTINUOUS
 62
     7
 10
-10.000000000031211
 20
-69.999999998919108
 30
0.0
 42
0.4142135623737027
  0
VERTEX
  5
1D59
  8
SAPA_PROFIL
  6
CONTINUOUS
 62
     7
 10
-11.0000000000312
 20
-70.999999998921183
 30
0.0
  0
VERTEX
  5
1D5A
  8
SAPA_PROFIL
  6
CONTINUOUS
 62
     7
 10
-11.000000000024979
 20
-73.99999999891844
 30
0.0
 42
-0.4142135623737057
  0
VERTEX
  5
1D5B
  8
SAPA_PROFIL
  6
CONTINUOUS
 62
     7
 10
-11.30000000002499
 20
-74.299999998919034
 30
0.0
  0
VERTEX
  5
1D5C
  8
SAPA_PROFIL
  6
CONTINUOUS
 62
     7
 10
-12.57343848380285
 20
-74.299999998919063
 30
0.0
 42
-0.1962615682814401
  0
VERTEX
  5
1D5D
  8
SAPA_PROFIL
  6
CONTINUOUS
 62
     7
 10
-12.78339474747054
 20
-74.214285713204774
 30
0.0
 42
0.1962615682813938
  0
VERTEX
  5
1D5E
  8
SAPA_PROFIL
  6
CONTINUOUS
 62
     7
 10
-14.53303027802974
 20
-73.499999998919094
 30
0.0
  0
VERTEX
  5
1D5F
  8
SAPA_PROFIL
  6
CONTINUOUS
 62
     7
 10
-23.000000000034991
 20
-73.499999998919094
 30
0.0
 42
0.414213562373709
  0
VERTEX
  5
1D60
  8
SAPA_PROFIL
  6
CONTINUOUS
 62
     7
 10
-23.300000000036022
 20
-73.799999998919063
 30
0.0
  0
VERTEX
  5
1D61
  8
SAPA_PROFIL
  6
CONTINUOUS
 62
     7
 10
-23.300000000035681
 20
-87.000003047092861
 30
0.0
 42
0.4142135623728949
  0
SEQEND
  5
1D62
  8
SAPA_PROFIL
  6
CONTINUOUS
 62
     7
  0
POLYLINE
  5
1776
  8
SAPA_PROFIL
 62
     4
 66
     1
 10
0.0
 20
0.0
 30
0.0
 70
     1
  0
VERTEX
  5
1D63
  8
SAPA_PROFIL
 62
     4
 10
-7.9732428049592272
 20
-64.462221528366854
 30
0.0
 42
-0.3137019356282051
  0
VERTEX
  5
1D64
  8
SAPA_PROFIL
 62
     4
 10
-7.7756171794258071
 20
-64.181271744820549
 30
0.0
  0
VERTEX
  5
1D65
  8
SAPA_PROFIL
 62
     4
 10
-5.3427871578817872
 20
-63.295794031949349
 30
0.0
 42
0.3152987888779321
  0
VERTEX
  5
1D66
  8
SAPA_PROFIL
 62
     4
 10
-5.0795952152120663
 20
-62.919916983632959
 30
0.0
  0
VERTEX
  5
1D67
  8
SAPA_PROFIL
 62
     4
 10
-5.0795952152120938
 20
-52.499999998918831
 30
0.0
  0
VERTEX
  5
1D68
  8
SAPA_PROFIL
 62
     4
 10
-5.0795952152121506
 20
-42.080083014200738
 30
0.0
 42
0.3152987888779395
  0
VERTEX
  5
1D69
  8
SAPA_PROFIL
 62
     4
 10
-5.3427871578818724
 20
-41.70420596588837
 30
0.0
  0
VERTEX
  5
1D6A
  8
SAPA_PROFIL
 62
     4
 10
-7.7756171794175648
 20
-40.818728253020197
 30
0.0
 42
-0.3138982169096283
  0
VERTEX
  5
1D6B
  8
SAPA_PROFIL
 62
     4
 10
-7.9732428049579189
 20
-40.537778469506009
 30
0.0
 42
-0.0157923906855865
  0
VERTEX
  5
1D6C
  8
SAPA_PROFIL
 62
     4
 10
-7.9766459345975154
 20
-40.186319937167163
 30
0.0
  0
VERTEX
  5
1D6D
  8
SAPA_PROFIL
 62
     4
 10
-8.1153156917040405
 20
-39.946136872384869
 30
0.0
 42
-0.5773502691889272
  0
VERTEX
  5
1D6E
  8
SAPA_PROFIL
 62
     4
 10
-7.9334503569092467
 20
-39.631136872385163
 30
0.0
  0
VERTEX
  5
1D6F
  8
SAPA_PROFIL
 62
     4
 10
-7.666335828696333
 20
-39.631136872385042
 30
0.0
  0
VERTEX
  5
1D70
  8
SAPA_PROFIL
 62
     4
 10
-7.4701137629120353
 20
-39.29999999891885
 30
0.0
  0
VERTEX
  5
1D71
  8
SAPA_PROFIL
 62
     4
 10
-6.9024695994145873
 20
-38.316679860938329
 30
0.0
 42
0.1316524975869703
  0
VERTEX
  5
1D72
  8
SAPA_PROFIL
 62
     4
 10
-6.8743349342100251
 20
-38.211679860939512
 30
0.0
  0
VERTEX
  5
1D73
  8
SAPA_PROFIL
 62
     4
 10
-6.8743349342099123
 20
-37.89999999891694
 30
0.0
 42
0.4142135623775584
  0
VERTEX
  5
1D74
  8
SAPA_PROFIL
 62
     4
 10
-7.2743349342102297
 20
-37.499999998918902
 30
0.0
  0
VERTEX
  5
1D75
  8
SAPA_PROFIL
 62
     4
 10
-10.67433493420998
 20
-37.499999998918838
 30
0.0
 42
0.4142135623773978
  0
VERTEX
  5
1D76
  8
SAPA_PROFIL
 62
     4
 10
-11.074334934209951
 20
-37.899999998918872
 30
0.0
  0
VERTEX
  5
1D77
  8
SAPA_PROFIL
 62
     4
 10
-11.074334934209951
 20
-38.211679860942517
 30
0.0
 42
0.1316524975869708
  0
VERTEX
  5
1D78
  8
SAPA_PROFIL
 62
     4
 10
-11.046200269004711
 20
-38.316679860939473
 30
0.0
  0
VERTEX
  5
1D79
  8
SAPA_PROFIL
 62
     4
 10
-10.478480122642679
 20
-39.29999999891885
 30
0.0
  0
VERTEX
  5
1D7A
  8
SAPA_PROFIL
 62
     4
 10
-10.13510444967056
 20
-39.894744110589727
 30
0.0
 42
-0.1316524975869772
  0
VERTEX
  5
1D7B
  8
SAPA_PROFIL
 62
     4
 10
-9.9743349342100487
 20
-40.494744110593103
 30
0.0
  0
VERTEX
  5
1D7C
  8
SAPA_PROFIL
 62
     4
 10
-9.9743349342102761
 20
-41.446608443479533
 30
0.0
 42
0.3152987888780149
  0
VERTEX
  5
1D7D
  8
SAPA_PROFIL
 62
     4
 10
-9.3163550775358885
 20
-42.386301064251029
 30
0.0
  0
VERTEX
  5
1D7E
  8
SAPA_PROFIL
 62
     4
 10
-7.1427871578821964
 20
-43.177415089160881
 30
0.0
 42
-0.3152987888779391
  0
VERTEX
  5
1D7F
  8
SAPA_PROFIL
 62
     4
 10
-6.8795952152120767
 20
-43.553292137475403
 30
0.0
  0
VERTEX
  5
1D80
  8
SAPA_PROFIL
 62
     4
 10
-6.8795952152120767
 20
-52.499999998918831
 30
0.0
  0
VERTEX
  5
1D81
  8
SAPA_PROFIL
 62
     4
 10
-6.8795952152120199
 20
-61.446707860362331
 30
0.0
 42
-0.3152987888779318
  0
VERTEX
  5
1D82
  8
SAPA_PROFIL
 62
     4
 10
-7.1427871578784439
 20
-61.822584908675481
 30
0.0
  0
VERTEX
  5
1D83
  8
SAPA_PROFIL
 62
     4
 10
-9.3163550775356612
 20
-62.613698933586591
 30
0.0
 42
0.3152987888779361
  0
VERTEX
  5
1D84
  8
SAPA_PROFIL
 62
     4
 10
-9.9743349342099918
 20
-63.55339155438719
 30
0.0
  0
VERTEX
  5
1D85
  8
SAPA_PROFIL
 62
     4
 10
-9.9743349342099918
 20
-64.505255887244687
 30
0.0
 42
-0.1316524975869766
  0
VERTEX
  5
1D86
  8
SAPA_PROFIL
 62
     4
 10
-10.135104449664709
 20
-65.105255887237888
 30
0.0
  0
VERTEX
  5
1D87
  8
SAPA_PROFIL
 62
     4
 10
-10.47433493420993
 20
-65.692820321946385
 30
0.0
  0
VERTEX
  5
1D88
  8
SAPA_PROFIL
 62
     4
 10
-11.046200269004659
 20
-66.683320136898317
 30
0.0
 42
0.1316524975869832
  0
VERTEX
  5
1D89
  8
SAPA_PROFIL
 62
     4
 10
-11.074334934209899
 20
-66.788320136901405
 30
0.0
  0
VERTEX
  5
1D8A
  8
SAPA_PROFIL
 62
     4
 10
-11.074334934209951
 20
-67.099999998918904
 30
0.0
 42
0.414213562371655
  0
VERTEX
  5
1D8B
  8
SAPA_PROFIL
 62
     4
 10
-10.674334934206
 20
-67.499999998918895
 30
0.0
  0
VERTEX
  5
1D8C
  8
SAPA_PROFIL
 62
     4
 10
-7.2743349342099464
 20
-67.499999998918895
 30
0.0
 42
0.4142135623716633
  0
VERTEX
  5
1D8D
  8
SAPA_PROFIL
 62
     4
 10
-6.8743349342099691
 20
-67.099999998916871
 30
0.0
  0
VERTEX
  5
1D8E
  8
SAPA_PROFIL
 62
     4
 10
-6.8743349342099691
 20
-66.788320136898221
 30
0.0
 42
0.1316524975869709
  0
VERTEX
  5
1D8F
  8
SAPA_PROFIL
 62
     4
 10
-6.9024695994155527
 20
-66.683320136897635
 30
0.0
  0
VERTEX
  5
1D90
  8
SAPA_PROFIL
 62
     4
 10
-7.666335828696333
 20
-65.368863125452634
 30
0.0
  0
VERTEX
  5
1D91
  8
SAPA_PROFIL
 62
     4
 10
-7.9334503569092467
 20
-65.368863125452521
 30
0.0
 42
-0.5773502691889269
  0
VERTEX
  5
1D92
  8
SAPA_PROFIL
 62
     4
 10
-8.1153156917040405
 20
-65.053863125452807
 30
0.0
  0
VERTEX
  5
1D93
  8
SAPA_PROFIL
 62
     4
 10
-7.9766459345975171
 20
-64.813680060670507
 30
0.0
 42
-0.015792390685586
  0
SEQEND
  5
1D94
  8
SAPA_PROFIL
 62
     4
  0
POLYLINE
  5
1777
  8
SAPA_PROFIL
 66
     1
 10
0.0
 20
0.0
 30
0.0
 70
     1
  0
VERTEX
  5
1D95
  8
SAPA_PROFIL
 10
-22.600000373537799
 20
-25.000000000002899
 30
0.0
 42
-0.767326987974136
  0
VERTEX
  5
1D96
  8
SAPA_PROFIL
 10
-22.04019275240432
 20
-24.849999999999739
 30
0.0
 42
0.2679491924279902
  0
VERTEX
  5
1D97
  8
SAPA_PROFIL
 10
-21.780385131280809
 20
-25.000000000002451
 30
0.0
  0
VERTEX
  5
1D98
  8
SAPA_PROFIL
 10
-18.800000373537561
 20
-25.000000000001819
 30
0.0
 42
0.4142135623730395
  0
VERTEX
  5
1D99
  8
SAPA_PROFIL
 10
-17.300000373537841
 20
-23.500000000001759
 30
0.0
  0
VERTEX
  5
1D9A
  8
SAPA_PROFIL
 10
-17.300000373537841
 20
-22.400000000002361
 30
0.0
 42
0.4142135623730951
  0
VERTEX
  5
1D9B
  8
SAPA_PROFIL
 10
-17.600000373537569
 20
-22.10000000000241
 30
0.0
  0
VERTEX
  5
1D9C
  8
SAPA_PROFIL
 10
-18.100000373537569
 20
-22.10000000000241
 30
0.0
 42
0.4142135623730948
  0
VERTEX
  5
1D9D
  8
SAPA_PROFIL
 10
-18.40000037353775
 20
-22.400000000002361
 30
0.0
  0
VERTEX
  5
1D9E
  8
SAPA_PROFIL
 10
-18.40000037353775
 20
-22.736626924636539
 30
0.0
 42
-0.5643553431119927
  0
VERTEX
  5
1D9F
  8
SAPA_PROFIL
 10
-22.72439541677204
 20
-20.87439504323947
 30
0.0
  0
VERTEX
  5
1DA0
  8
SAPA_PROFIL
 10
-22.350000373539839
 20
-20.500000000002501
 30
0.0
  0
VERTEX
  5
1DA1
  8
SAPA_PROFIL
 10
-22.72439541677295
 20
-20.125604956769621
 30
0.0
 42
-0.564355343112654
  0
VERTEX
  5
1DA2
  8
SAPA_PROFIL
 10
-18.40000037353775
 20
-18.263373075367099
 30
0.0
  0
VERTEX
  5
1DA3
  8
SAPA_PROFIL
 10
-18.40000037353775
 20
-18.600000000002641
 30
0.0
 42
0.4142135623729843
  0
VERTEX
  5
1DA4
  8
SAPA_PROFIL
 10
-18.10000037353802
 20
-18.900000000002699
 30
0.0
  0
VERTEX
  5
1DA5
  8
SAPA_PROFIL
 10
-17.600000373537569
 20
-18.900000000002589
 30
0.0
 42
0.4142135623730951
  0
VERTEX
  5
1DA6
  8
SAPA_PROFIL
 10
-17.300000373537841
 20
-18.600000000002641
 30
0.0
  0
VERTEX
  5
1DA7
  8
SAPA_PROFIL
 10
-17.300000373537841
 20
-16.300000000002679
 30
0.0
 42
0.4142135623732062
  0
VERTEX
  5
1DA8
  8
SAPA_PROFIL
 10
-17.600000373537569
 20
-16.000000000002391
 30
0.0
  0
VERTEX
  5
1DA9
  8
SAPA_PROFIL
 10
-22.00000037353772
 20
-16.000000000002501
 30
0.0
 42
-0.4142135623731117
  0
VERTEX
  5
1DAA
  8
SAPA_PROFIL
 10
-23.00000037353783
 20
-15.000000000002499
 30
0.0
  0
VERTEX
  5
1DAB
  8
SAPA_PROFIL
 10
-23.000000373538061
 20
19.999999999995559
 30
0.0
 42
-0.7673269879789009
  0
VERTEX
  5
1DAC
  8
SAPA_PROFIL
 10
-22.066987671645901
 20
20.24999999999574
 30
0.0
 42
0.2679491924311131
  0
VERTEX
  5
1DAD
  8
SAPA_PROFIL
 10
-21.633974969753641
 20
19.99999999999585
 30
0.0
  0
VERTEX
  5
1DAE
  8
SAPA_PROFIL
 10
-18.800000373537781
 20
19.999999999996639
 30
0.0
 42
0.4142135623730395
  0
VERTEX
  5
1DAF
  8
SAPA_PROFIL
 10
-17.300000373538069
 20
21.4999999999967
 30
0.0
  0
VERTEX
  5
1DB0
  8
SAPA_PROFIL
 10
-17.300000373538069
 20
22.599999999996101
 30
0.0
 42
0.4142135623730951
  0
VERTEX
  5
1DB1
  8
SAPA_PROFIL
 10
-17.600000373537789
 20
22.899999999996059
 30
0.0
  0
VERTEX
  5
1DB2
  8
SAPA_PROFIL
 10
-18.100000373537789
 20
22.899999999996059
 30
0.0
 42
0.4142135623730948
  0
VERTEX
  5
1DB3
  8
SAPA_PROFIL
 10
-18.400000373537981
 20
22.599999999996101
 30
0.0
  0
VERTEX
  5
1DB4
  8
SAPA_PROFIL
 10
-18.400000373537981
 20
22.263373075361919
 30
0.0
 42
-0.5643553431119927
  0
VERTEX
  5
1DB5
  8
SAPA_PROFIL
 10
-22.724395416772271
 20
24.125604956758991
 30
0.0
  0
VERTEX
  5
1DB6
  8
SAPA_PROFIL
 10
-22.35000037354007
 20
24.499999999995961
 30
0.0
  0
VERTEX
  5
1DB7
  8
SAPA_PROFIL
 10
-22.724395416773181
 20
24.874395043228841
 30
0.0
 42
-0.564355343112654
  0
VERTEX
  5
1DB8
  8
SAPA_PROFIL
 10
-18.400000373537981
 20
26.73662692463137
 30
0.0
  0
VERTEX
  5
1DB9
  8
SAPA_PROFIL
 10
-18.400000373537981
 20
26.399999999995831
 30
0.0
 42
0.4142135623729843
  0
VERTEX
  5
1DBA
  8
SAPA_PROFIL
 10
-18.100000373538251
 20
26.099999999995759
 30
0.0
  0
VERTEX
  5
1DBB
  8
SAPA_PROFIL
 10
-17.600000373537789
 20
26.09999999999587
 30
0.0
 42
0.4142135623730951
  0
VERTEX
  5
1DBC
  8
SAPA_PROFIL
 10
-17.300000373538069
 20
26.399999999995831
 30
0.0
  0
VERTEX
  5
1DBD
  8
SAPA_PROFIL
 10
-17.300000373538069
 20
28.699999999995779
 30
0.0
 42
0.4142135623732062
  0
VERTEX
  5
1DBE
  8
SAPA_PROFIL
 10
-17.600000373537789
 20
28.999999999996081
 30
0.0
  0
VERTEX
  5
1DBF
  8
SAPA_PROFIL
 10
-22.00000037353794
 20
28.999999999995971
 30
0.0
 42
-0.4142135623730951
  0
VERTEX
  5
1DC0
  8
SAPA_PROFIL
 10
-23.00000037353794
 20
29.999999999995971
 30
0.0
  0
VERTEX
  5
1DC1
  8
SAPA_PROFIL
 10
-23.000000373538111
 20
34.699999999996351
 30
0.0
 42
-0.4142135623730984
  0
VERTEX
  5
1DC2
  8
SAPA_PROFIL
 10
-22.700000373538099
 20
34.999999999996362
 30
0.0
  0
VERTEX
  5
1DC3
  8
SAPA_PROFIL
 10
-21.400000373538091
 20
34.999999999996362
 30
0.0
 42
0.4142135623730951
  0
VERTEX
  5
1DC4
  8
SAPA_PROFIL
 10
-21.10000037353808
 20
35.299999999996373
 30
0.0
  0
VERTEX
  5
1DC5
  8
SAPA_PROFIL
 10
-21.10000037353808
 20
35.875735931284403
 30
0.0
 42
0.198912367379637
  0
VERTEX
  5
1DC6
  8
SAPA_PROFIL
 10
-21.187868339182099
 20
36.087867965640392
 30
0.0
  0
VERTEX
  5
1DC7
  8
SAPA_PROFIL
 10
-22.912132407893981
 20
37.812132034352153
 30
0.0
 42
-0.1989123673796579
  0
VERTEX
  5
1DC8
  8
SAPA_PROFIL
 10
-23.000000373538001
 20
38.024264068708142
 30
0.0
  0
VERTEX
  5
1DC9
  8
SAPA_PROFIL
 10
-23.000000373538061
 20
41.499999999996469
 30
0.0
 42
-0.4142135623730951
  0
VERTEX
  5
1DCA
  8
SAPA_PROFIL
 10
-22.000000373538061
 20
42.499999999996469
 30
0.0
  0
VERTEX
  5
1DCB
  8
SAPA_PROFIL
 10
21.999999626461829
 20
42.499999999996469
 30
0.0
 42
-0.4142135623730951
  0
VERTEX
  5
1DCC
  8
SAPA_PROFIL
 10
22.999999626461829
 20
41.499999999996469
 30
0.0
  0
VERTEX
  5
1DCD
  8
SAPA_PROFIL
 10
22.999999626461769
 20
38.024264068708078
 30
0.0
 42
-0.1989123673796579
  0
VERTEX
  5
1DCE
  8
SAPA_PROFIL
 10
22.912131660817749
 20
37.812132034352089
 30
0.0
  0
VERTEX
  5
1DCF
  8
SAPA_PROFIL
 10
21.187867592105931
 20
36.087867965640442
 30
0.0
 42
0.198912367379658
  0
VERTEX
  5
1DD0
  8
SAPA_PROFIL
 10
21.099999626461909
 20
35.875735931284453
 30
0.0
  0
VERTEX
  5
1DD1
  8
SAPA_PROFIL
 10
21.099999626461909
 20
35.299999999996373
 30
0.0
 42
0.4142135623730951
  0
VERTEX
  5
1DD2
  8
SAPA_PROFIL
 10
21.39999962646192
 20
34.999999999996362
 30
0.0
  0
VERTEX
  5
1DD3
  8
SAPA_PROFIL
 10
22.699999626461821
 20
34.999999999996362
 30
0.0
 42
-0.4142135623730984
  0
VERTEX
  5
1DD4
  8
SAPA_PROFIL
 10
22.999999626461829
 20
34.699999999996351
 30
0.0
  0
VERTEX
  5
1DD5
  8
SAPA_PROFIL
 10
22.999999626461719
 20
29.999999999995971
 30
0.0
 42
-0.4142135623730951
  0
VERTEX
  5
1DD6
  8
SAPA_PROFIL
 10
21.999999626461719
 20
28.999999999995971
 30
0.0
  0
VERTEX
  5
1DD7
  8
SAPA_PROFIL
 10
17.599999626461571
 20
28.999999999996081
 30
0.0
 42
0.4142135623732062
  0
VERTEX
  5
1DD8
  8
SAPA_PROFIL
 10
17.29999962646184
 20
28.699999999995779
 30
0.0
  0
VERTEX
  5
1DD9
  8
SAPA_PROFIL
 10
17.29999962646184
 20
26.399999999995831
 30
0.0
 42
0.4142135623730951
  0
VERTEX
  5
1DDA
  8
SAPA_PROFIL
 10
17.599999626461571
 20
26.09999999999587
 30
0.0
  0
VERTEX
  5
1DDB
  8
SAPA_PROFIL
 10
18.099999626462019
 20
26.099999999995759
 30
0.0
 42
0.414213562372984
  0
VERTEX
  5
1DDC
  8
SAPA_PROFIL
 10
18.399999626461749
 20
26.399999999995831
 30
0.0
  0
VERTEX
  5
1DDD
  8
SAPA_PROFIL
 10
18.399999626461749
 20
26.73662692463137
 30
0.0
 42
-0.5643553431126542
  0
VERTEX
  5
1DDE
  8
SAPA_PROFIL
 10
22.724394669696949
 20
24.874395043228841
 30
0.0
  0
VERTEX
  5
1DDF
  8
SAPA_PROFIL
 10
22.349999626463841
 20
24.499999999995961
 30
0.0
  0
VERTEX
  5
1DE0
  8
SAPA_PROFIL
 10
22.724394669696039
 20
24.125604956758991
 30
0.0
 42
-0.5643553431119927
  0
VERTEX
  5
1DE1
  8
SAPA_PROFIL
 10
18.399999626461749
 20
22.263373075361919
 30
0.0
  0
VERTEX
  5
1DE2
  8
SAPA_PROFIL
 10
18.399999626461749
 20
22.599999999996101
 30
0.0
 42
0.414213562373095
  0
VERTEX
  5
1DE3
  8
SAPA_PROFIL
 10
18.099999626461571
 20
22.899999999996059
 30
0.0
  0
VERTEX
  5
1DE4
  8
SAPA_PROFIL
 10
17.599999626461571
 20
22.899999999996059
 30
0.0
 42
0.4142135623730953
  0
VERTEX
  5
1DE5
  8
SAPA_PROFIL
 10
17.29999962646184
 20
22.599999999996101
 30
0.0
  0
VERTEX
  5
1DE6
  8
SAPA_PROFIL
 10
17.299999626461609
 20
21.4999999999967
 30
0.0
 42
0.4142135623730508
  0
VERTEX
  5
1DE7
  8
SAPA_PROFIL
 10
18.799999626461329
 20
19.999999999996639
 30
0.0
  0
VERTEX
  5
1DE8
  8
SAPA_PROFIL
 10
21.633974222677178
 20
19.999999999995911
 30
0.0
 42
0.2679491924311283
  0
VERTEX
  5
1DE9
  8
SAPA_PROFIL
 10
22.066986924569449
 20
20.24999999999574
 30
0.0
 42
-0.7673269879788167
  0
VERTEX
  5
1DEA
  8
SAPA_PROFIL
 10
22.999999626461602
 20
19.999999999995559
 30
0.0
  0
VERTEX
  5
1DEB
  8
SAPA_PROFIL
 10
22.999999626461381
 20
-15.000000000002499
 30
0.0
 42
-0.4142135623730951
  0
VERTEX
  5
1DEC
  8
SAPA_PROFIL
 10
21.999999626461371
 20
-16.000000000002501
 30
0.0
  0
VERTEX
  5
1DED
  8
SAPA_PROFIL
 10
17.599999626461219
 20
-16.000000000002391
 30
0.0
 42
0.4142135623732062
  0
VERTEX
  5
1DEE
  8
SAPA_PROFIL
 10
17.299999626461499
 20
-16.300000000002679
 30
0.0
  0
VERTEX
  5
1DEF
  8
SAPA_PROFIL
 10
17.299999626461499
 20
-18.600000000002641
 30
0.0
 42
0.4142135623730951
  0
VERTEX
  5
1DF0
  8
SAPA_PROFIL
 10
17.599999626461219
 20
-18.900000000002589
 30
0.0
  0
VERTEX
  5
1DF1
  8
SAPA_PROFIL
 10
18.099999626461681
 20
-18.900000000002699
 30
0.0
 42
0.414213562372984
  0
VERTEX
  5
1DF2
  8
SAPA_PROFIL
 10
18.399999626461408
 20
-18.600000000002641
 30
0.0
  0
VERTEX
  5
1DF3
  8
SAPA_PROFIL
 10
18.399999626461408
 20
-18.263373075367099
 30
0.0
 42
-0.5643553431126542
  0
VERTEX
  5
1DF4
  8
SAPA_PROFIL
 10
22.724394669696611
 20
-20.125604956769621
 30
0.0
  0
VERTEX
  5
1DF5
  8
SAPA_PROFIL
 10
22.3499996264635
 20
-20.500000000002501
 30
0.0
  0
VERTEX
  5
1DF6
  8
SAPA_PROFIL
 10
22.724394669695702
 20
-20.87439504323947
 30
0.0
 42
-0.5643553431119927
  0
VERTEX
  5
1DF7
  8
SAPA_PROFIL
 10
18.399999626461408
 20
-22.736626924636539
 30
0.0
  0
VERTEX
  5
1DF8
  8
SAPA_PROFIL
 10
18.399999626461408
 20
-22.400000000002361
 30
0.0
 42
0.414213562373095
  0
VERTEX
  5
1DF9
  8
SAPA_PROFIL
 10
18.099999626461219
 20
-22.10000000000241
 30
0.0
  0
VERTEX
  5
1DFA
  8
SAPA_PROFIL
 10
17.599999626461219
 20
-22.10000000000241
 30
0.0
 42
0.4142135623730951
  0
VERTEX
  5
1DFB
  8
SAPA_PROFIL
 10
17.299999626461378
 20
-22.400000000002361
 30
0.0
  0
VERTEX
  5
1DFC
  8
SAPA_PROFIL
 10
17.299999626461378
 20
-23.500000000001759
 30
0.0
 42
0.4142135623730508
  0
VERTEX
  5
1DFD
  8
SAPA_PROFIL
 10
18.799999626461101
 20
-25.000000000001819
 30
0.0
  0
VERTEX
  5
1DFE
  8
SAPA_PROFIL
 10
21.78038438420435
 20
-25.000000000002451
 30
0.0
 42
0.2679491924279903
  0
VERTEX
  5
1DFF
  8
SAPA_PROFIL
 10
22.040192005327871
 20
-24.849999999999739
 30
0.0
 42
-0.767326987974136
  0
VERTEX
  5
1E00
  8
SAPA_PROFIL
 10
22.5999996264614
 20
-25.000000000002899
 30
0.0
  0
VERTEX
  5
1E01
  8
SAPA_PROFIL
 10
22.59999962646134
 20
-27.000000000001819
 30
0.0
 42
-0.4142135623730951
  0
VERTEX
  5
1E02
  8
SAPA_PROFIL
 10
21.59999962646134
 20
-28.000000000001819
 30
0.0
  0
VERTEX
  5
1E03
  8
SAPA_PROFIL
 10
-21.600000373537799
 20
-28.000000000001819
 30
0.0
 42
-0.4142135623731284
  0
VERTEX
  5
1E04
  8
SAPA_PROFIL
 10
-22.60000037353791
 20
-27.000000000001819
 30
0.0
  0
SEQEND
  5
1E05
  8
SAPA_PROFIL
  0
POLYLINE
  5
1778
  8
SAPA_PROFIL
 66
     1
 10
0.0
 20
0.0
 30
0.0
 70
     1
  0
VERTEX
  5
1E06
  8
SAPA_PROFIL
 10
2.6999996264622719
 20
-30.999999999011781
 30
0.0
  0
VERTEX
  5
1E07
  8
SAPA_PROFIL
 10
2.6999996264622719
 20
-31.249999999011781
 30
0.0
  0
VERTEX
  5
1E08
  8
SAPA_PROFIL
 10
2.3499996264623628
 20
-31.24999999901183
 30
0.0
 42
0.5450207774094042
  0
VERTEX
  5
1E09
  8
SAPA_PROFIL
 10
2.076719322210351
 20
-31.67376540333731
 30
0.0
  0
VERTEX
  5
1E0A
  8
SAPA_PROFIL
 10
2.6999996264622719
 20
-33.049999999011959
 30
0.0
  0
VERTEX
  5
1E0B
  8
SAPA_PROFIL
 10
2.3499996264623628
 20
-33.04999999901208
 30
0.0
 42
0.5450207774090177
  0
VERTEX
  5
1E0C
  8
SAPA_PROFIL
 10
2.0767193222102369
 20
-33.473765403337161
 30
0.0
  0
VERTEX
  5
1E0D
  8
SAPA_PROFIL
 10
2.6999996264622719
 20
-34.849999999011906
 30
0.0
  0
VERTEX
  5
1E0E
  8
SAPA_PROFIL
 10
2.3499996264623628
 20
-34.84999999901197
 30
0.0
 42
0.5450207774094042
  0
VERTEX
  5
1E0F
  8
SAPA_PROFIL
 10
2.076719322210351
 20
-35.27376540333745
 30
0.0
  0
VERTEX
  5
1E10
  8
SAPA_PROFIL
 10
2.6999996264622719
 20
-36.649999999011868
 30
0.0
  0
VERTEX
  5
1E11
  8
SAPA_PROFIL
 10
2.3499996264623628
 20
-36.649999999011868
 30
0.0
 42
0.545020777409516
  0
VERTEX
  5
1E12
  8
SAPA_PROFIL
 10
2.076719322210351
 20
-37.073765403337518
 30
0.0
  0
VERTEX
  5
1E13
  8
SAPA_PROFIL
 10
2.6999996264622719
 20
-38.44999999901205
 30
0.0
  0
VERTEX
  5
1E14
  8
SAPA_PROFIL
 10
2.3499996264623628
 20
-38.44999999901205
 30
0.0
 42
0.545020777409516
  0
VERTEX
  5
1E15
  8
SAPA_PROFIL
 10
2.076719322210351
 20
-38.8737654033377
 30
0.0
  0
VERTEX
  5
1E16
  8
SAPA_PROFIL
 10
2.6999996264622719
 20
-40.249999999012232
 30
0.0
  0
VERTEX
  5
1E17
  8
SAPA_PROFIL
 10
2.3499996264623628
 20
-40.249999999012232
 30
0.0
 42
0.5450207774090177
  0
VERTEX
  5
1E18
  8
SAPA_PROFIL
 10
2.0767193222102369
 20
-40.67376540333742
 30
0.0
  0
VERTEX
  5
1E19
  8
SAPA_PROFIL
 10
2.4282667520477039
 20
-41.449999999012043
 30
0.0
  0
VERTEX
  5
1E1A
  8
SAPA_PROFIL
 10
-1.0006707898188549
 20
-41.449999999012107
 30
0.0
  0
VERTEX
  5
1E1B
  8
SAPA_PROFIL
 10
-2.7000003735378182
 20
-41.449999999012107
 30
0.0
  0
VERTEX
  5
1E1C
  8
SAPA_PROFIL
 10
-2.7000003735378182
 20
-41.149999999012088
 30
0.0
  0
VERTEX
  5
1E1D
  8
SAPA_PROFIL
 10
-2.0767200692854431
 20
-39.773765403337791
 30
0.0
 42
0.5450207774093642
  0
VERTEX
  5
1E1E
  8
SAPA_PROFIL
 10
-2.3500003735376822
 20
-39.349999999012368
 30
0.0
  0
VERTEX
  5
1E1F
  8
SAPA_PROFIL
 10
-2.7000003735378182
 20
-39.349999999012141
 30
0.0
  0
VERTEX
  5
1E20
  8
SAPA_PROFIL
 10
-2.0767200692856131
 20
-37.973765403337609
 30
0.0
 42
0.5450207774088696
  0
VERTEX
  5
1E21
  8
SAPA_PROFIL
 10
-2.3500003735376822
 20
-37.549999999012421
 30
0.0
  0
VERTEX
  5
1E22
  8
SAPA_PROFIL
 10
-2.7000003735378182
 20
-37.549999999012194
 30
0.0
  0
VERTEX
  5
1E23
  8
SAPA_PROFIL
 10
-2.0767200692856131
 20
-36.173765403337647
 30
0.0
 42
0.5450207774094402
  0
VERTEX
  5
1E24
  8
SAPA_PROFIL
 10
-2.3500003735376822
 20
-35.749999999012353
 30
0.0
  0
VERTEX
  5
1E25
  8
SAPA_PROFIL
 10
-2.7000003735378182
 20
-35.749999999012232
 30
0.0
  0
VERTEX
  5
1E26
  8
SAPA_PROFIL
 10
-2.0767200692854431
 20
-34.373765403337927
 30
0.0
 42
0.5450207774093642
  0
VERTEX
  5
1E27
  8
SAPA_PROFIL
 10
-2.3500003735376822
 20
-33.949999999012512
 30
0.0
  0
VERTEX
  5
1E28
  8
SAPA_PROFIL
 10
-2.7000003735378182
 20
-33.949999999012277
 30
0.0
  0
VERTEX
  5
1E29
  8
SAPA_PROFIL
 10
-2.0767200692856131
 20
-32.573765403337752
 30
0.0
 42
0.5450207774088696
  0
VERTEX
  5
1E2A
  8
SAPA_PROFIL
 10
-2.3500003735376822
 20
-32.149999999012607
 30
0.0
  0
VERTEX
  5
1E2B
  8
SAPA_PROFIL
 10
-2.7000003735378182
 20
-32.149999999011868
 30
0.0
  0
VERTEX
  5
1E2C
  8
SAPA_PROFIL
 10
-2.7000003735378182
 20
-30.999999999011781
 30
0.0
 42
-0.4142135623730951
  0
VERTEX
  5
1E2D
  8
SAPA_PROFIL
 10
-1.700000373537818
 20
-29.999999999011781
 30
0.0
  0
VERTEX
  5
1E2E
  8
SAPA_PROFIL
 10
1.6999996264622721
 20
-29.999999999011781
 30
0.0
 42
-0.4142135623730951
  0
SEQEND
  5
1E2F
  8
SAPA_PROFIL
  0
POLYLINE
  5
1779
  8
SAPA_PROFIL
 66
     1
 10
0.0
 20
0.0
 30
0.0
 70
     1
  0
VERTEX
  5
1E30
  8
SAPA_PROFIL
 10
-16.700000373538671
 20
-30.000000000001759
 30
0.0
  0
VERTEX
  5
1E31
  8
SAPA_PROFIL
 10
-23.20000037353833
 20
-30.000000000001759
 30
0.0
 42
0.4142135623732062
  0
VERTEX
  5
1E32
  8
SAPA_PROFIL
 10
-23.500000373538288
 20
-30.30000000000183
 30
0.0
  0
VERTEX
  5
1E33
  8
SAPA_PROFIL
 10
-23.500000373538288
 20
-34.20000000000158
 30
0.0
 42
0.4142135623730951
  0
VERTEX
  5
1E34
  8
SAPA_PROFIL
 10
-23.20000037353833
 20
-34.500000000001542
 30
0.0
  0
VERTEX
  5
1E35
  8
SAPA_PROFIL
 10
-22.000000373538452
 20
-34.500000000001648
 30
0.0
 42
-0.7105995015650612
  0
VERTEX
  5
1E36
  8
SAPA_PROFIL
 10
-21.813616357777619
 20
-35.03507658043651
 30
0.0
  0
VERTEX
  5
1E37
  8
SAPA_PROFIL
 10
-22.127051798357339
 20
-35.283588601450958
 30
0.0
 42
-0.169180745212488
  0
VERTEX
  5
1E38
  8
SAPA_PROFIL
 10
-22.748331850893241
 20
-35.500000000001769
 30
0.0
  0
VERTEX
  5
1E39
  8
SAPA_PROFIL
 10
-24.700000373538501
 20
-35.500000000001648
 30
0.0
 42
-0.4142135623730951
  0
VERTEX
  5
1E3A
  8
SAPA_PROFIL
 10
-25.000000373538459
 20
-35.200000000001701
 30
0.0
  0
VERTEX
  5
1E3B
  8
SAPA_PROFIL
 10
-25.000000373538121
 20
43.999999999996419
 30
0.0
 42
-0.4142135623730951
  0
VERTEX
  5
1E3C
  8
SAPA_PROFIL
 10
-24.500000373538121
 20
44.499999999996419
 30
0.0
  0
VERTEX
  5
1E3D
  8
SAPA_PROFIL
 10
24.499999626461889
 20
44.499999999996419
 30
0.0
 42
-0.4142135623730951
  0
VERTEX
  5
1E3E
  8
SAPA_PROFIL
 10
24.999999626461889
 20
43.999999999996419
 30
0.0
  0
VERTEX
  5
1E3F
  8
SAPA_PROFIL
 10
24.999999626461999
 20
-35.200000000001808
 30
0.0
 42
-0.4142135623730951
  0
VERTEX
  5
1E40
  8
SAPA_PROFIL
 10
24.699999626462048
 20
-35.500000000001769
 30
0.0
  0
VERTEX
  5
1E41
  8
SAPA_PROFIL
 10
22.748331103816948
 20
-35.500000000001769
 30
0.0
 42
-0.1691807452125303
  0
VERTEX
  5
1E42
  8
SAPA_PROFIL
 10
22.12705105128094
 20
-35.283588601450852
 30
0.0
  0
VERTEX
  5
1E43
  8
SAPA_PROFIL
 10
21.81361561070128
 20
-35.035076580436403
 30
0.0
 42
-0.7105995015650845
  0
VERTEX
  5
1E44
  8
SAPA_PROFIL
 10
21.999999626461999
 20
-34.500000000001762
 30
0.0
  0
VERTEX
  5
1E45
  8
SAPA_PROFIL
 10
23.199999626461931
 20
-34.500000000001762
 30
0.0
 42
0.4142135623732061
  0
VERTEX
  5
1E46
  8
SAPA_PROFIL
 10
23.499999626461879
 20
-34.200000000001701
 30
0.0
  0
VERTEX
  5
1E47
  8
SAPA_PROFIL
 10
23.499999626461879
 20
-30.300000000001951
 30
0.0
 42
0.4142135623732061
  0
VERTEX
  5
1E48
  8
SAPA_PROFIL
 10
23.199999626461931
 20
-30.000000000001879
 30
0.0
  0
VERTEX
  5
1E49
  8
SAPA_PROFIL
 10
16.699999626461992
 20
-30.000000000001759
 30
0.0
 42
0.4142135623730951
  0
VERTEX
  5
1E4A
  8
SAPA_PROFIL
 10
16.199999626461992
 20
-30.500000000001769
 30
0.0
  0
VERTEX
  5
1E4B
  8
SAPA_PROFIL
 10
16.199999626461871
 20
-34.20000000000158
 30
0.0
 42
0.4142135623733172
  0
VERTEX
  5
1E4C
  8
SAPA_PROFIL
 10
16.499999626462049
 20
-34.500000000001762
 30
0.0
  0
VERTEX
  5
1E4D
  8
SAPA_PROFIL
 10
18.39999962646198
 20
-34.500000000001542
 30
0.0
 42
-0.7105995015650612
  0
VERTEX
  5
1E4E
  8
SAPA_PROFIL
 10
18.58638364222281
 20
-35.035076580436403
 30
0.0
  0
VERTEX
  5
1E4F
  8
SAPA_PROFIL
 10
18.27294820164326
 20
-35.283588601450852
 30
0.0
 42
-0.1691807452125303
  0
VERTEX
  5
1E50
  8
SAPA_PROFIL
 10
17.651668149107248
 20
-35.500000000001769
 30
0.0
  0
VERTEX
  5
1E51
  8
SAPA_PROFIL
 10
11.29999962646195
 20
-35.500000000001769
 30
0.0
 42
-0.4142135623728731
  0
VERTEX
  5
1E52
  8
SAPA_PROFIL
 10
10.999999626461999
 20
-35.200000000001808
 30
0.0
  0
VERTEX
  5
1E53
  8
SAPA_PROFIL
 10
10.99999962646222
 20
-34.500000000001542
 30
0.0
 42
-0.4142135623730951
  0
VERTEX
  5
1E54
  8
SAPA_PROFIL
 10
11.29999962646218
 20
-34.20000000000158
 30
0.0
  0
VERTEX
  5
1E55
  8
SAPA_PROFIL
 10
14.199999626461761
 20
-34.20000000000158
 30
0.0
 42
0.4142135623730951
  0
VERTEX
  5
1E56
  8
SAPA_PROFIL
 10
14.699999626461761
 20
-33.70000000000158
 30
0.0
  0
VERTEX
  5
1E57
  8
SAPA_PROFIL
 10
14.699999626461979
 20
-30.500000000001769
 30
0.0
 42
0.4142135623731617
  0
VERTEX
  5
1E58
  8
SAPA_PROFIL
 10
14.19999962646199
 20
-30.000000000001759
 30
0.0
  0
VERTEX
  5
1E59
  8
SAPA_PROFIL
 10
5.999999626462567
 20
-30.00000000000199
 30
0.0
 42
0.4142135623730951
  0
VERTEX
  5
1E5A
  8
SAPA_PROFIL
 10
4.999999626462567
 20
-31.00000000000199
 30
0.0
  0
VERTEX
  5
1E5B
  8
SAPA_PROFIL
 10
4.9999996264623396
 20
-52.199999999011879
 30
0.0
 42
-0.4142135623730951
  0
VERTEX
  5
1E5C
  8
SAPA_PROFIL
 10
4.6999996264623292
 20
-52.499999999011891
 30
0.0
  0
VERTEX
  5
1E5D
  8
SAPA_PROFIL
 10
3.0750101561756078
 20
-52.499999999011827
 30
0.0
  0
VERTEX
  5
1E5E
  8
SAPA_PROFIL
 10
2.21447477739133
 20
-51.535790539647849
 30
0.0
 42
-0.6264792893017398
  0
VERTEX
  5
1E5F
  8
SAPA_PROFIL
 10
2.450020685889398
 20
-51.049999999012421
 30
0.0
  0
VERTEX
  5
1E60
  8
SAPA_PROFIL
 10
2.6999996264623292
 20
-51.049999999012179
 30
0.0
  0
VERTEX
  5
1E61
  8
SAPA_PROFIL
 10
2.1767193222102028
 20
-49.673765403337882
 30
0.0
 42
-0.5450207774090681
  0
VERTEX
  5
1E62
  8
SAPA_PROFIL
 10
2.4499996264623292
 20
-49.249999999012353
 30
0.0
  0
VERTEX
  5
1E63
  8
SAPA_PROFIL
 10
2.6999996264622719
 20
-49.249999999012232
 30
0.0
  0
VERTEX
  5
1E64
  8
SAPA_PROFIL
 10
2.1767193222103169
 20
-47.87376540333792
 30
0.0
 42
-0.545020777409516
  0
VERTEX
  5
1E65
  8
SAPA_PROFIL
 10
2.4499996264623292
 20
-47.44999999901227
 30
0.0
  0
VERTEX
  5
1E66
  8
SAPA_PROFIL
 10
2.6999996264622719
 20
-47.44999999901227
 30
0.0
  0
VERTEX
  5
1E67
  8
SAPA_PROFIL
 10
2.1767193222102028
 20
-46.073765403337617
 30
0.0
 42
-0.5450207774091295
  0
VERTEX
  5
1E68
  8
SAPA_PROFIL
 10
2.4499996264623292
 20
-45.64999999901238
 30
0.0
  0
VERTEX
  5
1E69
  8
SAPA_PROFIL
 10
2.6999996264622719
 20
-45.649999999012323
 30
0.0
  0
VERTEX
  5
1E6A
  8
SAPA_PROFIL
 10
2.1767193222103169
 20
-44.273765403337791
 30
0.0
 42
-0.545020777409516
  0
VERTEX
  5
1E6B
  8
SAPA_PROFIL
 10
2.4499996264623292
 20
-43.849999999012127
 30
0.0
  0
VERTEX
  5
1E6C
  8
SAPA_PROFIL
 10
2.6999996264622719
 20
-43.849999999012127
 30
0.0
  0
VERTEX
  5
1E6D
  8
SAPA_PROFIL
 10
2.446046474292018
 20
-43.182570825615642
 30
0.0
 42
0.3492695052203141
  0
VERTEX
  5
1E6E
  8
SAPA_PROFIL
 10
2.1537224989238548
 20
-42.949999999012221
 30
0.0
  0
VERTEX
  5
1E6F
  8
SAPA_PROFIL
 10
1.2649106905294041
 20
-42.949999999012221
 30
0.0
 42
-0.3475404855924057
  0
VERTEX
  5
1E70
  8
SAPA_PROFIL
 10
0.9730081372830454
 20
-42.71923076824293
 30
0.0
 42
0.7905694150422074
  0
VERTEX
  5
1E71
  8
SAPA_PROFIL
 10
-0.973008884359956
 20
-42.719230768243101
 30
0.0
 42
-0.3475404855923888
  0
VERTEX
  5
1E72
  8
SAPA_PROFIL
 10
-1.2649114376071671
 20
-42.949999999012221
 30
0.0
  0
VERTEX
  5
1E73
  8
SAPA_PROFIL
 10
-1.8767200692856809
 20
-42.9499999990121
 30
0.0
 42
0.4142135623730951
  0
VERTEX
  5
1E74
  8
SAPA_PROFIL
 10
-2.1767200692856932
 20
-43.249999999012111
 30
0.0
  0
VERTEX
  5
1E75
  8
SAPA_PROFIL
 10
-2.1767200692856359
 20
-43.3737654033377
 30
0.0
  0
VERTEX
  5
1E76
  8
SAPA_PROFIL
 10
-2.7000003735378182
 20
-44.749999999012232
 30
0.0
  0
VERTEX
  5
1E77
  8
SAPA_PROFIL
 10
-2.4500003735376481
 20
-44.749999999012452
 30
0.0
 42
-0.5450207774088696
  0
VERTEX
  5
1E78
  8
SAPA_PROFIL
 10
-2.176720069285579
 20
-45.173765403337647
 30
0.0
  0
VERTEX
  5
1E79
  8
SAPA_PROFIL
 10
-2.7000003735378182
 20
-46.549999999012179
 30
0.0
  0
VERTEX
  5
1E7A
  8
SAPA_PROFIL
 10
-2.4500003735376481
 20
-46.549999999012407
 30
0.0
 42
-0.5450207774091855
  0
VERTEX
  5
1E7B
  8
SAPA_PROFIL
 10
-2.1767200692855222
 20
-46.973765403337772
 30
0.0
  0
VERTEX
  5
1E7C
  8
SAPA_PROFIL
 10
-2.7000003735378182
 20
-48.349999999012141
 30
0.0
  0
VERTEX
  5
1E7D
  8
SAPA_PROFIL
 10
-2.4500003735376481
 20
-48.349999999012141
 30
0.0
 42
-0.5450207774093374
  0
VERTEX
  5
1E7E
  8
SAPA_PROFIL
 10
-2.17672006928575
 20
-48.773765403337741
 30
0.0
  0
VERTEX
  5
1E7F
  8
SAPA_PROFIL
 10
-2.7000003735378182
 20
-50.149999999012323
 30
0.0
  0
VERTEX
  5
1E80
  8
SAPA_PROFIL
 10
-2.1499793141106229
 20
-50.149999999011918
 30
0.0
  0
VERTEX
  5
1E81
  8
SAPA_PROFIL
 10
-2.1499793141105661
 20
-51.347075010161461
 30
0.0
 42
-0.1681572645226206
  0
VERTEX
  5
1E82
  8
SAPA_PROFIL
 10
-2.2141626638721159
 20
-51.532521788160693
 30
0.0
  0
VERTEX
  5
1E83
  8
SAPA_PROFIL
 10
-3.074989843824369
 20
-52.49999999901177
 30
0.0
  0
VERTEX
  5
1E84
  8
SAPA_PROFIL
 10
-4.7000003735403189
 20
-52.499999999011827
 30
0.0
 42
-0.4142135623730951
  0
VERTEX
  5
1E85
  8
SAPA_PROFIL
 10
-5.0000003735403311
 20
-52.199999999011823
 30
0.0
  0
VERTEX
  5
1E86
  8
SAPA_PROFIL
 10
-5.0000003735401597
 20
-31.000000000001879
 30
0.0
 42
0.4142135623730951
  0
VERTEX
  5
1E87
  8
SAPA_PROFIL
 10
-6.0000003735401597
 20
-30.000000000001879
 30
0.0
  0
VERTEX
  5
1E88
  8
SAPA_PROFIL
 10
-14.200000373538559
 20
-30.000000000001759
 30
0.0
 42
0.4142135623730951
  0
VERTEX
  5
1E89
  8
SAPA_PROFIL
 10
-14.70000037353855
 20
-30.500000000001769
 30
0.0
  0
VERTEX
  5
1E8A
  8
SAPA_PROFIL
 10
-14.70000037353855
 20
-33.700000000001808
 30
0.0
 42
0.4142135623730951
  0
VERTEX
  5
1E8B
  8
SAPA_PROFIL
 10
-14.200000373538559
 20
-34.200000000001808
 30
0.0
  0
VERTEX
  5
1E8C
  8
SAPA_PROFIL
 10
-11.30000037353863
 20
-34.20000000000158
 30
0.0
 42
-0.4142135623730951
  0
VERTEX
  5
1E8D
  8
SAPA_PROFIL
 10
-11.000000373538681
 20
-34.500000000001542
 30
0.0
  0
VERTEX
  5
1E8E
  8
SAPA_PROFIL
 10
-11.000000373538571
 20
-35.200000000001701
 30
0.0
 42
-0.4142135623730951
  0
VERTEX
  5
1E8F
  8
SAPA_PROFIL
 10
-11.30000037353841
 20
-35.500000000001769
 30
0.0
  0
VERTEX
  5
1E90
  8
SAPA_PROFIL
 10
-17.6516688961837
 20
-35.500000000001648
 30
0.0
 42
-0.1691807452124953
  0
VERTEX
  5
1E91
  8
SAPA_PROFIL
 10
-18.272948948719598
 20
-35.283588601450788
 30
0.0
  0
VERTEX
  5
1E92
  8
SAPA_PROFIL
 10
-18.586384389299269
 20
-35.035076580436403
 30
0.0
 42
-0.7105995015650612
  0
VERTEX
  5
1E93
  8
SAPA_PROFIL
 10
-18.400000373538429
 20
-34.500000000001542
 30
0.0
  0
VERTEX
  5
1E94
  8
SAPA_PROFIL
 10
-16.500000373538619
 20
-34.500000000001762
 30
0.0
 42
0.4142135623732061
  0
VERTEX
  5
1E95
  8
SAPA_PROFIL
 10
-16.200000373538561
 20
-34.20000000000158
 30
0.0
  0
VERTEX
  5
1E96
  8
SAPA_PROFIL
 10
-16.200000373538671
 20
-30.500000000001769
 30
0.0
 42
0.4142135623730951
  0
SEQEND
  5
1E97
  8
SAPA_PROFIL
  0
ARC
  5
177A
  8
SAPA_PROFIL
 10
-0.0000000000026477
 20
-31.577137293194181
 30
0.0
 40
52.457142857141569
 50
261.05599162060662
 51
278.94400837939361
  0
ARC
  5
177B
  8
SAPA_PROFIL
 10
4.6958545104039962
 20
-152.61988178597809
 30
0.0
 40
61.941521467203017
 50
84.158564115270224
 51
104.67867683537609
  0
LINE
  5
177C
  8
SAPA_PROFIL
 10
8.1554691837842181
 20
-83.396440251906995
 30
0.0
 11
10.9999999999996
 21
-82.653051271135723
 31
0.0
  0
LINE
  5
177D
  8
SAPA_PROFIL
 10
-8.1554691837893412
 20
-83.396440251907023
 30
0.0
 11
-11.00000000003201
 21
-82.262870722021447
 31
0.0
  0
LINE
  5
17B0
  8
SAPA_GLAS
 10
37.999999999999602
 20
-84.999999999999474
 30
0.0
 11
37.999999999999602
 21
-68.999999999999474
 31
0.0
  0
LINE
  5
17B1
  8
SAPA_GLAS
 10
25.999999999999609
 20
-84.999999999999474
 30
0.0
 11
25.999999999999609
 21
-68.999999999999474
 31
0.0
1001
ACAD
1000
ASC_BOUNDS
1002
{
1070
    19
1005
17B7
1002
}
  0
LINE
  5
17B2
  8
SAPA_GLAS
 10
10.9999999999996
 20
-81.999999999999488
 30
0.0
 11
10.9999999999996
 21
-84.999999999999474
 31
0.0
1001
ACAD
1000
ASC_BOUNDS
1002
{
1070
    19
1005
17B7
1002
}
  0
LINE
  5
17B3
  8
SAPA_GLAS
 10
10.9999999999996
 20
-68.999999999999474
 30
0.0
 11
10.9999999999996
 21
-71.999999999999488
 31
0.0
1001
ACAD
1000
ASC_BOUNDS
1002
{
1070
    19
1005
17B7
1002
}
  0
POLYLINE
  5
17B4
  8
SAPA_GLAS
 66
     1
 10
0.0
 20
0.0
 30
0.0
1001
ACAD
1000
ASC_BOUNDS
1002
{
1070
    19
1005
17B7
1002
}
  0
VERTEX
  5
1EFA
  8
SAPA_GLAS
 10
40.999999999999602
 20
-90.999999999999488
 30
0.0
  0
VERTEX
  5
1EFB
  8
SAPA_GLAS
 10
10.9999999999996
 20
-90.999999999999488
 30
0.0
  0
VERTEX
  5
1EFC
  8
SAPA_GLAS
 10
10.9999999999996
 20
-84.999999999999474
 30
0.0
  0
VERTEX
  5
1EFD
  8
SAPA_GLAS
 10
40.999999999999602
 20
-84.999999999999474
 30
0.0
  0
SEQEND
  5
1EFE
  8
SAPA_GLAS
  0
POLYLINE
  5
17B5
  8
SAPA_GLAS
 66
     1
 10
0.0
 20
0.0
 30
0.0
1001
ACAD
1000
ASC_BOUNDS
1002
{
1070
    19
1005
17B7
1002
}
  0
VERTEX
  5
1EFF
  8
SAPA_GLAS
 10
40.999999999999602
 20
-68.999999999999474
 30
0.0
  0
VERTEX
  5
1F00
  8
SAPA_GLAS
 10
10.9999999999996
 20
-68.999999999999474
 30
0.0
  0
VERTEX
  5
1F01
  8
SAPA_GLAS
 10
10.9999999999996
 20
-62.999999999999488
 30
0.0
  0
VERTEX
  5
1F02
  8
SAPA_GLAS
 10
40.999999999999602
 20
-62.999999999999488
 30
0.0
  0
SEQEND
  5
1F03
  8
SAPA_GLAS
  0
POLYLINE
  5
17B6
  8
SAPA_GLAS
 66
     1
 10
0.0
 20
0.0
 30
0.0
 70
     1
1001
ACAD
1000
ASC_BOUNDS
1002
{
1070
    19
1005
17B7
1002
}
  0
VERTEX
  5
1F04
  8
SAPA_GLAS
 10
18.999999999999599
 20
-80.199999999999477
 30
0.0
  0
VERTEX
  5
1F05
  8
SAPA_GLAS
 10
18.999999999999599
 20
-73.7999999999995
 30
0.0
 42
0.4142135623730951
  0
VERTEX
  5
1F06
  8
SAPA_GLAS
 10
18.699999999999591
 20
-73.499999999999488
 30
0.0
  0
VERTEX
  5
1F07
  8
SAPA_GLAS
 10
10.9999999999996
 20
-73.499999999999488
 30
0.0
  0
VERTEX
  5
1F08
  8
SAPA_GLAS
 10
10.9999999999996
 20
-71.999999999999488
 30
0.0
  0
VERTEX
  5
1F09
  8
SAPA_GLAS
 10
20.699999999999591
 20
-71.999999999999488
 30
0.0
 42
-0.4142135623730951
  0
VERTEX
  5
1F0A
  8
SAPA_GLAS
 10
20.999999999999599
 20
-72.2999999999995
 30
0.0
  0
VERTEX
  5
1F0B
  8
SAPA_GLAS
 10
20.999999999999599
 20
-81.699999999999477
 30
0.0
 42
-0.4142135623730951
  0
VERTEX
  5
1F0C
  8
SAPA_GLAS
 10
20.699999999999591
 20
-81.999999999999488
 30
0.0
  0
VERTEX
  5
1F0D
  8
SAPA_GLAS
 10
10.9999999999996
 20
-81.999999999999488
 30
0.0
  0
VERTEX
  5
1F0E
  8
SAPA_GLAS
 10
10.9999999999996
 20
-80.499999999999488
 30
0.0
  0
VERTEX
  5
1F0F
  8
SAPA_GLAS
 10
18.699999999999591
 20
-80.499999999999488
 30
0.0
 42
0.4142135623730951
  0
SEQEND
  5
1F10
  8
SAPA_GLAS
  0
INSERT
  5
17B7
  8
SAPA_GLAS
  6
CONTINUOUS
  2
*X82
 10
0.0
 20
0.0
 30
0.0
1001
GRADIENTCOLOR1ACI
1070
     5
1001
GRADIENTCOLOR2ACI
1070
     2
1001
ACAD
1000
HATCH
1002
{
1070
    19
1000
ANSI37
1040
0.25
1040
0.0
1000
ASC_BOUNDS
1070
     1
1070
     1
1070
     6
1005
17B2
1005
17B4
1005
17B1
1005
17B5
1005
17B3
1005
17B6
1000
ASC_SEEDPOINT
1011
21.804617272266121
1021
0.0
1031
0.0
1021
-79.450586921254398
1031
0.0
1000
R14_HATCH_DATA
1000
17B7
1011
1.0
1021
0.0
1031
0.0
1021
0.0
1031
0.0
1011
0.0
1021
0.0
1031
0.0
1021
1.0
1031
0.0
1011
0.0
1021
0.0
1031
0.0
1021
0.0
1031
1.0
1040
0.0
1010
0.0
1020
0.0
1030
1.0
1000
ANSI37
1070
     0
1070
     1
1071
        1
1071
        7
1070
     1
1070
     1
1071
       10
1040
20.999999999999599
1040
-72.2999999999995
1040
0.4142135623730951
1040
20.699999999999591
1040
-71.999999999999488
1040
0.0
1040
10.9999999999996
1040
-71.999999999999488
1040
0.0
1040
10.9999999999996
1040
-68.999999999999474
1040
0.0
1040
25.999999999999609
1040
-68.999999999999474
1040
0.0
1040
25.999999999999609
1040
-84.999999999999474
1040
0.0
1040
10.9999999999996
1040
-84.999999999999474
1040
0.0
1040
10.9999999999996
1040
-81.999999999999488
1040
0.0
1040
20.699999999999591
1040
-81.999999999999488
1040
0.4142135623730951
1040
20.999999999999599
1040
-81.699999999999477
1040
0.0
1071
        6
1005
17B6
1005
17B3
1005
17B5
1005
17B1
1005
17B4
1005
17B2
1070
     1
1070
     1
1040
0.0
1040
0.25
1070
     0
1070
     2
1040
0.7853981633974483
1040
0.0
1040
0.0
1040
-0.5612660075668221
1040
0.5612660075668221
1070
     0
1040
2.3561944901923439
1040
0.0
1040
0.0
1040
-0.5612660075668221
1040
-0.5612660075668221
1070
     0
1040
0.1332406017304326
1071
        1
1040
21.804617272266121
1040
-79.450586921254398
1040
0.0
1002
}
  0
INSERT
  5
17BD
  8
SAPA_FYLLNING
  6
CONTINUOUS
  2
*X84
 10
0.0
 20
0.0
 30
0.0
1001
GRADIENTCOLOR1ACI
1070
     5
1001
GRADIENTCOLOR2ACI
1070
     2
1001
ACAD
1000
HATCH
1002
{
1070
    19
1000
ANSI37
1040
0.25
1040
0.0
1000
R14_HATCH_DATA
1000
17BD
1011
1.0
1021
0.0
1031
0.0
1021
0.0
1031
0.0
1011
0.0
1021
0.0
1031
0.0
1021
1.0
1031
0.0
1011
0.0
1021
0.0
1031
0.0
1021
0.0
1031
1.0
1040
0.0
1010
0.0
1020
0.0
1030
1.0
1000
ANSI37
1070
     0
1070
     0
1071
        1
1071
        7
1070
     1
1070
     1
1071
        7
1040
10.9999999999996
1040
-90.999999999999488
1040
0.0
1040
10.9999999999996
1040
-84.999999999999474
1040
0.0
1040
10.9999999999996
1040
-82.653051271135723
1040
0.0
1040
8.1554691837842643
1040
-83.396440251906995
1040
-0.0782100801382208
1040
-8.1554691837893607
1040
-83.396440251906995
1040
0.0
1040
-11.00000000003191
1040
-82.262870722021503
1040
0.0
1040
-11.00000000001458
1040
-92.700000003219714
1040
-0.0897759121880709
1071
        0
1070
     1
1070
     1
1040
0.0
1040
0.25
1070
     0
1070
     2
1040
0.7853981633974483
1040
0.0
1040
0.0
1040
-0.5612660075668221
1040
0.5612660075668221
1070
     0
1040
2.3561944901923439
1040
0.0
1040
0.0
1040
-0.5612660075668221
1040
-0.5612660075668221
1070
     0
1040
0.0256191213762074
1071
        1
1040
-1.2461287122481499
1040
-87.785864515288836
1040
0.0
1002
}
  0
POLYLINE
  5
17C7
  8
SAPA_ISOLATOR
 66
     1
 10
0.0
 20
0.0
 30
0.0
 70
     1
  0
VERTEX
  5
2053
  8
SAPA_ISOLATOR
 10
-3.500000000000056
 20
-53.699999999999761
 30
0.0
  0
VERTEX
  5
2054
  8
SAPA_ISOLATOR
 10
-2.602944098690215
 20
-53.699999999999761
 30
0.0
  0
VERTEX
  5
2055
  8
SAPA_ISOLATOR
 10
-1.099999999998829
 20
-52.197055901308367
 30
0.0
  0
VERTEX
  5
2056
  8
SAPA_ISOLATOR
 10
-1.099999999999056
 20
-46.478136728428069
 30
0.0
 42
-0.0502608893789828
  0
VERTEX
  5
2057
  8
SAPA_ISOLATOR
 10
-0.423077722344317
 20
-45.495019712916637
 30
0.0
 42
-0.460955221230658
  0
VERTEX
  5
2058
  8
SAPA_ISOLATOR
 10
0.4230769752679749
 20
-45.495019712917319
 30
0.0
 42
-0.0502609546985642
  0
VERTEX
  5
2059
  8
SAPA_ISOLATOR
 10
1.100000000001216
 20
-46.478138087674722
 30
0.0
  0
VERTEX
  5
205A
  8
SAPA_ISOLATOR
 10
1.100000000001216
 20
-52.197056648386877
 30
0.0
  0
VERTEX
  5
205B
  8
SAPA_ISOLATOR
 10
2.6029433516138729
 20
-53.699999999999989
 30
0.0
  0
VERTEX
  5
205C
  8
SAPA_ISOLATOR
 10
3.4999999999999432
 20
-53.699999999999989
 30
0.0
 42
-0.4142135623728733
  0
VERTEX
  5
205D
  8
SAPA_ISOLATOR
 10
3.7999999999998968
 20
-53.99999999999995
 30
0.0
  0
VERTEX
  5
205E
  8
SAPA_ISOLATOR
 10
3.80000000000092
 20
-61.099999999999909
 30
0.0
 42
-0.4142135623731387
  0
VERTEX
  5
205F
  8
SAPA_ISOLATOR
 10
3.30000000000092
 20
-61.599999999999959
 30
0.0
  0
VERTEX
  5
2060
  8
SAPA_ISOLATOR
 10
-3.2999999999988741
 20
-61.600000000000023
 30
0.0
 42
-0.4142135623730469
  0
VERTEX
  5
2061
  8
SAPA_ISOLATOR
 10
-3.7999999999988741
 20
-61.10000000000008
 30
0.0
  0
VERTEX
  5
2062
  8
SAPA_ISOLATOR
 10
-3.8000000000000109
 20
-53.99999999999995
 30
0.0
 42
-0.4142135623733169
  0
SEQEND
  5
2063
  8
SAPA_ISOLATOR
  0
POLYLINE
  5
17C8
  8
SAPA_ISOLATOR
 66
     1
 10
0.0
 20
0.0
 30
0.0
 70
     1
  0
VERTEX
  5
2064
  8
SAPA_ISOLATOR
 10
-6.7999999999975103
 20
-71.49999999999801
 30
0.0
 42
-0.4142135623731284
  0
VERTEX
  5
2065
  8
SAPA_ISOLATOR
 10
-6.2999999999975103
 20
-70.999999999997897
 30
0.0
  0
VERTEX
  5
2066
  8
SAPA_ISOLATOR
 10
-5.500000000000056
 20
-70.999999999997897
 30
0.0
 42
0.4142135623730951
  0
VERTEX
  5
2067
  8
SAPA_ISOLATOR
 10
-5.000000000000056
 20
-70.499999999997897
 30
0.0
  0
VERTEX
  5
2068
  8
SAPA_ISOLATOR
 10
-4.9999999999998286
 20
-52.999999999999943
 30
0.0
 42
-0.4142135623730951
  0
VERTEX
  5
2069
  8
SAPA_ISOLATOR
 10
-4.4999999999998286
 20
-52.499999999999943
 30
0.0
  0
VERTEX
  5
206A
  8
SAPA_ISOLATOR
 10
-3.1000003735380801
 20
-52.499999999999943
 30
0.0
  0
VERTEX
  5
206B
  8
SAPA_ISOLATOR
 10
-2.2999999999986471
 20
-51.69999962646051
 30
0.0
  0
VERTEX
  5
206C
  8
SAPA_ISOLATOR
 10
-2.3000000000004661
 20
-47.241778772773209
 30
0.0
 42
-0.0970774689087859
  0
VERTEX
  5
206D
  8
SAPA_ISOLATOR
 10
-1.0313587057281091
 20
-44.975410008182678
 30
0.0
 42
-0.4609552212306134
  0
VERTEX
  5
206E
  8
SAPA_ISOLATOR
 10
1.031357958651653
 20
-44.975410008182557
 30
0.0
 42
-0.0970775585520922
  0
VERTEX
  5
206F
  8
SAPA_ISOLATOR
 10
2.300000000001261
 20
-47.241781051835851
 30
0.0
  0
VERTEX
  5
2070
  8
SAPA_ISOLATOR
 10
2.300000000001261
 20
-51.700000373539467
 30
0.0
  0
VERTEX
  5
2071
  8
SAPA_ISOLATOR
 10
3.0999996264615102
 20
-52.499999999999943
 30
0.0
  0
VERTEX
  5
2072
  8
SAPA_ISOLATOR
 10
4.4999999999997149
 20
-52.499999999999943
 30
0.0
 42
-0.4142135623730951
  0
VERTEX
  5
2073
  8
SAPA_ISOLATOR
 10
4.9999999999997149
 20
-52.999999999999943
 30
0.0
  0
VERTEX
  5
2074
  8
SAPA_ISOLATOR
 10
5.0000000000049454
 20
-70.499999999997897
 30
0.0
 42
0.4142135623730951
  0
VERTEX
  5
2075
  8
SAPA_ISOLATOR
 10
5.5000000000049454
 20
-70.999999999997897
 30
0.0
  0
VERTEX
  5
2076
  8
SAPA_ISOLATOR
 10
6.3000000000023979
 20
-70.999999999997897
 30
0.0
 42
-0.4142135623731617
  0
VERTEX
  5
2077
  8
SAPA_ISOLATOR
 10
6.8000000000023411
 20
-71.499999999998465
 30
0.0
  0
VERTEX
  5
2078
  8
SAPA_ISOLATOR
 10
6.8000000000025693
 20
-80.299999999998434
 30
0.0
 42
-0.4142135623730951
  0
VERTEX
  5
2079
  8
SAPA_ISOLATOR
 10
5.8000000000026262
 20
-81.29999999999842
 30
0.0
  0
VERTEX
  5
207A
  8
SAPA_ISOLATOR
 10
5.087371996652279
 20
-81.29999999999842
 30
0.0
 42
-0.221694662643068
  0
VERTEX
  5
207B
  8
SAPA_ISOLATOR
 10
4.8575586637165884
 20
-81.192836282904224
 30
0.0
  0
VERTEX
  5
207C
  8
SAPA_ISOLATOR
 10
4.269533616121123
 20
-80.49205531989702
 30
0.0
 42
-0.6358782360467221
  0
VERTEX
  5
207D
  8
SAPA_ISOLATOR
 10
4.5000000000017621
 20
-79.999999999998465
 30
0.0
  0
VERTEX
  5
207E
  8
SAPA_ISOLATOR
 10
5.3000000000026262
 20
-79.999999999998238
 30
0.0
 42
0.4142135623730951
  0
VERTEX
  5
207F
  8
SAPA_ISOLATOR
 10
5.6000000000023533
 20
-79.699999999998056
 30
0.0
  0
VERTEX
  5
2080
  8
SAPA_ISOLATOR
 10
5.6000000000025798
 20
-72.499999999998465
 30
0.0
 42
0.9995465490080238
  0
VERTEX
  5
2081
  8
SAPA_ISOLATOR
 10
4.9993422943206829
 20
-72.499999999998238
 30
0.0
  0
VERTEX
  5
2082
  8
SAPA_ISOLATOR
 10
0.8660254037865229
 20
-72.499999999997954
 30
0.0
  0
VERTEX
  5
2083
  8
SAPA_ISOLATOR
 10
0.0000000000022169
 20
-71.999999999998067
 30
0.0
  0
VERTEX
  5
2084
  8
SAPA_ISOLATOR
 10
-0.8660254037824302
 20
-72.499999999998181
 30
0.0
  0
VERTEX
  5
2085
  8
SAPA_ISOLATOR
 10
-4.9993422943157952
 20
-72.499999999998238
 30
0.0
 42
0.9995465490087907
  0
VERTEX
  5
2086
  8
SAPA_ISOLATOR
 10
-5.5999999999972374
 20
-72.499999999998465
 30
0.0
  0
VERTEX
  5
2087
  8
SAPA_ISOLATOR
 10
-5.5999999999974639
 20
-79.699999999998056
 30
0.0
 42
0.4142135623735446
  0
VERTEX
  5
2088
  8
SAPA_ISOLATOR
 10
-5.2999999999977367
 20
-79.99999999999801
 30
0.0
  0
VERTEX
  5
2089
  8
SAPA_ISOLATOR
 10
-4.4999999999977831
 20
-79.999999999998465
 30
0.0
 42
-0.6358782360470147
  0
VERTEX
  5
208A
  8
SAPA_ISOLATOR
 10
-4.2695336161187347
 20
-80.49205531989702
 30
0.0
  0
VERTEX
  5
208B
  8
SAPA_ISOLATOR
 10
-4.8575586637144283
 20
-81.192836282904224
 30
0.0
 42
-0.2216946626430204
  0
VERTEX
  5
208C
  8
SAPA_ISOLATOR
 10
-5.0873719966498916
 20
-81.29999999999842
 30
0.0
  0
VERTEX
  5
208D
  8
SAPA_ISOLATOR
 10
-5.7999999999981924
 20
-81.29999999999842
 30
0.0
 42
-0.4142135623731617
  0
VERTEX
  5
208E
  8
SAPA_ISOLATOR
 10
-6.7999999999981924
 20
-80.299999999998192
 30
0.0
  0
SEQEND
  5
208F
  8
SAPA_ISOLATOR
  0
POLYLINE
  5
17C9
  8
SAPA_ISOLATOR
 66
     1
 10
0.0
 20
0.0
 30
0.0
 70
     1
  0
VERTEX
  5
2090
  8
SAPA_ISOLATOR
 10
-3.799999999998533
 20
-63.100000000000129
 30
0.0
 42
-0.4142135623731387
  0
VERTEX
  5
2091
  8
SAPA_ISOLATOR
 10
-3.299999999998533
 20
-62.60000000000008
 30
0.0
  0
VERTEX
  5
2092
  8
SAPA_ISOLATOR
 10
3.3000000000013752
 20
-62.600000000000023
 30
0.0
 42
-0.4142135623730514
  0
VERTEX
  5
2093
  8
SAPA_ISOLATOR
 10
3.8000000000013752
 20
-63.099999999999959
 30
0.0
  0
VERTEX
  5
2094
  8
SAPA_ISOLATOR
 10
3.8000000000023979
 20
-70.200000000000102
 30
0.0
 42
-0.4142135623730951
  0
VERTEX
  5
2095
  8
SAPA_ISOLATOR
 10
3.3000000000023979
 20
-70.700000000000102
 30
0.0
  0
VERTEX
  5
2096
  8
SAPA_ISOLATOR
 10
-3.2999999999975098
 20
-70.700000000000102
 30
0.0
 42
-0.4142135623730951
  0
VERTEX
  5
2097
  8
SAPA_ISOLATOR
 10
-3.7999999999975098
 20
-70.200000000000102
 30
0.0
  0
SEQEND
  5
2098
  8
SAPA_ISOLATOR
  0
INSERT
  5
17CA
  8
SAPA_ISOLATOR
  6
CONTINUOUS
  2
*X87
 10
0.0
 20
0.0
 30
0.0
1001
ACAD
1000
HATCH
1002
{
1070
    19
1000
ANSI31
1040
0.35
1040
5.4977871437821371
1000
R14_HATCH_DATA
1000
17CA
1011
1.0
1021
0.0
1031
0.0
1021
0.0
1031
0.0
1011
0.0
1021
0.0
1031
0.0
1021
1.0
1031
0.0
1011
0.0
1021
0.0
1031
0.0
1021
0.0
1031
1.0
1040
0.0
1010
0.0
1020
0.0
1030
1.0
1000
ANSI31
1070
     0
1070
     0
1071
        1
1071
        1
1071
       49
1070
     2
1040
-22.32743505419041
1040
-64.463742496360354
1040
0.3006817060114675
1040
0.0050584204141675
1040
1.2209764013054469
1070
     1
1070
     1
1040
-22.224382820568341
1040
-64.181271744820549
1040
-24.657212842112362
1040
-63.295794031949349
1070
     2
1040
-24.52040478477954
1040
-62.919916983633222
1040
0.400000000002539
1040
1.919862177198238
1040
3.1415926535904428
1070
     0
1070
     1
1040
-24.920404784782079
1040
-62.919916983632959
1040
-24.92040478478205
1040
-52.499999998918831
1070
     1
1040
-24.92040478478205
1040
-52.499999998918831
1040
-24.92040478478199
1040
-42.080083014200738
1070
     2
1040
-24.52040478478235
1040
-42.080083014202494
1040
0.3999999999996488
1040
3.1415926535941709
1040
4.3633231299864041
1070
     0
1070
     1
1040
-24.657212842112269
1040
-41.70420596588837
1040
-22.224382820576579
1040
-40.818728253020197
1070
     2
1040
-22.327281263520319
1040
-40.53636568087277
1040
0.3005273892841634
1040
5.0618515338339378
1040
6.2784842586649878
1070
     1
1070
     2
1040
-27.58740027004524
1040
-40.308189705934488
1040
5.5653807064749881
1040
6.2419205770420829
1040
6.3050848890821518
1070
     1
1070
     1
1040
-22.023354065396632
1040
-40.186319937167163
1040
-21.884684308290112
1040
-39.946136872384869
1070
     2
1040
-22.066549643085001
1040
-39.841136872385157
1040
0.2100000000000017
1040
5.7595865315828716
1040
7.8539816339739712
1070
     1
1070
     1
1040
-22.066549643084901
1040
-39.631136872385163
1040
-22.333664171297809
1040
-39.631136872385042
1070
     1
1040
-22.333664171297809
1040
-39.631136872385042
1040
-22.52988623708211
1040
-39.29999999891885
1070
     1
1040
-22.52988623708211
1040
-39.29999999891885
1040
-23.097530400579561
1040
-38.316679860938329
1070
     2
1040
-22.915665065786008
1040
-38.211679860940073
1040
0.209999999998109
1040
2.6179938779958061
1040
3.1415926535924319
1070
     0
1070
     1
1040
-23.125665065784119
1040
-38.211679860939512
1040
-23.125665065784229
1040
-37.89999999891694
1070
     2
1040
-22.7256650657881
1040
-37.899999998915028
1040
0.3999999999961332
1040
3.1415926535850138
1040
4.7123889803951498
1070
     0
1070
     1
1040
-22.725665065783911
1040
-37.499999998918902
1040
-19.325665065784161
1040
-37.499999998918838
1070
     2
1040
-19.325665065781251
1040
-37.899999998915902
1040
0.3999999999970676
1040
4.7123889803774146
1040
6.2831853071870016
1070
     0
1070
     1
1040
-18.92566506578418
1040
-37.899999998918872
1040
-18.92566506578418
1040
-38.211679860942517
1070
     2
1040
-19.135665065779129
1040
-38.211679860940869
1040
0.2099999999949489
1040
0.0000000000078835
1040
0.5235987756045111
1070
     0
1070
     1
1040
-18.953799730989431
1040
-38.316679860939473
1040
-19.521519877351459
1040
-39.29999999891885
1070
     1
1040
-19.521519877351459
1040
-39.29999999891885
1040
-19.864895550323581
1040
-39.894744110589727
1070
     2
1040
-18.82566506577319
1040
-40.494744110595832
1040
1.2000000000109059
1040
2.6179938779908598
1040
3.1415926535875132
1070
     1
1070
     1
1040
-20.0256650657841
1040
-40.494744110593103
1040
-20.025665065783869
1040
-41.446608443479533
1070
     2
1040
-21.025665065776121
1040
-41.446608443470517
1040
0.9999999999922533
1040
0.0000000000090097
1040
1.221730476401516
1070
     0
1070
     1
1040
-20.68364492245826
1040
-42.386301064251029
1040
-22.857212842111949
1040
-43.177415089160881
1070
     2
1040
-22.72040478478068
1040
-43.553292137476362
1040
0.4000000000013905
1040
1.9198621771951729
1040
3.141592653587403
1070
     1
1070
     1
1040
-23.120404784782071
1040
-43.553292137475403
1040
-23.120404784782071
1040
-52.499999998918831
1070
     1
1040
-23.120404784782071
1040
-52.499999998918831
1040
-23.120404784782131
1040
-61.446707860362331
1070
     2
1040
-22.72040478478355
1040
-61.446707860363318
1040
0.3999999999985775
1040
3.141592653587308
1040
4.363323129979511
1070
     1
1070
     1
1040
-22.8572128421157
1040
-61.822584908675481
1040
-20.68364492245848
1040
-62.613698933586591
1070
     2
1040
-21.025665065797359
1040
-63.553391554381747
1040
1.000000000013211
1040
5.0614548307928056
1040
6.2831853071850263
1070
     0
1070
     1
1040
-20.02566506578415
1040
-63.55339155438719
1040
-20.02566506578415
1040
-64.505255887244687
1070
     2
1040
-18.825665065795128
1040
-64.505255887247685
1040
1.1999999999890261
1040
3.1415926535872978
1040
3.665191429183948
1070
     1
1070
     1
1040
-19.864895550329429
1040
-65.105255887237888
1040
-19.52566506578421
1040
-65.692820321946385
1070
     1
1040
-19.52566506578421
1040
-65.692820321946385
1040
-18.953799730989491
1040
-66.683320136898317
1070
     2
1040
-19.135665065790629
1040
-66.788320136899983
1040
0.2100000000063851
1040
5.759586531589667
1040
6.2831853071863426
1070
     0
1070
     1
1040
-18.925665065784241
1040
-66.788320136901405
1040
-18.92566506578418
1040
-67.099999998918904
1070
     2
1040
-19.325665065787138
1040
-67.099999998915948
1040
0.40000000000295
1040
0.0000000000074323
1040
1.570796326797411
1070
     0
1070
     1
1040
-19.32566506578814
1040
-67.499999998918895
1040
-22.725665065784199
1040
-67.499999998918895
1070
     2
1040
-22.725665065782199
1040
-67.099999998916914
1040
0.4000000000019782
1040
1.5707963267998979
1040
3.1415926535899059
1070
     0
1070
     1
1040
-23.12566506578418
1040
-67.099999998916871
1040
-23.12566506578418
1040
-66.788320136898221
1070
     2
1040
-22.915665065782271
1040
-66.78832013689869
1040
0.2100000000019078
1040
3.1415926535920451
1040
3.6651914291886731
1070
     0
1070
     1
1040
-23.097530400578592
1040
-66.683320136897635
1040
-22.333664171297809
1040
-65.368863125452634
1070
     1
1040
-22.333664171297809
1040
-65.368863125452634
1040
-22.066549643084901
1040
-65.368863125452521
1070
     2
1040
-22.066549643085001
1040
-65.158863125452513
1040
0.2100000000000017
1040
4.7123889803851959
1040
6.8067840827762964
1070
     1
1070
     1
1040
-21.884684308290101
1040
-65.053863125452807
1040
-22.023354065396632
1040
-64.813680060670507
1070
     2
1040
-27.587400269487748
1040
-64.691810291900111
1040
5.5653807059176952
1040
6.2612857252742726
1040
6.3244500373143397
1070
     1
1071
        0
1070
     0
1070
     1
1040
5.4977871437821371
1040
0.35
1070
     0
1070
     1
1040
0.0
1040
-24.920404977802271
1040
-67.50000014973466
1040
0.0000000000000003
1040
1.111249999999999
1070
     0
1071
        1
1040
-24.920404977802271
1040
-67.50000014973466
1040
0.0
1002
}
  0
INSERT
  5
17CB
  8
SAPA_ISOLATOR
  6
CONTINUOUS
  2
*X88
 10
0.0
 20
0.0
 30
0.0
1001
ACAD
1000
HATCH
1002
{
1070
    19
1000
ANSI31
1040
0.35
1040
5.4977871437821371
1000
R14_HATCH_DATA
1000
17CB
1011
1.0
1021
0.0
1031
0.0
1021
0.0
1031
0.0
1011
0.0
1021
0.0
1031
0.0
1021
1.0
1031
0.0
1011
0.0
1021
0.0
1031
0.0
1021
0.0
1031
1.0
1040
0.0
1010
0.0
1020
0.0
1030
1.0
1000
ANSI31
1070
     0
1070
     0
1071
        1
1071
        1
1071
       49
1070
     2
1040
-7.6725649458037353
1040
-64.463742496360354
1040
0.3006817060114675
1040
-3.1365342331756252
1040
-1.9206162522843451
1070
     0
1070
     1
1040
-7.7756171794258071
1040
-64.181271744820549
1040
-5.3427871578817872
1040
-63.295794031949349
1070
     2
1040
-5.479595215214605
1040
-62.919916983633222
1040
0.400000000002539
1040
5.0614548307880307
1040
6.2831853071802364
1070
     1
1070
     1
1040
-5.0795952152120663
1040
-62.919916983632959
1040
-5.0795952152120938
1040
-52.499999998918831
1070
     1
1040
-5.0795952152120938
1040
-52.499999998918831
1040
-5.0795952152121524
1040
-42.080083014200738
1070
     2
1040
-5.479595215211801
1040
-42.080083014202494
1040
0.3999999999996488
1040
6.2831853071839641
1040
7.5049157835761973
1070
     1
1070
     1
1040
-5.3427871578818724
1040
-41.70420596588837
1040
-7.7756171794175648
1040
-40.818728253020197
1070
     2
1040
-7.6727187364738247
1040
-40.53636568087277
1040
0.3005273892841634
1040
1.9202588802441449
1040
3.1368916050751952
1070
     0
1070
     2
1040
-2.412599729948901
1040
-40.308189705934488
1040
5.5653807064749881
1040
3.1003279234522898
1040
3.1634922354923591
1070
     0
1070
     1
1040
-7.9766459345975154
1040
-40.186319937167163
1040
-8.1153156917040388
1040
-39.946136872384869
1070
     2
1040
-7.9334503569091392
1040
-39.841136872385157
1040
0.2100000000000017
1040
2.6179938779930789
1040
4.7123889803841781
1070
     0
1070
     1
1040
-7.9334503569092467
1040
-39.631136872385163
1040
-7.666335828696333
1040
-39.631136872385042
1070
     1
1040
-7.666335828696333
1040
-39.631136872385042
1040
-7.4701137629120353
1040
-39.29999999891885
1070
     1
1040
-7.4701137629120353
1040
-39.29999999891885
1040
-6.9024695994145873
1040
-38.316679860938329
1070
     2
1040
-7.0843349342081332
1040
-38.211679860940073
1040
0.209999999998109
1040
5.7595865315855992
1040
6.283185307182225
1070
     1
1070
     1
1040
-6.8743349342100251
1040
-38.211679860939512
1040
-6.874334934209914
1040
-37.89999999891694
1070
     2
1040
-7.2743349342060446
1040
-37.899999998915028
1040
0.3999999999961332
1040
6.2831853071748069
1040
7.8539816339849429
1070
     1
1070
     1
1040
-7.2743349342102297
1040
-37.499999998918902
1040
-10.67433493420998
1040
-37.499999998918838
1070
     2
1040
-10.67433493421289
1040
-37.899999998915902
1040
0.3999999999970676
1040
7.8539816339672077
1040
9.4247779607767956
1070
     1
1070
     1
1040
-11.074334934209951
1040
-37.899999998918872
1040
-11.074334934209951
1040
-38.211679860942517
1070
     2
1040
-10.864334934215011
1040
-38.211679860940869
1040
0.2099999999949489
1040
3.1415926535976761
1040
3.6651914291943042
1070
     1
1070
     1
1040
-11.046200269004711
1040
-38.316679860939473
1040
-10.478480122642679
1040
-39.29999999891885
1070
     1
1040
-10.478480122642679
1040
-39.29999999891885
1040
-10.13510444967056
1040
-39.894744110589727
1070
     2
1040
-11.174334934220949
1040
-40.494744110595832
1040
1.2000000000109059
1040
-0.5235987755989325
1040
-0.0000000000022795
1070
     0
1070
     1
1040
-9.9743349342100487
1040
-40.494744110593103
1040
-9.9743349342102761
1040
-41.446608443479533
1070
     2
1040
-8.9743349342180245
1040
-41.446608443470517
1040
0.9999999999922533
1040
3.1415926535988019
1040
4.3633231299913087
1070
     1
1070
     1
1040
-9.3163550775358885
1040
-42.386301064251029
1040
-7.1427871578821973
1040
-43.177415089160881
1070
     2
1040
-7.279595215213468
1040
-43.553292137476362
1040
0.4000000000013905
1040
-1.2217304763946191
1040
-0.0000000000023892
1070
     0
1070
     1
1040
-6.8795952152120767
1040
-43.553292137475403
1040
-6.879595215212075
1040
-52.499999998918831
1070
     1
1040
-6.8795952152120767
1040
-52.499999998918831
1040
-6.8795952152120199
1040
-61.446707860362331
1070
     2
1040
-7.2795952152105983
1040
-61.446707860363318
1040
0.3999999999985775
1040
-0.0000000000024847
1040
1.2217304763897181
1070
     0
1070
     1
1040
-7.1427871578784439
1040
-61.822584908675481
1040
-9.3163550775356612
1040
-62.613698933586591
1070
     2
1040
-8.9743349341967811
1040
-63.553391554381747
1040
1.000000000013211
1040
8.2030474843825996
1040
9.4247779607748186
1070
     1
1070
     1
1040
-9.9743349342099918
1040
-63.55339155438719
1040
-9.9743349342099918
1040
-64.505255887244687
1070
     2
1040
-11.17433493419902
1040
-64.505255887247685
1040
1.1999999999890261
1040
-0.0000000000024949
1040
0.5235987755941554
1070
     0
1070
     1
1040
-10.135104449664709
1040
-65.105255887237888
1040
-10.47433493420993
1040
-65.692820321946385
1070
     1
1040
-10.47433493420993
1040
-65.692820321946385
1040
-11.046200269004659
1040
-66.683320136898317
1070
     2
1040
-10.86433493420351
1040
-66.788320136899983
1040
0.2100000000063851
1040
8.9011791851794602
1040
9.4247779607761366
1070
     1
1070
     1
1040
-11.074334934209899
1040
-66.788320136901405
1040
-11.074334934209951
1040
-67.099999998918904
1070
     2
1040
-10.67433493420701
1040
-67.099999998915948
1040
0.40000000000295
1040
3.1415926535972249
1040
4.7123889803872041
1070
     1
1070
     1
1040
-10.674334934206
1040
-67.499999998918895
1040
-7.2743349342099464
1040
-67.499999998918895
1070
     2
1040
-7.2743349342119457
1040
-67.099999998916914
1040
0.4000000000019782
1040
4.712388980389691
1040
6.283185307179699
1070
     1
1070
     1
1040
-6.8743349342099691
1040
-67.099999998916871
1040
-6.8743349342099691
1040
-66.788320136898221
1070
     2
1040
-7.0843349342118769
1040
-66.78832013689869
1040
0.2100000000019078
1040
6.2831853071818378
1040
6.8067840827784662
1070
     1
1070
     1
1040
-6.9024695994155527
1040
-66.683320136897635
1040
-7.666335828696333
1040
-65.368863125452634
1070
     1
1040
-7.666335828696333
1040
-65.368863125452634
1040
-7.9334503569092467
1040
-65.368863125452521
1070
     2
1040
-7.933450356909141
1040
-65.158863125452513
1040
0.2100000000000017
1040
1.570796326795403
1040
3.6651914291865029
1070
     0
1070
     1
1040
-8.1153156917040405
1040
-65.053863125452807
1040
-7.9766459345975171
1040
-64.813680060670507
1070
     2
1040
-2.412599730506396
1040
-64.691810291900111
1040
5.5653807059176952
1040
3.11969307168448
1040
3.1828573837245471
1070
     0
1071
        0
1070
     0
1070
     1
1040
5.4977871437821371
1040
0.35
1070
     0
1070
     1
1040
0.0
1040
0.0
1040
0.0
1040
0.0000000000000003
1040
1.111249999999999
1070
     0
1071
        1
1040
-5.0795950221918806
1040
-67.50000014973466
1040
0.0
1002
}
  0
POLYLINE
  5
17EA
  8
SAPA_FOGBAND
 66
     1
 10
0.0
 20
0.0
 30
0.0
 70
     1
  0
VERTEX
  5
2127
  8
SAPA_FOGBAND
 10
4.178740179216982
 20
-80.768193081411013
 30
0.0
  0
VERTEX
  5
2128
  8
SAPA_FOGBAND
 10
4.1787401792169669
 20
-80.544896306152935
 30
0.0
 42
-0.3500011104185251
  0
VERTEX
  5
2129
  8
SAPA_FOGBAND
 10
4.8009624014392021
 20
-79.764899471718081
 30
0.0
 42
0.3500011104185275
  0
VERTEX
  5
212A
  8
SAPA_FOGBAND
 10
5.5787401792169726
 20
-78.789903428674506
 30
0.0
  0
VERTEX
  5
212B
  8
SAPA_FOGBAND
 10
5.5787401792169726
 20
-78.46489947171807
 30
0.0
 42
0.4142135623730992
  0
VERTEX
  5
212C
  8
SAPA_FOGBAND
 10
4.5787401792169726
 20
-77.46489947171807
 30
0.0
  0
VERTEX
  5
212D
  8
SAPA_FOGBAND
 10
-4.6212598207830453
 20
-77.46489947171807
 30
0.0
 42
0.4142135623730909
  0
VERTEX
  5
212E
  8
SAPA_FOGBAND
 10
-5.6212598207830311
 20
-78.46489947171807
 30
0.0
  0
VERTEX
  5
212F
  8
SAPA_FOGBAND
 10
-5.6212598207830453
 20
-78.789903428674506
 30
0.0
 42
0.3500011104185275
  0
VERTEX
  5
2130
  8
SAPA_FOGBAND
 10
-4.843482043005273
 20
-79.764899471718053
 30
0.0
 42
-0.3500011104185328
  0
VERTEX
  5
2131
  8
SAPA_FOGBAND
 10
-4.2212598207830254
 20
-80.544896306152935
 30
0.0
  0
VERTEX
  5
2132
  8
SAPA_FOGBAND
 10
-4.2212598207830254
 20
-80.768193081411013
 30
0.0
 42
-0.380963100045198
  0
VERTEX
  5
2133
  8
SAPA_FOGBAND
 10
-4.6639644297978791
 20
-81.264899471718081
 30
0.0
 42
-0.0458039546811979
  0
VERTEX
  5
2134
  8
SAPA_FOGBAND
 10
-7.9530679894324461
 20
-81.341546602805465
 30
0.0
 42
0.9570085662280619
  0
VERTEX
  5
2135
  8
SAPA_FOGBAND
 10
-8.1767290045698129
 20
-83.327059573289304
 30
0.0
 42
0.0782100801382191
  0
VERTEX
  5
2136
  8
SAPA_FOGBAND
 10
8.1342093630037429
 20
-83.327059573289347
 30
0.0
 42
0.9570085662280891
  0
VERTEX
  5
2137
  8
SAPA_FOGBAND
 10
7.9105483478663468
 20
-81.341546602805465
 30
0.0
 42
-0.0458039546811975
  0
VERTEX
  5
2138
  8
SAPA_FOGBAND
 10
4.621444788231833
 20
-81.264899471718081
 30
0.0
 42
-0.380963100045198
  0
SEQEND
  5
2139
  8
SAPA_FOGBAND
  0
POLYLINE
  5
17EB
  8
SAPA_FOGBAND
 10
21.699999999993114
 20
-40.499999966998288
 30
0.0
 66
     1
 70
     8
  0
VERTEX
  8
SAPA_FOGBAND
  5
217A
 10
21.7000
 20
-40.5000
 30
0.000000
  70
    32
  0
VERTEX
  8
SAPA_FOGBAND
  5
217B
 10
21.6117
 20
-40.4964
 30
0.000000
  70
    32
  0
VERTEX
  8
SAPA_FOGBAND
  5
217C
 10
21.5236
 20
-40.4858
 30
0.000000
  70
    32
  0
VERTEX
  8
SAPA_FOGBAND
  5
217D
 10
21.4359
 20
-40.4680
 30
0.000000
  70
    32
  0
VERTEX
  8
SAPA_FOGBAND
  5
217E
 10
21.3488
 20
-40.4432
 30
0.000000
  70
    32
  0
VERTEX
  8
SAPA_FOGBAND
  5
217F
 10
21.2626
 20
-40.4115
 30
0.000000
  70
    32
  0
VERTEX
  8
SAPA_FOGBAND
  5
2180
 10
21.1775
 20
-40.3728
 30
0.000000
  70
    32
  0
VERTEX
  8
SAPA_FOGBAND
  5
2181
 10
21.0936
 20
-40.3273
 30
0.000000
  70
    32
  0
VERTEX
  8
SAPA_FOGBAND
  5
2182
 10
21.0112
 20
-40.2751
 30
0.000000
  70
    32
  0
VERTEX
  8
SAPA_FOGBAND
  5
2183
 10
20.9304
 20
-40.2163
 30
0.000000
  70
    32
  0
VERTEX
  8
SAPA_FOGBAND
  5
2184
 10
20.8515
 20
-40.1512
 30
0.000000
  70
    32
  0
VERTEX
  8
SAPA_FOGBAND
  5
2185
 10
20.7746
 20
-40.0797
 30
0.000000
  70
    32
  0
VERTEX
  8
SAPA_FOGBAND
  5
2186
 10
20.7000
 20
-40.0021
 30
0.000000
  70
    32
  0
VERTEX
  8
SAPA_FOGBAND
  5
2187
 10
20.6277
 20
-39.9186
 30
0.000000
  70
    32
  0
VERTEX
  8
SAPA_FOGBAND
  5
2188
 10
20.5581
 20
-39.8294
 30
0.000000
  70
    32
  0
VERTEX
  8
SAPA_FOGBAND
  5
2189
 10
20.4912
 20
-39.7347
 30
0.000000
  70
    32
  0
VERTEX
  8
SAPA_FOGBAND
  5
218A
 10
20.4272
 20
-39.6347
 30
0.000000
  70
    32
  0
VERTEX
  8
SAPA_FOGBAND
  5
218B
 10
20.3663
 20
-39.5297
 30
0.000000
  70
    32
  0
VERTEX
  8
SAPA_FOGBAND
  5
218C
 10
20.3086
 20
-39.4199
 30
0.000000
  70
    32
  0
VERTEX
  8
SAPA_FOGBAND
  5
218D
 10
20.2542
 20
-39.3055
 30
0.000000
  70
    32
  0
VERTEX
  8
SAPA_FOGBAND
  5
218E
 10
20.2034
 20
-39.1870
 30
0.000000
  70
    32
  0
VERTEX
  8
SAPA_FOGBAND
  5
218F
 10
20.1561
 20
-39.0645
 30
0.000000
  70
    32
  0
VERTEX
  8
SAPA_FOGBAND
  5
2190
 10
20.1125
 20
-38.9383
 30
0.000000
  70
    32
  0
VERTEX
  8
SAPA_FOGBAND
  5
2191
 10
20.0728
 20
-38.8088
 30
0.000000
  70
    32
  0
VERTEX
  8
SAPA_FOGBAND
  5
2192
 10
20.0370
 20
-38.6762
 30
0.000000
  70
    32
  0
VERTEX
  8
SAPA_FOGBAND
  5
2193
 10
20.0052
 20
-38.5409
 30
0.000000
  70
    32
  0
VERTEX
  8
SAPA_FOGBAND
  5
2194
 10
19.9775
 20
-38.4032
 30
0.000000
  70
    32
  0
VERTEX
  8
SAPA_FOGBAND
  5
2195
 10
19.9539
 20
-38.2635
 30
0.000000
  70
    32
  0
VERTEX
  8
SAPA_FOGBAND
  5
2196
 10
19.9346
 20
-38.1220
 30
0.000000
  70
    32
  0
VERTEX
  8
SAPA_FOGBAND
  5
2197
 10
19.9195
 20
-37.9791
 30
0.000000
  70
    32
  0
VERTEX
  8
SAPA_FOGBAND
  5
2198
 10
19.9087
 20
-37.8352
 30
0.000000
  70
    32
  0
VERTEX
  8
SAPA_FOGBAND
  5
2199
 10
19.9022
 20
-37.6906
 30
0.000000
  70
    32
  0
VERTEX
  8
SAPA_FOGBAND
  5
219A
 10
19.9000
 20
-37.5456
 30
0.000000
  70
    32
  0
VERTEX
  8
SAPA_FOGBAND
  5
219B
 10
19.9022
 20
-37.4007
 30
0.000000
  70
    32
  0
VERTEX
  8
SAPA_FOGBAND
  5
219C
 10
19.9087
 20
-37.2561
 30
0.000000
  70
    32
  0
VERTEX
  8
SAPA_FOGBAND
  5
219D
 10
19.9195
 20
-37.1121
 30
0.000000
  70
    32
  0
VERTEX
  8
SAPA_FOGBAND
  5
219E
 10
19.9346
 20
-36.9693
 30
0.000000
  70
    32
  0
VERTEX
  8
SAPA_FOGBAND
  5
219F
 10
19.9539
 20
-36.8278
 30
0.000000
  70
    32
  0
VERTEX
  8
SAPA_FOGBAND
  5
21A0
 10
19.9775
 20
-36.6880
 30
0.000000
  70
    32
  0
VERTEX
  8
SAPA_FOGBAND
  5
21A1
 10
20.0052
 20
-36.5503
 30
0.000000
  70
    32
  0
VERTEX
  8
SAPA_FOGBAND
  5
21A2
 10
20.0370
 20
-36.4151
 30
0.000000
  70
    32
  0
VERTEX
  8
SAPA_FOGBAND
  5
21A3
 10
20.0728
 20
-36.2825
 30
0.000000
  70
    32
  0
VERTEX
  8
SAPA_FOGBAND
  5
21A4
 10
20.1125
 20
-36.1530
 30
0.000000
  70
    32
  0
VERTEX
  8
SAPA_FOGBAND
  5
21A5
 10
20.1561
 20
-36.0268
 30
0.000000
  70
    32
  0
VERTEX
  8
SAPA_FOGBAND
  5
21A6
 10
20.2034
 20
-35.9043
 30
0.000000
  70
    32
  0
VERTEX
  8
SAPA_FOGBAND
  5
21A7
 10
20.2542
 20
-35.7857
 30
0.000000
  70
    32
  0
VERTEX
  8
SAPA_FOGBAND
  5
21A8
 10
20.3086
 20
-35.6714
 30
0.000000
  70
    32
  0
VERTEX
  8
SAPA_FOGBAND
  5
21A9
 10
20.3663
 20
-35.5616
 30
0.000000
  70
    32
  0
VERTEX
  8
SAPA_FOGBAND
  5
21AA
 10
20.4272
 20
-35.4566
 30
0.000000
  70
    32
  0
VERTEX
  8
SAPA_FOGBAND
  5
21AB
 10
20.4912
 20
-35.3566
 30
0.000000
  70
    32
  0
VERTEX
  8
SAPA_FOGBAND
  5
21AC
 10
20.5581
 20
-35.2619
 30
0.000000
  70
    32
  0
VERTEX
  8
SAPA_FOGBAND
  5
21AD
 10
20.6277
 20
-35.1727
 30
0.000000
  70
    32
  0
VERTEX
  8
SAPA_FOGBAND
  5
21AE
 10
20.7000
 20
-35.0892
 30
0.000000
  70
    32
  0
VERTEX
  8
SAPA_FOGBAND
  5
21AF
 10
20.7746
 20
-35.0116
 30
0.000000
  70
    32
  0
VERTEX
  8
SAPA_FOGBAND
  5
21B0
 10
20.8515
 20
-34.9401
 30
0.000000
  70
    32
  0
VERTEX
  8
SAPA_FOGBAND
  5
21B1
 10
20.9304
 20
-34.8749
 30
0.000000
  70
    32
  0
VERTEX
  8
SAPA_FOGBAND
  5
21B2
 10
21.0112
 20
-34.8162
 30
0.000000
  70
    32
  0
VERTEX
  8
SAPA_FOGBAND
  5
21B3
 10
21.0936
 20
-34.7640
 30
0.000000
  70
    32
  0
VERTEX
  8
SAPA_FOGBAND
  5
21B4
 10
21.1775
 20
-34.7185
 30
0.000000
  70
    32
  0
VERTEX
  8
SAPA_FOGBAND
  5
21B5
 10
21.2626
 20
-34.6798
 30
0.000000
  70
    32
  0
VERTEX
  8
SAPA_FOGBAND
  5
21B6
 10
21.3488
 20
-34.6480
 30
0.000000
  70
    32
  0
VERTEX
  8
SAPA_FOGBAND
  5
21B7
 10
21.4359
 20
-34.6233
 30
0.000000
  70
    32
  0
VERTEX
  8
SAPA_FOGBAND
  5
21B8
 10
21.5236
 20
-34.6055
 30
0.000000
  70
    32
  0
VERTEX
  8
SAPA_FOGBAND
  5
21B9
 10
21.6117
 20
-34.5948
 30
0.000000
  70
    32
  0
VERTEX
  8
SAPA_FOGBAND
  5
21BA
 10
21.7000
 20
-34.5913
 30
0.000000
  70
    32
  0
VERTEX
  8
SAPA_FOGBAND
  5
21BB
 10
21.7883
 20
-34.5948
 30
0.000000
  70
    32
  0
VERTEX
  8
SAPA_FOGBAND
  5
21BC
 10
21.8764
 20
-34.6055
 30
0.000000
  70
    32
  0
VERTEX
  8
SAPA_FOGBAND
  5
21BD
 10
21.9641
 20
-34.6233
 30
0.000000
  70
    32
  0
VERTEX
  8
SAPA_FOGBAND
  5
21BE
 10
22.0512
 20
-34.6480
 30
0.000000
  70
    32
  0
VERTEX
  8
SAPA_FOGBAND
  5
21BF
 10
22.1374
 20
-34.6798
 30
0.000000
  70
    32
  0
VERTEX
  8
SAPA_FOGBAND
  5
21C0
 10
22.2225
 20
-34.7185
 30
0.000000
  70
    32
  0
VERTEX
  8
SAPA_FOGBAND
  5
21C1
 10
22.3064
 20
-34.7640
 30
0.000000
  70
    32
  0
VERTEX
  8
SAPA_FOGBAND
  5
21C2
 10
22.3888
 20
-34.8162
 30
0.000000
  70
    32
  0
VERTEX
  8
SAPA_FOGBAND
  5
21C3
 10
22.4696
 20
-34.8749
 30
0.000000
  70
    32
  0
VERTEX
  8
SAPA_FOGBAND
  5
21C4
 10
22.5485
 20
-34.9401
 30
0.000000
  70
    32
  0
VERTEX
  8
SAPA_FOGBAND
  5
21C5
 10
22.6254
 20
-35.0116
 30
0.000000
  70
    32
  0
VERTEX
  8
SAPA_FOGBAND
  5
21C6
 10
22.7000
 20
-35.0892
 30
0.000000
  70
    32
  0
VERTEX
  8
SAPA_FOGBAND
  5
21C7
 10
22.7723
 20
-35.1727
 30
0.000000
  70
    32
  0
VERTEX
  8
SAPA_FOGBAND
  5
21C8
 10
22.8419
 20
-35.2619
 30
0.000000
  70
    32
  0
VERTEX
  8
SAPA_FOGBAND
  5
21C9
 10
22.9088
 20
-35.3566
 30
0.000000
  70
    32
  0
VERTEX
  8
SAPA_FOGBAND
  5
21CA
 10
22.9728
 20
-35.4566
 30
0.000000
  70
    32
  0
VERTEX
  8
SAPA_FOGBAND
  5
21CB
 10
23.0337
 20
-35.5616
 30
0.000000
  70
    32
  0
VERTEX
  8
SAPA_FOGBAND
  5
21CC
 10
23.0914
 20
-35.6714
 30
0.000000
  70
    32
  0
VERTEX
  8
SAPA_FOGBAND
  5
21CD
 10
23.1458
 20
-35.7857
 30
0.000000
  70
    32
  0
VERTEX
  8
SAPA_FOGBAND
  5
21CE
 10
23.1966
 20
-35.9043
 30
0.000000
  70
    32
  0
VERTEX
  8
SAPA_FOGBAND
  5
21CF
 10
23.2439
 20
-36.0268
 30
0.000000
  70
    32
  0
VERTEX
  8
SAPA_FOGBAND
  5
21D0
 10
23.2875
 20
-36.1530
 30
0.000000
  70
    32
  0
VERTEX
  8
SAPA_FOGBAND
  5
21D1
 10
23.3272
 20
-36.2825
 30
0.000000
  70
    32
  0
VERTEX
  8
SAPA_FOGBAND
  5
21D2
 10
23.3630
 20
-36.4151
 30
0.000000
  70
    32
  0
VERTEX
  8
SAPA_FOGBAND
  5
21D3
 10
23.3948
 20
-36.5503
 30
0.000000
  70
    32
  0
VERTEX
  8
SAPA_FOGBAND
  5
21D4
 10
23.4225
 20
-36.6880
 30
0.000000
  70
    32
  0
VERTEX
  8
SAPA_FOGBAND
  5
21D5
 10
23.4461
 20
-36.8278
 30
0.000000
  70
    32
  0
VERTEX
  8
SAPA_FOGBAND
  5
21D6
 10
23.4654
 20
-36.9693
 30
0.000000
  70
    32
  0
VERTEX
  8
SAPA_FOGBAND
  5
21D7
 10
23.4805
 20
-37.1121
 30
0.000000
  70
    32
  0
VERTEX
  8
SAPA_FOGBAND
  5
21D8
 10
23.4913
 20
-37.2561
 30
0.000000
  70
    32
  0
VERTEX
  8
SAPA_FOGBAND
  5
21D9
 10
23.4978
 20
-37.4007
 30
0.000000
  70
    32
  0
VERTEX
  8
SAPA_FOGBAND
  5
21DA
 10
23.5000
 20
-37.5456
 30
0.000000
  70
    32
  0
VERTEX
  8
SAPA_FOGBAND
  5
21DB
 10
23.4978
 20
-37.6906
 30
0.000000
  70
    32
  0
VERTEX
  8
SAPA_FOGBAND
  5
21DC
 10
23.4913
 20
-37.8352
 30
0.000000
  70
    32
  0
VERTEX
  8
SAPA_FOGBAND
  5
21DD
 10
23.4805
 20
-37.9791
 30
0.000000
  70
    32
  0
VERTEX
  8
SAPA_FOGBAND
  5
21DE
 10
23.4654
 20
-38.1220
 30
0.000000
  70
    32
  0
VERTEX
  8
SAPA_FOGBAND
  5
21DF
 10
23.4461
 20
-38.2635
 30
0.000000
  70
    32
  0
VERTEX
  8
SAPA_FOGBAND
  5
21E0
 10
23.4225
 20
-38.4032
 30
0.000000
  70
    32
  0
VERTEX
  8
SAPA_FOGBAND
  5
21E1
 10
23.3948
 20
-38.5409
 30
0.000000
  70
    32
  0
VERTEX
  8
SAPA_FOGBAND
  5
21E2
 10
23.3630
 20
-38.6762
 30
0.000000
  70
    32
  0
VERTEX
  8
SAPA_FOGBAND
  5
21E3
 10
23.3272
 20
-38.8088
 30
0.000000
  70
    32
  0
VERTEX
  8
SAPA_FOGBAND
  5
21E4
 10
23.2875
 20
-38.9383
 30
0.000000
  70
    32
  0
VERTEX
  8
SAPA_FOGBAND
  5
21E5
 10
23.2439
 20
-39.0645
 30
0.000000
  70
    32
  0
VERTEX
  8
SAPA_FOGBAND
  5
21E6
 10
23.1966
 20
-39.1870
 30
0.000000
  70
    32
  0
VERTEX
  8
SAPA_FOGBAND
  5
21E7
 10
23.1458
 20
-39.3055
 30
0.000000
  70
    32
  0
VERTEX
  8
SAPA_FOGBAND
  5
21E8
 10
23.0914
 20
-39.4199
 30
0.000000
  70
    32
  0
VERTEX
  8
SAPA_FOGBAND
  5
21E9
 10
23.0337
 20
-39.5297
 30
0.000000
  70
    32
  0
VERTEX
  8
SAPA_FOGBAND
  5
21EA
 10
22.9728
 20
-39.6347
 30
0.000000
  70
    32
  0
VERTEX
  8
SAPA_FOGBAND
  5
21EB
 10
22.9088
 20
-39.7347
 30
0.000000
  70
    32
  0
VERTEX
  8
SAPA_FOGBAND
  5
21EC
 10
22.8419
 20
-39.8294
 30
0.000000
  70
    32
  0
VERTEX
  8
SAPA_FOGBAND
  5
21ED
 10
22.7723
 20
-39.9186
 30
0.000000
  70
    32
  0
VERTEX
  8
SAPA_FOGBAND
  5
21EE
 10
22.7000
 20
-40.0021
 30
0.000000
  70
    32
  0
VERTEX
  8
SAPA_FOGBAND
  5
21EF
 10
22.6254
 20
-40.0797
 30
0.000000
  70
    32
  0
VERTEX
  8
SAPA_FOGBAND
  5
21F0
 10
22.5485
 20
-40.1512
 30
0.000000
  70
    32
  0
VERTEX
  8
SAPA_FOGBAND
  5
21F1
 10
22.4696
 20
-40.2163
 30
0.000000
  70
    32
  0
VERTEX
  8
SAPA_FOGBAND
  5
21F2
 10
22.3888
 20
-40.2751
 30
0.000000
  70
    32
  0
VERTEX
  8
SAPA_FOGBAND
  5
21F3
 10
22.3064
 20
-40.3273
 30
0.000000
  70
    32
  0
VERTEX
  8
SAPA_FOGBAND
  5
21F4
 10
22.2225
 20
-40.3728
 30
0.000000
  70
    32
  0
VERTEX
  8
SAPA_FOGBAND
  5
21F5
 10
22.1374
 20
-40.4115
 30
0.000000
  70
    32
  0
VERTEX
  8
SAPA_FOGBAND
  5
21F6
 10
22.0512
 20
-40.4432
 30
0.000000
  70
    32
  0
VERTEX
  8
SAPA_FOGBAND
  5
21F7
 10
21.9641
 20
-40.4680
 30
0.000000
  70
    32
  0
VERTEX
  8
SAPA_FOGBAND
  5
21F8
 10
21.8764
 20
-40.4858
 30
0.000000
  70
    32
  0
VERTEX
  8
SAPA_FOGBAND
  5
21F9
 10
21.7883
 20
-40.4964
 30
0.000000
  70
    32
  0
VERTEX
  8
SAPA_FOGBAND
  5
21FA
 10
21.7000
 20
-40.5000
 30
0.000000
  70
    32
  0
SEQEND
  8
SAPA_FOGBAND
  5
21FB
  0
INSERT
  5
17EC
  8
SAPA_FOGBAND
  6
CONTINUOUS
  2
*X90
 10
0.0
 20
0.0
 30
0.0
1001
ACAD
1000
HATCH
1002
{
1070
    19
1000
ANSI37
1040
0.25
1040
-0.0000000000000002
1000
R14_HATCH_DATA
1000
17EC
1011
1.0
1021
0.0
1031
0.0
1021
0.0
1031
0.0
1011
0.0
1021
0.0
1031
0.0
1021
1.0
1031
0.0
1011
0.0
1021
0.0
1031
0.0
1021
0.0
1031
1.0
1040
0.0
1010
0.0
1020
0.0
1030
1.0
1000
ANSI37
1070
     0
1070
     0
1071
        1
1071
        1
1071
        3
1070
     3
1040
21.69999999999218
1040
-37.545638078316287
1040
0.0000000000009323
1040
-2.9543618886820009
1040
0.6092686230810487
1040
3.0288543565674959
1040
8.8961375621551824
1070
     1
1070
     2
1040
21.528106314816711
1040
-36.097247745463861
1040
1.5432917594600579
1040
7.0790947523609491
1040
7.4257213147405778
1070
     1
1070
     1
1040
22.169018193595772
1040
-34.693331288384869
1040
21.90249933918561
1040
-34.610031169442713
1071
        0
1070
     0
1070
     1
1040
-0.0000000000000002
1040
0.25
1070
     0
1070
     2
1040
2.3561944901923439
1040
444.38140031398763
1040
-362.90915699464682
1040
0.5612660075668219
1040
0.5612660075668222
1070
     0
1040
0.785398163397449
1040
444.38140031398763
1040
-362.90915699464682
1040
0.5612660075668222
1040
-0.5612660075668219
1070
     0
1071
        1
1040
21.851617139245931
1040
-37.788408381380343
1040
0.0
1002
}
  0
POLYLINE
  5
17ED
  8
SAPA_FOGBAND
 10
15.182155401672924
 20
-58.646125407834958
 30
0.0
 66
     1
 70
     8
  0
VERTEX
  8
SAPA_FOGBAND
  5
21FC
 10
15.1822
 20
-58.6461
 30
0.000000
  70
    32
  0
VERTEX
  8
SAPA_FOGBAND
  5
21FD
 10
15.1866
 20
-58.7402
 30
0.000000
  70
    32
  0
VERTEX
  8
SAPA_FOGBAND
  5
21FE
 10
15.2001
 20
-58.8340
 30
0.000000
  70
    32
  0
VERTEX
  8
SAPA_FOGBAND
  5
21FF
 10
15.2225
 20
-58.9274
 30
0.000000
  70
    32
  0
VERTEX
  8
SAPA_FOGBAND
  5
2200
 10
15.2539
 20
-59.0201
 30
0.000000
  70
    32
  0
VERTEX
  8
SAPA_FOGBAND
  5
2201
 10
15.2940
 20
-59.1118
 30
0.000000
  70
    32
  0
VERTEX
  8
SAPA_FOGBAND
  5
2202
 10
15.3428
 20
-59.2025
 30
0.000000
  70
    32
  0
VERTEX
  8
SAPA_FOGBAND
  5
2203
 10
15.4003
 20
-59.2918
 30
0.000000
  70
    32
  0
VERTEX
  8
SAPA_FOGBAND
  5
2204
 10
15.4662
 20
-59.3796
 30
0.000000
  70
    32
  0
VERTEX
  8
SAPA_FOGBAND
  5
2205
 10
15.5404
 20
-59.4656
 30
0.000000
  70
    32
  0
VERTEX
  8
SAPA_FOGBAND
  5
2206
 10
15.6227
 20
-59.5496
 30
0.000000
  70
    32
  0
VERTEX
  8
SAPA_FOGBAND
  5
2207
 10
15.7130
 20
-59.6315
 30
0.000000
  70
    32
  0
VERTEX
  8
SAPA_FOGBAND
  5
2208
 10
15.8110
 20
-59.7110
 30
0.000000
  70
    32
  0
VERTEX
  8
SAPA_FOGBAND
  5
2209
 10
15.9165
 20
-59.7879
 30
0.000000
  70
    32
  0
VERTEX
  8
SAPA_FOGBAND
  5
220A
 10
16.0291
 20
-59.8621
 30
0.000000
  70
    32
  0
VERTEX
  8
SAPA_FOGBAND
  5
220B
 10
16.1487
 20
-59.9333
 30
0.000000
  70
    32
  0
VERTEX
  8
SAPA_FOGBAND
  5
220C
 10
16.2750
 20
-60.0014
 30
0.000000
  70
    32
  0
VERTEX
  8
SAPA_FOGBAND
  5
220D
 10
16.4077
 20
-60.0663
 30
0.000000
  70
    32
  0
VERTEX
  8
SAPA_FOGBAND
  5
220E
 10
16.5463
 20
-60.1277
 30
0.000000
  70
    32
  0
VERTEX
  8
SAPA_FOGBAND
  5
220F
 10
16.6907
 20
-60.1856
 30
0.000000
  70
    32
  0
VERTEX
  8
SAPA_FOGBAND
  5
2210
 10
16.8405
 20
-60.2398
 30
0.000000
  70
    32
  0
VERTEX
  8
SAPA_FOGBAND
  5
2211
 10
16.9952
 20
-60.2901
 30
0.000000
  70
    32
  0
VERTEX
  8
SAPA_FOGBAND
  5
2212
 10
17.1545
 20
-60.3365
 30
0.000000
  70
    32
  0
VERTEX
  8
SAPA_FOGBAND
  5
2213
 10
17.3181
 20
-60.3788
 30
0.000000
  70
    32
  0
VERTEX
  8
SAPA_FOGBAND
  5
2214
 10
17.4856
 20
-60.4169
 30
0.000000
  70
    32
  0
VERTEX
  8
SAPA_FOGBAND
  5
2215
 10
17.6564
 20
-60.4508
 30
0.000000
  70
    32
  0
VERTEX
  8
SAPA_FOGBAND
  5
2216
 10
17.8303
 20
-60.4803
 30
0.000000
  70
    32
  0
VERTEX
  8
SAPA_FOGBAND
  5
2217
 10
18.0068
 20
-60.5054
 30
0.000000
  70
    32
  0
VERTEX
  8
SAPA_FOGBAND
  5
2218
 10
18.1855
 20
-60.5260
 30
0.000000
  70
    32
  0
VERTEX
  8
SAPA_FOGBAND
  5
2219
 10
18.3660
 20
-60.5421
 30
0.000000
  70
    32
  0
VERTEX
  8
SAPA_FOGBAND
  5
221A
 10
18.5477
 20
-60.5536
 30
0.000000
  70
    32
  0
VERTEX
  8
SAPA_FOGBAND
  5
221B
 10
18.7304
 20
-60.5605
 30
0.000000
  70
    32
  0
VERTEX
  8
SAPA_FOGBAND
  5
221C
 10
18.9135
 20
-60.5628
 30
0.000000
  70
    32
  0
VERTEX
  8
SAPA_FOGBAND
  5
221D
 10
19.0966
 20
-60.5605
 30
0.000000
  70
    32
  0
VERTEX
  8
SAPA_FOGBAND
  5
221E
 10
19.2792
 20
-60.5536
 30
0.000000
  70
    32
  0
VERTEX
  8
SAPA_FOGBAND
  5
221F
 10
19.4610
 20
-60.5421
 30
0.000000
  70
    32
  0
VERTEX
  8
SAPA_FOGBAND
  5
2220
 10
19.6414
 20
-60.5260
 30
0.000000
  70
    32
  0
VERTEX
  8
SAPA_FOGBAND
  5
2221
 10
19.8201
 20
-60.5054
 30
0.000000
  70
    32
  0
VERTEX
  8
SAPA_FOGBAND
  5
2222
 10
19.9966
 20
-60.4803
 30
0.000000
  70
    32
  0
VERTEX
  8
SAPA_FOGBAND
  5
2223
 10
20.1705
 20
-60.4508
 30
0.000000
  70
    32
  0
VERTEX
  8
SAPA_FOGBAND
  5
2224
 10
20.3414
 20
-60.4169
 30
0.000000
  70
    32
  0
VERTEX
  8
SAPA_FOGBAND
  5
2225
 10
20.5088
 20
-60.3788
 30
0.000000
  70
    32
  0
VERTEX
  8
SAPA_FOGBAND
  5
2226
 10
20.6724
 20
-60.3365
 30
0.000000
  70
    32
  0
VERTEX
  8
SAPA_FOGBAND
  5
2227
 10
20.8318
 20
-60.2901
 30
0.000000
  70
    32
  0
VERTEX
  8
SAPA_FOGBAND
  5
2228
 10
20.9865
 20
-60.2398
 30
0.000000
  70
    32
  0
VERTEX
  8
SAPA_FOGBAND
  5
2229
 10
21.1362
 20
-60.1856
 30
0.000000
  70
    32
  0
VERTEX
  8
SAPA_FOGBAND
  5
222A
 10
21.2806
 20
-60.1277
 30
0.000000
  70
    32
  0
VERTEX
  8
SAPA_FOGBAND
  5
222B
 10
21.4193
 20
-60.0663
 30
0.000000
  70
    32
  0
VERTEX
  8
SAPA_FOGBAND
  5
222C
 10
21.5519
 20
-60.0014
 30
0.000000
  70
    32
  0
VERTEX
  8
SAPA_FOGBAND
  5
222D
 10
21.6782
 20
-59.9333
 30
0.000000
  70
    32
  0
VERTEX
  8
SAPA_FOGBAND
  5
222E
 10
21.7978
 20
-59.8621
 30
0.000000
  70
    32
  0
VERTEX
  8
SAPA_FOGBAND
  5
222F
 10
21.9105
 20
-59.7879
 30
0.000000
  70
    32
  0
VERTEX
  8
SAPA_FOGBAND
  5
2230
 10
22.0159
 20
-59.7110
 30
0.000000
  70
    32
  0
VERTEX
  8
SAPA_FOGBAND
  5
2231
 10
22.1139
 20
-59.6315
 30
0.000000
  70
    32
  0
VERTEX
  8
SAPA_FOGBAND
  5
2232
 10
22.2042
 20
-59.5496
 30
0.000000
  70
    32
  0
VERTEX
  8
SAPA_FOGBAND
  5
2233
 10
22.2865
 20
-59.4656
 30
0.000000
  70
    32
  0
VERTEX
  8
SAPA_FOGBAND
  5
2234
 10
22.3608
 20
-59.3796
 30
0.000000
  70
    32
  0
VERTEX
  8
SAPA_FOGBAND
  5
2235
 10
22.4267
 20
-59.2918
 30
0.000000
  70
    32
  0
VERTEX
  8
SAPA_FOGBAND
  5
2236
 10
22.4841
 20
-59.2025
 30
0.000000
  70
    32
  0
VERTEX
  8
SAPA_FOGBAND
  5
2237
 10
22.5330
 20
-59.1118
 30
0.000000
  70
    32
  0
VERTEX
  8
SAPA_FOGBAND
  5
2238
 10
22.5731
 20
-59.0201
 30
0.000000
  70
    32
  0
VERTEX
  8
SAPA_FOGBAND
  5
2239
 10
22.6044
 20
-58.9274
 30
0.000000
  70
    32
  0
VERTEX
  8
SAPA_FOGBAND
  5
223A
 10
22.6268
 20
-58.8340
 30
0.000000
  70
    32
  0
VERTEX
  8
SAPA_FOGBAND
  5
223B
 10
22.6403
 20
-58.7402
 30
0.000000
  70
    32
  0
VERTEX
  8
SAPA_FOGBAND
  5
223C
 10
22.6448
 20
-58.6461
 30
0.000000
  70
    32
  0
VERTEX
  8
SAPA_FOGBAND
  5
223D
 10
22.6403
 20
-58.5521
 30
0.000000
  70
    32
  0
VERTEX
  8
SAPA_FOGBAND
  5
223E
 10
22.6268
 20
-58.4583
 30
0.000000
  70
    32
  0
VERTEX
  8
SAPA_FOGBAND
  5
223F
 10
22.6044
 20
-58.3649
 30
0.000000
  70
    32
  0
VERTEX
  8
SAPA_FOGBAND
  5
2240
 10
22.5731
 20
-58.2722
 30
0.000000
  70
    32
  0
VERTEX
  8
SAPA_FOGBAND
  5
2241
 10
22.5330
 20
-58.1804
 30
0.000000
  70
    32
  0
VERTEX
  8
SAPA_FOGBAND
  5
2242
 10
22.4841
 20
-58.0897
 30
0.000000
  70
    32
  0
VERTEX
  8
SAPA_FOGBAND
  5
2243
 10
22.4267
 20
-58.0004
 30
0.000000
  70
    32
  0
VERTEX
  8
SAPA_FOGBAND
  5
2244
 10
22.3608
 20
-57.9126
 30
0.000000
  70
    32
  0
VERTEX
  8
SAPA_FOGBAND
  5
2245
 10
22.2865
 20
-57.8266
 30
0.000000
  70
    32
  0
VERTEX
  8
SAPA_FOGBAND
  5
2246
 10
22.2042
 20
-57.7426
 30
0.000000
  70
    32
  0
VERTEX
  8
SAPA_FOGBAND
  5
2247
 10
22.1139
 20
-57.6607
 30
0.000000
  70
    32
  0
VERTEX
  8
SAPA_FOGBAND
  5
2248
 10
22.0159
 20
-57.5813
 30
0.000000
  70
    32
  0
VERTEX
  8
SAPA_FOGBAND
  5
2249
 10
21.9105
 20
-57.5044
 30
0.000000
  70
    32
  0
VERTEX
  8
SAPA_FOGBAND
  5
224A
 10
21.7978
 20
-57.4302
 30
0.000000
  70
    32
  0
VERTEX
  8
SAPA_FOGBAND
  5
224B
 10
21.6782
 20
-57.3590
 30
0.000000
  70
    32
  0
VERTEX
  8
SAPA_FOGBAND
  5
224C
 10
21.5519
 20
-57.2908
 30
0.000000
  70
    32
  0
VERTEX
  8
SAPA_FOGBAND
  5
224D
 10
21.4193
 20
-57.2260
 30
0.000000
  70
    32
  0
VERTEX
  8
SAPA_FOGBAND
  5
224E
 10
21.2806
 20
-57.1645
 30
0.000000
  70
    32
  0
VERTEX
  8
SAPA_FOGBAND
  5
224F
 10
21.1362
 20
-57.1066
 30
0.000000
  70
    32
  0
VERTEX
  8
SAPA_FOGBAND
  5
2250
 10
20.9865
 20
-57.0525
 30
0.000000
  70
    32
  0
VERTEX
  8
SAPA_FOGBAND
  5
2251
 10
20.8318
 20
-57.0021
 30
0.000000
  70
    32
  0
VERTEX
  8
SAPA_FOGBAND
  5
2252
 10
20.6724
 20
-56.9558
 30
0.000000
  70
    32
  0
VERTEX
  8
SAPA_FOGBAND
  5
2253
 10
20.5088
 20
-56.9135
 30
0.000000
  70
    32
  0
VERTEX
  8
SAPA_FOGBAND
  5
2254
 10
20.3414
 20
-56.8753
 30
0.000000
  70
    32
  0
VERTEX
  8
SAPA_FOGBAND
  5
2255
 10
20.1705
 20
-56.8415
 30
0.000000
  70
    32
  0
VERTEX
  8
SAPA_FOGBAND
  5
2256
 10
19.9966
 20
-56.8120
 30
0.000000
  70
    32
  0
VERTEX
  8
SAPA_FOGBAND
  5
2257
 10
19.8201
 20
-56.7869
 30
0.000000
  70
    32
  0
VERTEX
  8
SAPA_FOGBAND
  5
2258
 10
19.6414
 20
-56.7663
 30
0.000000
  70
    32
  0
VERTEX
  8
SAPA_FOGBAND
  5
2259
 10
19.4610
 20
-56.7502
 30
0.000000
  70
    32
  0
VERTEX
  8
SAPA_FOGBAND
  5
225A
 10
19.2792
 20
-56.7387
 30
0.000000
  70
    32
  0
VERTEX
  8
SAPA_FOGBAND
  5
225B
 10
19.0966
 20
-56.7317
 30
0.000000
  70
    32
  0
VERTEX
  8
SAPA_FOGBAND
  5
225C
 10
18.9135
 20
-56.7294
 30
0.000000
  70
    32
  0
VERTEX
  8
SAPA_FOGBAND
  5
225D
 10
18.7304
 20
-56.7317
 30
0.000000
  70
    32
  0
VERTEX
  8
SAPA_FOGBAND
  5
225E
 10
18.5477
 20
-56.7387
 30
0.000000
  70
    32
  0
VERTEX
  8
SAPA_FOGBAND
  5
225F
 10
18.3660
 20
-56.7502
 30
0.000000
  70
    32
  0
VERTEX
  8
SAPA_FOGBAND
  5
2260
 10
18.1855
 20
-56.7663
 30
0.000000
  70
    32
  0
VERTEX
  8
SAPA_FOGBAND
  5
2261
 10
18.0068
 20
-56.7869
 30
0.000000
  70
    32
  0
VERTEX
  8
SAPA_FOGBAND
  5
2262
 10
17.8303
 20
-56.8120
 30
0.000000
  70
    32
  0
VERTEX
  8
SAPA_FOGBAND
  5
2263
 10
17.6564
 20
-56.8415
 30
0.000000
  70
    32
  0
VERTEX
  8
SAPA_FOGBAND
  5
2264
 10
17.4856
 20
-56.8753
 30
0.000000
  70
    32
  0
VERTEX
  8
SAPA_FOGBAND
  5
2265
 10
17.3181
 20
-56.9135
 30
0.000000
  70
    32
  0
VERTEX
  8
SAPA_FOGBAND
  5
2266
 10
17.1545
 20
-56.9558
 30
0.000000
  70
    32
  0
VERTEX
  8
SAPA_FOGBAND
  5
2267
 10
16.9952
 20
-57.0021
 30
0.000000
  70
    32
  0
VERTEX
  8
SAPA_FOGBAND
  5
2268
 10
16.8405
 20
-57.0525
 30
0.000000
  70
    32
  0
VERTEX
  8
SAPA_FOGBAND
  5
2269
 10
16.6907
 20
-57.1066
 30
0.000000
  70
    32
  0
VERTEX
  8
SAPA_FOGBAND
  5
226A
 10
16.5463
 20
-57.1645
 30
0.000000
  70
    32
  0
VERTEX
  8
SAPA_FOGBAND
  5
226B
 10
16.4077
 20
-57.2260
 30
0.000000
  70
    32
  0
VERTEX
  8
SAPA_FOGBAND
  5
226C
 10
16.2750
 20
-57.2908
 30
0.000000
  70
    32
  0
VERTEX
  8
SAPA_FOGBAND
  5
226D
 10
16.1487
 20
-57.3590
 30
0.000000
  70
    32
  0
VERTEX
  8
SAPA_FOGBAND
  5
226E
 10
16.0291
 20
-57.4302
 30
0.000000
  70
    32
  0
VERTEX
  8
SAPA_FOGBAND
  5
226F
 10
15.9165
 20
-57.5044
 30
0.000000
  70
    32
  0
VERTEX
  8
SAPA_FOGBAND
  5
2270
 10
15.8110
 20
-57.5813
 30
0.000000
  70
    32
  0
VERTEX
  8
SAPA_FOGBAND
  5
2271
 10
15.7130
 20
-57.6607
 30
0.000000
  70
    32
  0
VERTEX
  8
SAPA_FOGBAND
  5
2272
 10
15.6227
 20
-57.7426
 30
0.000000
  70
    32
  0
VERTEX
  8
SAPA_FOGBAND
  5
2273
 10
15.5404
 20
-57.8266
 30
0.000000
  70
    32
  0
VERTEX
  8
SAPA_FOGBAND
  5
2274
 10
15.4662
 20
-57.9126
 30
0.000000
  70
    32
  0
VERTEX
  8
SAPA_FOGBAND
  5
2275
 10
15.4003
 20
-58.0004
 30
0.000000
  70
    32
  0
VERTEX
  8
SAPA_FOGBAND
  5
2276
 10
15.3428
 20
-58.0897
 30
0.000000
  70
    32
  0
VERTEX
  8
SAPA_FOGBAND
  5
2277
 10
15.2940
 20
-58.1804
 30
0.000000
  70
    32
  0
VERTEX
  8
SAPA_FOGBAND
  5
2278
 10
15.2539
 20
-58.2722
 30
0.000000
  70
    32
  0
VERTEX
  8
SAPA_FOGBAND
  5
2279
 10
15.2225
 20
-58.3649
 30
0.000000
  70
    32
  0
VERTEX
  8
SAPA_FOGBAND
  5
227A
 10
15.2001
 20
-58.4583
 30
0.000000
  70
    32
  0
VERTEX
  8
SAPA_FOGBAND
  5
227B
 10
15.1866
 20
-58.5521
 30
0.000000
  70
    32
  0
VERTEX
  8
SAPA_FOGBAND
  5
227C
 10
15.1822
 20
-58.6461
 30
0.000000
  70
    32
  0
SEQEND
  8
SAPA_FOGBAND
  5
227D
  0
POLYLINE
  5
17EE
  8
SAPA_FOGBAND
 66
     1
 10
0.0
 20
0.0
 30
0.0
  0
VERTEX
  5
2149
  8
SAPA_FOGBAND
 10
23.787839836612111
 20
-51.800000000001802
 30
0.0
  0
VERTEX
  5
214A
  8
SAPA_FOGBAND
 10
23.787839836612111
 20
-51.500000000001847
 30
0.0
  0
VERTEX
  5
214B
  8
SAPA_FOGBAND
 10
23.787839836612111
 20
-51.800000000001802
 30
0.0
 42
-0.4142135623730951
  0
VERTEX
  5
214C
  8
SAPA_FOGBAND
 10
23.287839836612111
 20
-52.300000000001809
 30
0.0
  0
VERTEX
  5
214D
  8
SAPA_FOGBAND
 10
15.987839836612149
 20
-52.300000000001859
 30
0.0
 42
-0.4142135623730951
  0
VERTEX
  5
214E
  8
SAPA_FOGBAND
 10
15.487839836612149
 20
-51.800000000001873
 30
0.0
  0
VERTEX
  5
214F
  8
SAPA_FOGBAND
 10
15.487839836612149
 20
-51.500000000001847
 30
0.0
  0
SEQEND
  5
2150
  8
SAPA_FOGBAND
  0
POLYLINE
  5
17EF
  8
SAPA_FOGBAND
 66
     1
 10
0.0
 20
0.0
 30
0.0
 70
     1
  0
VERTEX
  5
2151
  8
SAPA_FOGBAND
 10
21.087839836612119
 20
-49.585369502363079
 30
0.0
  0
VERTEX
  5
2152
  8
SAPA_FOGBAND
 10
21.087839836612119
 20
-50.185369502363052
 30
0.0
 42
-0.9999999999999998
  0
VERTEX
  5
2153
  8
SAPA_FOGBAND
 10
19.287839836612161
 20
-50.185369502363052
 30
0.0
  0
VERTEX
  5
2154
  8
SAPA_FOGBAND
 10
19.287839836612111
 20
-49.585369502363079
 30
0.0
 42
-0.9999999999999998
  0
SEQEND
  5
2155
  8
SAPA_FOGBAND
  0
POLYLINE
  5
17F0
  8
SAPA_FOGBAND
 66
     1
 10
0.0
 20
0.0
 30
0.0
 70
     1
  0
VERTEX
  5
2156
  8
SAPA_FOGBAND
 10
11.49897524277438
 20
-56.418068725706668
 30
0.0
 42
-0.646356061736289
  0
VERTEX
  5
2157
  8
SAPA_FOGBAND
 10
13.1616921057529
 20
-57.166938780872357
 30
0.0
  0
VERTEX
  5
2158
  8
SAPA_FOGBAND
 10
13.1616921057529
 20
-60.64591139233243
 30
0.0
 42
-0.4879283649264857
  0
VERTEX
  5
2159
  8
SAPA_FOGBAND
 10
11.919156480716561
 20
-61.61605389247778
 30
0.0
  0
VERTEX
  5
215A
  8
SAPA_FOGBAND
 10
9.0413590643767971
 20
-60.896604538392843
 30
0.0
 42
-0.3441507314089108
  0
VERTEX
  5
215B
  8
SAPA_FOGBAND
 10
8.2838946894131311
 20
-59.926462038247507
 30
0.0
  0
VERTEX
  5
215C
  8
SAPA_FOGBAND
 10
8.2838946894131151
 20
-59.713662158164219
 30
0.0
 42
-0.214804042991016
  0
VERTEX
  5
215D
  8
SAPA_FOGBAND
 10
8.6211778264346037
 20
-58.964792102998508
 30
0.0
  0
SEQEND
  5
215E
  8
SAPA_FOGBAND
  0
POLYLINE
  5
17F1
  8
SAPA_FOGBAND
 66
     1
 10
0.0
 20
0.0
 30
0.0
 70
     1
  0
VERTEX
  5
215F
  8
SAPA_FOGBAND
 10
18.187839836612142
 20
-51.500000000001847
 30
0.0
 42
0.4142135623730951
  0
VERTEX
  5
2160
  8
SAPA_FOGBAND
 10
18.687839836612142
 20
-51.000000000001862
 30
0.0
  0
VERTEX
  5
2161
  8
SAPA_FOGBAND
 10
18.687839836612142
 20
-50.05857458311997
 30
0.0
  0
VERTEX
  5
2162
  8
SAPA_FOGBAND
 10
18.436076027591671
 20
-49.991114673809513
 30
0.0
 42
-0.474057181023226
  0
VERTEX
  5
2163
  8
SAPA_FOGBAND
 10
18.308782165228049
 20
-49.708832088170922
 30
0.0
  0
VERTEX
  5
2164
  8
SAPA_FOGBAND
 10
18.928882667986692
 20
-48.262625951411032
 30
0.0
 42
-0.2846003776496053
  0
VERTEX
  5
2165
  8
SAPA_FOGBAND
 10
19.376526846446801
 20
-47.985369502363064
 30
0.0
  0
VERTEX
  5
2166
  8
SAPA_FOGBAND
 10
20.999152826777411
 20
-47.985369502363064
 30
0.0
 42
-0.2846003776496055
  0
VERTEX
  5
2167
  8
SAPA_FOGBAND
 10
21.446797005237581
 20
-48.262625951411032
 30
0.0
  0
VERTEX
  5
2168
  8
SAPA_FOGBAND
 10
22.06689750799617
 20
-49.708832088170858
 30
0.0
 42
-0.474057181023226
  0
VERTEX
  5
2169
  8
SAPA_FOGBAND
 10
21.939603645632609
 20
-49.991114673809513
 30
0.0
  0
VERTEX
  5
216A
  8
SAPA_FOGBAND
 10
21.687839836612142
 20
-50.05857458311997
 30
0.0
  0
VERTEX
  5
216B
  8
SAPA_FOGBAND
 10
21.687839836612142
 20
-51.000000000001862
 30
0.0
 42
0.4142135623730951
  0
VERTEX
  5
216C
  8
SAPA_FOGBAND
 10
22.187839836612142
 20
-51.500000000001847
 30
0.0
  0
VERTEX
  5
216D
  8
SAPA_FOGBAND
 10
24.69999999999359
 20
-51.500000000001791
 30
0.0
 42
-0.4052499559557504
  0
VERTEX
  5
216E
  8
SAPA_FOGBAND
 10
24.999858634294721
 20
-51.790791339129143
 30
0.0
  0
VERTEX
  5
216F
  8
SAPA_FOGBAND
 10
25.48769844896416
 20
-62.69079133912917
 30
0.0
 42
-0.4232343445545565
  0
VERTEX
  5
2170
  8
SAPA_FOGBAND
 10
25.187839814663018
 20
-63.000000000001862
 30
0.0
  0
VERTEX
  5
2171
  8
SAPA_FOGBAND
 10
11.54939264942098
 20
-63.000000000001862
 30
0.0
 42
-0.0613213552369726
  0
VERTEX
  5
2172
  8
SAPA_FOGBAND
 10
11.428124836902811
 20
-62.98507125007454
 30
0.0
  0
VERTEX
  5
2173
  8
SAPA_FOGBAND
 10
5.9453042115758024
 20
-62.414366093742721
 30
0.0
 42
-0.3441507314089092
  0
VERTEX
  5
2174
  8
SAPA_FOGBAND
 10
5.1878398366121408
 20
-61.444223593597393
 30
0.0
  0
VERTEX
  5
2175
  8
SAPA_FOGBAND
 10
5.1878398366121408
 20
-60.206139425069189
 30
0.0
 42
-0.2148040429910146
  0
VERTEX
  5
2176
  8
SAPA_FOGBAND
 10
5.3564814051228771
 20
-59.831704397486327
 30
0.0
  0
VERTEX
  5
2177
  8
SAPA_FOGBAND
 10
14.48753053661753
 20
-51.751129944836102
 30
0.0
 42
-0.1831167524995932
  0
VERTEX
  5
2178
  8
SAPA_FOGBAND
 10
15.150247399596051
 20
-51.500000000001847
 30
0.0
  0
SEQEND
  5
2179
  8
SAPA_FOGBAND
  0
VIEWPORT
  5
C4
 67
     1
  8
0
 10
160.5543545598442
 20
116.00969601843509
 30
0.0
 40
404.96977709277462
 41
256.8421457311839
 68
     1
 69
     1
1001
ACAD
1000
MVIEW
1002
{
1070
    16
1010
0.0
1020
0.0
1030
0.0
1010
0.0
1020
0.0
1030
1.0
1040
0.0
1040
256.8421457311839
1040
99.206250190734863
1040
130.70624923706049
1040
50.0
1040
0.0
1040
0.0
1070
     0
1070
     0
1070
     1
1070
     1
1070
     0
1070
     0
1070
     0
1070
     0
1040
0.0
1040
0.0
1040
0.0
1040
10.0
1040
10.0
1040
10.0
1040
10.0
1070
     0
1002
{
1002
}
1002
}
  0
ENDSEC
  0
EOF
