  0
SECTION
  2
HEADER
  9
$ACADVER
  1
AC1021
  9
$ACADMAINTVER
 70
    50
  9
$DWGCODEPAGE
  3
ANSI_1252
  9
$INSBASE
 10
0.0
 20
0.0
 30
0.0
  9
$EXTMIN
 10
-466.9043623176913
 20
-3262.53332338594
 30
0.0
  9
$EXTMAX
 10
7791.0
 20
10930.5915573734
 30
0.0000000195376815
  9
$LIMMIN
 10
0.0
 20
0.0
  9
$LIMMAX
 10
790.0
 20
790.0
  9
$ORTHOMODE
 70
     0
  9
$REGENMODE
 70
     1
  9
$FILLMODE
 70
     1
  9
$QTEXTMODE
 70
     0
  9
$MIRRTEXT
 70
     1
  9
$LTSCALE
 40
4.0
  9
$ATTMODE
 70
     1
  9
$TEXTSIZE
 40
3.5
  9
$TRACEWID
 40
0.05
  9
$TEXTSTYLE
  7
ISO
  9
$CLAYER
  8
sapa_elevation
  9
$CELTYPE
  6
BYLAYER
  9
$CECOLOR
 62
   256
  9
$CELTSCALE
 40
1.0
  9
$DISPSILH
 70
     1
  9
$DIMSCALE
 40
0.0
  9
$DIMASZ
 40
3.0
  9
$DIMEXO
 40
1.5
  9
$DIMDLI
 40
10.0
  9
$DIMRND
 40
0.0
  9
$DIMDLE
 40
0.0
  9
$DIMEXE
 40
1.5
  9
$DIMTP
 40
0.0
  9
$DIMTM
 40
0.0
  9
$DIMTXT
 40
3.0
  9
$DIMCEN
 40
-5.0
  9
$DIMTSZ
 40
0.0
  9
$DIMTOL
 70
     0
  9
$DIMLIM
 70
     0
  9
$DIMTIH
 70
     0
  9
$DIMTOH
 70
     0
  9
$DIMSE1
 70
     0
  9
$DIMSE2
 70
     0
  9
$DIMTAD
 70
     1
  9
$DIMZIN
 70
     8
  9
$DIMBLK
  1

  9
$DIMASO
 70
     1
  9
$DIMSHO
 70
     1
  9
$DIMPOST
  1

  9
$DIMAPOST
  1

  9
$DIMALT
 70
     0
  9
$DIMALTD
 70
     0
  9
$DIMALTF
 40
25.4
  9
$DIMLFAC
 40
-1.0
  9
$DIMTOFL
 70
     1
  9
$DIMTVP
 40
0.0
  9
$DIMTIX
 70
     0
  9
$DIMSOXD
 70
     0
  9
$DIMSAH
 70
     0
  9
$DIMBLK1
  1

  9
$DIMBLK2
  1

  9
$DIMSTYLE
  2
MASKIN
  9
$DIMCLRD
 70
   256
  9
$DIMCLRE
 70
   256
  9
$DIMCLRT
 70
     2
  9
$DIMTFAC
 40
1.0
  9
$DIMGAP
 40
1.0
  9
$DIMJUST
 70
     0
  9
$DIMSD1
 70
     0
  9
$DIMSD2
 70
     0
  9
$DIMTOLJ
 70
     1
  9
$DIMTZIN
 70
     8
  9
$DIMALTZ
 70
     8
  9
$DIMALTTZ
 70
     8
  9
$DIMUPT
 70
     0
  9
$DIMDEC
 70
     8
  9
$DIMTDEC
 70
     8
  9
$DIMALTU
 70
     2
  9
$DIMALTTD
 70
     0
  9
$DIMTXSTY
  7
ISO
  9
$DIMAUNIT
 70
     0
  9
$DIMADEC
 70
     2
  9
$DIMALTRND
 40
0.0
  9
$DIMAZIN
 70
     2
  9
$DIMDSEP
 70
    46
  9
$DIMATFIT
 70
     3
  9
$DIMFRAC
 70
     0
  9
$DIMLDRBLK
  1

  9
$DIMLUNIT
 70
     2
  9
$DIMLWD
 70
    -2
  9
$DIMLWE
 70
    -2
  9
$DIMTMOVE
 70
     0
  9
$DIMFXL
 40
1.5
  9
$DIMFXLON
 70
     0
  9
$DIMJOGANG
 40
1.570796326794896
  9
$DIMTFILL
 70
     0
  9
$DIMTFILLCLR
 70
     0
  9
$DIMARCSYM
 70
     0
  9
$DIMLTYPE
  6

  9
$DIMLTEX1
  6

  9
$DIMLTEX2
  6

  9
$LUNITS
 70
     2
  9
$LUPREC
 70
     8
  9
$SKETCHINC
 40
0.1
  9
$FILLETRAD
 40
0.0
  9
$AUNITS
 70
     0
  9
$AUPREC
 70
     8
  9
$MENU
  1
ACAD
  9
$ELEVATION
 40
0.0
  9
$PELEVATION
 40
0.0
  9
$THICKNESS
 40
0.0
  9
$LIMCHECK
 70
     0
  9
$CHAMFERA
 40
0.0
  9
$CHAMFERB
 40
0.0
  9
$CHAMFERC
 40
0.0
  9
$CHAMFERD
 40
0.0
  9
$SKPOLY
 70
     0
  9
$TDCREATE
 40
2454851.473801343
  9
$TDUCREATE
 40
2454851.432134676
  9
$TDUPDATE
 40
2458466.574346771
  9
$TDUUPDATE
 40
2458466.532680104
  9
$TDINDWG
 40
0.0622512269
  9
$TDUSRTIMER
 40
0.0622510417
  9
$USRTIMER
 70
     1
  9
$ANGBASE
 50
0.0
  9
$ANGDIR
 70
     0
  9
$PDMODE
 70
     0
  9
$PDSIZE
 40
0.0
  9
$PLINEWID
 40
0.0
  9
$SPLFRAME
 70
     0
  9
$SPLINETYPE
 70
     6
  9
$SPLINESEGS
 70
     8
  9
$HANDSEED
  5
1E8
  9
$SURFTAB1
 70
     6
  9
$SURFTAB2
 70
     6
  9
$SURFTYPE
 70
     6
  9
$SURFU
 70
     6
  9
$SURFV
 70
     6
  9
$UCSBASE
  2

  9
$UCSNAME
  2

  9
$UCSORG
 10
0.0
 20
0.0
 30
0.0
  9
$UCSXDIR
 10
1.0
 20
0.0
 30
0.0
  9
$UCSYDIR
 10
0.0
 20
1.0
 30
0.0
  9
$UCSORTHOREF
  2

  9
$UCSORTHOVIEW
 70
     0
  9
$UCSORGTOP
 10
0.0
 20
0.0
 30
0.0
  9
$UCSORGBOTTOM
 10
0.0
 20
0.0
 30
0.0
  9
$UCSORGLEFT
 10
0.0
 20
0.0
 30
0.0
  9
$UCSORGRIGHT
 10
0.0
 20
0.0
 30
0.0
  9
$UCSORGFRONT
 10
0.0
 20
0.0
 30
0.0
  9
$UCSORGBACK
 10
0.0
 20
0.0
 30
0.0
  9
$PUCSBASE
  2

  9
$PUCSNAME
  2

  9
$PUCSORG
 10
0.0
 20
0.0
 30
0.0
  9
$PUCSXDIR
 10
1.0
 20
0.0
 30
0.0
  9
$PUCSYDIR
 10
0.0
 20
1.0
 30
0.0
  9
$PUCSORTHOREF
  2

  9
$PUCSORTHOVIEW
 70
     0
  9
$PUCSORGTOP
 10
0.0
 20
0.0
 30
0.0
  9
$PUCSORGBOTTOM
 10
0.0
 20
0.0
 30
0.0
  9
$PUCSORGLEFT
 10
0.0
 20
0.0
 30
0.0
  9
$PUCSORGRIGHT
 10
0.0
 20
0.0
 30
0.0
  9
$PUCSORGFRONT
 10
0.0
 20
0.0
 30
0.0
  9
$PUCSORGBACK
 10
0.0
 20
0.0
 30
0.0
  9
$USERI1
 70
     0
  9
$USERI2
 70
     0
  9
$USERI3
 70
     0
  9
$USERI4
 70
     0
  9
$USERI5
 70
     0
  9
$USERR1
 40
0.0
  9
$USERR2
 40
0.0
  9
$USERR3
 40
0.0
  9
$USERR4
 40
0.0
  9
$USERR5
 40
0.0
  9
$WORLDVIEW
 70
     1
  9
$SHADEDGE
 70
     3
  9
$SHADEDIF
 70
    70
  9
$TILEMODE
 70
     1
  9
$MAXACTVP
 70
    16
  9
$PINSBASE
 10
0.0
 20
0.0
 30
0.0
  9
$PLIMCHECK
 70
     0
  9
$PEXTMIN
 10
5.868009702067809
 20
-0.0038431578304881
 30
-0.0015258207003583
  9
$PEXTMAX
 10
185.8813063784483
 20
283.0082764204674
 30
0.0000000349246037
  9
$PLIMMIN
 10
-14.40651499994891
 20
-4.253669647431024
  9
$PLIMMAX
 10
195.5668126367698
 20
292.6723252256159
  9
$UNITMODE
 70
     0
  9
$VISRETAIN
 70
     1
  9
$PLINEGEN
 70
     0
  9
$PSLTSCALE
 70
     1
  9
$TREEDEPTH
 70
  3020
  9
$CMLSTYLE
  2
STANDARD
  9
$CMLJUST
 70
     0
  9
$CMLSCALE
 40
1.0
  9
$PROXYGRAPHICS
 70
     1
  9
$MEASUREMENT
 70
     1
  9
$CELWEIGHT
370
    -1
  9
$ENDCAPS
280
     0
  9
$JOINSTYLE
280
     0
  9
$LWDISPLAY
290
     0
  9
$INSUNITS
 70
     0
  9
$HYPERLINKBASE
  1

  9
$STYLESHEET
  1

  9
$XEDIT
290
     1
  9
$CEPSNTYPE
380
     0
  9
$PSTYLEMODE
290
     1
  9
$FINGERPRINTGUID
  2
{F6B2E3BC-0860-4701-AC07-A5229414F046}
  9
$VERSIONGUID
  2
{D09926C8-DE17-4833-8602-444AD21AC804}
  9
$EXTNAMES
290
     1
  9
$PSVPSCALE
 40
0.0
  9
$OLESTARTUP
290
     0
  9
$SORTENTS
280
   127
  9
$INDEXCTL
280
     0
  9
$HIDETEXT
280
     1
  9
$XCLIPFRAME
290
     0
  9
$HALOGAP
280
     0
  9
$OBSCOLOR
 70
   257
  9
$OBSLTYPE
280
     0
  9
$INTERSECTIONDISPLAY
280
     0
  9
$INTERSECTIONCOLOR
 70
   257
  9
$DIMASSOC
280
     2
  9
$PROJECTNAME
  1

  9
$CAMERADISPLAY
290
     0
  9
$LENSLENGTH
 40
50.0
  9
$CAMERAHEIGHT
 40
0.0
  9
$STEPSPERSEC
 40
2.0
  9
$STEPSIZE
 40
6.0
  9
$3DDWFPREC
 40
2.0
  9
$PSOLWIDTH
 40
0.25
  9
$PSOLHEIGHT
 40
4.0
  9
$LOFTANG1
 40
1.570796326794896
  9
$LOFTANG2
 40
1.570796326794896
  9
$LOFTMAG1
 40
0.0
  9
$LOFTMAG2
 40
0.0
  9
$LOFTPARAM
 70
     7
  9
$LOFTNORMALS
280
     1
  9
$LATITUDE
 40
37.795
  9
$LONGITUDE
 40
-122.394
  9
$NORTHDIRECTION
 40
0.0
  9
$TIMEZONE
 70
 -8000
  9
$LIGHTGLYPHDISPLAY
280
     1
  9
$TILEMODELIGHTSYNCH
280
     1
  9
$CMATERIAL
347
34
  9
$SOLIDHIST
280
     1
  9
$SHOWHIST
280
     1
  9
$DWFFRAME
280
     2
  9
$DGNFRAME
280
     0
  9
$REALWORLDSCALE
290
     1
  9
$INTERFERECOLOR
 62
     1
  9
$INTERFEREOBJVS
345
40
  9
$INTERFEREVPVS
346
41
  9
$CSHADOW
280
     0
  9
$SHADOWPLANELOCATION
 40
0.0
  0
ENDSEC
  0
SECTION
  2
CLASSES
  0
CLASS
  1
DICTIONARYVAR
  2
AcDbDictionaryVar
  3
ObjectDBX Classes
 90
        0
 91
        9
280
     0
281
     0
  0
CLASS
  1
ACDBDICTIONARYWDFLT
  2
AcDbDictionaryWithDefault
  3
ObjectDBX Classes
 90
        0
 91
        1
280
     0
281
     0
  0
CLASS
  1
PLOTSETTINGS
  2
AcDbPlotSettings
  3
ObjectDBX Classes
 90
        0
 91
        0
280
     0
281
     0
  0
CLASS
  1
TABLESTYLE
  2
AcDbTableStyle
  3
ObjectDBX Classes
 90
     4095
 91
        1
280
     0
281
     0
  0
CLASS
  1
MATERIAL
  2
AcDbMaterial
  3
ObjectDBX Classes
 90
     1153
 91
        3
280
     0
281
     0
  0
CLASS
  1
VISUALSTYLE
  2
AcDbVisualStyle
  3
ObjectDBX Classes
 90
     4095
 91
        3
280
     0
281
     0
  0
CLASS
  1
IMAGEDEF
  2
AcDbRasterImageDef
  3
ISM
 90
        0
 91
        0
280
     0
281
     0
  0
CLASS
  1
SCALE
  2
AcDbScale
  3
ObjectDBX Classes
 90
     1153
 91
       35
280
     0
281
     0
  0
CLASS
  1
MLEADERSTYLE
  2
AcDbMLeaderStyle
  3
ACDB_MLEADERSTYLE_CLASS
 90
     4095
 91
        1
280
     0
281
     0
  0
CLASS
  1
EXACXREFPANELOBJECT
  2
ExAcXREFPanelObject
  3
EXAC_ESW
 90
     1025
 91
        0
280
     0
281
     0
  0
CLASS
  1
NPOCOLLECTION
  2
AcDbImpNonPersistentObjectsCollection
  3
ObjectDBX Classes
 90
     1153
 91
        0
280
     0
281
     0
  0
CLASS
  1
CELLSTYLEMAP
  2
AcDbCellStyleMap
  3
ObjectDBX Classes
 90
     1152
 91
        1
280
     0
281
     0
  0
CLASS
  1
MULTILEADER
  2
AcDbMLeader
  3
ACDB_MLEADER_CLASS
 90
     1025
 91
        2
280
     0
281
     1
  0
CLASS
  1
AEC_REFEDIT_STATUS_TRACKER
  2
AecDbRefEditStatusTracker
  3
AecArchBase70|Product Desc: Autodesk Architectural Desktop 2007 |Company: Autodesk,Inc. |WEB Address: www.autodesk.com
 90
      129
 91
        0
280
     1
281
     0
  0
CLASS
  1
SORTENTSTABLE
  2
AcDbSortentsTable
  3
ObjectDBX Classes
 90
        0
 91
        2
280
     0
281
     0
  0
CLASS
  1
EXACTERMXREFMAP
  2
ExAcTermXrefMap
  3
EXAC_SERVICE
 90
     1025
 91
        0
280
     0
281
     0
  0
CLASS
  1
ACDBSECTIONVIEWSTYLE
  2
AcDbSectionViewStyle
  3
ObjectDBX Classes
 90
     1025
 91
        0
280
     0
281
     0
  0
CLASS
  1
ACDBDETAILVIEWSTYLE
  2
AcDbDetailViewStyle
  3
ObjectDBX Classes
 90
     1025
 91
        0
280
     0
281
     0
  0
ENDSEC
  0
SECTION
  2
TABLES
  0
TABLE
  2
VPORT
  5
25
330
0
100
AcDbSymbolTable
 70
     1
  0
VPORT
  5
26
330
25
100
AcDbSymbolTableRecord
100
AcDbViewportTableRecord
  2
*Active
 70
     0
 10
0.0
 20
0.0
 11
1.0
 21
1.0
 12
3662.047838068087
 22
12122.39127223323
 13
0.0
 23
0.0
 14
1.0
 24
1.0
 15
0.0
 25
0.0
 16
0.0
 26
0.0
 36
1.0
 17
0.0
 27
0.0
 37
0.0
 40
21662.36085462341
 41
1.452861952861952
 42
50.0
 43
0.0
 44
0.0
 50
0.0
 51
0.0
 71
     0
 72
   100
 73
     1
 74
     1
 75
     0
 76
     0
 77
     0
 78
     0
281
     0
 65
     1
110
0.0
120
0.0
130
0.0
111
1.0
121
0.0
131
0.0
112
0.0
122
1.0
132
0.0
 79
     0
146
0.0
348
27
 60
     3
 61
     5
292
     1
282
     1
141
0.0
142
0.0
 63
   250
421
  3355443
1001
ACAD_NAV_VCDISPLAY
1070
     3
  0
ENDTAB
  0
TABLE
  2
LTYPE
  5
20
330
0
100
AcDbSymbolTable
 70
     2
  0
LTYPE
  5
21
330
20
100
AcDbSymbolTableRecord
100
AcDbLinetypeTableRecord
  2
BYBLOCK
 70
     0
  3

 72
    65
 73
     0
 40
0.0
  0
LTYPE
  5
22
330
20
100
AcDbSymbolTableRecord
100
AcDbLinetypeTableRecord
  2
BYLAYER
 70
     0
  3

 72
    65
 73
     0
 40
0.0
  0
LTYPE
  5
E
330
20
100
AcDbSymbolTableRecord
100
AcDbLinetypeTableRecord
  2
CONTINUOUS
 70
     0
  3
Solid line
 72
    65
 73
     0
 40
0.0
  0
LTYPE
  5
14B
330
20
100
AcDbSymbolTableRecord
100
AcDbLinetypeTableRecord
  2
DASHDOT
 70
     0
  3
__ . __ . __ . __ . __ . __ . __ . __ . __ . __
 72
    65
 73
     4
 40
1.0
 49
0.5
 74
     0
 49
-0.25
 74
     0
 49
0.0
 74
     0
 49
-0.25
 74
     0
  0
ENDTAB
  0
TABLE
  2
LAYER
  5
18
102
{ACAD_XDICTIONARY
360
19
102
}
330
0
100
AcDbSymbolTable
 70
     2
  0
LAYER
  5
6
102
{ACAD_XDICTIONARY
360
7
102
}
330
18
100
AcDbSymbolTableRecord
100
AcDbLayerTableRecord
  2
0
 70
     1
 62
    -7
  6
CONTINUOUS
370
    -3
390
9
347
C
  0
LAYER
  5
3A
102
{ACAD_XDICTIONARY
360
3B
102
}
330
18
100
AcDbSymbolTableRecord
100
AcDbLayerTableRecord
  2
sapa_elevation
 70
     0
 62
     7
  6
CONTINUOUS
370
    -3
390
9
347
C
1001
AcAecLayerStandard
1000

1000

  0
ENDTAB
  0
TABLE
  2
STYLE
  5
1D
330
0
100
AcDbSymbolTable
 70
     2
  0
STYLE
  5
1E
330
1D
100
AcDbSymbolTableRecord
100
AcDbTextStyleTableRecord
  2
STANDARD
 70
     0
 40
0.0
 41
1.0
 50
0.0
 71
     0
 42
0.2
  3
txt
  4

  0
STYLE
  5
2D
330
1D
100
AcDbSymbolTableRecord
100
AcDbTextStyleTableRecord
  2
ISO
 70
     0
 40
0.0
 41
1.0
 50
0.0
 71
     0
 42
3.5
  3
isocpeur.ttf
  4

1001
ACAD
1000
ISOCPEUR
1071
       34
  0
ENDTAB
  0
TABLE
  2
VIEW
  5
23
330
0
100
AcDbSymbolTable
 70
     0
  0
ENDTAB
  0
TABLE
  2
UCS
  5
24
330
0
100
AcDbSymbolTable
 70
     0
  0
ENDTAB
  0
TABLE
  2
APPID
  5
2A
330
0
100
AcDbSymbolTable
 70
     6
  0
APPID
  5
1C
330
2A
100
AcDbSymbolTableRecord
100
AcDbRegAppTableRecord
  2
ACAD
 70
     0
  0
APPID
  5
2E
330
2A
100
AcDbSymbolTableRecord
100
AcDbRegAppTableRecord
  2
ACAD_DSTYLE_DIMJOGGED_JOGANGLE_SYMBOL
 70
     0
  0
APPID
  5
12
330
2A
100
AcDbSymbolTableRecord
100
AcDbRegAppTableRecord
  2
ACAD_PSEXT
 70
     0
  0
APPID
  5
3C
330
2A
100
AcDbSymbolTableRecord
100
AcDbRegAppTableRecord
  2
AcAecLayerStandard
 70
     0
  0
APPID
  5
29
330
2A
100
AcDbSymbolTableRecord
100
AcDbRegAppTableRecord
  2
ACAD_NAV_VCDISPLAY
 70
     0
  0
APPID
  5
1E7
330
2A
100
AcDbSymbolTableRecord
100
AcDbRegAppTableRecord
  2
ACAD_MLEADERVER
 70
     0
  0
ENDTAB
  0
TABLE
  2
DIMSTYLE
  5
2B
330
0
100
AcDbSymbolTable
 70
     2
100
AcDbDimStyleTable
 71
     2
340
2C
340
2F
  0
DIMSTYLE
105
2F
330
2B
100
AcDbSymbolTableRecord
100
AcDbDimStyleTableRecord
  2
Standard
 70
     0
340
1E
  0
DIMSTYLE
105
2C
330
2B
100
AcDbSymbolTableRecord
100
AcDbDimStyleTableRecord
  2
MASKIN
 70
     0
 40
0.0
 41
3.0
 42
1.5
 43
10.0
 44
1.5
 49
1.5
 50
90.0
 73
     0
 74
     0
 77
     1
 78
     8
 79
     2
140
3.0
141
-5.0
144
-1.0
147
1.0
171
     0
172
     1
176
   256
177
   256
178
     2
179
     2
271
     8
272
     8
274
     0
284
     8
285
     8
286
     8
340
2D
1001
ACAD_DSTYLE_DIMJOGGED_JOGANGLE_SYMBOL
1070
   384
1040
1.570796326794896
  0
ENDTAB
  0
TABLE
  2
BLOCK_RECORD
  5
1
330
0
100
AcDbSymbolTable
 70
    46
  0
BLOCK_RECORD
  5
2
102
{ACAD_XDICTIONARY
360
3
102
}
330
1
100
AcDbSymbolTableRecord
100
AcDbBlockTableRecord
  2
*MODEL_SPACE
340
10
 70
     0
280
     1
281
     0
  0
BLOCK_RECORD
  5
13
330
1
100
AcDbSymbolTableRecord
100
AcDbBlockTableRecord
  2
*Paper_Space
340
16
 70
     0
280
     1
281
     0
  0
BLOCK_RECORD
  5
11A
330
1
100
AcDbSymbolTableRecord
100
AcDbBlockTableRecord
  2
BYGG-022684
340
0
102
{BLKREFS
331
119
102
}
 70
     0
280
     1
281
     0
  0
BLOCK_RECORD
  5
116
330
1
100
AcDbSymbolTableRecord
100
AcDbBlockTableRecord
  2
BYGG-022690
340
0
102
{BLKREFS
331
115
102
}
 70
     0
280
     1
281
     0
  0
BLOCK_RECORD
  5
112
330
1
100
AcDbSymbolTableRecord
100
AcDbBlockTableRecord
  2
BYGG-022687
340
0
102
{BLKREFS
331
111
102
}
 70
     0
280
     1
281
     0
  0
BLOCK_RECORD
  5
10E
330
1
100
AcDbSymbolTableRecord
100
AcDbBlockTableRecord
  2
BYGG-022692
340
0
102
{BLKREFS
331
10D
102
}
 70
     0
280
     1
281
     0
  0
BLOCK_RECORD
  5
10A
330
1
100
AcDbSymbolTableRecord
100
AcDbBlockTableRecord
  2
BYGG-022688
340
0
102
{BLKREFS
331
109
102
}
 70
     0
280
     1
281
     0
  0
BLOCK_RECORD
  5
106
330
1
100
AcDbSymbolTableRecord
100
AcDbBlockTableRecord
  2
BYGG-022693
340
0
102
{BLKREFS
331
105
102
}
 70
     0
280
     1
281
     0
  0
BLOCK_RECORD
  5
102
330
1
100
AcDbSymbolTableRecord
100
AcDbBlockTableRecord
  2
BYGG-022689
340
0
102
{BLKREFS
331
101
102
}
 70
     0
280
     1
281
     0
  0
BLOCK_RECORD
  5
FE
330
1
100
AcDbSymbolTableRecord
100
AcDbBlockTableRecord
  2
BYGG-022694
340
0
102
{BLKREFS
331
FD
102
}
 70
     0
280
     1
281
     0
  0
BLOCK_RECORD
  5
FA
330
1
100
AcDbSymbolTableRecord
100
AcDbBlockTableRecord
  2
BYGG-019666
340
0
102
{BLKREFS
331
F9
102
}
 70
     0
280
     1
281
     0
  0
BLOCK_RECORD
  5
F6
330
1
100
AcDbSymbolTableRecord
100
AcDbBlockTableRecord
  2
BYGG-019730
340
0
102
{BLKREFS
331
F5
102
}
 70
     0
280
     1
281
     0
  0
BLOCK_RECORD
  5
F2
330
1
100
AcDbSymbolTableRecord
100
AcDbBlockTableRecord
  2
BYGG-019733
340
0
102
{BLKREFS
331
F1
102
}
 70
     0
280
     1
281
     0
  0
BLOCK_RECORD
  5
EE
330
1
100
AcDbSymbolTableRecord
100
AcDbBlockTableRecord
  2
BYGG-019746
340
0
102
{BLKREFS
331
ED
102
}
 70
     0
280
     1
281
     0
  0
BLOCK_RECORD
  5
EA
330
1
100
AcDbSymbolTableRecord
100
AcDbBlockTableRecord
  2
BYGG-022783
340
0
102
{BLKREFS
331
E9
102
}
 70
     0
280
     1
281
     0
  0
BLOCK_RECORD
  5
E6
330
1
100
AcDbSymbolTableRecord
100
AcDbBlockTableRecord
  2
BYGG-022784
340
0
102
{BLKREFS
331
E5
102
}
 70
     0
280
     1
281
     0
  0
BLOCK_RECORD
  5
E2
330
1
100
AcDbSymbolTableRecord
100
AcDbBlockTableRecord
  2
BYGG-022785
340
0
102
{BLKREFS
331
E1
102
}
 70
     0
280
     1
281
     0
  0
BLOCK_RECORD
  5
DE
330
1
100
AcDbSymbolTableRecord
100
AcDbBlockTableRecord
  2
BYGG-022786
340
0
102
{BLKREFS
331
DD
102
}
 70
     0
280
     1
281
     0
  0
BLOCK_RECORD
  5
DA
330
1
100
AcDbSymbolTableRecord
100
AcDbBlockTableRecord
  2
BYGG-022787
340
0
102
{BLKREFS
331
D9
102
}
 70
     0
280
     1
281
     0
  0
BLOCK_RECORD
  5
D6
330
1
100
AcDbSymbolTableRecord
100
AcDbBlockTableRecord
  2
BYGG-022788
340
0
102
{BLKREFS
331
D5
102
}
 70
     0
280
     1
281
     0
  0
BLOCK_RECORD
  5
D2
330
1
100
AcDbSymbolTableRecord
100
AcDbBlockTableRecord
  2
BYGG-022789
340
0
102
{BLKREFS
331
D1
102
}
 70
     0
280
     1
281
     0
  0
BLOCK_RECORD
  5
CE
330
1
100
AcDbSymbolTableRecord
100
AcDbBlockTableRecord
  2
BYGG-022790
340
0
102
{BLKREFS
331
CD
102
}
 70
     0
280
     1
281
     0
  0
BLOCK_RECORD
  5
CA
330
1
100
AcDbSymbolTableRecord
100
AcDbBlockTableRecord
  2
BYGG-022794
340
0
102
{BLKREFS
331
C9
102
}
 70
     0
280
     1
281
     0
  0
BLOCK_RECORD
  5
C6
330
1
100
AcDbSymbolTableRecord
100
AcDbBlockTableRecord
  2
BYGG-022796
340
0
102
{BLKREFS
331
C5
102
}
 70
     0
280
     1
281
     0
  0
BLOCK_RECORD
  5
C2
330
1
100
AcDbSymbolTableRecord
100
AcDbBlockTableRecord
  2
BYGG-022809
340
0
102
{BLKREFS
331
C1
102
}
 70
     0
280
     1
281
     0
  0
BLOCK_RECORD
  5
BE
330
1
100
AcDbSymbolTableRecord
100
AcDbBlockTableRecord
  2
BYGG-022810
340
0
102
{BLKREFS
331
BD
102
}
 70
     0
280
     1
281
     0
  0
BLOCK_RECORD
  5
BA
330
1
100
AcDbSymbolTableRecord
100
AcDbBlockTableRecord
  2
BYGG-022850
340
0
102
{BLKREFS
331
B9
102
}
 70
     0
280
     1
281
     0
  0
BLOCK_RECORD
  5
B6
330
1
100
AcDbSymbolTableRecord
100
AcDbBlockTableRecord
  2
BYGG-022851
340
0
102
{BLKREFS
331
B5
102
}
 70
     0
280
     1
281
     0
  0
BLOCK_RECORD
  5
B2
330
1
100
AcDbSymbolTableRecord
100
AcDbBlockTableRecord
  2
BYGG-022858
340
0
102
{BLKREFS
331
B1
102
}
 70
     0
280
     1
281
     0
  0
BLOCK_RECORD
  5
AE
330
1
100
AcDbSymbolTableRecord
100
AcDbBlockTableRecord
  2
BYGG-022859
340
0
102
{BLKREFS
331
AD
102
}
 70
     0
280
     1
281
     0
  0
BLOCK_RECORD
  5
AA
330
1
100
AcDbSymbolTableRecord
100
AcDbBlockTableRecord
  2
BYGG-022854
340
0
102
{BLKREFS
331
A9
102
}
 70
     0
280
     1
281
     0
  0
BLOCK_RECORD
  5
A6
330
1
100
AcDbSymbolTableRecord
100
AcDbBlockTableRecord
  2
BYGG-022855
340
0
102
{BLKREFS
331
A5
102
}
 70
     0
280
     1
281
     0
  0
BLOCK_RECORD
  5
A2
330
1
100
AcDbSymbolTableRecord
100
AcDbBlockTableRecord
  2
BYGG-022856
340
0
102
{BLKREFS
331
A1
102
}
 70
     0
280
     1
281
     0
  0
BLOCK_RECORD
  5
9E
330
1
100
AcDbSymbolTableRecord
100
AcDbBlockTableRecord
  2
BYGG-022857
340
0
102
{BLKREFS
331
9D
102
}
 70
     0
280
     1
281
     0
  0
BLOCK_RECORD
  5
9A
330
1
100
AcDbSymbolTableRecord
100
AcDbBlockTableRecord
  2
BYGG-022860
340
0
102
{BLKREFS
331
99
102
}
 70
     0
280
     1
281
     0
  0
BLOCK_RECORD
  5
96
330
1
100
AcDbSymbolTableRecord
100
AcDbBlockTableRecord
  2
BYGG-022861
340
0
102
{BLKREFS
331
95
102
}
 70
     0
280
     1
281
     0
  0
BLOCK_RECORD
  5
92
330
1
100
AcDbSymbolTableRecord
100
AcDbBlockTableRecord
  2
BYGG-022869
340
0
102
{BLKREFS
331
91
102
}
 70
     0
280
     1
281
     0
  0
BLOCK_RECORD
  5
8E
330
1
100
AcDbSymbolTableRecord
100
AcDbBlockTableRecord
  2
BYGG-022870
340
0
102
{BLKREFS
331
8D
102
}
 70
     0
280
     1
281
     0
  0
BLOCK_RECORD
  5
8A
330
1
100
AcDbSymbolTableRecord
100
AcDbBlockTableRecord
  2
BYGG-022862
340
0
102
{BLKREFS
331
89
102
}
 70
     0
280
     1
281
     0
  0
BLOCK_RECORD
  5
86
330
1
100
AcDbSymbolTableRecord
100
AcDbBlockTableRecord
  2
BYGG-022864
340
0
102
{BLKREFS
331
85
102
}
 70
     0
280
     1
281
     0
  0
BLOCK_RECORD
  5
82
330
1
100
AcDbSymbolTableRecord
100
AcDbBlockTableRecord
  2
BYGG-022867
340
0
102
{BLKREFS
331
81
102
}
 70
     0
280
     1
281
     0
  0
BLOCK_RECORD
  5
7E
330
1
100
AcDbSymbolTableRecord
100
AcDbBlockTableRecord
  2
BYGG-022868
340
0
102
{BLKREFS
331
7D
102
}
 70
     0
280
     1
281
     0
  0
BLOCK_RECORD
  5
7A
330
1
100
AcDbSymbolTableRecord
100
AcDbBlockTableRecord
  2
BYGG-022871
340
0
102
{BLKREFS
331
79
102
}
 70
     0
280
     1
281
     0
  0
BLOCK_RECORD
  5
76
330
1
100
AcDbSymbolTableRecord
100
AcDbBlockTableRecord
  2
BYGG-022872
340
0
102
{BLKREFS
331
75
102
}
 70
     0
280
     1
281
     0
  0
BLOCK_RECORD
  5
72
330
1
100
AcDbSymbolTableRecord
100
AcDbBlockTableRecord
  2
BYGG-022878
340
0
102
{BLKREFS
331
71
102
}
 70
     0
280
     1
281
     0
  0
BLOCK_RECORD
  5
6E
330
1
100
AcDbSymbolTableRecord
100
AcDbBlockTableRecord
  2
BYGG-022880
340
0
102
{BLKREFS
331
6D
102
}
 70
     0
280
     1
281
     0
  0
BLOCK_RECORD
  5
6A
330
1
100
AcDbSymbolTableRecord
100
AcDbBlockTableRecord
  2
BYGG-022873
340
0
102
{BLKREFS
331
69
102
}
 70
     0
280
     1
281
     0
  0
BLOCK_RECORD
  5
66
330
1
100
AcDbSymbolTableRecord
100
AcDbBlockTableRecord
  2
BYGG-022874
340
0
102
{BLKREFS
331
65
102
}
 70
     0
280
     1
281
     0
  0
ENDTAB
  0
ENDSEC
  0
SECTION
  2
BLOCKS
  0
BLOCK
  5
5
330
2
100
AcDbEntity
  8
0
100
AcDbBlockBegin
  2
*MODEL_SPACE
 70
     0
 10
0.0
 20
0.0
 30
0.0
  3
*MODEL_SPACE
  1

  0
ENDBLK
  5
F
330
2
100
AcDbEntity
  8
0
100
AcDbBlockEnd
  0
BLOCK
  5
14
330
13
100
AcDbEntity
 67
     1
  8
0
100
AcDbBlockBegin
  2
*Paper_Space
 70
     0
 10
0.0
 20
0.0
 30
0.0
  3
*Paper_Space
  1

  0
ENDBLK
  5
15
330
13
100
AcDbEntity
 67
     1
  8
0
100
AcDbBlockEnd
  0
BLOCK
  5
11B
330
11A
100
AcDbEntity
  8
0
100
AcDbBlockBegin
  2
BYGG-022684
 70
     4
 10
0.0
 20
0.0
 30
0.0
  3
BYGG-022684
  1
\\vtl00-ms029\pspdata$\2009\01\0\BYGG-022684.dwg
  0
ENDBLK
  5
11C
330
11A
100
AcDbEntity
  8
0
100
AcDbBlockEnd
  0
BLOCK
  5
117
330
116
100
AcDbEntity
  8
0
100
AcDbBlockBegin
  2
BYGG-022690
 70
     4
 10
0.0
 20
0.0
 30
0.0
  3
BYGG-022690
  1
\\vtl00-ms029\pspdata$\2009\01\0\BYGG-022690.dwg
  0
ENDBLK
  5
118
330
116
100
AcDbEntity
  8
0
100
AcDbBlockEnd
  0
BLOCK
  5
113
330
112
100
AcDbEntity
  8
0
100
AcDbBlockBegin
  2
BYGG-022687
 70
     4
 10
0.0
 20
0.0
 30
0.0
  3
BYGG-022687
  1
\\vtl00-ms029\pspdata$\2009\01\0\BYGG-022687.dwg
  0
ENDBLK
  5
114
330
112
100
AcDbEntity
  8
0
100
AcDbBlockEnd
  0
BLOCK
  5
10F
330
10E
100
AcDbEntity
  8
0
100
AcDbBlockBegin
  2
BYGG-022692
 70
     4
 10
0.0
 20
0.0
 30
0.0
  3
BYGG-022692
  1
\\vtl00-ms029\pspdata$\2009\01\0\BYGG-022692.dwg
  0
ENDBLK
  5
110
330
10E
100
AcDbEntity
  8
0
100
AcDbBlockEnd
  0
BLOCK
  5
10B
330
10A
100
AcDbEntity
  8
0
100
AcDbBlockBegin
  2
BYGG-022688
 70
     4
 10
0.0
 20
0.0
 30
0.0
  3
BYGG-022688
  1
\\vtl00-ms029\pspdata$\2009\01\0\BYGG-022688.dwg
  0
ENDBLK
  5
10C
330
10A
100
AcDbEntity
  8
0
100
AcDbBlockEnd
  0
BLOCK
  5
107
330
106
100
AcDbEntity
  8
0
100
AcDbBlockBegin
  2
BYGG-022693
 70
     4
 10
0.0
 20
0.0
 30
0.0
  3
BYGG-022693
  1
\\vtl00-ms029\pspdata$\2009\01\0\BYGG-022693.dwg
  0
ENDBLK
  5
108
330
106
100
AcDbEntity
  8
0
100
AcDbBlockEnd
  0
BLOCK
  5
103
330
102
100
AcDbEntity
  8
0
100
AcDbBlockBegin
  2
BYGG-022689
 70
     4
 10
0.0
 20
0.0
 30
0.0
  3
BYGG-022689
  1
\\vtl00-ms029\pspdata$\2009\01\0\BYGG-022689.dwg
  0
ENDBLK
  5
104
330
102
100
AcDbEntity
  8
0
100
AcDbBlockEnd
  0
BLOCK
  5
FF
330
FE
100
AcDbEntity
  8
0
100
AcDbBlockBegin
  2
BYGG-022694
 70
     4
 10
0.0
 20
0.0
 30
0.0
  3
BYGG-022694
  1
\\vtl00-ms029\pspdata$\2009\01\0\BYGG-022694.dwg
  0
ENDBLK
  5
100
330
FE
100
AcDbEntity
  8
0
100
AcDbBlockEnd
  0
BLOCK
  5
FB
330
FA
100
AcDbEntity
  8
0
100
AcDbBlockBegin
  2
BYGG-019666
 70
     4
 10
0.0
 20
0.0
 30
0.0
  3
BYGG-019666
  1
\\vtl00-ms029\pspdata$\2009\01\0\BYGG-019666.dwg
  0
ENDBLK
  5
FC
330
FA
100
AcDbEntity
  8
0
100
AcDbBlockEnd
  0
BLOCK
  5
F7
330
F6
100
AcDbEntity
  8
0
100
AcDbBlockBegin
  2
BYGG-019730
 70
     4
 10
0.0
 20
0.0
 30
0.0
  3
BYGG-019730
  1
\\vtl00-ms029\pspdata$\2009\01\0\BYGG-019730.dwg
  0
ENDBLK
  5
F8
330
F6
100
AcDbEntity
  8
0
100
AcDbBlockEnd
  0
BLOCK
  5
F3
330
F2
100
AcDbEntity
  8
0
100
AcDbBlockBegin
  2
BYGG-019733
 70
     4
 10
0.0
 20
0.0
 30
0.0
  3
BYGG-019733
  1
\\vtl00-ms029\pspdata$\2009\01\0\BYGG-019733.dwg
  0
ENDBLK
  5
F4
330
F2
100
AcDbEntity
  8
0
100
AcDbBlockEnd
  0
BLOCK
  5
EF
330
EE
100
AcDbEntity
  8
0
100
AcDbBlockBegin
  2
BYGG-019746
 70
     4
 10
0.0
 20
0.0
 30
0.0
  3
BYGG-019746
  1
\\vtl00-ms029\pspdata$\2009\01\0\BYGG-019746.dwg
  0
ENDBLK
  5
F0
330
EE
100
AcDbEntity
  8
0
100
AcDbBlockEnd
  0
BLOCK
  5
EB
330
EA
100
AcDbEntity
  8
0
100
AcDbBlockBegin
  2
BYGG-022783
 70
     4
 10
0.0
 20
0.0
 30
0.0
  3
BYGG-022783
  1
\\vtl00-ms029\pspdata$\2009\02\0\BYGG-022783.dwg
  0
ENDBLK
  5
EC
330
EA
100
AcDbEntity
  8
0
100
AcDbBlockEnd
  0
BLOCK
  5
E7
330
E6
100
AcDbEntity
  8
0
100
AcDbBlockBegin
  2
BYGG-022784
 70
     4
 10
0.0
 20
0.0
 30
0.0
  3
BYGG-022784
  1
\\vtl00-ms029\pspdata$\2009\02\0\BYGG-022784.dwg
  0
ENDBLK
  5
E8
330
E6
100
AcDbEntity
  8
0
100
AcDbBlockEnd
  0
BLOCK
  5
E3
330
E2
100
AcDbEntity
  8
0
100
AcDbBlockBegin
  2
BYGG-022785
 70
     4
 10
0.0
 20
0.0
 30
0.0
  3
BYGG-022785
  1
\\vtl00-ms029\pspdata$\2009\02\0\BYGG-022785.dwg
  0
ENDBLK
  5
E4
330
E2
100
AcDbEntity
  8
0
100
AcDbBlockEnd
  0
BLOCK
  5
DF
330
DE
100
AcDbEntity
  8
0
100
AcDbBlockBegin
  2
BYGG-022786
 70
     4
 10
0.0
 20
0.0
 30
0.0
  3
BYGG-022786
  1
\\vtl00-ms029\pspdata$\2009\02\0\BYGG-022786.dwg
  0
ENDBLK
  5
E0
330
DE
100
AcDbEntity
  8
0
100
AcDbBlockEnd
  0
BLOCK
  5
DB
330
DA
100
AcDbEntity
  8
0
100
AcDbBlockBegin
  2
BYGG-022787
 70
     4
 10
0.0
 20
0.0
 30
0.0
  3
BYGG-022787
  1
\\vtl00-ms029\pspdata$\2009\02\0\BYGG-022787.dwg
  0
ENDBLK
  5
DC
330
DA
100
AcDbEntity
  8
0
100
AcDbBlockEnd
  0
BLOCK
  5
D7
330
D6
100
AcDbEntity
  8
0
100
AcDbBlockBegin
  2
BYGG-022788
 70
     4
 10
0.0
 20
0.0
 30
0.0
  3
BYGG-022788
  1
\\vtl00-ms029\pspdata$\2009\02\0\BYGG-022788.dwg
  0
ENDBLK
  5
D8
330
D6
100
AcDbEntity
  8
0
100
AcDbBlockEnd
  0
BLOCK
  5
D3
330
D2
100
AcDbEntity
  8
0
100
AcDbBlockBegin
  2
BYGG-022789
 70
     4
 10
0.0
 20
0.0
 30
0.0
  3
BYGG-022789
  1
\\vtl00-ms029\pspdata$\2009\02\0\BYGG-022789.dwg
  0
ENDBLK
  5
D4
330
D2
100
AcDbEntity
  8
0
100
AcDbBlockEnd
  0
BLOCK
  5
CF
330
CE
100
AcDbEntity
  8
0
100
AcDbBlockBegin
  2
BYGG-022790
 70
     4
 10
0.0
 20
0.0
 30
0.0
  3
BYGG-022790
  1
\\vtl00-ms029\pspdata$\2009\02\0\BYGG-022790.dwg
  0
ENDBLK
  5
D0
330
CE
100
AcDbEntity
  8
0
100
AcDbBlockEnd
  0
BLOCK
  5
CB
330
CA
100
AcDbEntity
  8
0
100
AcDbBlockBegin
  2
BYGG-022794
 70
     4
 10
0.0
 20
0.0
 30
0.0
  3
BYGG-022794
  1
\\vtl00-ms029\pspdata$\2009\02\0\BYGG-022794.dwg
  0
ENDBLK
  5
CC
330
CA
100
AcDbEntity
  8
0
100
AcDbBlockEnd
  0
BLOCK
  5
C7
330
C6
100
AcDbEntity
  8
0
100
AcDbBlockBegin
  2
BYGG-022796
 70
     4
 10
0.0
 20
0.0
 30
0.0
  3
BYGG-022796
  1
\\vtl00-ms029\pspdata$\2009\02\0\BYGG-022796.dwg
  0
ENDBLK
  5
C8
330
C6
100
AcDbEntity
  8
0
100
AcDbBlockEnd
  0
BLOCK
  5
C3
330
C2
100
AcDbEntity
  8
0
100
AcDbBlockBegin
  2
BYGG-022809
 70
     4
 10
0.0
 20
0.0
 30
0.0
  3
BYGG-022809
  1
\\vtl00-ms029\pspdata$\2009\02\0\BYGG-022809.dwg
  0
ENDBLK
  5
C4
330
C2
100
AcDbEntity
  8
0
100
AcDbBlockEnd
  0
BLOCK
  5
BF
330
BE
100
AcDbEntity
  8
0
100
AcDbBlockBegin
  2
BYGG-022810
 70
     4
 10
0.0
 20
0.0
 30
0.0
  3
BYGG-022810
  1
\\vtl00-ms029\pspdata$\2009\02\0\BYGG-022810.dwg
  0
ENDBLK
  5
C0
330
BE
100
AcDbEntity
  8
0
100
AcDbBlockEnd
  0
BLOCK
  5
BB
330
BA
100
AcDbEntity
  8
0
100
AcDbBlockBegin
  2
BYGG-022850
 70
     4
 10
0.0
 20
0.0
 30
0.0
  3
BYGG-022850
  1
\\vtl00-ms029\pspdata$\2009\02\0\BYGG-022850.dwg
  0
ENDBLK
  5
BC
330
BA
100
AcDbEntity
  8
0
100
AcDbBlockEnd
  0
BLOCK
  5
B7
330
B6
100
AcDbEntity
  8
0
100
AcDbBlockBegin
  2
BYGG-022851
 70
     4
 10
0.0
 20
0.0
 30
0.0
  3
BYGG-022851
  1
\\vtl00-ms029\pspdata$\2009\02\0\BYGG-022851.dwg
  0
ENDBLK
  5
B8
330
B6
100
AcDbEntity
  8
0
100
AcDbBlockEnd
  0
BLOCK
  5
B3
330
B2
100
AcDbEntity
  8
0
100
AcDbBlockBegin
  2
BYGG-022858
 70
     4
 10
0.0
 20
0.0
 30
0.0
  3
BYGG-022858
  1
\\vtl00-ms029\pspdata$\2009\02\0\BYGG-022858.dwg
  0
ENDBLK
  5
B4
330
B2
100
AcDbEntity
  8
0
100
AcDbBlockEnd
  0
BLOCK
  5
AF
330
AE
100
AcDbEntity
  8
0
100
AcDbBlockBegin
  2
BYGG-022859
 70
     4
 10
0.0
 20
0.0
 30
0.0
  3
BYGG-022859
  1
\\vtl00-ms029\pspdata$\2009\02\0\BYGG-022859.dwg
  0
ENDBLK
  5
B0
330
AE
100
AcDbEntity
  8
0
100
AcDbBlockEnd
  0
BLOCK
  5
AB
330
AA
100
AcDbEntity
  8
0
100
AcDbBlockBegin
  2
BYGG-022854
 70
     4
 10
0.0
 20
0.0
 30
0.0
  3
BYGG-022854
  1
\\vtl00-ms029\pspdata$\2009\02\0\BYGG-022854.dwg
  0
ENDBLK
  5
AC
330
AA
100
AcDbEntity
  8
0
100
AcDbBlockEnd
  0
BLOCK
  5
A7
330
A6
100
AcDbEntity
  8
0
100
AcDbBlockBegin
  2
BYGG-022855
 70
     4
 10
0.0
 20
0.0
 30
0.0
  3
BYGG-022855
  1
\\vtl00-ms029\pspdata$\2009\02\0\BYGG-022855.dwg
  0
ENDBLK
  5
A8
330
A6
100
AcDbEntity
  8
0
100
AcDbBlockEnd
  0
BLOCK
  5
A3
330
A2
100
AcDbEntity
  8
0
100
AcDbBlockBegin
  2
BYGG-022856
 70
     4
 10
0.0
 20
0.0
 30
0.0
  3
BYGG-022856
  1
\\vtl00-ms029\pspdata$\2009\02\0\BYGG-022856.dwg
  0
ENDBLK
  5
A4
330
A2
100
AcDbEntity
  8
0
100
AcDbBlockEnd
  0
BLOCK
  5
9F
330
9E
100
AcDbEntity
  8
0
100
AcDbBlockBegin
  2
BYGG-022857
 70
     4
 10
0.0
 20
0.0
 30
0.0
  3
BYGG-022857
  1
\\vtl00-ms029\pspdata$\2009\02\0\BYGG-022857.dwg
  0
ENDBLK
  5
A0
330
9E
100
AcDbEntity
  8
0
100
AcDbBlockEnd
  0
BLOCK
  5
9B
330
9A
100
AcDbEntity
  8
0
100
AcDbBlockBegin
  2
BYGG-022860
 70
     4
 10
0.0
 20
0.0
 30
0.0
  3
BYGG-022860
  1
\\vtl00-ms029\pspdata$\2009\02\0\BYGG-022860.dwg
  0
ENDBLK
  5
9C
330
9A
100
AcDbEntity
  8
0
100
AcDbBlockEnd
  0
BLOCK
  5
97
330
96
100
AcDbEntity
  8
0
100
AcDbBlockBegin
  2
BYGG-022861
 70
     4
 10
0.0
 20
0.0
 30
0.0
  3
BYGG-022861
  1
\\vtl00-ms029\pspdata$\2009\02\0\BYGG-022861.dwg
  0
ENDBLK
  5
98
330
96
100
AcDbEntity
  8
0
100
AcDbBlockEnd
  0
BLOCK
  5
93
330
92
100
AcDbEntity
  8
0
100
AcDbBlockBegin
  2
BYGG-022869
 70
     4
 10
0.0
 20
0.0
 30
0.0
  3
BYGG-022869
  1
\\vtl00-ms029\pspdata$\2009\02\0\BYGG-022869.dwg
  0
ENDBLK
  5
94
330
92
100
AcDbEntity
  8
0
100
AcDbBlockEnd
  0
BLOCK
  5
8F
330
8E
100
AcDbEntity
  8
0
100
AcDbBlockBegin
  2
BYGG-022870
 70
     4
 10
0.0
 20
0.0
 30
0.0
  3
BYGG-022870
  1
\\vtl00-ms029\pspdata$\2009\02\0\BYGG-022870.dwg
  0
ENDBLK
  5
90
330
8E
100
AcDbEntity
  8
0
100
AcDbBlockEnd
  0
BLOCK
  5
8B
330
8A
100
AcDbEntity
  8
0
100
AcDbBlockBegin
  2
BYGG-022862
 70
     4
 10
0.0
 20
0.0
 30
0.0
  3
BYGG-022862
  1
\\vtl00-ms029\pspdata$\2009\02\0\BYGG-022862.dwg
  0
ENDBLK
  5
8C
330
8A
100
AcDbEntity
  8
0
100
AcDbBlockEnd
  0
BLOCK
  5
87
330
86
100
AcDbEntity
  8
0
100
AcDbBlockBegin
  2
BYGG-022864
 70
     4
 10
0.0
 20
0.0
 30
0.0
  3
BYGG-022864
  1
\\vtl00-ms029\pspdata$\2009\02\0\BYGG-022864.dwg
  0
ENDBLK
  5
88
330
86
100
AcDbEntity
  8
0
100
AcDbBlockEnd
  0
BLOCK
  5
83
330
82
100
AcDbEntity
  8
0
100
AcDbBlockBegin
  2
BYGG-022867
 70
     4
 10
0.0
 20
0.0
 30
0.0
  3
BYGG-022867
  1
\\vtl00-ms029\pspdata$\2009\02\0\BYGG-022867.dwg
  0
ENDBLK
  5
84
330
82
100
AcDbEntity
  8
0
100
AcDbBlockEnd
  0
BLOCK
  5
7F
330
7E
100
AcDbEntity
  8
0
100
AcDbBlockBegin
  2
BYGG-022868
 70
     4
 10
0.0
 20
0.0
 30
0.0
  3
BYGG-022868
  1
\\vtl00-ms029\pspdata$\2009\02\0\BYGG-022868.dwg
  0
ENDBLK
  5
80
330
7E
100
AcDbEntity
  8
0
100
AcDbBlockEnd
  0
BLOCK
  5
7B
330
7A
100
AcDbEntity
  8
0
100
AcDbBlockBegin
  2
BYGG-022871
 70
     4
 10
0.0
 20
0.0
 30
0.0
  3
BYGG-022871
  1
\\vtl00-ms029\pspdata$\2009\02\0\BYGG-022871.dwg
  0
ENDBLK
  5
7C
330
7A
100
AcDbEntity
  8
0
100
AcDbBlockEnd
  0
BLOCK
  5
77
330
76
100
AcDbEntity
  8
0
100
AcDbBlockBegin
  2
BYGG-022872
 70
     4
 10
0.0
 20
0.0
 30
0.0
  3
BYGG-022872
  1
\\vtl00-ms029\pspdata$\2009\02\0\BYGG-022872.dwg
  0
ENDBLK
  5
78
330
76
100
AcDbEntity
  8
0
100
AcDbBlockEnd
  0
BLOCK
  5
73
330
72
100
AcDbEntity
  8
0
100
AcDbBlockBegin
  2
BYGG-022878
 70
     4
 10
0.0
 20
0.0
 30
0.0
  3
BYGG-022878
  1
\\vtl00-ms029\pspdata$\2009\02\0\BYGG-022878.dwg
  0
ENDBLK
  5
74
330
72
100
AcDbEntity
  8
0
100
AcDbBlockEnd
  0
BLOCK
  5
6F
330
6E
100
AcDbEntity
  8
0
100
AcDbBlockBegin
  2
BYGG-022880
 70
     4
 10
0.0
 20
0.0
 30
0.0
  3
BYGG-022880
  1
\\vtl00-ms029\pspdata$\2009\02\0\BYGG-022880.dwg
  0
ENDBLK
  5
70
330
6E
100
AcDbEntity
  8
0
100
AcDbBlockEnd
  0
BLOCK
  5
6B
330
6A
100
AcDbEntity
  8
0
100
AcDbBlockBegin
  2
BYGG-022873
 70
     4
 10
0.0
 20
0.0
 30
0.0
  3
BYGG-022873
  1
\\vtl00-ms029\pspdata$\2009\02\0\BYGG-022873.dwg
  0
ENDBLK
  5
6C
330
6A
100
AcDbEntity
  8
0
100
AcDbBlockEnd
  0
BLOCK
  5
67
330
66
100
AcDbEntity
  8
0
100
AcDbBlockBegin
  2
BYGG-022874
 70
     4
 10
0.0
 20
0.0
 30
0.0
  3
BYGG-022874
  1
\\vtl00-ms029\pspdata$\2009\02\0\BYGG-022874.dwg
  0
ENDBLK
  5
68
330
66
100
AcDbEntity
  8
0
100
AcDbBlockEnd
  0
ENDSEC
  0
SECTION
  2
ENTITIES
  0
INSERT
  5
65
330
2
100
AcDbEntity
  8
sapa_elevation
100
AcDbBlockReference
  2
BYGG-022874
 10
5309.170541593114
 20
-3135.379571073234
 30
0.0
  0
INSERT
  5
69
330
2
100
AcDbEntity
  8
sapa_elevation
100
AcDbBlockReference
  2
BYGG-022873
 10
5309.170541593114
 20
-2850.046063256152
 30
0.0
  0
INSERT
  5
6D
330
2
100
AcDbEntity
  8
sapa_elevation
100
AcDbBlockReference
  2
BYGG-022880
 10
4514.581869729002
 20
-3135.379571073234
 30
0.0
  0
INSERT
  5
71
330
2
100
AcDbEntity
  8
sapa_elevation
100
AcDbBlockReference
  2
BYGG-022878
 10
4514.581869729002
 20
-2780.146329056741
 30
0.0
  0
INSERT
  5
75
330
2
100
AcDbEntity
  8
sapa_elevation
100
AcDbBlockReference
  2
BYGG-022872
 10
4132.139634862396
 20
-3135.379571073234
 30
0.0
  0
INSERT
  5
79
330
2
100
AcDbEntity
  8
sapa_elevation
100
AcDbBlockReference
  2
BYGG-022871
 10
4132.139634862396
 20
-2780.146329056741
 30
0.0
  0
INSERT
  5
7D
330
2
100
AcDbEntity
  8
sapa_elevation
100
AcDbBlockReference
  2
BYGG-022868
 10
5309.170541593114
 20
-2342.226666986109
 30
0.0
  0
INSERT
  5
81
330
2
100
AcDbEntity
  8
sapa_elevation
100
AcDbBlockReference
  2
BYGG-022867
 10
5309.170541593114
 20
-2048.49071951288
 30
0.0
  0
INSERT
  5
85
330
2
100
AcDbEntity
  8
sapa_elevation
100
AcDbBlockReference
  2
BYGG-022864
 10
4904.450134392878
 20
-2342.226666986109
 30
0.0
  0
INSERT
  5
89
330
2
100
AcDbEntity
  8
sapa_elevation
100
AcDbBlockReference
  2
BYGG-022862
 10
4904.450134392878
 20
-1986.993424969616
 30
0.0
  0
INSERT
  5
8D
330
2
100
AcDbEntity
  8
sapa_elevation
100
AcDbBlockReference
  2
BYGG-022870
 10
4514.581869729002
 20
-2342.226666986109
 30
0.0
  0
INSERT
  5
91
330
2
100
AcDbEntity
  8
sapa_elevation
100
AcDbBlockReference
  2
BYGG-022869
 10
4514.581869729002
 20
-1986.993424969616
 30
0.0
  0
INSERT
  5
95
330
2
100
AcDbEntity
  8
sapa_elevation
100
AcDbBlockReference
  2
BYGG-022861
 10
4132.139634862396
 20
-2342.226666986109
 30
0.0
  0
INSERT
  5
99
330
2
100
AcDbEntity
  8
sapa_elevation
100
AcDbBlockReference
  2
BYGG-022860
 10
4132.139634862396
 20
-1986.993424969616
 30
0.0
  0
INSERT
  5
9D
330
2
100
AcDbEntity
  8
sapa_elevation
100
AcDbBlockReference
  2
BYGG-022857
 10
5309.170541593114
 20
-1450.24455996164
 30
0.0
  0
INSERT
  5
A1
330
2
100
AcDbEntity
  8
sapa_elevation
100
AcDbBlockReference
  2
BYGG-022856
 10
5309.170541593114
 20
-1187.18163854639
 30
0.0
  0
INSERT
  5
A5
330
2
100
AcDbEntity
  8
sapa_elevation
100
AcDbBlockReference
  2
BYGG-022855
 10
4904.450134392878
 20
-1450.24455996164
 30
0.0
  0
INSERT
  5
A9
330
2
100
AcDbEntity
  8
sapa_elevation
100
AcDbBlockReference
  2
BYGG-022854
 10
4904.450134392878
 20
-1095.011317945147
 30
0.0
  0
INSERT
  5
AD
330
2
100
AcDbEntity
  8
sapa_elevation
100
AcDbBlockReference
  2
BYGG-022859
 10
4557.676945445492
 20
-1450.24455996164
 30
0.0
  0
INSERT
  5
B1
330
2
100
AcDbEntity
  8
sapa_elevation
100
AcDbBlockReference
  2
BYGG-022858
 10
4557.676945445492
 20
-1095.011317945147
 30
0.0
  0
INSERT
  5
B5
330
2
100
AcDbEntity
  8
sapa_elevation
100
AcDbBlockReference
  2
BYGG-022851
 10
4132.139634862396
 20
-1450.24455996164
 30
0.0
  0
INSERT
  5
B9
330
2
100
AcDbEntity
  8
sapa_elevation
100
AcDbBlockReference
  2
BYGG-022850
 10
4132.139634862396
 20
-1095.011317945147
 30
0.0
  0
INSERT
  5
BD
330
2
100
AcDbEntity
  8
sapa_elevation
100
AcDbBlockReference
  2
BYGG-022810
 10
3690.288912792188
 20
-1450.24455996164
 30
0.0
  0
INSERT
  5
C1
330
2
100
AcDbEntity
  8
sapa_elevation
100
AcDbBlockReference
  2
BYGG-022809
 10
3690.288912792188
 20
-1095.011317945147
 30
0.0
  0
INSERT
  5
C5
330
2
100
AcDbEntity
  8
sapa_elevation
100
AcDbBlockReference
  2
BYGG-022796
 10
3350.424860231855
 20
-1450.24455996164
 30
0.0
  0
INSERT
  5
C9
330
2
100
AcDbEntity
  8
sapa_elevation
100
AcDbBlockReference
  2
BYGG-022794
 10
3350.424860231855
 20
-1095.011317945147
 30
0.0
  0
INSERT
  5
CD
330
2
100
AcDbEntity
  8
sapa_elevation
100
AcDbBlockReference
  2
BYGG-022790
 10
2918.475939757394
 20
-1450.24455996164
 30
0.0
  0
INSERT
  5
D1
330
2
100
AcDbEntity
  8
sapa_elevation
100
AcDbBlockReference
  2
BYGG-022789
 10
2918.475939757394
 20
-1095.011317945147
 30
0.0
  0
INSERT
  5
D5
330
2
100
AcDbEntity
  8
sapa_elevation
100
AcDbBlockReference
  2
BYGG-022788
 10
2578.611887197061
 20
-1450.24455996164
 30
0.0
  0
INSERT
  5
D9
330
2
100
AcDbEntity
  8
sapa_elevation
100
AcDbBlockReference
  2
BYGG-022787
 10
2578.611887197061
 20
-1095.011317945147
 30
0.0
  0
INSERT
  5
DD
330
2
100
AcDbEntity
  8
sapa_elevation
100
AcDbBlockReference
  2
BYGG-022786
 10
2187.461259084004
 20
-1450.24455996164
 30
0.0
  0
INSERT
  5
E1
330
2
100
AcDbEntity
  8
sapa_elevation
100
AcDbBlockReference
  2
BYGG-022785
 10
2187.461259084004
 20
-1095.011317945147
 30
0.0
  0
INSERT
  5
E5
330
2
100
AcDbEntity
  8
sapa_elevation
100
AcDbBlockReference
  2
BYGG-022784
 10
1847.597206523671
 20
-1450.24455996164
 30
0.0
  0
INSERT
  5
E9
330
2
100
AcDbEntity
  8
sapa_elevation
100
AcDbBlockReference
  2
BYGG-022783
 10
1847.597206523671
 20
-1095.011317945147
 30
0.0
  0
INSERT
  5
ED
330
2
100
AcDbEntity
  8
sapa_elevation
100
AcDbBlockReference
  2
BYGG-019746
 10
1405.058772368931
 20
-1450.24455996164
 30
0.0
  0
INSERT
  5
F1
330
2
100
AcDbEntity
  8
sapa_elevation
100
AcDbBlockReference
  2
BYGG-019733
 10
1405.058772368931
 20
-1095.011317945147
 30
0.0
  0
INSERT
  5
F5
330
2
100
AcDbEntity
  8
sapa_elevation
100
AcDbBlockReference
  2
BYGG-019730
 10
1129.492669589483
 20
-1450.24455996164
 30
0.0
  0
INSERT
  5
F9
330
2
100
AcDbEntity
  8
sapa_elevation
100
AcDbBlockReference
  2
BYGG-019666
 10
1129.492669589483
 20
-1095.011317945147
 30
0.0
  0
INSERT
  5
FD
330
2
100
AcDbEntity
  8
sapa_elevation
100
AcDbBlockReference
  2
BYGG-022694
 10
853.9265668100343
 20
-1450.24455996164
 30
0.0
  0
INSERT
  5
101
330
2
100
AcDbEntity
  8
sapa_elevation
100
AcDbBlockReference
  2
BYGG-022689
 10
853.9265668100343
 20
-1095.011317945147
 30
0.0
  0
INSERT
  5
105
330
2
100
AcDbEntity
  8
sapa_elevation
100
AcDbBlockReference
  2
BYGG-022693
 10
578.3604640305857
 20
-1450.24455996164
 30
0.0
  0
INSERT
  5
109
330
2
100
AcDbEntity
  8
sapa_elevation
100
AcDbBlockReference
  2
BYGG-022688
 10
578.3604640305857
 20
-1095.011317945147
 30
0.0
  0
INSERT
  5
10D
330
2
100
AcDbEntity
  8
sapa_elevation
100
AcDbBlockReference
  2
BYGG-022692
 10
302.7943612511372
 20
-1450.24455996164
 30
0.0
  0
INSERT
  5
111
330
2
100
AcDbEntity
  8
sapa_elevation
100
AcDbBlockReference
  2
BYGG-022687
 10
302.7943612511372
 20
-1095.011317945147
 30
0.0
  0
INSERT
  5
115
330
2
100
AcDbEntity
  8
sapa_elevation
100
AcDbBlockReference
  2
BYGG-022690
 10
27.22825847168861
 20
-1450.24455996164
 30
0.0
  0
INSERT
  5
119
330
2
100
AcDbEntity
  8
sapa_elevation
100
AcDbBlockReference
  2
BYGG-022684
 10
27.22825847168861
 20
-1095.011317945147
 30
0.0
  0
HATCH
  5
11D
330
2
100
AcDbEntity
  8
sapa_elevation
100
AcDbHatch
 10
0.0
 20
0.0
 30
0.0
210
0.0
220
0.0
230
1.0
  2
ANSI32
 70
     0
 71
     1
 91
        8
 92
        7
 72
     0
 73
     1
 93
        4
 10
1200.0
 20
9853.663255355129
 10
50.0
 20
9853.663255355131
 10
50.0
 20
9453.663255355131
 10
1200.0
 20
9453.663255355131
 97
        4
330
1AD
330
18F
330
1B6
330
1A8
 92
        7
 72
     0
 73
     1
 93
        4
 10
2400.0
 20
9853.663255355131
 10
1250.0
 20
9853.663255355131
 10
1250.0
 20
9453.663255355131
 10
2400.0
 20
9453.663255355131
 97
        4
330
1AE
330
18E
330
1B7
330
1A7
 92
        7
 72
     0
 73
     1
 93
        4
 10
3600.0
 20
9853.663255355131
 10
2450.0
 20
9853.663255355131
 10
2450.0
 20
9453.663255355131
 10
3600.0
 20
9453.663255355131
 97
        4
330
1AF
330
18D
330
1B8
330
1A6
 92
        7
 72
     0
 73
     1
 93
        4
 10
4800.0
 20
9853.663255355131
 10
3650.000000000001
 20
9853.663255355131
 10
3650.000000000001
 20
9453.663255355131
 10
4800.0
 20
9453.663255355131
 97
        4
330
1B0
330
18C
330
1B9
330
1A5
 92
        7
 72
     0
 73
     1
 93
        4
 10
6000.0
 20
9853.663255355131
 10
4850.0
 20
9853.663255355131
 10
4850.0
 20
9453.663255355131
 10
6000.0
 20
9453.663255355131
 97
        4
330
1BB
330
18B
330
1BA
330
1AA
 92
        9
 93
        4
 72
     1
 10
679.52648984002
 20
9872.732228435525
 11
1189.52648984002
 21
9872.732228435525
 72
     1
 10
1189.52648984002
 20
9872.732228435525
 11
1189.52648984002
 21
9422.732228435526
 72
     1
 10
1189.52648984002
 20
9422.732228435526
 11
679.52648984002
 21
9422.732228435526
 72
     1
 10
679.52648984002
 20
9422.732228435526
 11
679.52648984002
 21
9872.732228435525
 97
        1
330
0
 92
        9
 93
        4
 72
     1
 10
3031.03801222107
 20
9879.509045014664
 11
3541.038012221071
 21
9879.509045014664
 72
     1
 10
3541.038012221071
 20
9879.509045014664
 11
3541.038012221071
 21
9429.509045014663
 72
     1
 10
3541.038012221071
 20
9429.509045014663
 11
3031.03801222107
 21
9429.509045014663
 72
     1
 10
3031.03801222107
 20
9429.509045014663
 11
3031.03801222107
 21
9879.509045014664
 97
        1
330
0
 92
        9
 93
        4
 72
     1
 10
5451.371047877328
 20
9896.347855658646
 11
5961.371047877328
 21
9896.347855658646
 72
     1
 10
5961.371047877328
 20
9896.347855658646
 11
5961.371047877328
 21
9446.347855658645
 72
     1
 10
5961.371047877328
 20
9446.347855658645
 11
5451.371047877328
 21
9446.347855658645
 72
     1
 10
5451.371047877328
 20
9446.347855658645
 11
5451.371047877328
 21
9896.347855658646
 97
        1
330
0
 75
     0
 76
     1
 52
0.0
 41
20.0
 77
     0
 78
     2
 53
45.0
 43
0.0
 44
0.0
 45
-134.7038418160373
 46
134.7038418160373
 79
     0
 53
45.0
 43
89.80260000000001
 44
0.0
 45
-134.7038418160373
 46
134.7038418160373
 79
     0
 47
5.173220094884483
 98
        5
 10
613.1796782907404
 20
9649.728446478498
 10
1736.300485017527
 20
9722.153535411864
 10
2745.556498069964
 20
9665.248095569664
 10
4070.528491149227
 20
9608.342681373713
 10
5084.960200658919
 20
9618.689122649911
1001
ACAD
1010
0.0
1020
0.0
1030
0.0
  0
HATCH
  5
11E
330
2
100
AcDbEntity
  8
sapa_elevation
100
AcDbHatch
 10
0.0
 20
0.0
 30
0.0
210
0.0
220
0.0
230
1.0
  2
ANSI31
 70
     0
 71
     1
 91
        4
 92
        7
 72
     0
 73
     1
 93
        4
 10
7100.000000000001
 20
9453.663255355131
 10
7271.0
 20
9453.663255355131
 10
7271.0
 20
9853.663255355131
 10
7100.0
 20
9853.663255355131
 97
        4
330
16B
330
168
330
163
330
16A
 92
        7
 72
     0
 73
     1
 93
        4
 10
7271.000000000002
 20
7223.663255355131
 10
7100.0
 20
7223.663255355131
 10
7100.0
 20
6523.663255355131
 10
7271.0
 20
6523.663255355131
 97
        4
330
167
330
168
330
166
330
16A
 92
        7
 72
     0
 73
     1
 93
        4
 10
7099.999999999998
 20
3523.663255355131
 10
7271.0
 20
3523.663255355131
 10
7271.0
 20
4223.663255355131
 10
7100.0
 20
4223.663255355131
 97
        4
330
165
330
168
330
164
330
16A
 92
        7
 72
     0
 73
     1
 93
        4
 10
7271.0
 20
2353.663255355132
 10
7099.999999999998
 20
2353.663255355131
 10
7099.999999999998
 20
1253.663255355132
 10
7271.0
 20
1253.663255355132
 97
        4
330
162
330
168
330
169
330
16A
 75
     0
 76
     1
 52
0.0
 41
10.0
 77
     0
 78
     1
 53
45.0
 43
-500.0
 44
0.0
 45
-22.45064030267288
 46
22.45064030267288
 79
     0
 47
14.13989832426552
 98
        4
 10
7173.727578862941
 20
9608.201880424331
 10
7202.020775452904
 20
6921.621194366664
 10
7159.580980567961
 20
3881.543043459842
 10
7187.874177157922
 20
1788.838081710212
1001
ACAD
1010
0.0
1020
0.0
1030
0.0
  0
HATCH
  5
11F
330
2
100
AcDbEntity
  8
sapa_elevation
100
AcDbHatch
 10
0.0
 20
0.0
 30
0.0
210
0.0
220
0.0
230
1.0
  2
ANSI31
 70
     0
 71
     0
 91
        1
 92
        7
 72
     0
 73
     1
 93
        4
 10
7791.0
 20
7203.663255355131
 10
7291.0
 20
7203.663255355131
 10
7291.0
 20
6903.663255355131
 10
7791.0
 20
6903.663255355131
 97
        0
 75
     0
 76
     1
 52
0.0
 41
10.0
 77
     0
 78
     1
 53
45.0
 43
5037.998020344821
 44
6403.570823070412
 45
-22.45064030267288
 46
22.45064030267288
 79
     0
 47
5.754429181446798
 98
        1
 10
7580.763508281584
 20
6980.19732591966
1001
ACAD
1010
0.0
1020
0.0
1030
0.0
  0
HATCH
  5
120
330
2
100
AcDbEntity
  8
sapa_elevation
100
AcDbHatch
 10
0.0
 20
0.0
 30
0.0
210
0.0
220
0.0
230
1.0
  2
ANSI31
 70
     0
 71
     0
 91
        1
 92
        7
 72
     0
 73
     1
 93
        3
 10
7050.0
 20
10073.66325535513
 10
7050.0
 20
9923.663255355124
 10
7791.0
 20
9923.663255355132
 97
        0
 75
     0
 76
     1
 52
0.0
 41
10.0
 77
     0
 78
     1
 53
45.0
 43
5037.998020344821
 44
3403.570823070412
 45
-22.45064030267288
 46
22.45064030267288
 79
     0
 47
4.303415458446361
 98
        1
 10
7099.289392746898
 20
9995.656734562224
1001
ACAD
1010
0.0
1020
0.0
1030
0.0
  0
HATCH
  5
121
330
2
100
AcDbEntity
  8
sapa_elevation
100
AcDbHatch
 10
0.0
 20
0.0
 30
0.0
210
0.0
220
0.0
230
1.0
  2
ANSI31
 70
     0
 71
     0
 91
        1
 92
        7
 72
     0
 73
     1
 93
        3
 10
7791.0
 20
1183.663255355131
 10
7050.0
 20
1183.663255355131
 10
7050.0
 20
1033.663255355131
 97
        0
 75
     0
 76
     1
 52
0.0
 41
10.0
 77
     0
 78
     1
 53
45.0
 43
5037.998020344821
 44
3403.570823070412
 45
-22.45064030267288
 46
22.45064030267288
 79
     0
 47
1.079362698434344
 98
        1
 10
7134.505710938771
 20
1122.047256182115
1001
ACAD
1010
0.0
1020
0.0
1030
0.0
  0
HATCH
  5
122
330
2
100
AcDbEntity
  8
sapa_elevation
100
AcDbHatch
 10
0.0
 20
0.0
 30
0.0
210
0.0
220
0.0
230
1.0
  2
ANSI31
 70
     0
 71
     0
 91
        1
 92
        7
 72
     0
 73
     1
 93
        4
 10
7791.0
 20
4203.663255355132
 10
7291.0
 20
4203.663255355132
 10
7291.0
 20
3903.663255355132
 10
7791.0
 20
3903.663255355132
 97
        0
 75
     0
 76
     1
 52
0.0
 41
10.0
 77
     0
 78
     1
 53
45.0
 43
5037.998020344821
 44
3403.570823070412
 45
-22.45064030267288
 46
22.45064030267288
 79
     0
 47
5.754429181446798
 98
        1
 10
7580.763508281584
 20
3980.19732591966
1001
ACAD
1010
0.0
1020
0.0
1030
0.0
  0
HATCH
  5
123
330
2
100
AcDbEntity
  8
sapa_elevation
100
AcDbHatch
 10
0.0
 20
0.0
 30
0.0
210
0.0
220
0.0
230
1.0
  2
ANSI32
 70
     0
 71
     0
 91
        1
 92
        7
 72
     0
 73
     1
 93
        4
 10
4800.0
 20
2353.663255355132
 10
3650.0
 20
2353.663255355132
 10
3650.0
 20
1253.663255355132
 10
4800.0
 20
1253.663255355132
 97
        0
 75
     0
 76
     1
 52
0.0
 41
20.0
 77
     0
 78
     2
 53
45.0
 43
62969.79526742693
 44
7280.179834042683
 45
-134.7038418160373
 46
134.7038418160373
 79
     0
 53
45.0
 43
63059.59786742692
 44
7280.179834042683
 45
-134.7038418160373
 46
134.7038418160373
 79
     0
 47
12.71487936787035
 98
        1
 10
4336.944262763369
 20
1875.042770566702
1001
ACAD
1010
0.0
1020
0.0
1030
0.0
  0
LINE
  5
124
330
2
100
AcDbEntity
  8
sapa_elevation
100
AcDbLine
 10
3600.0
 20
8953.663255355131
 30
0.0
 11
2450.0
 21
8953.663255355131
 31
0.0
  0
LINE
  5
125
330
2
100
AcDbEntity
  8
sapa_elevation
100
AcDbLine
 10
3600.0
 20
8903.663255355132
 30
0.0
 11
2450.0
 21
8903.663255355132
 31
0.0
  0
LINE
  5
126
330
2
100
AcDbEntity
  8
sapa_elevation
100
AcDbLine
 10
3025.0
 20
8953.663255355131
 30
0.0
 11
3600.0
 21
9403.663255355132
 31
0.0
  0
LINE
  5
127
330
2
100
AcDbEntity
  8
sapa_elevation
100
AcDbLine
 10
2450.0
 20
9403.663255355132
 30
0.0
 11
3025.0
 21
8953.663255355131
 31
0.0
  0
LINE
  5
128
330
2
100
AcDbEntity
  8
sapa_elevation
100
AcDbLine
 10
5908.0
 20
8553.663255355131
 30
0.0
 11
4942.0
 21
7795.663255355131
 31
0.0
  0
LINE
  5
129
330
2
100
AcDbEntity
  8
sapa_elevation
100
AcDbLine
 10
5425.0
 20
9311.663255355131
 30
0.0
 11
5908.0
 21
7795.663255355131
 31
0.0
  0
LINE
  5
12A
330
2
100
AcDbEntity
  8
sapa_elevation
100
AcDbLine
 10
4942.0
 20
7795.663255355131
 30
0.0
 11
5425.0
 21
9311.663255355131
 31
0.0
  0
LINE
  5
12B
330
2
100
AcDbEntity
  8
sapa_elevation
100
AcDbLine
 10
4942.0
 20
7795.663255355131
 30
0.0
 11
4942.0
 21
9311.663255355131
 31
0.0
  0
LINE
  5
12C
330
2
100
AcDbEntity
  8
sapa_elevation
100
AcDbLine
 10
4904.5
 20
7758.163255355132
 30
0.0
 11
4904.5
 21
9349.163255355131
 31
0.0
  0
LINE
  5
12D
330
2
100
AcDbEntity
  8
sapa_elevation
100
AcDbLine
 10
4899.5
 20
7753.163255355132
 30
0.0
 11
4899.5
 21
9354.163255355132
 31
0.0
  0
LINE
  5
12E
330
2
100
AcDbEntity
  8
sapa_elevation
100
AcDbLine
 10
6000.0
 20
7653.663255355131
 30
0.0
 11
4850.0
 21
7653.663255355131
 31
0.0
  0
LINE
  5
12F
330
2
100
AcDbEntity
  8
sapa_elevation
100
AcDbLine
 10
5908.0
 20
9311.663255355131
 30
0.0
 11
4942.0
 21
9311.663255355131
 31
0.0
  0
LINE
  5
130
330
2
100
AcDbEntity
  8
sapa_elevation
100
AcDbLine
 10
5945.5
 20
9349.163255355131
 30
0.0
 11
4904.5
 21
9349.163255355131
 31
0.0
  0
LINE
  5
131
330
2
100
AcDbEntity
  8
sapa_elevation
100
AcDbLine
 10
5950.5
 20
9354.163255355132
 30
0.0
 11
4899.5
 21
9354.163255355132
 31
0.0
  0
LINE
  5
132
330
2
100
AcDbEntity
  8
sapa_elevation
100
AcDbLine
 10
5908.0
 20
7795.663255355131
 30
0.0
 11
4942.0
 21
7795.663255355131
 31
0.0
  0
LINE
  5
133
330
2
100
AcDbEntity
  8
sapa_elevation
100
AcDbLine
 10
5945.5
 20
7758.163255355132
 30
0.0
 11
4904.5
 21
7758.163255355132
 31
0.0
  0
LINE
  5
134
330
2
100
AcDbEntity
  8
sapa_elevation
100
AcDbLine
 10
5950.5
 20
7753.163255355132
 30
0.0
 11
4899.5
 21
7753.163255355132
 31
0.0
  0
LINE
  5
135
330
2
100
AcDbEntity
  8
sapa_elevation
100
AcDbLine
 10
6000.0
 20
7703.663255355131
 30
0.0
 11
4850.0
 21
7703.663255355131
 31
0.0
  0
LINE
  5
136
330
2
100
AcDbEntity
  8
sapa_elevation
100
AcDbLine
 10
5908.0
 20
7795.663255355131
 30
0.0
 11
5908.0
 21
9311.663255355131
 31
0.0
  0
LINE
  5
137
330
2
100
AcDbEntity
  8
sapa_elevation
100
AcDbLine
 10
5945.5
 20
7758.163255355132
 30
0.0
 11
5945.5
 21
9349.163255355131
 31
0.0
  0
LINE
  5
138
330
2
100
AcDbEntity
  8
sapa_elevation
100
AcDbLine
 10
5950.5
 20
7753.163255355132
 30
0.0
 11
5950.5
 21
9354.163255355132
 31
0.0
  0
LINE
  5
139
330
2
100
AcDbEntity
  8
sapa_elevation
100
AcDbLine
 10
1086.5
 20
8553.663255355131
 30
0.0
 11
163.5
 21
9290.163255355132
 31
0.0
  0
LINE
  5
13A
330
2
100
AcDbEntity
  8
sapa_elevation
100
AcDbLine
 10
163.5
 20
7817.163255355132
 30
0.0
 11
1086.5
 21
8553.663255355131
 31
0.0
  0
LINE
  5
13B
330
2
100
AcDbEntity
  8
sapa_elevation
100
AcDbLine
 10
163.5
 20
7817.163255355132
 30
0.0
 11
163.5
 21
9290.163255355132
 31
0.0
  0
LINE
  5
13C
330
2
100
AcDbEntity
  8
sapa_elevation
100
AcDbLine
 10
71.5
 20
7725.163255355131
 30
0.0
 11
71.5
 21
9382.163255355132
 31
0.0
  0
LINE
  5
13D
330
2
100
AcDbEntity
  8
sapa_elevation
100
AcDbLine
 10
1200.0
 20
7653.663255355131
 30
0.0
 11
50.0
 21
7653.663255355131
 31
0.0
  0
LINE
  5
13E
330
2
100
AcDbEntity
  8
sapa_elevation
100
AcDbLine
 10
1086.5
 20
9290.163255355132
 30
0.0
 11
163.5
 21
9290.163255355132
 31
0.0
  0
LINE
  5
13F
330
2
100
AcDbEntity
  8
sapa_elevation
100
AcDbLine
 10
1178.5
 20
9382.163255355132
 30
0.0
 11
71.5
 21
9382.163255355132
 31
0.0
  0
LINE
  5
140
330
2
100
AcDbEntity
  8
sapa_elevation
100
AcDbLine
 10
1086.5
 20
7817.163255355132
 30
0.0
 11
163.5
 21
7817.163255355132
 31
0.0
  0
LINE
  5
141
330
2
100
AcDbEntity
  8
sapa_elevation
100
AcDbLine
 10
1178.5
 20
7725.163255355131
 30
0.0
 11
71.5
 21
7725.163255355131
 31
0.0
  0
LINE
  5
142
330
2
100
AcDbEntity
  8
sapa_elevation
100
AcDbLine
 10
1200.0
 20
7703.663255355131
 30
0.0
 11
50.0
 21
7703.663255355131
 31
0.0
  0
LINE
  5
143
330
2
100
AcDbEntity
  8
sapa_elevation
100
AcDbLine
 10
1086.5
 20
7817.163255355132
 30
0.0
 11
1086.5
 21
9290.163255355132
 31
0.0
  0
LINE
  5
144
330
2
100
AcDbEntity
  8
sapa_elevation
100
AcDbLine
 10
1178.5
 20
7725.163255355131
 30
0.0
 11
1178.5
 21
9382.163255355132
 31
0.0
  0
MULTILEADER
  5
145
330
2
100
AcDbEntity
  8
sapa_elevation
 92
      440
310
B8010000160000000C00000016000000000000C00C00000033000000000000000C00000013000000993A00000C00000033000000000000000C00000010000000010000000C00000016000000000000C00C00000012000000FF7F00000C00000013000000010000000C00000014000000010000005400000007000000030000
310
0010313E89B009AF40D51CB49015C68240000000000000000010313E89B079AD4080C75E3BC0D08340000000000000000010313E89B009AF402B7209E66ADB844000000000000000000C00000013000000891300003C000000060000000200000010313E89B009AF4080C75E3BC0D0834000000000000000005861319B8650
310
B04080C75E3BC0D0834000000000000000000C00000013000000112700003C00000006000000020000005861319B8650B04080C75E3BC0D0834000000000000000005861319B8659B04080C75E3BC0D0834000000000000000000C00000016000000000000C00C00000012000000FF7F00000C00000017000000000000000C
310
000000130000009A3A00000C00000016000000000000C00C00000012000000FF7F00000C00000017000000FFFFFFFF0C0000003300000000000000
100
AcDbMLeader
300
CONTEXT_DATA{
 40
50.0
 10
4185.525805555597
 20
634.0938632397301
 30
0.0
 41
200.0
140
200.0
145
100.0
174
     1
175
     6
176
     0
177
     0
290
     1
304

 11
0.0
 21
0.0
 31
-1.0
340
1E
 12
4285.525805555597
 22
534.0938632397301
 32
0.0
 13
1.0
 23
0.0
 33
0.0
 42
3.141592653589793
 43
0.0
 44
0.0
 45
1.0
170
     1
 90
-1073741824
171
     1
172
     5
 91
-1073741824
141
0.0
 92
        0
291
     0
292
     0
173
     0
293
     0
142
0.0
143
0.0
294
     0
295
     0
296
     0
110
3814.782302350948
120
634.0938632397301
130
0.0
111
1.0
121
0.0
131
0.0
112
0.0
122
1.0
132
0.0
297
     0
302
LEADER{
290
     1
291
     1
 10
4176.525805555597
 20
634.0938632397301
 30
0.0
 11
1.0
 21
0.0
 31
0.0
 90
        0
 40
9.0
304
LEADER_LINE{
 10
3772.844797080507
 20
634.0938632397301
 30
0.0
 91
        0
305
}
303
}
301
}
340
146
 90
 17056896
170
     1
 91
-1056964608
341
21
171
    -2
290
     1
291
     1
 41
0.36
 42
4.0
172
     2
343
1E
173
     1
 95
        6
174
     1
175
     0
 92
-1056964608
292
     0
 93
-1056964608
 10
1.0
 20
1.0
 30
1.0
 43
0.0
176
     0
293
     0
294
     0
178
     0
179
     1
 45
50.0
1001
ACAD_MLEADERVER
1070
     2
  0
LINE
  5
147
330
2
100
AcDbEntity
  8
sapa_elevation
100
AcDbLine
 10
4185.525805555597
 20
634.0938632397301
 30
0.0
 11
4185.525805555597
 21
834.0938632397302
 31
0.0
  0
MULTILEADER
  5
148
330
2
100
AcDbEntity
  8
sapa_elevation
 92
      440
310
B8010000160000000C00000016000000000000C00C00000033000000000000000C00000013000000993A00000C00000033000000000000000C00000010000000010000000C00000016000000000000C00C00000012000000FF7F00000C00000013000000010000000C00000014000000010000005400000007000000030000
310
0020313E89B009AF402D86E4B2D09BC440000000000000000020313E89B079AD40D8308F5D7BACC440000000000000000020313E89B009AF4083DB390826BDC44000000000000000000C00000013000000891300003C000000060000000200000020313E89B009AF40D8308F5D7BACC44000000000000000006061319B8650
310
B040D8308F5D7BACC44000000000000000000C00000013000000112700003C00000006000000020000006061319B8650B040D8308F5D7BACC44000000000000000006061319B8659B040D8308F5D7BACC44000000000000000000C00000016000000000000C00C00000012000000FF7F00000C00000017000000000000000C
310
000000130000009A3A00000C00000016000000000000C00C00000012000000FF7F00000C00000017000000FFFFFFFF0C0000003300000000000000
100
AcDbMLeader
300
CONTEXT_DATA{
 40
50.0
 10
4185.525805555604
 20
10584.96379270444
 30
0.0
 41
200.0
140
200.0
145
100.0
174
     1
175
     6
176
     0
177
     0
290
     1
304

 11
0.0
 21
0.0
 31
1.0
340
1E
 12
4285.525805555604
 22
10684.96379270444
 32
0.0
 13
1.0
 23
0.0
 33
0.0
 42
0.0
 43
0.0
 44
0.0
 45
1.0
170
     1
 90
-1073741824
171
     1
172
     5
 91
-1073741824
141
0.0
 92
        0
291
     0
292
     0
173
     0
293
     0
142
0.0
143
0.0
294
     0
295
     0
296
     0
110
3814.782302350955
120
10584.96379270444
130
0.0
111
1.0
121
0.0
131
0.0
112
0.0
122
1.0
132
0.0
297
     0
302
LEADER{
290
     1
291
     1
 10
4176.525805555604
 20
10584.96379270444
 30
0.0
 11
1.0
 21
0.0
 31
0.0
 90
        0
 40
9.0
304
LEADER_LINE{
 10
3772.844797080514
 20
10584.96379270444
 30
0.0
 91
        0
305
}
303
}
301
}
340
146
 90
 17056896
170
     1
 91
-1056964608
341
21
171
    -2
290
     1
291
     1
 41
0.36
 42
4.0
172
     2
343
1E
173
     1
 95
        6
174
     1
175
     0
 92
-1056964608
292
     0
 93
-1056964608
 10
1.0
 20
1.0
 30
1.0
 43
0.0
176
     0
293
     0
294
     0
178
     0
179
     1
 45
50.0
1001
ACAD_MLEADERVER
1070
     2
  0
LINE
  5
149
330
2
100
AcDbEntity
  8
sapa_elevation
100
AcDbLine
 10
4185.525805555604
 20
10584.96379270444
 30
0.0
 11
4185.525805555604
 21
10384.96379270444
 31
0.0
  0
LINE
  5
14A
330
2
100
AcDbEntity
  8
sapa_elevation
  6
DASHDOT
100
AcDbLine
 10
3625.0
 20
983.6632553551316
 30
0.0
 11
3625.0
 21
10103.66325535513
 31
0.0
  0
LINE
  5
14C
330
2
100
AcDbEntity
  8
sapa_elevation
100
AcDbLine
 10
3600.0
 20
85.49999999999272
 30
0.0
 11
2450.0
 21
85.50000000000727
 31
0.0
  0
LINE
  5
14D
330
2
100
AcDbEntity
  8
sapa_elevation
100
AcDbLine
 10
1250.0
 20
171.0000000000218
 30
0.0
 11
1250.0
 21
0.0000000000218279
 31
0.0
  0
LINE
  5
14E
330
2
100
AcDbEntity
  8
sapa_elevation
100
AcDbLine
 10
1200.0
 20
171.0000000000218
 30
0.0
 11
1200.0
 21
0.0000000000218279
 31
0.0
  0
LINE
  5
14F
330
2
100
AcDbEntity
  8
sapa_elevation
100
AcDbLine
 10
3650.0
 20
170.9999999999927
 30
0.0
 11
3650.0
 21
0.0
 31
0.0
  0
LINE
  5
150
330
2
100
AcDbEntity
  8
sapa_elevation
100
AcDbLine
 10
3600.0
 20
170.9999999999927
 30
0.0
 11
3600.0
 21
0.0
 31
0.0
  0
LINE
  5
151
330
2
100
AcDbEntity
  8
sapa_elevation
100
AcDbLine
 10
4850.0
 20
170.9999999999927
 30
0.0
 11
4850.0
 21
0.0
 31
0.0
  0
LINE
  5
152
330
2
100
AcDbEntity
  8
sapa_elevation
100
AcDbLine
 10
4800.0
 20
170.9999999999927
 30
0.0
 11
4800.0
 21
0.0
 31
0.0
  0
LINE
  5
153
330
2
100
AcDbEntity
  8
sapa_elevation
100
AcDbLine
 10
2450.0
 20
171.0000000000218
 30
0.0
 11
2450.0
 21
0.0000000000218279
 31
0.0
  0
LINE
  5
154
330
2
100
AcDbEntity
  8
sapa_elevation
100
AcDbLine
 10
2400.0
 20
171.0000000000218
 30
0.0
 11
2400.0
 21
0.0000000000218279
 31
0.0
  0
LINE
  5
155
330
2
100
AcDbEntity
  8
sapa_elevation
100
AcDbLine
 10
50.0
 20
170.9999999999927
 30
0.0
 11
50.0
 21
0.0
 31
0.0
  0
LINE
  5
156
330
2
100
AcDbEntity
  8
sapa_elevation
100
AcDbLine
 10
0.0
 20
170.9999999999927
 30
0.0
 11
0.0
 21
0.0
 31
0.0
  0
LINE
  5
157
330
2
100
AcDbEntity
  8
sapa_elevation
100
AcDbLine
 10
6050.0
 20
0.000000000007276
 30
0.0
 11
0.0
 21
0.000000000007276
 31
0.0
  0
LINE
  5
158
330
2
100
AcDbEntity
  8
sapa_elevation
100
AcDbLine
 10
1200.0
 20
85.5
 30
0.0
 11
50.0
 21
85.49999999999272
 31
0.0
  0
LINE
  5
159
330
2
100
AcDbEntity
  8
sapa_elevation
100
AcDbLine
 10
2400.0
 20
85.5
 30
0.0
 11
1250.0
 21
85.5
 31
0.0
  0
LINE
  5
15A
330
2
100
AcDbEntity
  8
sapa_elevation
100
AcDbLine
 10
4800.0
 20
85.49999999999272
 30
0.0
 11
3650.0
 21
85.49999999999272
 31
0.0
  0
LINE
  5
15B
330
2
100
AcDbEntity
  8
sapa_elevation
100
AcDbLine
 10
6000.0
 20
85.49999999999272
 30
0.0
 11
4850.0
 21
85.49999999999272
 31
0.0
  0
LINE
  5
15C
330
2
100
AcDbEntity
  8
sapa_elevation
100
AcDbLine
 10
6050.0
 20
171.0000000000072
 30
0.0
 11
0.0
 21
171.0000000000072
 31
0.0
  0
LINE
  5
15D
330
2
100
AcDbEntity
  8
sapa_elevation
100
AcDbLine
 10
6000.0
 20
170.9999999999927
 30
0.0
 11
6000.0
 21
-0.000000000007276
 31
0.0
  0
LINE
  5
15E
330
2
100
AcDbEntity
  8
sapa_elevation
100
AcDbLine
 10
6050.0
 20
170.9999999999927
 30
0.0
 11
6050.0
 21
-0.000000000007276
 31
0.0
  0
LINE
  5
15F
330
2
100
AcDbEntity
  8
sapa_elevation
100
AcDbLine
 10
7185.500000000001
 20
7273.663255355131
 30
0.0
 11
7185.500000000001
 21
9403.663255355132
 31
0.0
  0
LINE
  5
160
330
2
100
AcDbEntity
  8
sapa_elevation
100
AcDbLine
 10
7185.500000000001
 20
4273.663255355131
 30
0.0
 11
7185.500000000001
 21
6473.663255355131
 31
0.0
  0
LINE
  5
161
330
2
100
AcDbEntity
  8
sapa_elevation
100
AcDbLine
 10
7185.500000000001
 20
2403.663255355132
 30
0.0
 11
7185.500000000001
 21
3473.663255355132
 31
0.0
  0
LWPOLYLINE
  5
162
102
{ACAD_REACTORS
330
11E
102
}
330
2
100
AcDbEntity
  8
sapa_elevation
100
AcDbPolyline
 90
        4
 70
     1
 43
0.0
 10
7100.0
 20
2403.663255355132
 10
7271.0
 20
2403.663255355132
 10
7271.0
 20
2353.663255355132
 10
7100.0
 20
2353.663255355132
  0
LWPOLYLINE
  5
163
102
{ACAD_REACTORS
330
11E
102
}
330
2
100
AcDbEntity
  8
sapa_elevation
100
AcDbPolyline
 90
        4
 70
     1
 43
0.0
 10
7100.0
 20
9453.663255355131
 10
7271.0
 20
9453.663255355131
 10
7271.0
 20
9403.663255355132
 10
7100.0
 20
9403.663255355132
  0
LWPOLYLINE
  5
164
102
{ACAD_REACTORS
330
11E
102
}
330
2
100
AcDbEntity
  8
sapa_elevation
100
AcDbPolyline
 90
        4
 70
     1
 43
0.0
 10
7100.0
 20
3523.663255355132
 10
7271.0
 20
3523.663255355132
 10
7271.0
 20
3473.663255355132
 10
7100.0
 20
3473.663255355132
  0
LWPOLYLINE
  5
165
102
{ACAD_REACTORS
330
11E
102
}
330
2
100
AcDbEntity
  8
sapa_elevation
100
AcDbPolyline
 90
        4
 70
     1
 43
0.0
 10
7100.0
 20
4273.663255355131
 10
7271.0
 20
4273.663255355131
 10
7271.0
 20
4223.663255355131
 10
7100.0
 20
4223.663255355131
  0
LWPOLYLINE
  5
166
102
{ACAD_REACTORS
330
11E
102
}
330
2
100
AcDbEntity
  8
sapa_elevation
100
AcDbPolyline
 90
        4
 70
     1
 43
0.0
 10
7100.0
 20
6523.663255355131
 10
7271.0
 20
6523.663255355131
 10
7271.0
 20
6473.663255355131
 10
7100.0
 20
6473.663255355131
  0
LWPOLYLINE
  5
167
102
{ACAD_REACTORS
330
11E
102
}
330
2
100
AcDbEntity
  8
sapa_elevation
100
AcDbPolyline
 90
        4
 70
     1
 43
0.0
 10
7100.0
 20
7273.663255355131
 10
7271.0
 20
7273.663255355131
 10
7271.0
 20
7223.663255355131
 10
7100.0
 20
7223.663255355131
  0
LINE
  5
168
102
{ACAD_REACTORS
330
11E
102
}
330
2
100
AcDbEntity
  8
sapa_elevation
100
AcDbLine
 10
7100.0
 20
1253.663255355132
 30
0.0
 11
7100.0
 21
9853.663255355131
 31
0.0
  0
LWPOLYLINE
  5
169
102
{ACAD_REACTORS
330
11E
102
}
330
2
100
AcDbEntity
  8
sapa_elevation
100
AcDbPolyline
 90
        4
 70
     1
 43
0.0
 10
7100.0
 20
1253.663255355132
 10
7271.0
 20
1253.663255355132
 10
7271.0
 20
1203.663255355132
 10
7100.0
 20
1203.663255355132
  0
LINE
  5
16A
102
{ACAD_REACTORS
330
11E
102
}
330
2
100
AcDbEntity
  8
sapa_elevation
100
AcDbLine
 10
7271.0
 20
9853.663255355131
 30
0.0
 11
7271.0
 21
1253.663255355132
 31
0.0
  0
LWPOLYLINE
  5
16B
102
{ACAD_REACTORS
330
11E
102
}
330
2
100
AcDbEntity
  8
sapa_elevation
100
AcDbPolyline
 90
        4
 70
     1
 43
0.0
 10
7100.0
 20
9903.663255355132
 10
7271.0
 20
9903.663255355132
 10
7271.0
 20
9853.663255355131
 10
7100.0
 20
9853.663255355131
  0
LINE
  5
16C
330
2
100
AcDbEntity
  8
sapa_elevation
100
AcDbLine
 10
7050.0
 20
9923.663255355132
 30
0.0
 11
7050.0
 21
10073.66325535513
 31
0.0
  0
LINE
  5
16D
330
2
100
AcDbEntity
  8
sapa_elevation
100
AcDbLine
 10
7050.0
 20
9923.663255355132
 30
0.0
 11
7777.469546192304
 21
9923.663255355132
 31
0.0
  0
LINE
  5
16E
330
2
100
AcDbEntity
  8
sapa_elevation
100
AcDbLine
 10
7291.0
 20
7203.663255355131
 30
0.0
 11
7291.0
 21
6903.663255355131
 31
0.0
  0
LINE
  5
16F
330
2
100
AcDbEntity
  8
sapa_elevation
100
AcDbLine
 10
7291.0
 20
6903.663255355131
 30
0.0
 11
7791.0
 21
6903.663255355131
 31
0.0
  0
LINE
  5
170
330
2
100
AcDbEntity
  8
sapa_elevation
100
AcDbLine
 10
7291.0
 20
7203.663255355131
 30
0.0
 11
7791.0
 21
7203.663255355131
 31
0.0
  0
LINE
  5
171
330
2
100
AcDbEntity
  8
sapa_elevation
100
AcDbLine
 10
7050.0
 20
1183.663255355131
 30
0.0
 11
7050.0
 21
1033.663255355131
 31
0.0
  0
LINE
  5
172
330
2
100
AcDbEntity
  8
sapa_elevation
100
AcDbLine
 10
7791.0
 20
1183.663255355131
 30
0.0
 11
7050.0
 21
1183.663255355131
 31
0.0
  0
LINE
  5
173
330
2
100
AcDbEntity
  8
sapa_elevation
100
AcDbLine
 10
7291.0
 20
4203.663255355132
 30
0.0
 11
7291.0
 21
3903.663255355132
 31
0.0
  0
LINE
  5
174
330
2
100
AcDbEntity
  8
sapa_elevation
100
AcDbLine
 10
7291.0
 20
3903.663255355132
 30
0.0
 11
7791.0
 21
3903.663255355132
 31
0.0
  0
LINE
  5
175
330
2
100
AcDbEntity
  8
sapa_elevation
100
AcDbLine
 10
7291.0
 20
4203.663255355132
 30
0.0
 11
7791.0
 21
4203.663255355132
 31
0.0
  0
LINE
  5
176
330
2
100
AcDbEntity
  8
sapa_elevation
100
AcDbLine
 10
1200.0
 20
3473.663255355132
 30
0.0
 11
50.0
 21
3473.663255355132
 31
0.0
  0
LINE
  5
177
330
2
100
AcDbEntity
  8
sapa_elevation
100
AcDbLine
 10
2400.0
 20
3473.663255355132
 30
0.0
 11
1250.0
 21
3473.663255355132
 31
0.0
  0
LINE
  5
178
330
2
100
AcDbEntity
  8
sapa_elevation
100
AcDbLine
 10
3600.0
 20
3473.663255355132
 30
0.0
 11
2450.0
 21
3473.663255355132
 31
0.0
  0
LINE
  5
179
330
2
100
AcDbEntity
  8
sapa_elevation
100
AcDbLine
 10
4800.0
 20
3473.663255355132
 30
0.0
 11
3650.0
 21
3473.663255355132
 31
0.0
  0
LINE
  5
17A
330
2
100
AcDbEntity
  8
sapa_elevation
100
AcDbLine
 10
6000.0
 20
3473.663255355132
 30
0.0
 11
4850.0
 21
3473.663255355132
 31
0.0
  0
LINE
  5
17B
102
{ACAD_REACTORS
330
1AB
102
}
330
2
100
AcDbEntity
  8
sapa_elevation
100
AcDbLine
 10
1200.0
 20
3523.663255355132
 30
0.0
 11
50.0
 21
3523.663255355132
 31
0.0
  0
LINE
  5
17C
102
{ACAD_REACTORS
330
1AB
102
}
330
2
100
AcDbEntity
  8
sapa_elevation
100
AcDbLine
 10
2400.0
 20
3523.663255355132
 30
0.0
 11
1250.0
 21
3523.663255355132
 31
0.0
  0
LINE
  5
17D
102
{ACAD_REACTORS
330
1AB
102
}
330
2
100
AcDbEntity
  8
sapa_elevation
100
AcDbLine
 10
3600.0
 20
3523.663255355132
 30
0.0
 11
2450.0
 21
3523.663255355132
 31
0.0
  0
LINE
  5
17E
102
{ACAD_REACTORS
330
1AB
102
}
330
2
100
AcDbEntity
  8
sapa_elevation
100
AcDbLine
 10
4800.0
 20
3523.663255355132
 30
0.0
 11
3650.0
 21
3523.663255355132
 31
0.0
  0
LINE
  5
17F
102
{ACAD_REACTORS
330
1AB
102
}
330
2
100
AcDbEntity
  8
sapa_elevation
100
AcDbLine
 10
6000.0
 20
3523.663255355132
 30
0.0
 11
4850.0
 21
3523.663255355132
 31
0.0
  0
LINE
  5
180
330
2
100
AcDbEntity
  8
sapa_elevation
100
AcDbLine
 10
1200.0
 20
4273.663255355131
 30
0.0
 11
50.0
 21
4273.663255355131
 31
0.0
  0
LINE
  5
181
330
2
100
AcDbEntity
  8
sapa_elevation
100
AcDbLine
 10
2400.0
 20
4273.663255355131
 30
0.0
 11
1250.0
 21
4273.663255355131
 31
0.0
  0
LINE
  5
182
330
2
100
AcDbEntity
  8
sapa_elevation
100
AcDbLine
 10
3600.0
 20
4273.663255355131
 30
0.0
 11
2450.0
 21
4273.663255355131
 31
0.0
  0
LINE
  5
183
330
2
100
AcDbEntity
  8
sapa_elevation
100
AcDbLine
 10
4800.0
 20
4273.663255355131
 30
0.0
 11
3650.0
 21
4273.663255355131
 31
0.0
  0
LINE
  5
184
330
2
100
AcDbEntity
  8
sapa_elevation
100
AcDbLine
 10
6000.0
 20
4273.663255355131
 30
0.0
 11
4850.0
 21
4273.663255355131
 31
0.0
  0
LINE
  5
185
102
{ACAD_REACTORS
330
1AB
102
}
330
2
100
AcDbEntity
  8
sapa_elevation
100
AcDbLine
 10
1200.0
 20
4223.663255355131
 30
0.0
 11
50.0
 21
4223.663255355131
 31
0.0
  0
LINE
  5
186
102
{ACAD_REACTORS
330
1AB
102
}
330
2
100
AcDbEntity
  8
sapa_elevation
100
AcDbLine
 10
2400.0
 20
4223.663255355131
 30
0.0
 11
1250.0
 21
4223.663255355131
 31
0.0
  0
LINE
  5
187
102
{ACAD_REACTORS
330
1AB
102
}
330
2
100
AcDbEntity
  8
sapa_elevation
100
AcDbLine
 10
3600.0
 20
4223.663255355131
 30
0.0
 11
2450.0
 21
4223.663255355131
 31
0.0
  0
LINE
  5
188
102
{ACAD_REACTORS
330
1AB
102
}
330
2
100
AcDbEntity
  8
sapa_elevation
100
AcDbLine
 10
4800.0
 20
4223.663255355131
 30
0.0
 11
3650.0
 21
4223.663255355131
 31
0.0
  0
LINE
  5
189
102
{ACAD_REACTORS
330
1AB
102
}
330
2
100
AcDbEntity
  8
sapa_elevation
100
AcDbLine
 10
6000.0
 20
4223.663255355131
 30
0.0
 11
4850.0
 21
4223.663255355131
 31
0.0
  0
LINE
  5
18A
330
2
100
AcDbEntity
  8
sapa_elevation
100
AcDbLine
 10
2450.0
 20
1253.663255355132
 30
0.0
 11
3600.0
 21
1253.663255355132
 31
0.0
  0
LINE
  5
18B
102
{ACAD_REACTORS
330
1AC
330
1AB
330
11D
102
}
330
2
100
AcDbEntity
  8
sapa_elevation
100
AcDbLine
 10
4850.0
 20
1203.663255355132
 30
0.0
 11
4850.0
 21
9903.663255355132
 31
0.0
  0
LINE
  5
18C
102
{ACAD_REACTORS
330
1AC
330
1AB
330
11D
102
}
330
2
100
AcDbEntity
  8
sapa_elevation
100
AcDbLine
 10
3650.0
 20
1203.663255355132
 30
0.0
 11
3650.0
 21
9903.663255355132
 31
0.0
  0
LINE
  5
18D
102
{ACAD_REACTORS
330
1AC
330
1AB
330
11D
102
}
330
2
100
AcDbEntity
  8
sapa_elevation
100
AcDbLine
 10
2450.0
 20
1203.663255355132
 30
0.0
 11
2450.0
 21
9903.663255355132
 31
0.0
  0
LINE
  5
18E
102
{ACAD_REACTORS
330
1AC
330
1AB
330
11D
102
}
330
2
100
AcDbEntity
  8
sapa_elevation
100
AcDbLine
 10
1250.0
 20
1203.663255355132
 30
0.0
 11
1250.0
 21
9903.663255355132
 31
0.0
  0
LINE
  5
18F
102
{ACAD_REACTORS
330
1AC
330
1AB
330
11D
102
}
330
2
100
AcDbEntity
  8
sapa_elevation
100
AcDbLine
 10
50.0
 20
1203.663255355132
 30
0.0
 11
50.0
 21
9903.663255355132
 31
0.0
  0
LINE
  5
190
330
2
100
AcDbEntity
  8
sapa_elevation
100
AcDbLine
 10
6050.0
 20
1203.663255355132
 30
0.0
 11
6050.0
 21
9903.663255355132
 31
0.0
  0
LINE
  5
191
330
2
100
AcDbEntity
  8
sapa_elevation
100
AcDbLine
 10
1200.0
 20
6473.663255355131
 30
0.0
 11
50.0
 21
6473.663255355131
 31
0.0
  0
LINE
  5
192
330
2
100
AcDbEntity
  8
sapa_elevation
100
AcDbLine
 10
2400.0
 20
6473.663255355131
 30
0.0
 11
1250.0
 21
6473.663255355131
 31
0.0
  0
LINE
  5
193
330
2
100
AcDbEntity
  8
sapa_elevation
100
AcDbLine
 10
3600.0
 20
6473.663255355131
 30
0.0
 11
2450.0
 21
6473.663255355131
 31
0.0
  0
LINE
  5
194
330
2
100
AcDbEntity
  8
sapa_elevation
100
AcDbLine
 10
4800.0
 20
6473.663255355131
 30
0.0
 11
3650.0
 21
6473.663255355131
 31
0.0
  0
LINE
  5
195
330
2
100
AcDbEntity
  8
sapa_elevation
100
AcDbLine
 10
6000.0
 20
6473.663255355131
 30
0.0
 11
4850.0
 21
6473.663255355131
 31
0.0
  0
LINE
  5
196
102
{ACAD_REACTORS
330
1AC
102
}
330
2
100
AcDbEntity
  8
sapa_elevation
100
AcDbLine
 10
1200.0
 20
6523.663255355131
 30
0.0
 11
50.0
 21
6523.663255355131
 31
0.0
  0
LINE
  5
197
102
{ACAD_REACTORS
330
1AC
102
}
330
2
100
AcDbEntity
  8
sapa_elevation
100
AcDbLine
 10
2400.0
 20
6523.663255355131
 30
0.0
 11
1250.0
 21
6523.663255355131
 31
0.0
  0
LINE
  5
198
102
{ACAD_REACTORS
330
1AC
102
}
330
2
100
AcDbEntity
  8
sapa_elevation
100
AcDbLine
 10
3600.0
 20
6523.663255355131
 30
0.0
 11
2450.0
 21
6523.663255355131
 31
0.0
  0
LINE
  5
199
102
{ACAD_REACTORS
330
1AC
102
}
330
2
100
AcDbEntity
  8
sapa_elevation
100
AcDbLine
 10
4800.0
 20
6523.663255355131
 30
0.0
 11
3650.0
 21
6523.663255355131
 31
0.0
  0
LINE
  5
19A
102
{ACAD_REACTORS
330
1AC
102
}
330
2
100
AcDbEntity
  8
sapa_elevation
100
AcDbLine
 10
6000.0
 20
6523.663255355131
 30
0.0
 11
4850.0
 21
6523.663255355131
 31
0.0
  0
LINE
  5
19B
330
2
100
AcDbEntity
  8
sapa_elevation
100
AcDbLine
 10
1200.0
 20
7273.663255355131
 30
0.0
 11
50.0
 21
7273.663255355131
 31
0.0
  0
LINE
  5
19C
330
2
100
AcDbEntity
  8
sapa_elevation
100
AcDbLine
 10
2400.0
 20
7273.663255355131
 30
0.0
 11
1250.0
 21
7273.663255355131
 31
0.0
  0
LINE
  5
19D
330
2
100
AcDbEntity
  8
sapa_elevation
100
AcDbLine
 10
3600.0
 20
7273.663255355131
 30
0.0
 11
2450.0
 21
7273.663255355131
 31
0.0
  0
LINE
  5
19E
330
2
100
AcDbEntity
  8
sapa_elevation
100
AcDbLine
 10
4800.0
 20
7273.663255355131
 30
0.0
 11
3650.0
 21
7273.663255355131
 31
0.0
  0
LINE
  5
19F
330
2
100
AcDbEntity
  8
sapa_elevation
100
AcDbLine
 10
6000.0
 20
7273.663255355131
 30
0.0
 11
4850.0
 21
7273.663255355131
 31
0.0
  0
LINE
  5
1A0
102
{ACAD_REACTORS
330
1AC
102
}
330
2
100
AcDbEntity
  8
sapa_elevation
100
AcDbLine
 10
1200.0
 20
7223.663255355131
 30
0.0
 11
50.0
 21
7223.663255355131
 31
0.0
  0
LINE
  5
1A1
102
{ACAD_REACTORS
330
1AC
102
}
330
2
100
AcDbEntity
  8
sapa_elevation
100
AcDbLine
 10
2400.0
 20
7223.663255355131
 30
0.0
 11
1250.0
 21
7223.663255355131
 31
0.0
  0
LINE
  5
1A2
102
{ACAD_REACTORS
330
1AC
102
}
330
2
100
AcDbEntity
  8
sapa_elevation
100
AcDbLine
 10
3600.0
 20
7223.663255355131
 30
0.0
 11
2450.0
 21
7223.663255355131
 31
0.0
  0
LINE
  5
1A3
102
{ACAD_REACTORS
330
1AC
102
}
330
2
100
AcDbEntity
  8
sapa_elevation
100
AcDbLine
 10
4800.0
 20
7223.663255355131
 30
0.0
 11
3650.0
 21
7223.663255355131
 31
0.0
  0
LINE
  5
1A4
102
{ACAD_REACTORS
330
1AC
102
}
330
2
100
AcDbEntity
  8
sapa_elevation
100
AcDbLine
 10
6000.0
 20
7223.663255355131
 30
0.0
 11
4850.0
 21
7223.663255355131
 31
0.0
  0
LINE
  5
1A5
102
{ACAD_REACTORS
330
1AC
330
1AB
330
11D
102
}
330
2
100
AcDbEntity
  8
sapa_elevation
100
AcDbLine
 10
4800.0
 20
1203.663255355132
 30
0.0
 11
4800.0
 21
9903.663255355132
 31
0.0
  0
LINE
  5
1A6
102
{ACAD_REACTORS
330
1AC
330
1AB
330
11D
102
}
330
2
100
AcDbEntity
  8
sapa_elevation
100
AcDbLine
 10
3600.0
 20
1203.663255355132
 30
0.0
 11
3600.0
 21
9903.663255355132
 31
0.0
  0
LINE
  5
1A7
102
{ACAD_REACTORS
330
1AC
330
1AB
330
11D
102
}
330
2
100
AcDbEntity
  8
sapa_elevation
100
AcDbLine
 10
2400.0
 20
1203.663255355132
 30
0.0
 11
2400.0
 21
9903.663255355132
 31
0.0
  0
LINE
  5
1A8
102
{ACAD_REACTORS
330
1AC
330
1AB
330
11D
102
}
330
2
100
AcDbEntity
  8
sapa_elevation
100
AcDbLine
 10
1200.0
 20
1203.663255355132
 30
0.0
 11
1200.0
 21
9903.663255355132
 31
0.0
  0
LINE
  5
1A9
330
2
100
AcDbEntity
  8
sapa_elevation
100
AcDbLine
 10
0.0
 20
1203.663255355132
 30
0.0
 11
0.0
 21
9903.663255355132
 31
0.0
  0
LINE
  5
1AA
102
{ACAD_REACTORS
330
1AC
330
1AB
330
11D
102
}
330
2
100
AcDbEntity
  8
sapa_elevation
100
AcDbLine
 10
6000.0
 20
1203.663255355132
 30
0.0
 11
6000.0
 21
9903.663255355132
 31
0.0
  0
HATCH
  5
1AB
330
2
100
AcDbEntity
  8
sapa_elevation
100
AcDbHatch
 10
0.0
 20
0.0
 30
0.0
210
0.0
220
0.0
230
1.0
  2
ANSI32
 70
     0
 71
     1
 91
        7
 92
        7
 72
     0
 73
     1
 93
        4
 10
50.0
 20
4223.663255355131
 10
50.0
 20
3523.663255355133
 10
1200.0
 20
3523.663255355131
 10
1200.0
 20
4223.663255355131
 97
        4
330
185
330
18F
330
17B
330
1A8
 92
        7
 72
     0
 73
     1
 93
        4
 10
2400.0
 20
4223.663255355131
 10
1250.0
 20
4223.66325535513
 10
1250.0
 20
3523.663255355132
 10
2400.0
 20
3523.663255355132
 97
        4
330
186
330
18E
330
17C
330
1A7
 92
        7
 72
     0
 73
     1
 93
        4
 10
2450.0
 20
4223.663255355131
 10
2450.0
 20
3523.663255355133
 10
3600.0
 20
3523.663255355131
 10
3600.0
 20
4223.663255355131
 97
        4
330
187
330
18D
330
17D
330
1A6
 92
        7
 72
     0
 73
     1
 93
        4
 10
3650.0
 20
4223.663255355131
 10
3650.0
 20
3523.663255355133
 10
4800.0
 20
3523.663255355133
 10
4800.0
 20
4223.663255355131
 97
        4
330
188
330
18C
330
17E
330
1A5
 92
        7
 72
     0
 73
     1
 93
        4
 10
6000.0
 20
3523.663255355133
 10
6000.0
 20
4223.663255355131
 10
4850.0
 20
4223.66325535513
 10
4850.0
 20
3523.663255355132
 97
        4
330
189
330
18B
330
17F
330
1AA
 92
       24
 93
        4
 72
     1
 10
820.7946698086598
 20
4188.83503219371
 11
1150.79466980866
 21
4188.83503219371
 72
     1
 10
1150.79466980866
 20
4188.83503219371
 11
1150.79466980866
 21
3738.835032193711
 72
     1
 10
1150.79466980866
 20
3738.835032193711
 11
820.7946698086598
 21
3738.835032193711
 72
     1
 10
820.7946698086598
 20
3738.835032193711
 11
820.7946698086598
 21
4188.83503219371
 97
        1
330
0
 92
       24
 93
        4
 72
     1
 10
3242.281687224008
 20
4188.83503219371
 11
3542.281687224008
 21
4188.83503219371
 72
     1
 10
3542.281687224008
 20
4188.83503219371
 11
3542.281687224008
 21
3738.835032193711
 72
     1
 10
3542.281687224008
 20
3738.835032193711
 11
3242.281687224008
 21
3738.835032193711
 72
     1
 10
3242.281687224008
 20
3738.835032193711
 11
3242.281687224008
 21
4188.83503219371
 97
        1
330
0
 75
     0
 76
     1
 52
0.0
 41
20.0
 77
     0
 78
     2
 53
45.0
 43
49237.12597984036
 44
7280.179834042683
 45
-134.7038418160373
 46
134.7038418160373
 79
     0
 53
45.0
 43
49326.92857984036
 44
7280.179834042683
 45
-134.7038418160373
 46
134.7038418160373
 79
     0
 47
16.47502752760114
 98
        5
 10
511.3077368589147
 20
3888.280282519387
 10
2093.659959755707
 20
3904.755289004119
 10
2802.421975025485
 20
3954.180400550431
 10
4186.980133572521
 20
3954.180400550431
 10
5423.192889807877
 20
3805.905158003625
1001
ACAD
1010
0.0
1020
0.0
1030
0.0
  0
HATCH
  5
1AC
330
2
100
AcDbEntity
  8
sapa_elevation
100
AcDbHatch
 10
0.0
 20
0.0
 30
0.0
210
0.0
220
0.0
230
1.0
  2
ANSI32
 70
     0
 71
     1
 91
        5
 92
        7
 72
     0
 73
     1
 93
        4
 10
1200.0
 20
6523.663255355131
 10
1200.0
 20
7223.663255355131
 10
50.0
 20
7223.663255355131
 10
50.0
 20
6523.663255355131
 97
        4
330
1A0
330
18F
330
196
330
1A8
 92
        7
 72
     0
 73
     1
 93
        4
 10
2400.0
 20
6523.66325535513
 10
2400.0
 20
7223.663255355131
 10
1250.0
 20
7223.663255355131
 10
1250.0
 20
6523.663255355131
 97
        4
330
1A1
330
18E
330
197
330
1A7
 92
        7
 72
     0
 73
     1
 93
        4
 10
3600.0
 20
6523.66325535513
 10
3600.0
 20
7223.663255355131
 10
2450.0
 20
7223.663255355131
 10
2450.0
 20
6523.663255355131
 97
        4
330
1A2
330
18D
330
198
330
1A6
 92
        7
 72
     0
 73
     1
 93
        4
 10
4800.0
 20
6523.663255355131
 10
4800.0
 20
7223.663255355131
 10
3650.0
 20
7223.663255355131
 10
3650.0
 20
6523.663255355131
 97
        4
330
1A3
330
18C
330
199
330
1A5
 92
        7
 72
     0
 73
     1
 93
        4
 10
6000.0
 20
6523.663255355131
 10
6000.0
 20
7223.663255355131
 10
4850.0
 20
7223.663255355131
 10
4850.0
 20
6523.663255355131
 97
        4
330
1A4
330
18B
330
19A
330
1AA
 75
     0
 76
     1
 52
0.0
 41
20.0
 77
     0
 78
     2
 53
45.0
 43
49237.12597984036
 44
7280.179834042683
 45
-134.7038418160373
 46
134.7038418160373
 79
     0
 53
45.0
 43
49326.92857984036
 44
7280.179834042683
 45
-134.7038418160373
 46
134.7038418160373
 79
     0
 47
16.47502752760114
 98
        5
 10
709.1018012086715
 20
6820.835212578088
 10
1862.90031531475
 20
6804.360206093369
 10
3099.11292559946
 20
6771.410101031776
 10
4269.394375701799
 20
6754.935094547057
 10
5686.91826029068
 20
6721.985081577594
1001
ACAD
1010
0.0
1020
0.0
1030
0.0
  0
LINE
  5
1AD
102
{ACAD_REACTORS
330
11D
102
}
330
2
100
AcDbEntity
  8
sapa_elevation
100
AcDbLine
 10
1200.0
 20
9853.663255355131
 30
0.0
 11
50.0
 21
9853.663255355131
 31
0.0
  0
LINE
  5
1AE
102
{ACAD_REACTORS
330
11D
102
}
330
2
100
AcDbEntity
  8
sapa_elevation
100
AcDbLine
 10
2400.0
 20
9853.663255355131
 30
0.0
 11
1250.0
 21
9853.663255355131
 31
0.0
  0
LINE
  5
1AF
102
{ACAD_REACTORS
330
11D
102
}
330
2
100
AcDbEntity
  8
sapa_elevation
100
AcDbLine
 10
3600.0
 20
9853.663255355131
 30
0.0
 11
2450.0
 21
9853.663255355131
 31
0.0
  0
LINE
  5
1B0
102
{ACAD_REACTORS
330
11D
102
}
330
2
100
AcDbEntity
  8
sapa_elevation
100
AcDbLine
 10
4800.0
 20
9853.663255355131
 30
0.0
 11
3650.0
 21
9853.663255355131
 31
0.0
  0
LINE
  5
1B1
330
2
100
AcDbEntity
  8
sapa_elevation
100
AcDbLine
 10
1200.000000000007
 20
9403.663255355132
 30
0.0
 11
50.0
 21
9403.663255355132
 31
0.0
  0
LINE
  5
1B2
330
2
100
AcDbEntity
  8
sapa_elevation
100
AcDbLine
 10
2400.0
 20
9403.663255355132
 30
0.0
 11
1250.000000000007
 21
9403.663255355132
 31
0.0
  0
LINE
  5
1B3
330
2
100
AcDbEntity
  8
sapa_elevation
100
AcDbLine
 10
3600.0
 20
9403.663255355132
 30
0.0
 11
2450.0
 21
9403.663255355132
 31
0.0
  0
LINE
  5
1B4
330
2
100
AcDbEntity
  8
sapa_elevation
100
AcDbLine
 10
4800.000000000007
 20
9403.663255355132
 30
0.0
 11
3650.0
 21
9403.663255355132
 31
0.0
  0
LINE
  5
1B5
330
2
100
AcDbEntity
  8
sapa_elevation
100
AcDbLine
 10
6000.0
 20
9403.663255355132
 30
0.0
 11
4850.000000000007
 21
9403.663255355132
 31
0.0
  0
LINE
  5
1B6
102
{ACAD_REACTORS
330
11D
102
}
330
2
100
AcDbEntity
  8
sapa_elevation
100
AcDbLine
 10
1200.000000000007
 20
9453.663255355131
 30
0.0
 11
50.0
 21
9453.663255355131
 31
0.0
  0
LINE
  5
1B7
102
{ACAD_REACTORS
330
11D
102
}
330
2
100
AcDbEntity
  8
sapa_elevation
100
AcDbLine
 10
2400.0
 20
9453.663255355131
 30
0.0
 11
1250.000000000007
 21
9453.663255355131
 31
0.0
  0
LINE
  5
1B8
102
{ACAD_REACTORS
330
11D
102
}
330
2
100
AcDbEntity
  8
sapa_elevation
100
AcDbLine
 10
3600.0
 20
9453.663255355131
 30
0.0
 11
2450.0
 21
9453.663255355131
 31
0.0
  0
LINE
  5
1B9
102
{ACAD_REACTORS
330
11D
102
}
330
2
100
AcDbEntity
  8
sapa_elevation
100
AcDbLine
 10
4800.000000000007
 20
9453.663255355131
 30
0.0
 11
3650.0
 21
9453.663255355131
 31
0.0
  0
LINE
  5
1BA
102
{ACAD_REACTORS
330
11D
102
}
330
2
100
AcDbEntity
  8
sapa_elevation
100
AcDbLine
 10
6000.0
 20
9453.663255355131
 30
0.0
 11
4850.000000000007
 21
9453.663255355131
 31
0.0
  0
LINE
  5
1BB
102
{ACAD_REACTORS
330
11D
102
}
330
2
100
AcDbEntity
  8
sapa_elevation
100
AcDbLine
 10
6000.0
 20
9853.663255355131
 30
0.0
 11
4850.0
 21
9853.663255355131
 31
0.0
  0
LINE
  5
1BC
330
2
100
AcDbEntity
  8
sapa_elevation
100
AcDbLine
 10
6050.0
 20
9903.663255355132
 30
0.0
 11
0.0
 21
9903.663255355132
 31
0.0
  0
LINE
  5
1BD
330
2
100
AcDbEntity
  8
sapa_elevation
100
AcDbLine
 10
1200.0
 20
2403.663255355132
 30
0.0
 11
50.0
 21
2403.663255355132
 31
0.0
  0
LINE
  5
1BE
330
2
100
AcDbEntity
  8
sapa_elevation
100
AcDbLine
 10
2400.0
 20
2403.663255355132
 30
0.0
 11
1250.0
 21
2403.663255355132
 31
0.0
  0
LINE
  5
1BF
330
2
100
AcDbEntity
  8
sapa_elevation
100
AcDbLine
 10
3600.0
 20
2403.663255355132
 30
0.0
 11
2450.0
 21
2403.663255355132
 31
0.0
  0
LINE
  5
1C0
330
2
100
AcDbEntity
  8
sapa_elevation
100
AcDbLine
 10
4800.0
 20
2403.663255355132
 30
0.0
 11
3650.0
 21
2403.663255355132
 31
0.0
  0
LINE
  5
1C1
330
2
100
AcDbEntity
  8
sapa_elevation
100
AcDbLine
 10
6000.0
 20
2403.663255355132
 30
0.0
 11
4850.0
 21
2403.663255355132
 31
0.0
  0
LINE
  5
1C2
330
2
100
AcDbEntity
  8
sapa_elevation
100
AcDbLine
 10
1200.0
 20
2353.663255355132
 30
0.0
 11
50.0
 21
2353.663255355132
 31
0.0
  0
LINE
  5
1C3
330
2
100
AcDbEntity
  8
sapa_elevation
100
AcDbLine
 10
2400.0
 20
2353.663255355132
 30
0.0
 11
1250.0
 21
2353.663255355132
 31
0.0
  0
LINE
  5
1C4
330
2
100
AcDbEntity
  8
sapa_elevation
100
AcDbLine
 10
3600.0
 20
2353.663255355132
 30
0.0
 11
2450.0
 21
2353.663255355132
 31
0.0
  0
LINE
  5
1C5
330
2
100
AcDbEntity
  8
sapa_elevation
100
AcDbLine
 10
4800.0
 20
2353.663255355132
 30
0.0
 11
3650.0
 21
2353.663255355132
 31
0.0
  0
LINE
  5
1C6
330
2
100
AcDbEntity
  8
sapa_elevation
100
AcDbLine
 10
6000.0
 20
2353.663255355132
 30
0.0
 11
4850.0
 21
2353.663255355132
 31
0.0
  0
LINE
  5
1C7
330
2
100
AcDbEntity
  8
sapa_elevation
100
AcDbLine
 10
1200.0
 20
1253.663255355132
 30
0.0
 11
50.0
 21
1253.663255355132
 31
0.0
  0
LINE
  5
1C8
330
2
100
AcDbEntity
  8
sapa_elevation
100
AcDbLine
 10
2400.0
 20
1253.663255355132
 30
0.0
 11
1250.0
 21
1253.663255355132
 31
0.0
  0
LINE
  5
1C9
330
2
100
AcDbEntity
  8
sapa_elevation
100
AcDbLine
 10
4800.0
 20
1253.663255355132
 30
0.0
 11
3650.0
 21
1253.663255355132
 31
0.0
  0
LINE
  5
1CA
330
2
100
AcDbEntity
  8
sapa_elevation
100
AcDbLine
 10
6000.0
 20
1253.663255355132
 30
0.0
 11
4850.0
 21
1253.663255355132
 31
0.0
  0
LINE
  5
1CB
330
2
100
AcDbEntity
  8
sapa_elevation
100
AcDbLine
 10
6050.0
 20
1203.663255355132
 30
0.0
 11
0.0
 21
1203.663255355132
 31
0.0
  0
ENDSEC
  0
SECTION
  2
OBJECTS
  0
DICTIONARY
  5
B
330
0
100
AcDbDictionary
281
     1
  3
ACAD_COLOR
350
36
  3
ACAD_GROUP
350
31
  3
ACAD_LAYOUT
350
11
  3
ACAD_MATERIAL
350
D
  3
ACAD_MLEADERSTYLE
350
39
  3
ACAD_MLINESTYLE
350
32
  3
ACAD_PLOTSETTINGS
350
33
  3
ACAD_PLOTSTYLENAME
350
A
  3
ACAD_SCALELIST
350
37
  3
ACAD_TABLESTYLE
350
38
  3
ACAD_VISUALSTYLE
350
28
  3
ACDB_RECOMPOSE_DATA
350
1D8
  3
AcDbVariableDictionary
350
1CD
  3
AcDsDecomposeData
350
1DE
  0
DICTIONARY
  5
19
330
18
100
AcDbDictionary
280
     1
281
     1
  3
ACAD_LAYERSTATES
360
1A
  3
ACLYDICTIONARY
360
1B
  0
DICTIONARY
  5
7
330
6
100
AcDbDictionary
280
     1
281
     1
  3
ADSK_XREC_LAYER_RECONCILED
360
8
  0
DICTIONARY
  5
3B
330
3A
100
AcDbDictionary
280
     1
281
     1
  0
DICTIONARY
  5
3
330
2
100
AcDbDictionary
280
     1
281
     1
  3
ACAD_SORTENTS
360
1CC
  0
DICTIONARY
  5
36
102
{ACAD_REACTORS
330
B
102
}
330
B
100
AcDbDictionary
281
     1
  0
DICTIONARY
  5
31
102
{ACAD_REACTORS
330
B
102
}
330
B
100
AcDbDictionary
281
     1
  0
DICTIONARY
  5
11
102
{ACAD_REACTORS
330
B
102
}
330
B
100
AcDbDictionary
281
     1
  3
Model
350
10
  3
Web
350
16
  0
DICTIONARY
  5
D
102
{ACAD_REACTORS
330
B
102
}
330
B
100
AcDbDictionary
281
     1
  3
ByBlock
350
35
  3
ByLayer
350
34
  3
Global
350
C
  0
DICTIONARY
  5
39
102
{ACAD_REACTORS
330
B
102
}
330
B
100
AcDbDictionary
281
     1
  3
Standard
350
146
  0
DICTIONARY
  5
32
102
{ACAD_REACTORS
330
B
102
}
330
B
100
AcDbDictionary
281
     1
  3
STANDARD
350
3D
  0
DICTIONARY
  5
33
102
{ACAD_REACTORS
330
B
102
}
330
B
100
AcDbDictionary
281
     1
  0
ACDBDICTIONARYWDFLT
  5
A
102
{ACAD_REACTORS
330
B
102
}
330
B
100
AcDbDictionary
281
     1
  3
Normal
350
9
100
AcDbDictionaryWithDefault
340
9
  0
DICTIONARY
  5
37
102
{ACAD_REACTORS
330
B
102
}
330
B
100
AcDbDictionary
281
     1
  3
*A1
350
42
  3
*A10
350
43
  3
*A11
350
44
  3
*A12
350
45
  3
*A13
350
46
  3
*A14
350
47
  3
*A15
350
48
  3
*A16
350
49
  3
*A17
350
4A
  3
*A18
350
4B
  3
*A2
350
4C
  3
*A3
350
4D
  3
*A4
350
4E
  3
*A5
350
4F
  3
*A6
350
50
  3
*A7
350
51
  3
*A8
350
52
  3
*A9
350
53
  3
A0
350
54
  3
A1
350
55
  3
A2
350
56
  3
A3
350
57
  3
A4
350
58
  3
A5
350
59
  3
A6
350
5A
  3
A7
350
5B
  3
A8
350
5C
  3
A9
350
5D
  3
B0
350
5E
  3
B1
350
5F
  3
B2
350
60
  3
B3
350
61
  3
B4
350
62
  3
B5
350
63
  3
B6
350
64
  0
DICTIONARY
  5
38
102
{ACAD_REACTORS
330
B
102
}
330
B
100
AcDbDictionary
281
     1
  3
Standard
350
3E
  0
DICTIONARY
  5
28
102
{ACAD_REACTORS
330
B
102
}
330
B
100
AcDbDictionary
281
     1
  3
2dWireframe
350
27
  3
Realistic
350
40
  3
Wireframe
350
41
  0
XRECORD
  5
1D8
102
{ACAD_REACTORS
330
B
102
}
330
B
100
AcDbXrecord
280
     1
 90
        1
330
3E
  0
DICTIONARY
  5
1CD
102
{ACAD_REACTORS
330
B
102
}
330
B
100
AcDbDictionary
281
     1
  3
CANNOSCALE
350
1D3
  3
CMLEADERSTYLE
350
1CF
  3
CTABLESTYLE
350
1CE
  3
CVIEWDETAILSTYLE
350
1D0
  3
CVIEWSECTIONSTYLE
350
1D1
  3
LAYEREVAL
350
1D5
  3
LAYERNOTIFY
350
1D6
  3
LIGHTINGUNITS
350
1D4
  3
MSLTSCALE
350
1D2
  0
DICTIONARY
  5
1DE
102
{ACAD_REACTORS
330
B
102
}
330
B
100
AcDbDictionary
281
     1
  3
AcDsRecords
350
1E0
  3
AcDsSchemas
350
1DF
1001
ACAD
1070
     2
  0
DICTIONARY
  5
1A
102
{ACAD_REACTORS
330
19
102
}
330
19
100
AcDbDictionary
281
     1
  0
DICTIONARY
  5
1B
102
{ACAD_REACTORS
330
19
102
}
330
19
100
AcDbDictionary
281
     1
1001
ACAD
1000
<All
  0
XRECORD
  5
8
102
{ACAD_REACTORS
330
7
102
}
330
7
100
AcDbXrecord
280
     1
290
     1
  0
SORTENTSTABLE
  5
1CC
102
{ACAD_REACTORS
330
3
102
}
330
3
100
AcDbSortentsTable
330
2
331
79
  5
1C6
331
16D
  5
150
331
1AC
  5
E5
331
81
  5
1C4
331
136
  5
186
331
89
  5
1C2
331
13E
  5
17E
331
175
  5
147
331
1B4
  5
C5
331
1BC
  5
A1
331
91
  5
1C0
331
17D
  5
13E
331
1C4
  5
81
331
14E
  5
170
331
185
  5
136
331
99
  5
1BE
331
18D
  5
12E
331
A1
  5
1BC
331
156
  5
168
331
15E
  5
160
331
195
  5
126
331
11F
  5
19D
331
A9
  5
1BA
331
166
  5
158
331
19D
  5
11E
331
B1
  5
1B8
331
127
  5
195
331
12F
  5
18D
331
1A5
  5
101
331
B9
  5
1B6
331
1AD
  5
E1
331
137
  5
185
331
C1
  5
1B4
331
16E
  5
14F
331
1B5
  5
C1
331
13F
  5
17D
331
C9
  5
1B2
331
176
  5
145
331
17E
  5
13D
331
1BD
  5
9D
331
D1
  5
1B0
331
147
  5
176
331
14F
  5
16F
331
186
  5
135
331
1C5
  5
7D
331
D9
  5
1AE
331
157
  5
167
331
E1
  5
1AC
331
18E
  5
12D
331
120
  5
19C
331
E9
  5
1AA
331
196
  5
125
331
19E
  5
11D
331
128
  5
194
331
167
  5
157
331
1A6
  5
FD
331
F1
  5
1A8
331
130
  5
18C
331
16F
  5
14E
331
1AE
  5
DD
331
F9
  5
1A6
331
138
  5
184
331
140
  5
17C
331
177
  5
144
331
101
  5
1A4
331
1B6
  5
BD
331
1BE
  5
99
331
109
  5
1A2
331
148
  5
175
331
17F
  5
13C
331
1C6
  5
79
331
187
  5
134
331
111
  5
1A0
331
150
  5
16E
331
18F
  5
12C
331
119
  5
19E
331
158
  5
166
331
160
  5
15E
331
197
  5
124
331
121
  5
19B
331
19F
  5
119
331
129
  5
193
331
1A7
  5
F9
331
131
  5
18B
331
168
  5
156
331
1AF
  5
D9
331
139
  5
183
331
170
  5
14D
331
178
  5
143
331
1B7
  5
B9
331
141
  5
17B
331
180
  5
13B
331
1BF
  5
95
331
149
  5
174
331
1C7
  5
75
331
65
  5
1CB
331
6D
  5
1C9
331
75
  5
1C7
331
151
  5
16D
331
188
  5
133
331
159
  5
165
331
190
  5
12B
331
122
  5
19A
331
161
  5
15D
331
198
  5
123
331
1A0
  5
115
331
12A
  5
192
331
169
  5
155
331
1A8
  5
F5
331
7D
  5
1C5
331
132
  5
18A
331
171
  5
14C
331
1B0
  5
D5
331
85
  5
1C3
331
13A
  5
182
331
8D
  5
1C1
331
142
  5
17A
331
179
  5
142
331
1B8
  5
B5
331
1C0
  5
91
331
95
  5
1BF
331
14A
  5
173
331
181
  5
13A
331
189
  5
132
331
1C8
  5
71
331
9D
  5
1BD
331
152
  5
16C
331
191
  5
12A
331
A5
  5
1BB
331
15A
  5
164
331
162
  5
15C
331
199
  5
122
331
AD
  5
1B9
331
123
  5
199
331
12B
  5
191
331
B5
  5
1B7
331
1A1
  5
111
331
133
  5
189
331
BD
  5
1B5
331
16A
  5
154
331
1A9
  5
F1
331
1B1
  5
D1
331
13B
  5
181
331
C5
  5
1B3
331
172
  5
14A
331
17A
  5
141
331
1B9
  5
B1
331
CD
  5
1B1
331
143
  5
179
331
D5
  5
1AF
331
182
  5
139
331
1C1
  5
8D
331
153
  5
16B
331
DD
  5
1AD
331
18A
  5
131
331
1C9
  5
6D
331
15B
  5
163
331
E5
  5
1AB
331
192
  5
129
331
19A
  5
121
331
124
  5
198
331
163
  5
15B
331
ED
  5
1A9
331
1A2
  5
10D
331
12C
  5
190
331
16B
  5
153
331
1AA
  5
ED
331
F5
  5
1A7
331
134
  5
188
331
13C
  5
180
331
173
  5
149
331
FD
  5
1A5
331
1B2
  5
CD
331
144
  5
178
331
17B
  5
140
331
105
  5
1A3
331
1BA
  5
AD
331
1C2
  5
89
331
10D
  5
1A1
331
14C
  5
172
331
183
  5
138
331
18B
  5
130
331
1CA
  5
69
331
115
  5
19F
331
154
  5
16A
331
193
  5
128
331
11D
  5
A5
331
15C
  5
162
331
164
  5
15A
331
19B
  5
120
331
125
  5
197
331
12D
  5
18F
331
1A3
  5
109
331
1AB
  5
E9
331
135
  5
187
331
16C
  5
151
331
1B3
  5
C9
331
13D
  5
17F
331
174
  5
148
331
17C
  5
13F
331
1BB
  5
A9
331
145
  5
177
331
14D
  5
171
331
184
  5
137
331
1C3
  5
85
331
69
  5
1CA
331
71
  5
1C8
331
155
  5
169
331
18C
  5
12F
331
1CB
  5
65
331
11E
  5
152
331
15D
  5
161
331
194
  5
127
331
19C
  5
11F
331
126
  5
196
331
165
  5
159
331
1A4
  5
105
331
12E
  5
18E
  0
LAYOUT
  5
10
102
{ACAD_REACTORS
330
11
102
}
330
11
100
AcDbPlotSettings
  1

  2
DWF6 ePlot.pc3
  4
ISO_full_bleed_A4_(210.00_x_297.00_MM)
  6

 40
6.0
 41
5.0
 42
7.0
 43
5.0
 44
210.0
 45
297.0
 46
0.0
 47
0.0
 48
0.0
 49
0.0
140
0.0
141
0.0
142
1.0
143
1.929958503202149
 70
 11952
 72
     1
 73
     1
 74
     0
  7
sapa1.ctb
 75
     0
147
0.5181458556444709
 76
     0
 77
     2
 78
   300
148
-209.4861090460728
149
-189.6933865316904
100
AcDbLayout
  1
Model
 70
     1
 71
     0
 10
0.0
 20
0.0
 11
12.0
 21
9.0
 12
0.0
 22
0.0
 32
0.0
 14
0.0
 24
0.0
 34
0.0
 15
0.0
 25
0.0
 35
0.0
146
0.0
 13
0.0
 23
0.0
 33
0.0
 16
1.0
 26
0.0
 36
0.0
 17
0.0
 27
1.0
 37
0.0
 76
     0
330
2
331
26
1001
ACAD_PSEXT
1000
DWF6 ePlot.pc3
1000
DWF6 ePlot
1000
File
1000

1070
     0
  0
LAYOUT
  5
16
102
{ACAD_XDICTIONARY
360
17
102
}
102
{ACAD_REACTORS
330
11
102
}
330
11
100
AcDbPlotSettings
  1

  2
frontp04.pc3
  4
A4
  6

 40
4.233333110809326
 41
4.233341693878173
 42
4.233322143554687
 43
4.23333740234375
 44
209.9733276367187
 45
296.9259948730469
 46
12.0
 47
0.0
 48
0.0
 49
0.0
140
0.0
141
0.0
142
1.0
143
1.0
 70
   688
 72
     1
 73
     0
 74
     1
  7
sapa2.ctb
 75
    16
147
1.0
 76
     1
 77
     2
 78
   300
148
-1.826818110860415
149
0.0203279535528509
100
AcDbLayout
  1
Web
 70
     1
 71
     1
 10
-14.40651499994891
 20
-4.253669647431024
 11
195.5668126367698
 21
292.6723252256159
 12
0.0
 22
0.0
 32
0.0
 14
5.868009702067809
 24
-0.0038431578304881
 34
-0.0015258207003583
 15
185.8813063784483
 25
283.0082764204674
 35
0.0000000349246037
146
0.0
 13
0.0
 23
0.0
 33
0.0
 16
1.0
 26
0.0
 36
0.0
 17
0.0
 27
1.0
 37
0.0
 76
     0
330
13
1001
ACAD_PSEXT
1000
frontp04.pc3
1000
HP LaserJet 4200 PCL6
1000
Sapa Building System
1000
HP Laserjet 4200n, pcl 6
1070
     0
  0
MATERIAL
  5
35
102
{ACAD_REACTORS
330
D
102
}
330
D
100
AcDbMaterial
  1
ByBlock
 73
     1
 78
     1
172
     1
176
     1
270
     1
274
     1
 94
       63
  0
MATERIAL
  5
34
102
{ACAD_REACTORS
330
D
102
}
330
D
100
AcDbMaterial
  1
ByLayer
 73
     1
 78
     1
172
     1
176
     1
270
     1
274
     1
 94
       63
  0
MATERIAL
  5
C
102
{ACAD_REACTORS
330
D
102
}
330
D
100
AcDbMaterial
  1
Global
 73
     1
 78
     1
172
     1
176
     1
270
     1
274
     1
 94
       63
  0
MLEADERSTYLE
  5
146
102
{ACAD_REACTORS
330
39
330
148
330
145
102
}
330
39
100
AcDbMLeaderStyle
170
     2
171
     1
172
     0
 90
        2
 40
0.0
 41
0.0
173
     1
 91
-1056964608
340
21
 92
       -2
290
     1
 42
2.0
291
     1
 43
0.36
  3
Standard
 44
4.0
300

342
1E
174
     1
178
     6
175
     1
176
     0
 93
-1056964608
 45
4.0
292
     0
297
     0
 46
4.0
 94
-1056964608
 47
1.0
 49
1.0
140
1.0
293
     1
141
0.0
294
     1
177
     0
142
1.0
295
     0
296
     0
143
0.125
1001
ACAD_MLEADERVER
1070
     2
  0
MLINESTYLE
  5
3D
102
{ACAD_REACTORS
330
32
102
}
330
32
100
AcDbMlineStyle
  2
STANDARD
 70
     0
  3

 62
   256
 51
90.0
 52
90.0
 71
     2
 49
0.5
 62
   256
  6
BYLAYER
 49
-0.5
 62
   256
  6
BYLAYER
  0
ACDBPLACEHOLDER
  5
9
102
{ACAD_REACTORS
330
A
102
}
330
A
  0
SCALE
  5
42
102
{ACAD_REACTORS
330
37
102
}
330
37
100
AcDbScale
 70
     0
300
1/128" = 1'-0"_XREF
140
0.0078125
141
12.0
290
     0
  0
SCALE
  5
43
102
{ACAD_REACTORS
330
37
102
}
330
37
100
AcDbScale
 70
     0
300
3/4" = 1'-0"_XREF
140
0.75
141
12.0
290
     0
  0
SCALE
  5
44
102
{ACAD_REACTORS
330
37
102
}
330
37
100
AcDbScale
 70
     0
300
1" = 1'-0"_XREF
140
1.0
141
12.0
290
     0
  0
SCALE
  5
45
102
{ACAD_REACTORS
330
37
102
}
330
37
100
AcDbScale
 70
     0
300
1-1/2" = 1'-0"_XREF
140
1.5
141
12.0
290
     0
  0
SCALE
  5
46
102
{ACAD_REACTORS
330
37
102
}
330
37
100
AcDbScale
 70
     0
300
3" = 1'-0"_XREF
140
3.0
141
12.0
290
     0
  0
SCALE
  5
47
102
{ACAD_REACTORS
330
37
102
}
330
37
100
AcDbScale
 70
     0
300
6" = 1'-0"_XREF
140
6.0
141
12.0
290
     0
  0
SCALE
  5
48
102
{ACAD_REACTORS
330
37
102
}
330
37
100
AcDbScale
 70
     0
300
1'-0" = 1'-0"_XREF
140
12.0
141
12.0
290
     0
  0
SCALE
  5
49
102
{ACAD_REACTORS
330
37
102
}
330
37
100
AcDbScale
 70
     0
300
1/64" = 1'-0"_XREF
140
0.015625
141
12.0
290
     0
  0
SCALE
  5
4A
102
{ACAD_REACTORS
330
37
102
}
330
37
100
AcDbScale
 70
     0
300
1/32" = 1'-0"_XREF
140
0.03125
141
12.0
290
     0
  0
SCALE
  5
4B
102
{ACAD_REACTORS
330
37
102
}
330
37
100
AcDbScale
 70
     0
300
1/16" = 1'-0"_XREF
140
0.0625
141
12.0
290
     0
  0
SCALE
  5
4C
102
{ACAD_REACTORS
330
37
102
}
330
37
100
AcDbScale
 70
     0
300
3/32" = 1'-0"_XREF
140
0.09375
141
12.0
290
     0
  0
SCALE
  5
4D
102
{ACAD_REACTORS
330
37
102
}
330
37
100
AcDbScale
 70
     0
300
1/8" = 1'-0"_XREF
140
0.125
141
12.0
290
     0
  0
SCALE
  5
4E
102
{ACAD_REACTORS
330
37
102
}
330
37
100
AcDbScale
 70
     0
300
3/16" = 1'-0"_XREF
140
0.1875
141
12.0
290
     0
  0
SCALE
  5
4F
102
{ACAD_REACTORS
330
37
102
}
330
37
100
AcDbScale
 70
     0
300
1:2.5_XREF
140
1.0
141
2.5
290
     0
  0
SCALE
  5
50
102
{ACAD_REACTORS
330
37
102
}
330
37
100
AcDbScale
 70
     0
300
5:1_XREF
140
5.0
141
1.0
290
     0
  0
SCALE
  5
51
102
{ACAD_REACTORS
330
37
102
}
330
37
100
AcDbScale
 70
     0
300
1/4" = 1'-0"_XREF
140
0.25
141
12.0
290
     0
  0
SCALE
  5
52
102
{ACAD_REACTORS
330
37
102
}
330
37
100
AcDbScale
 70
     0
300
3/8" = 1'-0"_XREF
140
0.375
141
12.0
290
     0
  0
SCALE
  5
53
102
{ACAD_REACTORS
330
37
102
}
330
37
100
AcDbScale
 70
     0
300
1/2" = 1'-0"_XREF
140
0.5
141
12.0
290
     0
  0
SCALE
  5
54
102
{ACAD_REACTORS
330
37
102
}
330
37
100
AcDbScale
 70
     0
300
1:1
140
1.0
141
1.0
290
     1
  0
SCALE
  5
55
102
{ACAD_REACTORS
330
37
102
}
330
37
100
AcDbScale
 70
     0
300
1:2
140
1.0
141
2.0
290
     0
  0
SCALE
  5
56
102
{ACAD_REACTORS
330
37
102
}
330
37
100
AcDbScale
 70
     0
300
1:4
140
1.0
141
4.0
290
     0
  0
SCALE
  5
57
102
{ACAD_REACTORS
330
37
102
}
330
37
100
AcDbScale
 70
     0
300
1:5
140
1.0
141
5.0
290
     0
  0
SCALE
  5
58
102
{ACAD_REACTORS
330
37
102
}
330
37
100
AcDbScale
 70
     0
300
1:8
140
1.0
141
8.0
290
     0
  0
SCALE
  5
59
102
{ACAD_REACTORS
330
37
102
}
330
37
100
AcDbScale
 70
     0
300
1:10
140
1.0
141
10.0
290
     0
  0
SCALE
  5
5A
102
{ACAD_REACTORS
330
37
102
}
330
37
100
AcDbScale
 70
     0
300
1:16
140
1.0
141
16.0
290
     0
  0
SCALE
  5
5B
102
{ACAD_REACTORS
330
37
102
}
330
37
100
AcDbScale
 70
     0
300
1:20
140
1.0
141
20.0
290
     0
  0
SCALE
  5
5C
102
{ACAD_REACTORS
330
37
102
}
330
37
100
AcDbScale
 70
     0
300
1:30
140
1.0
141
30.0
290
     0
  0
SCALE
  5
5D
102
{ACAD_REACTORS
330
37
102
}
330
37
100
AcDbScale
 70
     0
300
1:40
140
1.0
141
40.0
290
     0
  0
SCALE
  5
5E
102
{ACAD_REACTORS
330
37
102
}
330
37
100
AcDbScale
 70
     0
300
1:50
140
1.0
141
50.0
290
     0
  0
SCALE
  5
5F
102
{ACAD_REACTORS
330
37
102
}
330
37
100
AcDbScale
 70
     0
300
1:100
140
1.0
141
100.0
290
     0
  0
SCALE
  5
60
102
{ACAD_REACTORS
330
37
102
}
330
37
100
AcDbScale
 70
     0
300
2:1
140
2.0
141
1.0
290
     0
  0
SCALE
  5
61
102
{ACAD_REACTORS
330
37
102
}
330
37
100
AcDbScale
 70
     0
300
4:1
140
4.0
141
1.0
290
     0
  0
SCALE
  5
62
102
{ACAD_REACTORS
330
37
102
}
330
37
100
AcDbScale
 70
     0
300
8:1
140
8.0
141
1.0
290
     0
  0
SCALE
  5
63
102
{ACAD_REACTORS
330
37
102
}
330
37
100
AcDbScale
 70
     0
300
10:1
140
10.0
141
1.0
290
     0
  0
SCALE
  5
64
102
{ACAD_REACTORS
330
37
102
}
330
37
100
AcDbScale
 70
     0
300
100:1
140
100.0
141
1.0
290
     0
  0
TABLESTYLE
  5
3E
102
{ACAD_XDICTIONARY
360
3F
102
}
102
{ACAD_REACTORS
330
38
102
}
330
38
100
AcDbTableStyle
  3
Standard
 70
     0
 71
     0
 40
1.5
 41
1.5
280
     0
281
     0
  7
STANDARD
140
4.5
170
     2
 62
     0
 63
     7
283
     0
 90
        4
 91
        0
  1

274
    -2
284
     1
 64
     0
275
    -2
285
     1
 65
     0
276
    -2
286
     1
 66
     0
277
    -2
287
     1
 67
     0
278
    -2
288
     1
 68
     0
279
    -2
289
     1
 69
     0
  7
STANDARD
140
6.0
170
     5
 62
     0
 63
     7
283
     0
 90
        4
 91
        0
  1

274
    -2
284
     1
 64
     0
275
    -2
285
     1
 65
     0
276
    -2
286
     1
 66
     0
277
    -2
287
     1
 67
     0
278
    -2
288
     1
 68
     0
279
    -2
289
     1
 69
     0
  7
STANDARD
140
4.5
170
     5
 62
     0
 63
     7
283
     0
 90
        4
 91
        0
  1

274
    -2
284
     1
 64
     0
275
    -2
285
     1
 65
     0
276
    -2
286
     1
 66
     0
277
    -2
287
     1
 67
     0
278
    -2
288
     1
 68
     0
279
    -2
289
     1
 69
     0
  0
VISUALSTYLE
  5
27
102
{ACAD_XDICTIONARY
360
1E1
102
}
102
{ACAD_REACTORS
330
28
102
}
330
28
100
AcDbVisualStyle
  2
2dWireframe
 70
     4
 71
     0
 72
     2
 73
     0
 90
        0
 40
-0.6
 41
-30.0
 62
     5
 63
     7
421
 16777215
 74
     1
 91
        4
 64
     7
 65
   257
 75
     1
175
     1
 42
1.0
 92
        0
 66
   257
 43
1.0
 76
     1
 77
     6
 78
     2
 67
     7
 79
     5
170
     0
171
     0
290
     0
174
     0
 93
        1
 44
0.0
173
     0
291
     0
 45
0.0
1001
ACAD
1000
AcDbSavedByObjectVersion
1070
     0
  0
VISUALSTYLE
  5
40
102
{ACAD_XDICTIONARY
360
1E3
102
}
102
{ACAD_REACTORS
330
28
102
}
330
28
100
AcDbVisualStyle
  2
Realistic
 70
     8
 71
     2
 72
     2
 73
     0
 90
        0
 40
-0.6
 41
-30.0
 62
     5
 63
     7
421
 16777215
 74
     1
 91
        0
 64
     7
 65
   257
 75
     1
175
     1
 42
1.0
 92
        8
 66
     8
424
  7895160
 43
1.0
 76
     1
 77
     6
 78
     2
 67
     7
 79
     5
170
     0
171
     0
290
     0
174
     0
 93
       13
 44
0.0
173
     0
291
     0
 45
0.0
1001
ACAD
1000
AcDbSavedByObjectVersion
1070
     0
  0
VISUALSTYLE
  5
41
102
{ACAD_XDICTIONARY
360
1E5
102
}
102
{ACAD_REACTORS
330
28
102
}
330
28
100
AcDbVisualStyle
  2
Wireframe
 70
     5
 71
     0
 72
     2
 73
     0
 90
        0
 40
-0.6
 41
-30.0
 62
     5
 63
     7
421
 16777215
 74
     1
 91
        4
 64
     7
 65
   257
 75
     1
175
     1
 42
1.0
 92
        0
 66
   257
 43
1.0
 76
     1
 77
     6
 78
     2
 67
     7
 79
     3
170
     0
171
     0
290
     0
174
     0
 93
        1
 44
0.0
173
     0
291
     0
 45
0.0
1001
ACAD
1000
AcDbSavedByObjectVersion
1070
     0
  0
DICTIONARYVAR
  5
1D3
102
{ACAD_REACTORS
330
1CD
102
}
330
1CD
100
DictionaryVariables
280
     0
  1
1:1
  0
DICTIONARYVAR
  5
1CF
102
{ACAD_REACTORS
330
1CD
102
}
330
1CD
100
DictionaryVariables
280
     0
  1
STANDARD
  0
DICTIONARYVAR
  5
1CE
102
{ACAD_REACTORS
330
1CD
102
}
330
1CD
100
DictionaryVariables
280
     0
  1
STANDARD
  0
DICTIONARYVAR
  5
1D0
102
{ACAD_REACTORS
330
1CD
102
}
330
1CD
100
DictionaryVariables
280
     0
  1

  0
DICTIONARYVAR
  5
1D1
102
{ACAD_REACTORS
330
1CD
102
}
330
1CD
100
DictionaryVariables
280
     0
  1

  0
DICTIONARYVAR
  5
1D5
102
{ACAD_REACTORS
330
1CD
102
}
330
1CD
100
DictionaryVariables
280
     0
  1
1
  0
DICTIONARYVAR
  5
1D6
102
{ACAD_REACTORS
330
1CD
102
}
330
1CD
100
DictionaryVariables
280
     0
  1
15
  0
DICTIONARYVAR
  5
1D4
102
{ACAD_REACTORS
330
1CD
102
}
330
1CD
100
DictionaryVariables
280
     0
  1
0
  0
DICTIONARYVAR
  5
1D2
102
{ACAD_REACTORS
330
1CD
102
}
330
1CD
100
DictionaryVariables
280
     0
  1
0
  0
DICTIONARY
  5
1E0
102
{ACAD_REACTORS
330
1DE
102
}
330
1DE
100
AcDbDictionary
281
     1
  0
DICTIONARY
  5
1DF
102
{ACAD_REACTORS
330
1DE
102
}
330
1DE
100
AcDbDictionary
281
     1
  3
2128309128
350
1D9
  3
2128309136
350
1DA
  3
2128309144
350
1DB
  3
2128309152
350
1DC
  3
2128309160
350
1DD
  0
DICTIONARY
  5
17
330
16
100
AcDbDictionary
280
     1
281
     1
  0
DICTIONARY
  5
3F
330
3E
100
AcDbDictionary
280
     1
281
     1
  3
ACAD_ROUNDTRIP_2008_TABLESTYLE_CELLSTYLEMAP
360
1D7
  0
DICTIONARY
  5
1E1
330
27
100
AcDbDictionary
280
     1
281
     1
  3
ACAD_XREC_ROUNDTRIP
360
1E2
  0
DICTIONARY
  5
1E3
330
40
100
AcDbDictionary
280
     1
281
     1
  3
ACAD_XREC_ROUNDTRIP
360
1E4
  0
DICTIONARY
  5
1E5
330
41
100
AcDbDictionary
280
     1
281
     1
  3
ACAD_XREC_ROUNDTRIP
360
1E6
  0
XRECORD
  5
1D9
102
{ACAD_REACTORS
330
1DF
102
}
330
1DF
100
AcDbXrecord
280
     1
  1
AcDb_Thumbnail_Schema
102
{ATTRRECORD
341
1DA
  2
AcDbDs::TreatedAsObjectData
280
     1
291
     1
102
ATTRRECORD}
102
{ATTRRECORD
341
1DB
  2
AcDbDs::Legacy
280
     1
291
     1
102
ATTRRECORD}
  2
AcDbDs::ID
280
    10
 91
        8
102
{ATTRRECORD
341
1DC
  2
AcDs:Indexable
280
     1
291
     1
102
ATTRRECORD}
102
{ATTRRECORD
341
1DD
  2
AcDbDs::HandleAttribute
280
     7
282
     1
102
ATTRRECORD}
  2
Thumbnail_Data
280
    15
 91
        0
  0
XRECORD
  5
1DA
102
{ACAD_REACTORS
330
1DF
102
}
330
1DF
100
AcDbXrecord
280
     1
  1
AcDbDs::TreatedAsObjectDataSchema
  2
AcDbDs::TreatedAsObjectData
280
     1
 91
        0
  0
XRECORD
  5
1DB
102
{ACAD_REACTORS
330
1DF
102
}
330
1DF
100
AcDbXrecord
280
     1
  1
AcDbDs::LegacySchema
  2
AcDbDs::Legacy
280
     1
 91
        0
  0
XRECORD
  5
1DC
102
{ACAD_REACTORS
330
1DF
102
}
330
1DF
100
AcDbXrecord
280
     1
  1
AcDbDs::IndexedPropertySchema
  2
AcDs:Indexable
280
     1
 91
        0
  0
XRECORD
  5
1DD
102
{ACAD_REACTORS
330
1DF
102
}
330
1DF
100
AcDbXrecord
280
     1
  1
AcDbDs::HandleAttributeSchema
  2
AcDbDs::HandleAttribute
280
     7
 91
        1
284
     1
  0
CELLSTYLEMAP
  5
1D7
102
{ACAD_REACTORS
330
3F
102
}
330
3F
100
AcDbCellStyleMap
 90
        3
300
CELLSTYLE
  1
TABLEFORMAT_BEGIN
 90
        5
170
     1
 91
        0
 92
    32768
 62
   257
 93
        1
300
CONTENTFORMAT
  1
CONTENTFORMAT_BEGIN
 90
        0
 91
        0
 92
        4
 93
        0
300

 40
0.0
140
1.0
 94
        5
 62
     0
340
1E
144
6.0
309
CONTENTFORMAT_END
171
     1
301
MARGIN
  1
CELLMARGIN_BEGIN
 40
1.5
 40
1.5
 40
1.5
 40
1.5
 40
0.18
 40
0.18
309
CELLMARGIN_END
 94
        6
 95
        1
302
GRIDFORMAT
  1
GRIDFORMAT_BEGIN
 90
        0
 91
        1
 62
     0
 92
       -2
340
0
 93
        0
 40
0.045
309
GRIDFORMAT_END
 95
        2
302
GRIDFORMAT
  1
GRIDFORMAT_BEGIN
 90
        0
 91
        1
 62
     0
 92
       -2
340
0
 93
        0
 40
0.045
309
GRIDFORMAT_END
 95
        4
302
GRIDFORMAT
  1
GRIDFORMAT_BEGIN
 90
        0
 91
        1
 62
     0
 92
       -2
340
0
 93
        0
 40
0.045
309
GRIDFORMAT_END
 95
        8
302
GRIDFORMAT
  1
GRIDFORMAT_BEGIN
 90
        0
 91
        1
 62
     0
 92
       -2
340
0
 93
        0
 40
0.045
309
GRIDFORMAT_END
 95
       16
302
GRIDFORMAT
  1
GRIDFORMAT_BEGIN
 90
        0
 91
        1
 62
     0
 92
       -2
340
0
 93
        0
 40
0.045
309
GRIDFORMAT_END
 95
       32
302
GRIDFORMAT
  1
GRIDFORMAT_BEGIN
 90
        0
 91
        1
 62
     0
 92
       -2
340
0
 93
        0
 40
0.045
309
GRIDFORMAT_END
309
TABLEFORMAT_END
  1
CELLSTYLE_BEGIN
 90
        1
 91
        1
300
_TITLE
309
CELLSTYLE_END
300
CELLSTYLE
  1
TABLEFORMAT_BEGIN
 90
        5
170
     1
 91
        0
 92
        0
 62
   257
 93
        1
300
CONTENTFORMAT
  1
CONTENTFORMAT_BEGIN
 90
        0
 91
        0
 92
        4
 93
        0
300

 40
0.0
140
1.0
 94
        5
 62
     0
340
1E
144
4.5
309
CONTENTFORMAT_END
171
     1
301
MARGIN
  1
CELLMARGIN_BEGIN
 40
1.5
 40
1.5
 40
1.5
 40
1.5
 40
0.18
 40
0.18
309
CELLMARGIN_END
 94
        6
 95
        1
302
GRIDFORMAT
  1
GRIDFORMAT_BEGIN
 90
        0
 91
        1
 62
     0
 92
       -2
340
0
 93
        0
 40
0.045
309
GRIDFORMAT_END
 95
        2
302
GRIDFORMAT
  1
GRIDFORMAT_BEGIN
 90
        0
 91
        1
 62
     0
 92
       -2
340
0
 93
        0
 40
0.045
309
GRIDFORMAT_END
 95
        4
302
GRIDFORMAT
  1
GRIDFORMAT_BEGIN
 90
        0
 91
        1
 62
     0
 92
       -2
340
0
 93
        0
 40
0.045
309
GRIDFORMAT_END
 95
        8
302
GRIDFORMAT
  1
GRIDFORMAT_BEGIN
 90
        0
 91
        1
 62
     0
 92
       -2
340
0
 93
        0
 40
0.045
309
GRIDFORMAT_END
 95
       16
302
GRIDFORMAT
  1
GRIDFORMAT_BEGIN
 90
        0
 91
        1
 62
     0
 92
       -2
340
0
 93
        0
 40
0.045
309
GRIDFORMAT_END
 95
       32
302
GRIDFORMAT
  1
GRIDFORMAT_BEGIN
 90
        0
 91
        1
 62
     0
 92
       -2
340
0
 93
        0
 40
0.045
309
GRIDFORMAT_END
309
TABLEFORMAT_END
  1
CELLSTYLE_BEGIN
 90
        2
 91
        1
300
_HEADER
309
CELLSTYLE_END
300
CELLSTYLE
  1
TABLEFORMAT_BEGIN
 90
        5
170
     1
 91
        0
 92
        0
 62
   257
 93
        1
300
CONTENTFORMAT
  1
CONTENTFORMAT_BEGIN
 90
        0
 91
        0
 92
        4
 93
        0
300

 40
0.0
140
1.0
 94
        2
 62
     0
340
1E
144
4.5
309
CONTENTFORMAT_END
171
     1
301
MARGIN
  1
CELLMARGIN_BEGIN
 40
1.5
 40
1.5
 40
1.5
 40
1.5
 40
0.18
 40
0.18
309
CELLMARGIN_END
 94
        6
 95
        1
302
GRIDFORMAT
  1
GRIDFORMAT_BEGIN
 90
        0
 91
        1
 62
     0
 92
       -2
340
0
 93
        0
 40
0.045
309
GRIDFORMAT_END
 95
        2
302
GRIDFORMAT
  1
GRIDFORMAT_BEGIN
 90
        0
 91
        1
 62
     0
 92
       -2
340
0
 93
        0
 40
0.045
309
GRIDFORMAT_END
 95
        4
302
GRIDFORMAT
  1
GRIDFORMAT_BEGIN
 90
        0
 91
        1
 62
     0
 92
       -2
340
0
 93
        0
 40
0.045
309
GRIDFORMAT_END
 95
        8
302
GRIDFORMAT
  1
GRIDFORMAT_BEGIN
 90
        0
 91
        1
 62
     0
 92
       -2
340
0
 93
        0
 40
0.045
309
GRIDFORMAT_END
 95
       16
302
GRIDFORMAT
  1
GRIDFORMAT_BEGIN
 90
        0
 91
        1
 62
     0
 92
       -2
340
0
 93
        0
 40
0.045
309
GRIDFORMAT_END
 95
       32
302
GRIDFORMAT
  1
GRIDFORMAT_BEGIN
 90
        0
 91
        1
 62
     0
 92
       -2
340
0
 93
        0
 40
0.045
309
GRIDFORMAT_END
309
TABLEFORMAT_END
  1
CELLSTYLE_BEGIN
 90
        3
 91
        2
300
_DATA
309
CELLSTYLE_END
  0
XRECORD
  5
1E2
102
{ACAD_REACTORS
330
1E1
102
}
330
1E1
100
AcDbXrecord
280
     1
102
RTVSPost2010Prop28
280
     1
102
RTVSPost2010PropOp28
 70
     1
102
RTVSPost2010Prop29
280
     1
102
RTVSPost2010PropOp29
 70
     1
102
RTVSPost2010Prop30
280
     0
102
RTVSPost2010PropOp30
 70
     1
102
RTVSPost2010Prop31
280
     0
102
RTVSPost2010PropOp31
 70
     1
102
RTVSPost2010Prop32
280
     0
102
RTVSPost2010PropOp32
 70
     1
102
RTVSPost2010Prop33
280
     0
102
RTVSPost2010PropOp33
 70
     1
102
RTVSPost2010Prop34
280
     0
102
RTVSPost2010PropOp34
 70
     1
102
RTVSPost2010Prop35
280
     0
102
RTVSPost2010PropOp35
 70
     1
102
RTVSPost2010Prop36
280
     0
102
RTVSPost2010PropOp36
 70
     1
102
RTVSPost2010Prop37
 90
       50
102
RTVSPost2010PropOp37
 70
     1
102
RTVSPost2010Prop38
140
0.0
102
RTVSPost2010PropOp38
 70
     1
102
RTVSPost2010Prop39
140
1.0
102
RTVSPost2010PropOp39
 70
     1
102
RTVSPost2010Prop40
 90
        0
102
RTVSPost2010PropOp40
 70
     1
102
RTVSPost2010Prop41ColorIndex
 90
       18
102
RTVSPost2010Prop41ColorRGB
 90
        0
102
RTVSPost2010PropOp41
 70
     1
102
RTVSPost2010Prop42
 90
       50
102
RTVSPost2010PropOp42
 70
     1
102
RTVSPost2010Prop43
 90
        3
102
RTVSPost2010PropOp43
 70
     1
102
RTVSPost2010Prop44ColorIndex
 90
        5
102
RTVSPost2010Prop44ColorRGB
 90
      255
102
RTVSPost2010PropOp44
 70
     1
102
RTVSPost2010Prop45
280
     0
102
RTVSPost2010PropOp45
 70
     1
102
RTVSPost2010Prop46
 90
       50
102
RTVSPost2010PropOp46
 70
     1
102
RTVSPost2010Prop47
 90
       50
102
RTVSPost2010PropOp47
 70
     1
102
RTVSPost2010Prop48
 90
       50
102
RTVSPost2010PropOp48
 70
     1
102
RTVSPost2010Prop49
280
     0
102
RTVSPost2010PropOp49
 70
     1
102
RTVSPost2010Prop50
 90
       50
102
RTVSPost2010PropOp50
 70
     1
102
RTVSPost2010Prop51ColorIndex
 90
      256
102
RTVSPost2010Prop51ColorRGB
 90
-16777216
102
RTVSPost2010PropOp51
 70
     0
102
RTVSPost2010Prop52
140
1.0
102
RTVSPost2010PropOp52
 70
     0
102
RTVSPost2010Prop53
 90
        2
102
RTVSPost2010PropOp53
 70
     1
102
RTVSPost2010Prop54
  1
strokes_ogs.tif
102
RTVSPost2010PropOp54
 70
     1
102
RTVSPost2010Prop55
280
     0
102
RTVSPost2010PropOp55
 70
     1
102
RTVSPost2010Prop56
140
1.0
102
RTVSPost2010PropOp56
 70
     1
102
RTVSPost2010Prop57
140
1.0
102
RTVSPost2010PropOp57
 70
     1
102
RTVSPropertyOp0
 70
     1
102
RTVSPropertyOp1
 70
     1
102
RTVSPropertyOp2
 70
     1
102
RTVSPropertyOp3
 70
     1
102
RTVSPropertyOp4
 70
     1
102
RTVSPropertyOp5
 70
     1
102
RTVSPropertyOp6
 70
     1
102
RTVSPropertyOp7
 70
     1
102
RTVSPropertyOp8
 70
     1
102
RTVSPropertyOp9
 70
     1
102
RTVSPropertyOp10
 70
     1
102
RTVSPropertyOp11
 70
     1
102
RTVSPropertyOp12
 70
     1
102
RTVSPropertyOp13
 70
     1
102
RTVSPropertyOp14
 70
     1
102
RTVSPropertyOp15
 70
     1
102
RTVSPropertyOp16
 70
     1
102
RTVSPropertyOp17
 70
     1
102
RTVSPropertyOp18
 70
     1
102
RTVSPropertyOp19
 70
     1
102
RTVSPropertyOp20
 70
     1
102
RTVSPropertyOp21
 70
     1
102
RTVSPropertyOp22
 70
     1
102
RTVSPropertyOp23
 70
     1
102
RTVSPropertyOp24
 70
     1
102
RTVSPropertyOp25
 70
     1
102
RTVSPropertyOp26
 70
     1
102
RTVSPropertyOp27
 70
     1
102
RTVSPropertyOp28
 70
     1
102
RTVSPropertyOp29
 70
     1
102
RTVSPropertyOp30
 70
     1
102
RTVSPropertyOp31
 70
     1
102
RTVSPropertyOp32
 70
     1
102
RTVSPropertyOp33
 70
     1
102
RTVSPropertyOp34
 70
     1
102
RTVSPropertyOp35
 70
     1
102
RTVSPropertyOp36
 70
     1
102
RTVSPropertyOp37
 70
     1
102
RTVSPropertyOp38
 70
     1
102
RTVSPropertyOp39
 70
     1
102
RTVSPropertyOp40
 70
     1
102
RTVSPropertyOp41
 70
     1
102
RTVSPropertyOp42
 70
     1
102
RTVSPropertyOp43
 70
     1
102
RTVSPropertyOp44
 70
     1
102
RTVSPropertyOp45
 70
     1
102
RTVSPropertyOp46
 70
     1
102
RTVSPropertyOp47
 70
     1
102
RTVSPropertyOp48
 70
     1
102
RTVSPropertyOp49
 70
     1
102
RTVSPropertyOp50
 70
     1
102
RTVSPropertyOp51
 70
     0
102
RTVSPropertyOp52
 70
     0
102
RTVSPropertyOp53
 70
     1
102
RTVSPropertyOp54
 70
     1
102
RTVSPropertyOp55
 70
     1
102
RTVSPropertyOp56
 70
     1
102
RTVSPropertyOp57
 70
     1
102
RTVSPropertyOp58
 70
     1
102
RTVSPropertyOp59
 70
     1
102
RTVSPropertyOp60
 70
     1
102
RTVSPropertyOp61
 70
     1
102
RTVSPropertyOp62
 70
     1
  0
XRECORD
  5
1E4
102
{ACAD_REACTORS
330
1E3
102
}
330
1E3
100
AcDbXrecord
280
     1
102
RTVSPost2010Prop28
280
     0
102
RTVSPost2010PropOp28
 70
     1
102
RTVSPost2010Prop29
280
     1
102
RTVSPost2010PropOp29
 70
     1
102
RTVSPost2010Prop30
280
     1
102
RTVSPost2010PropOp30
 70
     1
102
RTVSPost2010Prop31
280
     0
102
RTVSPost2010PropOp31
 70
     1
102
RTVSPost2010Prop32
280
     0
102
RTVSPost2010PropOp32
 70
     1
102
RTVSPost2010Prop33
280
     0
102
RTVSPost2010PropOp33
 70
     1
102
RTVSPost2010Prop34
280
     0
102
RTVSPost2010PropOp34
 70
     1
102
RTVSPost2010Prop35
280
     0
102
RTVSPost2010PropOp35
 70
     1
102
RTVSPost2010Prop36
280
     0
102
RTVSPost2010PropOp36
 70
     1
102
RTVSPost2010Prop37
 90
       50
102
RTVSPost2010PropOp37
 70
     1
102
RTVSPost2010Prop38
140
0.0
102
RTVSPost2010PropOp38
 70
     1
102
RTVSPost2010Prop39
140
1.0
102
RTVSPost2010PropOp39
 70
     1
102
RTVSPost2010Prop40
 90
        0
102
RTVSPost2010PropOp40
 70
     1
102
RTVSPost2010Prop41ColorIndex
 90
       18
102
RTVSPost2010Prop41ColorRGB
 90
        0
102
RTVSPost2010PropOp41
 70
     1
102
RTVSPost2010Prop42
 90
       50
102
RTVSPost2010PropOp42
 70
     1
102
RTVSPost2010Prop43
 90
        3
102
RTVSPost2010PropOp43
 70
     1
102
RTVSPost2010Prop44ColorIndex
 90
        5
102
RTVSPost2010Prop44ColorRGB
 90
      255
102
RTVSPost2010PropOp44
 70
     1
102
RTVSPost2010Prop45
280
     0
102
RTVSPost2010PropOp45
 70
     1
102
RTVSPost2010Prop46
 90
       50
102
RTVSPost2010PropOp46
 70
     1
102
RTVSPost2010Prop47
 90
       50
102
RTVSPost2010PropOp47
 70
     1
102
RTVSPost2010Prop48
 90
       50
102
RTVSPost2010PropOp48
 70
     1
102
RTVSPost2010Prop49
280
     0
102
RTVSPost2010PropOp49
 70
     1
102
RTVSPost2010Prop50
 90
       50
102
RTVSPost2010PropOp50
 70
     1
102
RTVSPost2010Prop51ColorIndex
 90
      256
102
RTVSPost2010Prop51ColorRGB
 90
-16777216
102
RTVSPost2010PropOp51
 70
     0
102
RTVSPost2010Prop52
140
1.0
102
RTVSPost2010PropOp52
 70
     0
102
RTVSPost2010Prop53
 90
        2
102
RTVSPost2010PropOp53
 70
     1
102
RTVSPost2010Prop54
  1
strokes_ogs.tif
102
RTVSPost2010PropOp54
 70
     1
102
RTVSPost2010Prop55
280
     0
102
RTVSPost2010PropOp55
 70
     1
102
RTVSPost2010Prop56
140
1.0
102
RTVSPost2010PropOp56
 70
     1
102
RTVSPost2010Prop57
140
1.0
102
RTVSPost2010PropOp57
 70
     1
102
RTVSPropertyOp0
 70
     1
102
RTVSPropertyOp1
 70
     1
102
RTVSPropertyOp2
 70
     1
102
RTVSPropertyOp3
 70
     1
102
RTVSPropertyOp4
 70
     1
102
RTVSPropertyOp5
 70
     1
102
RTVSPropertyOp6
 70
     1
102
RTVSPropertyOp7
 70
     1
102
RTVSPropertyOp8
 70
     1
102
RTVSPropertyOp9
 70
     1
102
RTVSPropertyOp10
 70
     1
102
RTVSPropertyOp11
 70
     1
102
RTVSPropertyOp12
 70
     1
102
RTVSPropertyOp13
 70
     1
102
RTVSPropertyOp14
 70
     1
102
RTVSPropertyOp15
 70
     1
102
RTVSPropertyOp16
 70
     1
102
RTVSPropertyOp17
 70
     1
102
RTVSPropertyOp18
 70
     1
102
RTVSPropertyOp19
 70
     1
102
RTVSPropertyOp20
 70
     1
102
RTVSPropertyOp21
 70
     1
102
RTVSPropertyOp22
 70
     1
102
RTVSPropertyOp23
 70
     1
102
RTVSPropertyOp24
 70
     1
102
RTVSPropertyOp25
 70
     1
102
RTVSPropertyOp26
 70
     1
102
RTVSPropertyOp27
 70
     1
102
RTVSPropertyOp28
 70
     1
102
RTVSPropertyOp29
 70
     1
102
RTVSPropertyOp30
 70
     1
102
RTVSPropertyOp31
 70
     1
102
RTVSPropertyOp32
 70
     1
102
RTVSPropertyOp33
 70
     1
102
RTVSPropertyOp34
 70
     1
102
RTVSPropertyOp35
 70
     1
102
RTVSPropertyOp36
 70
     1
102
RTVSPropertyOp37
 70
     1
102
RTVSPropertyOp38
 70
     1
102
RTVSPropertyOp39
 70
     1
102
RTVSPropertyOp40
 70
     1
102
RTVSPropertyOp41
 70
     1
102
RTVSPropertyOp42
 70
     1
102
RTVSPropertyOp43
 70
     1
102
RTVSPropertyOp44
 70
     1
102
RTVSPropertyOp45
 70
     1
102
RTVSPropertyOp46
 70
     1
102
RTVSPropertyOp47
 70
     1
102
RTVSPropertyOp48
 70
     1
102
RTVSPropertyOp49
 70
     1
102
RTVSPropertyOp50
 70
     1
102
RTVSPropertyOp51
 70
     0
102
RTVSPropertyOp52
 70
     0
102
RTVSPropertyOp53
 70
     1
102
RTVSPropertyOp54
 70
     1
102
RTVSPropertyOp55
 70
     1
102
RTVSPropertyOp56
 70
     1
102
RTVSPropertyOp57
 70
     1
102
RTVSPropertyOp58
 70
     1
102
RTVSPropertyOp59
 70
     1
102
RTVSPropertyOp60
 70
     1
102
RTVSPropertyOp61
 70
     1
102
RTVSPropertyOp62
 70
     1
  0
XRECORD
  5
1E6
102
{ACAD_REACTORS
330
1E5
102
}
330
1E5
100
AcDbXrecord
280
     1
102
RTVSPost2010Prop28
280
     0
102
RTVSPost2010PropOp28
 70
     1
102
RTVSPost2010Prop29
280
     1
102
RTVSPost2010PropOp29
 70
     1
102
RTVSPost2010Prop30
280
     1
102
RTVSPost2010PropOp30
 70
     1
102
RTVSPost2010Prop31
280
     0
102
RTVSPost2010PropOp31
 70
     1
102
RTVSPost2010Prop32
280
     0
102
RTVSPost2010PropOp32
 70
     1
102
RTVSPost2010Prop33
280
     0
102
RTVSPost2010PropOp33
 70
     1
102
RTVSPost2010Prop34
280
     0
102
RTVSPost2010PropOp34
 70
     1
102
RTVSPost2010Prop35
280
     0
102
RTVSPost2010PropOp35
 70
     1
102
RTVSPost2010Prop36
280
     0
102
RTVSPost2010PropOp36
 70
     1
102
RTVSPost2010Prop37
 90
       50
102
RTVSPost2010PropOp37
 70
     1
102
RTVSPost2010Prop38
140
0.0
102
RTVSPost2010PropOp38
 70
     1
102
RTVSPost2010Prop39
140
1.0
102
RTVSPost2010PropOp39
 70
     1
102
RTVSPost2010Prop40
 90
        0
102
RTVSPost2010PropOp40
 70
     1
102
RTVSPost2010Prop41ColorIndex
 90
       18
102
RTVSPost2010Prop41ColorRGB
 90
        0
102
RTVSPost2010PropOp41
 70
     1
102
RTVSPost2010Prop42
 90
       50
102
RTVSPost2010PropOp42
 70
     1
102
RTVSPost2010Prop43
 90
        3
102
RTVSPost2010PropOp43
 70
     1
102
RTVSPost2010Prop44ColorIndex
 90
        5
102
RTVSPost2010Prop44ColorRGB
 90
      255
102
RTVSPost2010PropOp44
 70
     1
102
RTVSPost2010Prop45
280
     0
102
RTVSPost2010PropOp45
 70
     1
102
RTVSPost2010Prop46
 90
       50
102
RTVSPost2010PropOp46
 70
     1
102
RTVSPost2010Prop47
 90
       50
102
RTVSPost2010PropOp47
 70
     1
102
RTVSPost2010Prop48
 90
       50
102
RTVSPost2010PropOp48
 70
     1
102
RTVSPost2010Prop49
280
     0
102
RTVSPost2010PropOp49
 70
     1
102
RTVSPost2010Prop50
 90
       50
102
RTVSPost2010PropOp50
 70
     1
102
RTVSPost2010Prop51ColorIndex
 90
      256
102
RTVSPost2010Prop51ColorRGB
 90
-16777216
102
RTVSPost2010PropOp51
 70
     0
102
RTVSPost2010Prop52
140
1.0
102
RTVSPost2010PropOp52
 70
     0
102
RTVSPost2010Prop53
 90
        2
102
RTVSPost2010PropOp53
 70
     1
102
RTVSPost2010Prop54
  1
strokes_ogs.tif
102
RTVSPost2010PropOp54
 70
     1
102
RTVSPost2010Prop55
280
     0
102
RTVSPost2010PropOp55
 70
     1
102
RTVSPost2010Prop56
140
1.0
102
RTVSPost2010PropOp56
 70
     1
102
RTVSPost2010Prop57
140
1.0
102
RTVSPost2010PropOp57
 70
     1
102
RTVSPropertyOp0
 70
     1
102
RTVSPropertyOp1
 70
     1
102
RTVSPropertyOp2
 70
     1
102
RTVSPropertyOp3
 70
     1
102
RTVSPropertyOp4
 70
     1
102
RTVSPropertyOp5
 70
     1
102
RTVSPropertyOp6
 70
     1
102
RTVSPropertyOp7
 70
     1
102
RTVSPropertyOp8
 70
     1
102
RTVSPropertyOp9
 70
     1
102
RTVSPropertyOp10
 70
     1
102
RTVSPropertyOp11
 70
     1
102
RTVSPropertyOp12
 70
     1
102
RTVSPropertyOp13
 70
     1
102
RTVSPropertyOp14
 70
     1
102
RTVSPropertyOp15
 70
     1
102
RTVSPropertyOp16
 70
     1
102
RTVSPropertyOp17
 70
     1
102
RTVSPropertyOp18
 70
     1
102
RTVSPropertyOp19
 70
     1
102
RTVSPropertyOp20
 70
     1
102
RTVSPropertyOp21
 70
     1
102
RTVSPropertyOp22
 70
     1
102
RTVSPropertyOp23
 70
     1
102
RTVSPropertyOp24
 70
     1
102
RTVSPropertyOp25
 70
     1
102
RTVSPropertyOp26
 70
     1
102
RTVSPropertyOp27
 70
     1
102
RTVSPropertyOp28
 70
     1
102
RTVSPropertyOp29
 70
     1
102
RTVSPropertyOp30
 70
     1
102
RTVSPropertyOp31
 70
     1
102
RTVSPropertyOp32
 70
     1
102
RTVSPropertyOp33
 70
     1
102
RTVSPropertyOp34
 70
     1
102
RTVSPropertyOp35
 70
     1
102
RTVSPropertyOp36
 70
     1
102
RTVSPropertyOp37
 70
     1
102
RTVSPropertyOp38
 70
     1
102
RTVSPropertyOp39
 70
     1
102
RTVSPropertyOp40
 70
     1
102
RTVSPropertyOp41
 70
     1
102
RTVSPropertyOp42
 70
     1
102
RTVSPropertyOp43
 70
     1
102
RTVSPropertyOp44
 70
     1
102
RTVSPropertyOp45
 70
     1
102
RTVSPropertyOp46
 70
     1
102
RTVSPropertyOp47
 70
     1
102
RTVSPropertyOp48
 70
     1
102
RTVSPropertyOp49
 70
     1
102
RTVSPropertyOp50
 70
     1
102
RTVSPropertyOp51
 70
     0
102
RTVSPropertyOp52
 70
     0
102
RTVSPropertyOp53
 70
     1
102
RTVSPropertyOp54
 70
     1
102
RTVSPropertyOp55
 70
     1
102
RTVSPropertyOp56
 70
     1
102
RTVSPropertyOp57
 70
     1
102
RTVSPropertyOp58
 70
     1
102
RTVSPropertyOp59
 70
     1
102
RTVSPropertyOp60
 70
     1
102
RTVSPropertyOp61
 70
     1
102
RTVSPropertyOp62
 70
     1
  0
ENDSEC
  0
EOF
