  0
SECTION
  2
HEADER
  9
$ACADVER
  1
AC1009
  9
$INSBASE
 10
68.032847640222826
 20
545.6753373971942
 30
0.0
  9
$EXTMIN
 10
-82.163219975823296
 20
-74.015035407647588
 30
0.0
  9
$EXTMAX
 10
164.00000000000799
 20
204.8580276405122
 30
0.0
  9
$LIMMIN
 10
0.0
 20
0.0
  9
$LIMMAX
 10
790.0
 20
790.0
  9
$ORTHOMODE
 70
     1
  9
$REGENMODE
 70
     1
  9
$FILLMODE
 70
     1
  9
$QTEXTMODE
 70
     0
  9
$MIRRTEXT
 70
     1
  9
$DRAGMODE
 70
     2
  9
$LTSCALE
 40
2.5
  9
$OSMODE
 70
   167
  9
$ATTMODE
 70
     1
  9
$TEXTSIZE
 40
3.5
  9
$TRACEWID
 40
0.05
  9
$TEXTSTYLE
  7
ISO
  9
$CLAYER
  8
0
  9
$CELTYPE
  6
BYLAYER
  9
$CECOLOR
 62
   256
  9
$DIMSCALE
 40
0.0
  9
$DIMASZ
 40
3.0
  9
$DIMEXO
 40
1.5
  9
$DIMDLI
 40
10.0
  9
$DIMRND
 40
0.0
  9
$DIMDLE
 40
0.0
  9
$DIMEXE
 40
1.5
  9
$DIMTP
 40
0.0
  9
$DIMTM
 40
0.0
  9
$DIMTXT
 40
3.0
  9
$DIMCEN
 40
-5.0
  9
$DIMTSZ
 40
0.0
  9
$DIMTOL
 70
     0
  9
$DIMLIM
 70
     0
  9
$DIMTIH
 70
     0
  9
$DIMTOH
 70
     1
  9
$DIMSE1
 70
     0
  9
$DIMSE2
 70
     0
  9
$DIMTAD
 70
     1
  9
$DIMZIN
 70
     8
  9
$DIMBLK
  1

  9
$DIMASO
 70
     1
  9
$DIMSHO
 70
     1
  9
$DIMPOST
  1

  9
$DIMAPOST
  1

  9
$DIMALT
 70
     0
  9
$DIMALTD
 70
     0
  9
$DIMALTF
 40
25.399999999999999
  9
$DIMLFAC
 40
-1.0
  9
$DIMTOFL
 70
     1
  9
$DIMTVP
 40
0.0
  9
$DIMTIX
 70
     0
  9
$DIMSOXD
 70
     0
  9
$DIMSAH
 70
     0
  9
$DIMBLK1
  1

  9
$DIMBLK2
  1

  9
$DIMSTYLE
  2
MASKIN
  9
$DIMCLRD
 70
   256
  9
$DIMCLRE
 70
   256
  9
$DIMCLRT
 70
     2
  9
$DIMTFAC
 40
1.0
  9
$DIMGAP
 40
1.0
  9
$LUNITS
 70
     2
  9
$LUPREC
 70
     4
  9
$SKETCHINC
 40
0.1
  9
$FILLETRAD
 40
0.0
  9
$AUNITS
 70
     0
  9
$AUPREC
 70
     0
  9
$MENU
  1
ACAD
  9
$ELEVATION
 40
0.0
  9
$PELEVATION
 40
0.0
  9
$THICKNESS
 40
0.0
  9
$LIMCHECK
 70
     0
  9
$BLIPMODE
 70
     0
  9
$CHAMFERA
 40
0.0
  9
$CHAMFERB
 40
0.0
  9
$SKPOLY
 70
     0
  9
$TDCREATE
 40
2451169.4686749768
  9
$TDUPDATE
 40
2455000.6172063891
  9
$TDINDWG
 40
0.3510471412
  9
$TDUSRTIMER
 40
0.3510471412
  9
$USRTIMER
 70
     1
  9
$ANGBASE
 50
0.0
  9
$ANGDIR
 70
     0
  9
$PDMODE
 70
     0
  9
$PDSIZE
 40
0.0
  9
$PLINEWID
 40
0.0
  9
$COORDS
 70
     1
  9
$SPLFRAME
 70
     0
  9
$SPLINETYPE
 70
     6
  9
$SPLINESEGS
 70
     8
  9
$ATTDIA
 70
     0
  9
$ATTREQ
 70
     1
  9
$HANDLING
 70
     1
  9
$HANDSEED
  5
E43
  9
$SURFTAB1
 70
     6
  9
$SURFTAB2
 70
     6
  9
$SURFTYPE
 70
     6
  9
$SURFU
 70
     6
  9
$SURFV
 70
     6
  9
$UCSNAME
  2

  9
$UCSORG
 10
0.0
 20
0.0
 30
0.0
  9
$UCSXDIR
 10
1.0
 20
0.0
 30
0.0
  9
$UCSYDIR
 10
0.0
 20
1.0
 30
0.0
  9
$PUCSNAME
  2

  9
$PUCSORG
 10
0.0
 20
0.0
 30
0.0
  9
$PUCSXDIR
 10
1.0
 20
0.0
 30
0.0
  9
$PUCSYDIR
 10
0.0
 20
1.0
 30
0.0
  9
$USERI1
 70
     0
  9
$USERI2
 70
     0
  9
$USERI3
 70
     0
  9
$USERI4
 70
     0
  9
$USERI5
 70
     0
  9
$USERR1
 40
0.0
  9
$USERR2
 40
0.0
  9
$USERR3
 40
0.0
  9
$USERR4
 40
0.0
  9
$USERR5
 40
0.0
  9
$WORLDVIEW
 70
     1
  9
$SHADEDGE
 70
     3
  9
$SHADEDIF
 70
    70
  9
$TILEMODE
 70
     1
  9
$MAXACTVP
 70
    16
  9
$PLIMCHECK
 70
     0
  9
$PEXTMIN
 10
28.84593157768251
 20
20.150667238235489
 30
0.0
  9
$PEXTMAX
 10
259.6133841991425
 20
181.35600514411919
 30
0.0
  9
$PLIMMIN
 10
-4.23333740234375
 20
-4.2333331108093262
  9
$PLIMMAX
 10
292.69265747070312
 20
205.7399945259094
  9
$UNITMODE
 70
     0
  9
$VISRETAIN
 70
     1
  9
$PLINEGEN
 70
     0
  9
$PSLTSCALE
 70
     1
  0
ENDSEC
  0
SECTION
  2
TABLES
  0
TABLE
  2
VPORT
 70
     1
  0
VPORT
  2
*ACTIVE
 70
     0
 10
0.0
 20
0.0
 11
1.0
 21
1.0
 12
138.5293953481555
 22
65.433172372667968
 13
0.0
 23
0.0
 14
1.0
 24
1.0
 15
0.0
 25
0.0
 16
0.0
 26
0.0
 36
1.0
 17
0.0
 27
0.0
 37
0.0
 40
281.23560243574508
 41
2.362776025236593
 42
50.0
 43
0.0
 44
0.0
 50
0.0
 51
0.0
 71
     0
 72
   100
 73
     1
 74
     0
 75
     0
 76
     0
 77
     0
 78
     0
  0
ENDTAB
  0
TABLE
  2
LTYPE
 70
     4
  0
LTYPE
  2
CONTINUOUS
 70
     0
  3
Solid line
 72
    65
 73
     0
 40
0.0
  0
LTYPE
  2
BYGG-014976$0$DASHDOT
 70
     0
  3
__ . __ . __ . __ . __ . __ . __ . __ . __ . __
 72
    65
 73
     4
 40
1.0
 49
0.5
 49
-0.25
 49
0.0
 49
-0.25
  0
LTYPE
  2
NEWDOT
 70
     0
  3
____ . ____ . ____ . ____ . ____ . ____ . ____
 72
    65
 73
     4
 40
2.0
 49
1.0
 49
-0.5
 49
0.0
 49
-0.5
  0
LTYPE
  2
DASHED
 70
     0
  3
__ __ __ __ __ __ __ __ __ __ __ __ __ __ __
 72
    65
 73
     2
 40
0.75
 49
0.5
 49
-0.25
  0
ENDTAB
  0
TABLE
  2
LAYER
 70
    31
  0
LAYER
  2
0
 70
     0
 62
     7
  6
CONTINUOUS
  0
LAYER
  2
SAPA_ANSLUTNING
 70
     0
 62
     6
  6
CONTINUOUS
  0
LAYER
  2
SAPA_ISOLATOR
 70
     0
 62
     4
  6
CONTINUOUS
  0
LAYER
  2
SAPA_PROFIL
 70
     0
 62
     7
  6
CONTINUOUS
  0
ENDTAB
  0
TABLE
  2
STYLE
 70
     6
  0
STYLE
  2
STANDARD
 70
     0
 40
0.0
 41
1.0
 50
0.0
 71
     0
 42
0.2
  3
txt
  4

  0
STYLE
  2
ISO
 70
     0
 40
0.0
 41
1.0
 50
0.0
 71
     0
 42
3.5
  3
isocp3.shx
  4

  0
STYLE
  2
BYGG-021464$0$STANDARD
 70
     0
 40
0.0
 41
1.0
 50
0.0
 71
     0
 42
0.2
  3
txt
  4

  0
STYLE
  2
BYGG-021464$0$ISO
 70
     0
 40
0.0
 41
1.0
 50
0.0
 71
     0
 42
7.0
  3
ISO
  4

  0
STYLE
  2
BYGG-014976$0$STANDARD
 70
     0
 40
0.0
 41
1.0
 50
0.0
 71
     0
 42
0.2
  3
txt
  4

  0
STYLE
  2
BYGG-014976$0$ISO
 70
     0
 40
0.0
 41
1.0
 50
0.0
 71
     0
 42
3.5
  3
txt
  4

  0
ENDTAB
  0
TABLE
  2
VIEW
 70
     0
  0
ENDTAB
  0
TABLE
  2
UCS
 70
     0
  0
ENDTAB
  0
TABLE
  2
APPID
 70
    15
  0
APPID
  2
ACAD
 70
     0
  0
APPID
  2
ACAD_PSEXT
 70
     0
  0
APPID
  2
ACAECLAYERSTANDARD
 70
     0
  0
APPID
  2
ACAD_MLEADERVER
 70
     0
  0
APPID
  2
ACDBDYNAMICBLOCKGUID
 70
     0
  0
APPID
  2
ACDBBLOCKREPETAG
 70
     0
  0
APPID
  2
ACAD_DSTYLE_DIMTEXT_FILL
 70
     0
  0
APPID
  2
ACAD_DSTYLE_DIMEXT_LENGTH
 70
     0
  0
APPID
  2
ACAD_DSTYLE_DIMEXT_ENABLED
 70
     0
  0
APPID
  2
ACAD_DSTYLE_DIM_LINETYPE
 70
     0
  0
APPID
  2
ACAD_DSTYLE_DIM_EXT1_LINETYPE
 70
     0
  0
APPID
  2
ACAD_DSTYLE_DIM_EXT2_LINETYPE
 70
     0
  0
APPID
  2
ACAD_DSTYLE_DIMJOGGED_JOGA
 70
     0
  0
APPID
  2
ACAD_DSTYLE_DIMARC_LENGTH_
 70
     0
  0
APPID
  2
ACAD_EXEMPT_FROM_CAD_STANDARDS
 70
     0
  0
ENDTAB
  0
TABLE
  2
DIMSTYLE
 70
     3
  0
DIMSTYLE
  2
MASKIN
 70
     0
  3

  4

  5

  6

  7

 40
0.0
 41
3.0
 42
1.5
 43
10.0
 44
1.5
 45
0.0
 46
0.0
 47
0.0
 48
0.0
140
3.0
141
-5.0
142
0.0
143
25.399999999999999
144
-1.0
145
0.0
146
1.0
147
1.0
 71
     0
 72
     0
 73
     0
 74
     1
 75
     0
 76
     0
 77
     1
 78
     8
170
     0
171
     0
172
     1
173
     0
174
     0
175
     0
176
   256
177
   256
178
     2
  0
DIMSTYLE
  2
BYGG-021464$0$MASKIN
 70
     0
  3

  4

  5

  6

  7

 40
1.0
 41
3.0
 42
1.5
 43
10.0
 44
1.5
 45
0.0
 46
0.0
 47
0.0
 48
0.0
140
3.0
141
-5.0
142
0.0
143
25.399999999999999
144
1.0
145
0.0
146
1.0
147
0.09
 71
     0
 72
     0
 73
     0
 74
     0
 75
     0
 76
     0
 77
     1
 78
     8
170
     0
171
     0
172
     0
173
     0
174
     0
175
     0
176
   256
177
   256
178
   256
  0
DIMSTYLE
  2
BYGG-014976$0$MASKIN
 70
     0
  3

  4

  5

  6

  7

 40
0.0
 41
3.0
 42
1.5
 43
10.0
 44
1.5
 45
0.0
 46
0.0
 47
0.0
 48
0.0
140
3.0
141
-5.0
142
0.0
143
25.399999999999999
144
-1.0
145
0.0
146
1.0
147
1.0
 71
     0
 72
     0
 73
     0
 74
     0
 75
     0
 76
     0
 77
     1
 78
     8
170
     0
171
     0
172
     1
173
     0
174
     0
175
     0
176
   256
177
   256
178
   256
  0
ENDTAB
  0
ENDSEC
  0
SECTION
  2
BLOCKS
  0
BLOCK
  8
0
  2
$MODEL_SPACE
 70
     0
 10
0.0
 20
0.0
 30
0.0
  3
$MODEL_SPACE
  1

  0
ENDBLK
  5
D
  8
0
  0
BLOCK
 67
     1
  8
0
  2
$PAPER_SPACE
 70
     0
 10
0.0
 20
0.0
 30
0.0
  3
$PAPER_SPACE
  1

  0
ENDBLK
  5
12
 67
     1
  8
0
  0
BLOCK
  8
0
  2
*X13
 70
     1
 10
0.0
 20
0.0
 30
0.0
  3
*X13
  1

  0
LINE
  5
65C
  8
0
 62
     0
 10
25.00000000000858
 20
78.272945392295227
 30
0.0
 11
25.488589690383101
 21
77.784355701920703
 31
0.0
  0
LINE
  5
65D
  8
0
 62
     0
 10
25.00000000000859
 20
80.518009422562486
 30
0.0
 11
26.647911305955098
 21
78.870098116615992
 31
0.0
  0
LINE
  5
65E
  8
0
 62
     0
 10
25.000000000008601
 20
82.763073452829786
 30
0.0
 11
28.10697522034015
 21
79.656098232498238
 31
0.0
  0
LINE
  5
65F
  8
0
 62
     0
 10
25.000000000008601
 20
85.008137483097073
 30
0.0
 11
29.77472289816323
 21
80.233414584942423
 31
0.0
  0
LINE
  5
660
  8
0
 62
     0
 10
28.248800200498071
 20
84.00440131287489
 30
0.0
 11
31.620613942529442
 21
80.632587570843526
 31
0.0
  0
LINE
  5
661
  8
0
 62
     0
 10
26.253201518954722
 20
85.999999994418246
 30
0.0
 11
28.004401318465419
 21
84.248800194907545
 31
0.0
  0
LINE
  5
662
  8
0
 62
     0
 10
29.690161057572261
 20
84.80810448606799
 30
0.0
 11
33.641846226660981
 21
80.856419316979256
 31
0.0
  0
LINE
  5
663
  8
0
 62
     0
 10
30.000000000008601
 20
86.743329573898947
 30
0.0
 11
35.861065731483301
 21
80.882263842424237
 31
0.0
  0
LINE
  5
664
  8
0
 62
     0
 10
31.495523083292479
 20
87.492870520882335
 30
0.0
 11
38.348177879548999
 21
80.640215724625818
 31
0.0
  0
LINE
  5
665
  8
0
 62
     0
 10
34.098624955449431
 20
87.134832678992694
 30
0.0
 11
41.35959480908619
 21
79.873862825355914
 31
0.0
  0
LINE
  5
666
  8
0
 62
     0
 10
36.480066094548413
 20
86.998455570160999
 30
0.0
 11
45.000000000008043
 21
78.478521664701361
 31
0.0
  0
LINE
  5
667
  8
0
 62
     0
 10
38.69050365911594
 20
87.033082035860744
 30
0.0
 11
45.000000000008043
 21
80.723585694968648
 31
0.0
  0
LINE
  5
668
  8
0
 62
     0
 10
40.761858615969388
 20
87.206791109274604
 30
0.0
 11
45.000000000008043
 21
82.968649725235935
 31
0.0
  0
LINE
  5
669
  8
0
 62
     0
 10
42.715740282095922
 20
87.497973473415357
 30
0.0
 11
45.00000000000805
 21
85.213713755503207
 31
0.0
  0
LINE
  5
66A
  8
0
 62
     0
 10
44.567526055338313
 20
87.891251730440246
 30
0.0
 11
45.00000000000805
 21
87.458777785770508
 31
0.0
  0
LINE
  5
66B
  8
0
 62
     0
 10
44.999804216831137
 20
76.430700640564496
 30
0.0
 11
45.000000000008029
 21
76.430896423741402
 31
0.0
  0
LINE
  5
66C
  8
0
 62
     0
 10
44.337257971632951
 20
78.013218425633596
 30
0.0
 11
45.000000000008043
 21
78.675960454008688
 31
0.0
  0
LINE
  5
66D
  8
0
 62
     0
 10
43.112139962828159
 20
79.033164447096084
 30
0.0
 11
45.00000000000805
 21
80.921024484275989
 31
0.0
  0
LINE
  5
66E
  8
0
 62
     0
 10
41.611330193366371
 20
79.777418707901589
 30
0.0
 11
45.000000000008043
 21
83.166088514543276
 31
0.0
  0
LINE
  5
66F
  8
0
 62
     0
 10
39.909692452434143
 20
80.320844997236634
 30
0.0
 11
45.000000000008043
 21
85.411152544810562
 31
0.0
  0
LINE
  5
670
  8
0
 62
     0
 10
38.031802792318992
 20
80.68801936738879
 30
0.0
 11
45.000000000008043
 21
87.656216575077835
 31
0.0
  0
LINE
  5
671
  8
0
 62
     0
 10
35.976246149898429
 20
80.877526755235507
 30
0.0
 11
42.570774081403961
 21
87.47205468674106
 31
0.0
  0
LINE
  5
672
  8
0
 62
     0
 10
33.714460459066331
 20
80.860805094670724
 30
0.0
 11
39.9785820588082
 21
87.124926694412579
 31
0.0
  0
LINE
  5
673
  8
0
 62
     0
 10
31.160913599390479
 20
80.552322265262134
 30
0.0
 11
37.605304797328778
 21
86.99671346320045
 31
0.0
  0
LINE
  5
674
  8
0
 62
     0
 10
27.951567687463939
 20
79.588040383602873
 30
0.0
 11
35.401368335903634
 21
87.037841032042593
 31
0.0
  0
LINE
  5
675
  8
0
 62
     0
 10
25.00000000000858
 20
76.636472696147536
 30
0.0
 11
25.01647152645651
 21
76.652944222595465
 31
0.0
  0
LINE
  5
676
  8
0
 62
     0
 10
25.00000000000858
 20
78.881536726414822
 30
0.0
 11
33.335419274876841
 21
87.21695600128308
 31
0.0
  0
LINE
  5
677
  8
0
 62
     0
 10
30.00000000000859
 20
86.126600756682123
 30
0.0
 11
31.386179304581471
 21
87.512780061255015
 31
0.0
  0
LINE
  5
678
  8
0
 62
     0
 10
25.00000000000858
 20
81.126600756682109
 30
0.0
 11
28.034232185079141
 21
84.160832941752673
 31
0.0
  0
LINE
  5
679
  8
0
 62
     0
 10
25.00000000000859
 20
83.37166478694941
 30
0.0
 11
27.628335207477431
 21
85.999999994418246
 31
0.0
  0
LINE
  5
67A
  8
0
 62
     0
 10
25.00000000000859
 20
85.616728817216696
 30
0.0
 11
25.38327117721014
 21
85.999999994418246
 31
0.0
  0
ENDBLK
  5
67C
  8
0
  0
BLOCK
  8
0
  2
*X14
 70
     1
 10
0.0
 20
0.0
 30
0.0
  3
*X14
  1

  0
LINE
  5
67E
  8
0
 62
     0
 10
44.681503268382777
 20
75.803116180620918
 30
0.0
 11
44.951287173324978
 21
75.958875990762323
 31
0.0
  0
LINE
  5
67F
  8
0
 62
     0
 10
42.619280275621087
 20
74.612491180620921
 30
0.0
 11
43.30668793987499
 21
75.009366180620916
 31
0.0
  0
LINE
  5
680
  8
0
 62
     0
 10
40.557057282859397
 20
73.421866180620924
 30
0.0
 11
41.2444649471133
 21
73.818741180620918
 31
0.0
  0
LINE
  5
681
  8
0
 62
     0
 10
38.494834290097707
 20
72.231241180620927
 30
0.0
 11
39.182241954351611
 21
72.628116180620921
 31
0.0
  0
LINE
  5
682
  8
0
 62
     0
 10
43.994095768382792
 20
76.99374089612482
 30
0.0
 11
44.681503432636681
 21
77.390615896124814
 31
0.0
  0
LINE
  5
683
  8
0
 62
     0
 10
41.931872775621102
 20
75.803115896124822
 30
0.0
 11
42.619280439874998
 21
76.199990896124817
 31
0.0
  0
LINE
  5
684
  8
0
 62
     0
 10
39.869649782859412
 20
74.612490896124825
 30
0.0
 11
40.557057447113309
 21
75.00936589612482
 31
0.0
  0
LINE
  5
685
  8
0
 62
     0
 10
37.807426790097722
 20
73.421865896124828
 30
0.0
 11
38.494834454351619
 21
73.818740896124822
 31
0.0
  0
LINE
  5
686
  8
0
 62
     0
 10
35.745203797336032
 20
72.231240896124831
 30
0.0
 11
36.432611461589929
 21
72.628115896124825
 31
0.0
  0
LINE
  5
687
  8
0
 62
     0
 10
43.306688268382793
 20
78.184365611628735
 30
0.0
 11
43.849435458270868
 21
78.497720847812531
 31
0.0
  0
LINE
  5
688
  8
0
 62
     0
 10
41.24446527562111
 20
76.993740611628738
 30
0.0
 11
41.931872939875007
 21
77.390615611628732
 31
0.0
  0
LINE
  5
689
  8
0
 62
     0
 10
39.18224228285942
 20
75.803115611628741
 30
0.0
 11
39.869649947113317
 21
76.199990611628735
 31
0.0
  0
LINE
  5
68A
  8
0
 62
     0
 10
37.12001929009773
 20
74.612490611628743
 30
0.0
 11
37.807426954351627
 21
75.009365611628724
 31
0.0
  0
LINE
  5
68B
  8
0
 62
     0
 10
35.05779629733604
 20
73.421865611628746
 30
0.0
 11
35.745203961589937
 21
73.818740611628741
 31
0.0
  0
LINE
  5
68C
  8
0
 62
     0
 10
32.99557330457435
 20
72.231240611628749
 30
0.0
 11
33.682980968828247
 21
72.628115611628743
 31
0.0
  0
LINE
  5
68D
  8
0
 62
     0
 10
40.557057775621097
 20
78.184365327132625
 30
0.0
 11
41.244465439875
 21
78.581240327132633
 31
0.0
  0
LINE
  5
68E
  8
0
 62
     0
 10
38.494834782859421
 20
76.993740327132642
 30
0.0
 11
39.18224244711331
 21
77.390615327132636
 31
0.0
  0
LINE
  5
68F
  8
0
 62
     0
 10
36.432611790097731
 20
75.803115327132645
 30
0.0
 11
37.12001945435162
 21
76.199990327132639
 31
0.0
  0
LINE
  5
690
  8
0
 62
     0
 10
34.370388797336041
 20
74.612490327132647
 30
0.0
 11
35.05779646158993
 21
75.009365327132642
 31
0.0
  0
LINE
  5
691
  8
0
 62
     0
 10
32.308165804574337
 20
73.42186532713265
 30
0.0
 11
32.99557346882824
 21
73.818740327132645
 31
0.0
  0
LINE
  5
692
  8
0
 62
     0
 10
30.500430733478549
 20
72.378168997211944
 30
0.0
 11
30.933350476066551
 21
72.628115327132633
 31
0.0
  0
LINE
  5
693
  8
0
 62
     0
 10
39.869650275621098
 20
79.37499004263654
 30
0.0
 11
40.557057939874987
 21
79.771865042636534
 31
0.0
  0
LINE
  5
694
  8
0
 62
     0
 10
37.807427282859408
 20
78.184365042636543
 30
0.0
 11
38.494834947113311
 21
78.581240042636537
 31
0.0
  0
LINE
  5
695
  8
0
 62
     0
 10
35.745204290097718
 20
76.993740042636546
 30
0.0
 11
36.432611954351621
 21
77.39061504263654
 31
0.0
  0
LINE
  5
696
  8
0
 62
     0
 10
33.682981297336028
 20
75.803115042636534
 30
0.0
 11
34.370388961589931
 21
76.199990042636543
 31
0.0
  0
LINE
  5
697
  8
0
 62
     0
 10
31.620758304574341
 20
74.612490042636551
 30
0.0
 11
32.308165968828227
 21
75.009365042636546
 31
0.0
  0
LINE
  5
698
  8
0
 62
     0
 10
29.558535311812651
 20
73.421865042636554
 30
0.0
 11
30.245942976066541
 21
73.818740042636549
 31
0.0
  0
LINE
  5
699
  8
0
 62
     0
 10
37.120019782859423
 20
79.374989758140458
 30
0.0
 11
37.807427447113319
 21
79.771864758140453
 31
0.0
  0
LINE
  5
69A
  8
0
 62
     0
 10
35.057796790097733
 20
78.184364758140461
 30
0.0
 11
35.745204454351629
 21
78.581239758140455
 31
0.0
  0
LINE
  5
69B
  8
0
 62
     0
 10
32.99557379733605
 20
76.993739758140464
 30
0.0
 11
33.682981461589939
 21
77.390614758140458
 31
0.0
  0
LINE
  5
69C
  8
0
 62
     0
 10
30.933350804574349
 20
75.803114758140467
 30
0.0
 11
31.620758468828249
 21
76.199989758140461
 31
0.0
  0
LINE
  5
69D
  8
0
 62
     0
 10
28.871127811812649
 20
74.61248975814047
 30
0.0
 11
29.558535476066549
 21
75.009364758140464
 31
0.0
  0
LINE
  5
69E
  8
0
 62
     0
 10
27.140477523953521
 20
73.613298348571888
 30
0.0
 11
27.496312483304859
 21
73.818739758140467
 31
0.0
  0
LINE
  5
69F
  8
0
 62
     0
 10
36.432612282859409
 20
80.565614473644345
 30
0.0
 11
36.872788737369042
 21
80.819750468146395
 31
0.0
  0
LINE
  5
6A0
  8
0
 62
     0
 10
34.370389290097719
 20
79.374989473644348
 30
0.0
 11
35.057796954351623
 21
79.771864473644342
 31
0.0
  0
LINE
  5
6A1
  8
0
 62
     0
 10
32.30816629733603
 20
78.184364473644351
 30
0.0
 11
32.995573961589933
 21
78.581239473644345
 31
0.0
  0
LINE
  5
6A2
  8
0
 62
     0
 10
30.24594330457434
 20
76.993739473644354
 30
0.0
 11
30.93335096882824
 21
77.390614473644334
 31
0.0
  0
LINE
  5
6A3
  8
0
 62
     0
 10
28.18372031181265
 20
75.803114473644357
 30
0.0
 11
28.871127976066539
 21
76.199989473644351
 31
0.0
  0
LINE
  5
6A4
  8
0
 62
     0
 10
26.121497319050949
 20
74.612489473644359
 30
0.0
 11
26.808904983304849
 21
75.009364473644354
 31
0.0
  0
LINE
  5
6A5
  8
0
 62
     0
 10
33.682981790097728
 20
80.565614189148235
 30
0.0
 11
34.236542803857887
 21
80.885212789455565
 31
0.0
  0
LINE
  5
6A6
  8
0
 62
     0
 10
31.620758797336041
 20
79.374989189148252
 30
0.0
 11
32.308166461589941
 21
79.771864189148246
 31
0.0
  0
LINE
  5
6A7
  8
0
 62
     0
 10
29.55853580457434
 20
78.184364189148255
 30
0.0
 11
30.245943468828241
 21
78.581239189148249
 31
0.0
  0
LINE
  5
6A8
  8
0
 62
     0
 10
27.496312811812651
 20
76.993739189148258
 30
0.0
 11
28.183720476066551
 21
77.390614189148252
 31
0.0
  0
LINE
  5
6A9
  8
0
 62
     0
 10
25.434089819050961
 20
75.80311418914826
 30
0.0
 11
26.121497483304861
 21
76.199989189148255
 31
0.0
  0
LINE
  5
6AA
  8
0
 62
     0
 10
28.871128304574341
 20
79.37498890465217
 30
0.0
 11
29.558535968828231
 21
79.771863904652164
 31
0.0
  0
LINE
  5
6AB
  8
0
 62
     0
 10
26.808905311812641
 20
78.184363904652173
 30
0.0
 11
27.496312976066541
 21
78.581238904652167
 31
0.0
  0
LINE
  5
6AC
  8
0
 62
     0
 10
25.179501337328119
 20
77.243627081364878
 30
0.0
 11
25.434089983304851
 21
77.39061390465217
 31
0.0
  0
LINE
  5
6AD
  8
0
 62
     0
 10
30.933335528961809
 20
72.628108783722396
 30
0.0
 11
31.620743193215709
 21
72.231233783722402
 31
0.0
  0
LINE
  5
6AE
  8
0
 62
     0
 10
28.871112536200108
 20
73.818733783722394
 30
0.0
 11
29.558520200454009
 21
73.421858783722399
 31
0.0
  0
LINE
  5
6AF
  8
0
 62
     0
 10
26.808889543438418
 20
75.009358783722391
 30
0.0
 11
27.496297207692312
 21
74.612483783722396
 31
0.0
  0
LINE
  5
6B0
  8
0
 62
     0
 10
25.03196283378298
 20
76.035267897872188
 30
0.0
 11
25.434074214930622
 21
75.803108783722394
 31
0.0
  0
LINE
  5
6B1
  8
0
 62
     0
 10
33.682966021723502
 20
72.6281084992263
 30
0.0
 11
34.370373685977391
 21
72.231233499226306
 31
0.0
  0
LINE
  5
6B2
  8
0
 62
     0
 10
31.620743028961812
 20
73.818733499226298
 30
0.0
 11
32.308150693215701
 21
73.421858499226303
 31
0.0
  0
LINE
  5
6B3
  8
0
 62
     0
 10
29.558520036200111
 20
75.009358499226295
 30
0.0
 11
30.245927700454011
 21
74.6124834992263
 31
0.0
  0
LINE
  5
6B4
  8
0
 62
     0
 10
27.496297043438421
 20
76.199983499226292
 30
0.0
 11
28.183704707692311
 21
75.803108499226283
 31
0.0
  0
LINE
  5
6B5
  8
0
 62
     0
 10
25.43407405067672
 20
77.390608499226289
 30
0.0
 11
26.121481714930621
 21
76.993733499226295
 31
0.0
  0
LINE
  5
6B6
  8
0
 62
     0
 10
36.432596514485184
 20
72.62810821473019
 30
0.0
 11
37.12000417873908
 21
72.231233214730196
 31
0.0
  0
LINE
  5
6B7
  8
0
 62
     0
 10
34.370373521723486
 20
73.818733214730187
 30
0.0
 11
35.05778118597739
 21
73.421858214730193
 31
0.0
  0
LINE
  5
6B8
  8
0
 62
     0
 10
32.308150528961797
 20
75.009358214730184
 30
0.0
 11
32.995558193215693
 21
74.61248321473019
 31
0.0
  0
LINE
  5
6B9
  8
0
 62
     0
 10
30.24592753620011
 20
76.199983214730182
 30
0.0
 11
30.933335200454
 21
75.803108214730187
 31
0.0
  0
LINE
  5
6BA
  8
0
 62
     0
 10
28.18370454343842
 20
77.390608214730165
 30
0.0
 11
28.87111220769231
 21
76.993733214730184
 31
0.0
  0
LINE
  5
6BB
  8
0
 62
     0
 10
26.202333560307618
 20
78.534553285205263
 30
0.0
 11
26.80888921493062
 21
78.184358214730182
 31
0.0
  0
LINE
  5
6BC
  8
0
 62
     0
 10
39.182227007246873
 20
72.628107930234123
 30
0.0
 11
39.577922624695297
 21
72.399652958983111
 31
0.0
  0
LINE
  5
6BD
  8
0
 62
     0
 10
37.120004014485183
 20
73.81873293023412
 30
0.0
 11
37.807411678739079
 21
73.421857930234125
 31
0.0
  0
LINE
  5
6BE
  8
0
 62
     0
 10
35.057781021723493
 20
75.009357930234117
 30
0.0
 11
35.745188685977382
 21
74.612482930234123
 31
0.0
  0
LINE
  5
6BF
  8
0
 62
     0
 10
32.995558028961803
 20
76.199982930234114
 30
0.0
 11
33.682965693215692
 21
75.80310793023412
 31
0.0
  0
LINE
  5
6C0
  8
0
 62
     0
 10
30.933335036200109
 20
77.390607930234111
 30
0.0
 11
31.620742700453999
 21
76.993732930234117
 31
0.0
  0
LINE
  5
6C1
  8
0
 62
     0
 10
28.871112043438409
 20
78.581232930234094
 30
0.0
 11
29.558519707692309
 21
78.184357930234114
 31
0.0
  0
LINE
  5
6C2
  8
0
 62
     0
 10
39.869634507246872
 20
73.818732645738024
 30
0.0
 11
40.557042171500768
 21
73.421857645738029
 31
0.0
  0
LINE
  5
6C3
  8
0
 62
     0
 10
37.807411514485182
 20
75.009357645738021
 30
0.0
 11
38.494819178739078
 21
74.612482645738027
 31
0.0
  0
LINE
  5
6C4
  8
0
 62
     0
 10
35.745188521723492
 20
76.199982645738004
 30
0.0
 11
36.432596185977388
 21
75.803107645738024
 31
0.0
  0
LINE
  5
6C5
  8
0
 62
     0
 10
33.682965528961802
 20
77.390607645738015
 30
0.0
 11
34.370373193215698
 21
76.993732645738021
 31
0.0
  0
LINE
  5
6C6
  8
0
 62
     0
 10
31.620742536200112
 20
78.581232645738012
 30
0.0
 11
32.308150200454008
 21
78.184357645738018
 31
0.0
  0
LINE
  5
6C7
  8
0
 62
     0
 10
29.558519543438418
 20
79.77185764573801
 30
0.0
 11
30.245927207692311
 21
79.374982645738015
 31
0.0
  0
LINE
  5
6C8
  8
0
 62
     0
 10
42.619265000008546
 20
73.818732361241914
 30
0.0
 11
42.912014382913881
 21
73.649713426216422
 31
0.0
  0
LINE
  5
6C9
  8
0
 62
     0
 10
40.557042007246856
 20
75.009357361241911
 30
0.0
 11
41.24444967150076
 21
74.612482361241916
 31
0.0
  0
LINE
  5
6CA
  8
0
 62
     0
 10
38.494819014485181
 20
76.199982361241908
 30
0.0
 11
39.18222667873907
 21
75.803107361241914
 31
0.0
  0
LINE
  5
6CB
  8
0
 62
     0
 10
36.432596021723477
 20
77.390607361241905
 30
0.0
 11
37.12000368597738
 21
76.993732361241911
 31
0.0
  0
LINE
  5
6CC
  8
0
 62
     0
 10
34.370373028961787
 20
78.581232361241902
 30
0.0
 11
35.05778069321569
 21
78.184357361241894
 31
0.0
  0
LINE
  5
6CD
  8
0
 62
     0
 10
32.308150036200111
 20
79.771857361241899
 30
0.0
 11
32.995557700454
 21
79.374982361241905
 31
0.0
  0
LINE
  5
6CE
  8
0
 62
     0
 10
43.30667250000856
 20
75.009357076745815
 30
0.0
 11
43.994080164262463
 21
74.61248207674582
 31
0.0
  0
LINE
  5
6CF
  8
0
 62
     0
 10
41.24444950724687
 20
76.199982076745812
 30
0.0
 11
41.931857171500774
 21
75.803107076745803
 31
0.0
  0
LINE
  5
6D0
  8
0
 62
     0
 10
39.182226514485187
 20
77.390607076745809
 30
0.0
 11
39.869634178739091
 21
76.993732076745815
 31
0.0
  0
LINE
  5
6D1
  8
0
 62
     0
 10
37.120003521723497
 20
78.581232076745806
 30
0.0
 11
37.807411185977386
 21
78.184357076745812
 31
0.0
  0
LINE
  5
6D2
  8
0
 62
     0
 10
35.057780528961807
 20
79.771857076745803
 30
0.0
 11
35.745188193215697
 21
79.374982076745809
 31
0.0
  0
LINE
  5
6D3
  8
0
 62
     0
 10
33.230337258889612
 20
80.826931940650766
 30
0.0
 11
33.682965200454007
 21
80.565607076745806
 31
0.0
  0
LINE
  5
6D4
  8
0
 62
     0
 10
43.994080000008559
 20
76.199981792249716
 30
0.0
 11
44.681487664262448
 21
75.803106792249721
 31
0.0
  0
LINE
  5
6D5
  8
0
 62
     0
 10
41.931857007246862
 20
77.390606792249713
 30
0.0
 11
42.619264671500758
 21
76.993731792249719
 31
0.0
  0
LINE
  5
6D6
  8
0
 62
     0
 10
39.869634014485179
 20
78.58123179224971
 30
0.0
 11
40.557041678739083
 21
78.184356792249716
 31
0.0
  0
LINE
  5
6D7
  8
0
 62
     0
 10
37.807411021723489
 20
79.771856792249693
 30
0.0
 11
38.494818685977378
 21
79.374981792249713
 31
0.0
  0
LINE
  5
6D8
  8
0
 62
     0
 10
35.885803507140587
 20
80.881297408070964
 30
0.0
 11
36.432595693215703
 21
80.565606792249696
 31
0.0
  0
LINE
  5
6D9
  8
0
 62
     0
 10
44.681487500008572
 20
77.390606507753617
 30
0.0
 11
44.784813067088074
 21
77.330951463786093
 31
0.0
  0
LINE
  5
6DA
  8
0
 62
     0
 10
42.619264507246882
 20
78.581231507753614
 30
0.0
 11
43.306672171500779
 21
78.18435650775362
 31
0.0
  0
LINE
  5
6DB
  8
0
 62
     0
 10
40.557041514485192
 20
79.771856507753611
 30
0.0
 11
41.244449178739082
 21
79.374981507753617
 31
0.0
  0
LINE
  5
6DC
  8
0
 62
     0
 10
43.994080000008609
 20
76.199999999999932
 30
0.0
 11
43.994080000008609
 21
76.993749999999935
 31
0.0
  0
LINE
  5
6DD
  8
0
 62
     0
 10
43.994080000008609
 20
74.435138318315026
 30
0.0
 11
43.994080000008609
 21
74.612499999999926
 31
0.0
  0
LINE
  5
6DE
  8
0
 62
     0
 10
42.61926500000861
 20
78.581249999999926
 30
0.0
 11
42.61926500000861
 21
79.316086580965063
 31
0.0
  0
LINE
  5
6DF
  8
0
 62
     0
 10
42.61926500000861
 20
76.199999999999918
 30
0.0
 11
42.61926500000861
 21
76.99374999999992
 31
0.0
  0
LINE
  5
6E0
  8
0
 62
     0
 10
42.61926500000861
 20
73.818749999999909
 30
0.0
 11
42.61926500000861
 21
74.612499999999912
 31
0.0
  0
LINE
  5
6E1
  8
0
 62
     0
 10
41.244450000008619
 20
78.581249999999926
 30
0.0
 11
41.244450000008619
 21
79.374999999999915
 31
0.0
  0
LINE
  5
6E2
  8
0
 62
     0
 10
41.244450000008619
 20
76.199999999999918
 30
0.0
 11
41.244450000008619
 21
76.99374999999992
 31
0.0
  0
LINE
  5
6E3
  8
0
 62
     0
 10
41.244450000008619
 20
73.818749999999909
 30
0.0
 11
41.244450000008619
 21
74.612499999999912
 31
0.0
  0
LINE
  5
6E4
  8
0
 62
     0
 10
39.869635000008607
 20
78.581249999999926
 30
0.0
 11
39.869635000008607
 21
79.374999999999915
 31
0.0
  0
LINE
  5
6E5
  8
0
 62
     0
 10
39.869635000008607
 20
76.199999999999918
 30
0.0
 11
39.869635000008607
 21
76.99374999999992
 31
0.0
  0
LINE
  5
6E6
  8
0
 62
     0
 10
39.869635000008607
 20
73.818749999999909
 30
0.0
 11
39.869635000008607
 21
74.612499999999912
 31
0.0
  0
LINE
  5
6E7
  8
0
 62
     0
 10
38.494820000008609
 20
78.58124999999994
 30
0.0
 11
38.494820000008609
 21
79.374999999999943
 31
0.0
  0
LINE
  5
6E8
  8
0
 62
     0
 10
38.494820000008609
 20
76.199999999999932
 30
0.0
 11
38.494820000008609
 21
76.993749999999935
 31
0.0
  0
LINE
  5
6E9
  8
0
 62
     0
 10
38.494820000008609
 20
73.818749999999923
 30
0.0
 11
38.494820000008609
 21
74.612499999999926
 31
0.0
  0
LINE
  5
6EA
  8
0
 62
     0
 10
38.494820000008609
 20
72.183754963094216
 30
0.0
 11
38.494820000008609
 21
72.231249999999918
 31
0.0
  0
LINE
  5
6EB
  8
0
 62
     0
 10
37.120005000008618
 20
78.58124999999994
 30
0.0
 11
37.120005000008618
 21
79.374999999999943
 31
0.0
  0
LINE
  5
6EC
  8
0
 62
     0
 10
37.120005000008618
 20
76.199999999999932
 30
0.0
 11
37.120005000008618
 21
76.993749999999935
 31
0.0
  0
LINE
  5
6ED
  8
0
 62
     0
 10
37.120005000008618
 20
73.818749999999923
 30
0.0
 11
37.120005000008618
 21
74.612499999999926
 31
0.0
  0
LINE
  5
6EE
  8
0
 62
     0
 10
37.120005000008618
 20
72.001752053393631
 30
0.0
 11
37.120005000008618
 21
72.231249999999918
 31
0.0
  0
LINE
  5
6EF
  8
0
 62
     0
 10
35.745190000008613
 20
78.58124999999994
 30
0.0
 11
35.745190000008613
 21
79.374999999999943
 31
0.0
  0
LINE
  5
6F0
  8
0
 62
     0
 10
35.745190000008613
 20
76.199999999999932
 30
0.0
 11
35.745190000008613
 21
76.993749999999935
 31
0.0
  0
LINE
  5
6F1
  8
0
 62
     0
 10
35.745190000008613
 20
73.818749999999923
 30
0.0
 11
35.745190000008613
 21
74.612499999999926
 31
0.0
  0
LINE
  5
6F2
  8
0
 62
     0
 10
35.745190000008613
 20
71.911443140444803
 30
0.0
 11
35.745190000008613
 21
72.231249999999918
 31
0.0
  0
LINE
  5
6F3
  8
0
 62
     0
 10
34.370375000008622
 20
78.58124999999994
 30
0.0
 11
34.370375000008622
 21
79.374999999999943
 31
0.0
  0
LINE
  5
6F4
  8
0
 62
     0
 10
34.370375000008622
 20
76.199999999999932
 30
0.0
 11
34.370375000008622
 21
76.993749999999935
 31
0.0
  0
LINE
  5
6F5
  8
0
 62
     0
 10
34.370375000008622
 20
73.818749999999923
 30
0.0
 11
34.370375000008622
 21
74.612499999999926
 31
0.0
  0
LINE
  5
6F6
  8
0
 62
     0
 10
34.370375000008622
 20
71.907326048094419
 30
0.0
 11
34.370375000008622
 21
72.231249999999918
 31
0.0
  0
LINE
  5
6F7
  8
0
 62
     0
 10
32.995560000008624
 20
78.58124999999994
 30
0.0
 11
32.995560000008624
 21
79.374999999999943
 31
0.0
  0
LINE
  5
6F8
  8
0
 62
     0
 10
32.995560000008624
 20
76.199999999999932
 30
0.0
 11
32.995560000008624
 21
76.993749999999935
 31
0.0
  0
LINE
  5
6F9
  8
0
 62
     0
 10
32.995560000008624
 20
73.818749999999923
 30
0.0
 11
32.995560000008624
 21
74.612499999999926
 31
0.0
  0
LINE
  5
6FA
  8
0
 62
     0
 10
32.995560000008624
 20
71.989190602497828
 30
0.0
 11
32.995560000008624
 21
72.231249999999918
 31
0.0
  0
LINE
  5
6FB
  8
0
 62
     0
 10
31.620745000008618
 20
78.58124999999994
 30
0.0
 11
31.620745000008618
 21
79.374999999999943
 31
0.0
  0
LINE
  5
6FC
  8
0
 62
     0
 10
31.620745000008618
 20
76.199999999999932
 30
0.0
 11
31.620745000008618
 21
76.993749999999935
 31
0.0
  0
LINE
  5
6FD
  8
0
 62
     0
 10
31.620745000008618
 20
73.818749999999923
 30
0.0
 11
31.620745000008618
 21
74.612499999999926
 31
0.0
  0
LINE
  5
6FE
  8
0
 62
     0
 10
31.620745000008618
 20
72.162052211305564
 30
0.0
 11
31.620745000008618
 21
72.231249999999918
 31
0.0
  0
LINE
  5
6FF
  8
0
 62
     0
 10
30.24593000000861
 20
78.581249999999926
 30
0.0
 11
30.24593000000861
 21
79.374999999999915
 31
0.0
  0
LINE
  5
700
  8
0
 62
     0
 10
30.24593000000861
 20
76.199999999999918
 30
0.0
 11
30.24593000000861
 21
76.99374999999992
 31
0.0
  0
LINE
  5
701
  8
0
 62
     0
 10
30.24593000000861
 20
73.818749999999909
 30
0.0
 11
30.24593000000861
 21
74.612499999999912
 31
0.0
  0
LINE
  5
702
  8
0
 62
     0
 10
28.871115000008611
 20
78.581249999999926
 30
0.0
 11
28.871115000008611
 21
79.374999999999915
 31
0.0
  0
LINE
  5
703
  8
0
 62
     0
 10
28.871115000008611
 20
76.199999999999918
 30
0.0
 11
28.871115000008611
 21
76.99374999999992
 31
0.0
  0
LINE
  5
704
  8
0
 62
     0
 10
28.871115000008611
 20
73.818749999999909
 30
0.0
 11
28.871115000008611
 21
74.612499999999912
 31
0.0
  0
LINE
  5
705
  8
0
 62
     0
 10
27.49630000000861
 20
78.581249999999926
 30
0.0
 11
27.49630000000861
 21
79.370310870913855
 31
0.0
  0
LINE
  5
706
  8
0
 62
     0
 10
27.49630000000861
 20
76.199999999999918
 30
0.0
 11
27.49630000000861
 21
76.99374999999992
 31
0.0
  0
LINE
  5
707
  8
0
 62
     0
 10
27.49630000000861
 20
73.818749999999909
 30
0.0
 11
27.49630000000861
 21
74.612499999999912
 31
0.0
  0
LINE
  5
708
  8
0
 62
     0
 10
26.121485000008612
 20
76.199999999999932
 30
0.0
 11
26.121485000008612
 21
76.993749999999935
 31
0.0
  0
LINE
  5
709
  8
0
 62
     0
 10
26.121485000008612
 20
74.324609670772602
 30
0.0
 11
26.121485000008612
 21
74.612499999999926
 31
0.0
  0
ENDBLK
  5
70B
  8
0
  0
BLOCK
  8
0
  2
*X15
 70
     1
 10
0.0
 20
0.0
 30
0.0
  3
*X15
  1

  0
LINE
  5
724
  8
0
 62
     0
 10
44.681497848004177
 20
23.415625568992141
 30
0.0
 11
45.00000000000805
 21
23.599512872189049
 31
0.0
  0
LINE
  5
725
  8
0
 62
     0
 10
43.994090348004178
 20
24.606250284496038
 30
0.0
 11
44.681498012258068
 21
25.003125284496051
 31
0.0
  0
LINE
  5
726
  8
0
 62
     0
 10
41.931867355242488
 20
23.415625284496041
 30
0.0
 11
42.619275019496378
 21
23.812500284496039
 31
0.0
  0
LINE
  5
727
  8
0
 62
     0
 10
43.306682848004179
 20
25.79687499999995
 30
0.0
 11
43.994090512258069
 21
26.193749999999952
 31
0.0
  0
LINE
  5
728
  8
0
 62
     0
 10
41.244459855242489
 20
24.60624999999995
 30
0.0
 11
41.931867519496379
 21
25.003124999999951
 31
0.0
  0
LINE
  5
729
  8
0
 62
     0
 10
39.182236862480799
 20
23.415624999999942
 30
0.0
 11
39.869644526734703
 21
23.81249999999995
 31
0.0
  0
LINE
  5
72A
  8
0
 62
     0
 10
44.681498340765863
 20
28.178124715503849
 30
0.0
 11
45.000000000008022
 21
28.36201173420466
 31
0.0
  0
LINE
  5
72B
  8
0
 62
     0
 10
42.619275348004173
 20
26.987499715503851
 30
0.0
 11
43.30668301225807
 21
27.384374715503849
 31
0.0
  0
LINE
  5
72C
  8
0
 62
     0
 10
40.557052355242483
 20
25.796874715503851
 30
0.0
 11
41.24446001949638
 21
26.193749715503849
 31
0.0
  0
LINE
  5
72D
  8
0
 62
     0
 10
38.4948293624808
 20
24.60624971550385
 30
0.0
 11
39.18223702673469
 21
25.003124715503851
 31
0.0
  0
LINE
  5
72E
  8
0
 62
     0
 10
36.432606369719103
 20
23.415624715503849
 30
0.0
 11
37.120014033973
 21
23.812499715503851
 31
0.0
  0
LINE
  5
72F
  8
0
 62
     0
 10
43.994090840765857
 20
29.36874943100776
 30
0.0
 11
44.681498505019754
 21
29.765624431007758
 31
0.0
  0
LINE
  5
730
  8
0
 62
     0
 10
41.93186784800416
 20
28.178124431007749
 30
0.0
 11
42.619275512258064
 21
28.57499943100775
 31
0.0
  0
LINE
  5
731
  8
0
 62
     0
 10
39.869644855242477
 20
26.987499431007748
 30
0.0
 11
40.557052519496366
 21
27.38437443100775
 31
0.0
  0
LINE
  5
732
  8
0
 62
     0
 10
37.807421862480787
 20
25.796874431007751
 30
0.0
 11
38.494829526734691
 21
26.193749431007749
 31
0.0
  0
LINE
  5
733
  8
0
 62
     0
 10
35.745198869719097
 20
24.60624943100775
 30
0.0
 11
36.432606533972987
 21
25.003124431007748
 31
0.0
  0
LINE
  5
734
  8
0
 62
     0
 10
33.682975876957407
 20
23.41562443100775
 30
0.0
 11
34.370383541211297
 21
23.812499431007751
 31
0.0
  0
LINE
  5
735
  8
0
 62
     0
 10
43.306683340765851
 20
30.559374146511651
 30
0.0
 11
43.994091005019747
 21
30.956249146511659
 31
0.0
  0
LINE
  5
736
  8
0
 62
     0
 10
41.244460348004161
 20
29.36874914651165
 30
0.0
 11
41.93186801225805
 21
29.765624146511659
 31
0.0
  0
LINE
  5
737
  8
0
 62
     0
 10
39.182237355242471
 20
28.178124146511649
 30
0.0
 11
39.869645019496367
 21
28.574999146511662
 31
0.0
  0
LINE
  5
738
  8
0
 62
     0
 10
37.120014362480781
 20
26.987499146511649
 30
0.0
 11
37.807422026734677
 21
27.384374146511661
 31
0.0
  0
LINE
  5
739
  8
0
 62
     0
 10
35.057791369719091
 20
25.796874146511652
 30
0.0
 11
35.745199033972987
 21
26.19374914651166
 31
0.0
  0
LINE
  5
73A
  8
0
 62
     0
 10
32.995568376957401
 20
24.606249146511651
 30
0.0
 11
33.682976041211298
 21
25.003124146511649
 31
0.0
  0
LINE
  5
73B
  8
0
 62
     0
 10
30.933345384195711
 20
23.41562414651165
 30
0.0
 11
31.620753048449611
 21
23.812499146511652
 31
0.0
  0
LINE
  5
73C
  8
0
 62
     0
 10
42.619275840765852
 20
31.749998862015559
 30
0.0
 11
43.052290514948652
 21
32.000000000718053
 31
0.0
  0
LINE
  5
73D
  8
0
 62
     0
 10
40.557052848004162
 20
30.559373862015558
 30
0.0
 11
41.244460512258051
 21
30.95624886201556
 31
0.0
  0
LINE
  5
73E
  8
0
 62
     0
 10
38.494829855242472
 20
29.368748862015561
 30
0.0
 11
39.182237519496368
 21
29.765623862015548
 31
0.0
  0
LINE
  5
73F
  8
0
 62
     0
 10
36.432606862480782
 20
28.178123862015561
 30
0.0
 11
37.120014526734678
 21
28.574998862015551
 31
0.0
  0
LINE
  5
740
  8
0
 62
     0
 10
34.370383869719092
 20
26.987498862015549
 30
0.0
 11
35.057791533972988
 21
27.384373862015551
 31
0.0
  0
LINE
  5
741
  8
0
 62
     0
 10
32.308160876957402
 20
25.796873862015548
 30
0.0
 11
32.995568541211298
 21
26.19374886201555
 31
0.0
  0
LINE
  5
742
  8
0
 62
     0
 10
30.245937884195708
 20
24.606248862015551
 30
0.0
 11
30.933345548449608
 21
25.003123862015549
 31
0.0
  0
LINE
  5
743
  8
0
 62
     0
 10
28.183714891434018
 20
23.415623862015551
 30
0.0
 11
28.871122555687911
 21
23.812498862015548
 31
0.0
  0
LINE
  5
744
  8
0
 62
     0
 10
39.869645348004163
 20
31.74999857751946
 30
0.0
 11
40.302660514948627
 21
32.000000000718039
 31
0.0
  0
LINE
  5
745
  8
0
 62
     0
 10
37.807422355242473
 20
30.559373577519459
 30
0.0
 11
38.494830019496369
 21
30.95624857751946
 31
0.0
  0
LINE
  5
746
  8
0
 62
     0
 10
35.74519936248079
 20
29.368748577519462
 30
0.0
 11
36.432607026734679
 21
29.76562357751946
 31
0.0
  0
LINE
  5
747
  8
0
 62
     0
 10
33.682976369719093
 20
28.178123577519461
 30
0.0
 11
34.370384033972989
 21
28.574998577519459
 31
0.0
  0
LINE
  5
748
  8
0
 62
     0
 10
31.620753376957399
 20
26.98749857751946
 30
0.0
 11
32.308161041211299
 21
27.384373577519462
 31
0.0
  0
LINE
  5
749
  8
0
 62
     0
 10
29.558530384195709
 20
25.79687357751946
 30
0.0
 11
30.245938048449609
 21
26.193748577519461
 31
0.0
  0
LINE
  5
74A
  8
0
 62
     0
 10
27.496307391434019
 20
24.606248577519459
 30
0.0
 11
28.183715055687909
 21
25.00312357751946
 31
0.0
  0
LINE
  5
74B
  8
0
 62
     0
 10
25.434084398672319
 20
23.415623577519451
 30
0.0
 11
26.121492062926219
 21
23.81249857751946
 31
0.0
  0
LINE
  5
74C
  8
0
 62
     0
 10
37.120014855242466
 20
31.74999829302336
 30
0.0
 11
37.553030514948652
 21
32.000000000718039
 31
0.0
  0
LINE
  5
74D
  8
0
 62
     0
 10
35.057791862480791
 20
30.559373293023359
 30
0.0
 11
35.74519952673468
 21
30.956248293023361
 31
0.0
  0
LINE
  5
74E
  8
0
 62
     0
 10
32.995568869719101
 20
29.368748293023359
 30
0.0
 11
33.68297653397299
 21
29.76562329302336
 31
0.0
  0
LINE
  5
74F
  8
0
 62
     0
 10
30.9333458769574
 20
28.178123293023361
 30
0.0
 11
31.6207535412113
 21
28.574998293023359
 31
0.0
  0
LINE
  5
750
  8
0
 62
     0
 10
28.87112288419571
 20
26.98749829302335
 30
0.0
 11
29.55853054844961
 21
27.384373293023359
 31
0.0
  0
LINE
  5
751
  8
0
 62
     0
 10
26.80889989143402
 20
25.796873293023349
 30
0.0
 11
27.49630755568791
 21
26.193748293023361
 31
0.0
  0
LINE
  5
752
  8
0
 62
     0
 10
24.999999999999439
 20
24.752504453766509
 30
0.0
 11
25.43408456292622
 21
25.003123293023361
 31
0.0
  0
LINE
  5
753
  8
0
 62
     0
 10
34.370384362480792
 20
31.74999800852726
 30
0.0
 11
34.803400514948663
 21
32.000000000718053
 31
0.0
  0
LINE
  5
754
  8
0
 62
     0
 10
32.308161369719102
 20
30.55937300852726
 30
0.0
 11
32.995569033972991
 21
30.956248008527261
 31
0.0
  0
LINE
  5
755
  8
0
 62
     0
 10
30.245938376957401
 20
29.368748008527259
 30
0.0
 11
30.933346041211301
 21
29.76562300852726
 31
0.0
  0
LINE
  5
756
  8
0
 62
     0
 10
28.183715384195711
 20
28.178123008527258
 30
0.0
 11
28.871123048449601
 21
28.57499800852726
 31
0.0
  0
LINE
  5
757
  8
0
 62
     0
 10
26.121492391434021
 20
26.987498008527261
 30
0.0
 11
26.808900055687911
 21
27.384373008527259
 31
0.0
  0
LINE
  5
758
  8
0
 62
     0
 10
31.620753869719099
 20
31.749997724031171
 30
0.0
 11
32.053770514948667
 21
32.000000000718053
 31
0.0
  0
LINE
  5
759
  8
0
 62
     0
 10
29.558530876957409
 20
30.559372724031171
 30
0.0
 11
30.245938541211309
 21
30.956247724031162
 31
0.0
  0
LINE
  5
75A
  8
0
 62
     0
 10
27.496307884195708
 20
29.36874772403117
 30
0.0
 11
28.183715548449609
 21
29.765622724031161
 31
0.0
  0
LINE
  5
75B
  8
0
 62
     0
 10
25.434084891434019
 20
28.178122724031159
 30
0.0
 11
26.121492555687912
 21
28.57499772403116
 31
0.0
  0
LINE
  5
75C
  8
0
 62
     0
 10
28.87112337695741
 20
31.749997439535061
 30
0.0
 11
29.304140514948681
 21
32.000000000718053
 31
0.0
  0
LINE
  5
75D
  8
0
 62
     0
 10
26.808900384195709
 20
30.559372439535061
 30
0.0
 11
27.49630804844961
 21
30.956247439535069
 31
0.0
  0
LINE
  5
75E
  8
0
 62
     0
 10
24.999999999999439
 20
29.515003315782131
 30
0.0
 11
25.43408505568792
 21
29.765622439535068
 31
0.0
  0
LINE
  5
75F
  8
0
 62
     0
 10
26.12149288419571
 20
31.749997155038969
 30
0.0
 11
26.554510514948682
 21
32.000000000718053
 31
0.0
  0
LINE
  5
760
  8
0
 62
     0
 10
24.999999999999432
 20
23.666234166389469
 30
0.0
 11
25.434079635309281
 21
23.415618172093609
 31
0.0
  0
LINE
  5
761
  8
0
 62
     0
 10
27.49630246381707
 20
23.812492887597511
 30
0.0
 11
28.18371012807097
 21
23.415617887597509
 31
0.0
  0
LINE
  5
762
  8
0
 62
     0
 10
25.434079471055369
 20
25.003117887597512
 30
0.0
 11
26.12148713530927
 21
24.60624288759751
 31
0.0
  0
LINE
  5
763
  8
0
 62
     0
 10
30.245932956578759
 20
23.812492603101411
 30
0.0
 11
30.933340620832659
 21
23.41561760310142
 31
0.0
  0
LINE
  5
764
  8
0
 62
     0
 10
28.183709963817069
 20
25.003117603101408
 30
0.0
 11
28.871117628070959
 21
24.606242603101421
 31
0.0
  0
LINE
  5
765
  8
0
 62
     0
 10
26.121486971055369
 20
26.193742603101409
 30
0.0
 11
26.808894635309269
 21
25.796867603101411
 31
0.0
  0
LINE
  5
766
  8
0
 62
     0
 10
32.995563449340452
 20
23.812492318605319
 30
0.0
 11
33.682971113594348
 21
23.415617318605332
 31
0.0
  0
LINE
  5
767
  8
0
 62
     0
 10
30.933340456578762
 20
25.003117318605319
 30
0.0
 11
31.620748120832658
 21
24.606242318605322
 31
0.0
  0
LINE
  5
768
  8
0
 62
     0
 10
28.871117463817068
 20
26.19374231860532
 30
0.0
 11
29.558525128070961
 21
25.796867318605319
 31
0.0
  0
LINE
  5
769
  8
0
 62
     0
 10
26.808894471055378
 20
27.38436731860531
 30
0.0
 11
27.496302135309271
 21
26.987492318605319
 31
0.0
  0
LINE
  5
76A
  8
0
 62
     0
 10
24.999999999999432
 20
28.428733028405091
 30
0.0
 11
25.434079142547581
 21
28.17811731860532
 31
0.0
  0
LINE
  5
76B
  8
0
 62
     0
 10
35.745193942102141
 20
23.81249203410923
 30
0.0
 11
36.432601606356037
 21
23.415617034109228
 31
0.0
  0
LINE
  5
76C
  8
0
 62
     0
 10
33.682970949340451
 20
25.00311703410922
 30
0.0
 11
34.370378613594347
 21
24.606242034109229
 31
0.0
  0
LINE
  5
76D
  8
0
 62
     0
 10
31.620747956578761
 20
26.193742034109221
 30
0.0
 11
32.308155620832657
 21
25.796867034109219
 31
0.0
  0
LINE
  5
76E
  8
0
 62
     0
 10
29.558524963817071
 20
27.384367034109221
 30
0.0
 11
30.24593262807096
 21
26.98749203410922
 31
0.0
  0
LINE
  5
76F
  8
0
 62
     0
 10
27.49630197105537
 20
28.574992034109219
 30
0.0
 11
28.18370963530927
 21
28.178117034109221
 31
0.0
  0
LINE
  5
770
  8
0
 62
     0
 10
25.43407897829368
 20
29.765617034109209
 30
0.0
 11
26.12148664254758
 21
29.368742034109211
 31
0.0
  0
LINE
  5
771
  8
0
 62
     0
 10
38.49482443486383
 20
23.81249174961313
 30
0.0
 11
39.182232099117719
 21
23.415616749613129
 31
0.0
  0
LINE
  5
772
  8
0
 62
     0
 10
36.43260144210214
 20
25.003116749613131
 30
0.0
 11
37.120009106356036
 21
24.60624174961314
 31
0.0
  0
LINE
  5
773
  8
0
 62
     0
 10
34.37037844934045
 20
26.193741749613132
 30
0.0
 11
35.057786113594346
 21
25.79686674961313
 31
0.0
  0
LINE
  5
774
  8
0
 62
     0
 10
32.30815545657876
 20
27.384366749613129
 30
0.0
 11
32.995563120832657
 21
26.987491749613131
 31
0.0
  0
LINE
  5
775
  8
0
 62
     0
 10
30.24593246381707
 20
28.574991749613119
 30
0.0
 11
30.933340128070959
 21
28.178116749613121
 31
0.0
  0
LINE
  5
776
  8
0
 62
     0
 10
28.183709471055369
 20
29.76561674961312
 30
0.0
 11
28.871117135309269
 21
29.368741749613118
 31
0.0
  0
LINE
  5
777
  8
0
 62
     0
 10
26.121486478293679
 20
30.95624174961312
 30
0.0
 11
26.80889414254758
 21
30.559366749613119
 31
0.0
  0
LINE
  5
778
  8
0
 62
     0
 10
41.244454927625519
 20
23.812491465117041
 30
0.0
 11
41.931862591879423
 21
23.415616465117051
 31
0.0
  0
LINE
  5
779
  8
0
 62
     0
 10
39.182231934863829
 20
25.003116465117049
 30
0.0
 11
39.869639599117718
 21
24.606241465117051
 31
0.0
  0
LINE
  5
77A
  8
0
 62
     0
 10
37.120008942102139
 20
26.193741465117039
 30
0.0
 11
37.807416606356043
 21
25.796866465117041
 31
0.0
  0
LINE
  5
77B
  8
0
 62
     0
 10
35.057785949340449
 20
27.38436646511704
 30
0.0
 11
35.745193613594353
 21
26.987491465117039
 31
0.0
  0
LINE
  5
77C
  8
0
 62
     0
 10
32.995562956578759
 20
28.57499146511703
 30
0.0
 11
33.682970620832663
 21
28.178116465117029
 31
0.0
  0
LINE
  5
77D
  8
0
 62
     0
 10
30.933339963817069
 20
29.765616465117031
 30
0.0
 11
31.620747628070959
 21
29.368741465117029
 31
0.0
  0
LINE
  5
77E
  8
0
 62
     0
 10
28.871116971055368
 20
30.956241465117031
 30
0.0
 11
29.558524635309269
 21
30.55936646511703
 31
0.0
  0
LINE
  5
77F
  8
0
 62
     0
 10
27.06327415656072
 20
32.000000000718053
 30
0.0
 11
27.496301642547579
 21
31.749991465117031
 31
0.0
  0
LINE
  5
780
  8
0
 62
     0
 10
43.994085420387201
 20
23.812491180620949
 30
0.0
 11
44.681493084641097
 21
23.415616180620951
 31
0.0
  0
LINE
  5
781
  8
0
 62
     0
 10
41.931862427625518
 20
25.00311618062095
 30
0.0
 11
42.619270091879407
 21
24.606241180620948
 31
0.0
  0
LINE
  5
782
  8
0
 62
     0
 10
39.869639434863828
 20
26.19374118062094
 30
0.0
 11
40.557047099117717
 21
25.796866180620938
 31
0.0
  0
LINE
  5
783
  8
0
 62
     0
 10
37.807416442102138
 20
27.38436618062094
 30
0.0
 11
38.494824106356042
 21
26.98749118062095
 31
0.0
  0
LINE
  5
784
  8
0
 62
     0
 10
35.745193449340448
 20
28.574991180620941
 30
0.0
 11
36.432601113594352
 21
28.17811618062094
 31
0.0
  0
LINE
  5
785
  8
0
 62
     0
 10
33.682970456578758
 20
29.765616180620938
 30
0.0
 11
34.370378120832662
 21
29.36874118062094
 31
0.0
  0
LINE
  5
786
  8
0
 62
     0
 10
31.620747463817072
 20
30.956241180620928
 30
0.0
 11
32.308155128070972
 21
30.55936618062093
 31
0.0
  0
LINE
  5
787
  8
0
 62
     0
 10
29.81290415656072
 20
32.000000000718053
 30
0.0
 11
30.245932135309271
 21
31.749991180620931
 31
0.0
  0
LINE
  5
788
  8
0
 62
     0
 10
44.6814929203872
 20
25.00311589612485
 30
0.0
 11
45.000000000008022
 21
24.819225747966961
 31
0.0
  0
LINE
  5
789
  8
0
 62
     0
 10
42.619269927625517
 20
26.19374089612484
 30
0.0
 11
43.306677591879406
 21
25.796865896124839
 31
0.0
  0
LINE
  5
78A
  8
0
 62
     0
 10
40.55704693486382
 20
27.384365896124841
 30
0.0
 11
41.244454599117716
 21
26.987490896124839
 31
0.0
  0
LINE
  5
78B
  8
0
 62
     0
 10
38.494823942102137
 20
28.574990896124831
 30
0.0
 11
39.182231606356041
 21
28.17811589612484
 31
0.0
  0
LINE
  5
78C
  8
0
 62
     0
 10
36.432600949340447
 20
29.765615896124832
 30
0.0
 11
37.120008613594351
 21
29.368740896124841
 31
0.0
  0
LINE
  5
78D
  8
0
 62
     0
 10
34.370377956578757
 20
30.956240896124829
 30
0.0
 11
35.057785620832647
 21
30.559365896124831
 31
0.0
  0
LINE
  5
78E
  8
0
 62
     0
 10
32.562534156560723
 20
32.000000000718039
 30
0.0
 11
32.995562628070957
 21
31.749990896124832
 31
0.0
  0
LINE
  5
78F
  8
0
 62
     0
 10
43.306677427625509
 20
27.384365611628741
 30
0.0
 11
43.994085091879413
 21
26.98749061162874
 31
0.0
  0
LINE
  5
790
  8
0
 62
     0
 10
41.244454434863819
 20
28.574990611628738
 30
0.0
 11
41.931862099117723
 21
28.178115611628741
 31
0.0
  0
LINE
  5
791
  8
0
 62
     0
 10
39.182231442102143
 20
29.765615611628728
 30
0.0
 11
39.869639106356033
 21
29.368740611628731
 31
0.0
  0
LINE
  5
792
  8
0
 62
     0
 10
37.120008449340453
 20
30.956240611628729
 30
0.0
 11
37.807416113594343
 21
30.559365611628731
 31
0.0
  0
LINE
  5
793
  8
0
 62
     0
 10
35.312164156560712
 20
32.000000000718039
 30
0.0
 11
35.745193120832653
 21
31.749990611628728
 31
0.0
  0
LINE
  5
794
  8
0
 62
     0
 10
43.994084927625522
 20
28.574990327132639
 30
0.0
 11
44.681492591879412
 21
28.178115327132641
 31
0.0
  0
LINE
  5
795
  8
0
 62
     0
 10
41.931861934863832
 20
29.76561532713264
 30
0.0
 11
42.619269599117729
 21
29.368740327132642
 31
0.0
  0
LINE
  5
796
  8
0
 62
     0
 10
39.869638942102142
 20
30.95624032713264
 30
0.0
 11
40.557046606356039
 21
30.559365327132639
 31
0.0
  0
LINE
  5
797
  8
0
 62
     0
 10
38.061794156560708
 20
32.000000000718039
 30
0.0
 11
38.494823613594349
 21
31.74999032713264
 31
0.0
  0
LINE
  5
798
  8
0
 62
     0
 10
44.681492427625521
 20
29.765615042636551
 30
0.0
 11
45.000000000008029
 21
29.581724609982569
 31
0.0
  0
LINE
  5
799
  8
0
 62
     0
 10
42.619269434863831
 20
30.956240042636551
 30
0.0
 11
43.306677099117721
 21
30.55936504263655
 31
0.0
  0
LINE
  5
79A
  8
0
 62
     0
 10
40.811424156560712
 20
32.000000000718053
 30
0.0
 11
41.244454106356038
 21
31.74999004263654
 31
0.0
  0
LINE
  5
79B
  8
0
 62
     0
 10
43.561054156560708
 20
32.000000000718053
 30
0.0
 11
43.994084599117727
 21
31.749989758140451
 31
0.0
  0
LINE
  5
79C
  8
0
 62
     0
 10
43.994080000008601
 20
30.95624999999993
 30
0.0
 11
43.994080000008601
 21
31.749999999999929
 31
0.0
  0
LINE
  5
79D
  8
0
 62
     0
 10
43.994080000008601
 20
28.574999999999928
 30
0.0
 11
43.994080000008601
 21
29.368749999999931
 31
0.0
  0
LINE
  5
79E
  8
0
 62
     0
 10
43.994080000008601
 20
26.19374999999993
 30
0.0
 11
43.994080000008601
 21
26.98749999999993
 31
0.0
  0
LINE
  5
79F
  8
0
 62
     0
 10
43.994080000008601
 20
23.812499999999929
 30
0.0
 11
43.994080000008601
 21
24.606249999999928
 31
0.0
  0
LINE
  5
7A0
  8
0
 62
     0
 10
42.61926500000861
 20
30.956249999999919
 30
0.0
 11
42.61926500000861
 21
31.749999999999918
 31
0.0
  0
LINE
  5
7A1
  8
0
 62
     0
 10
42.61926500000861
 20
28.574999999999928
 30
0.0
 11
42.61926500000861
 21
29.368749999999931
 31
0.0
  0
LINE
  5
7A2
  8
0
 62
     0
 10
42.61926500000861
 20
26.19374999999993
 30
0.0
 11
42.61926500000861
 21
26.98749999999993
 31
0.0
  0
LINE
  5
7A3
  8
0
 62
     0
 10
42.61926500000861
 20
23.812499999999929
 30
0.0
 11
42.61926500000861
 21
24.606249999999928
 31
0.0
  0
LINE
  5
7A4
  8
0
 62
     0
 10
41.244450000008612
 20
30.956249999999919
 30
0.0
 11
41.244450000008612
 21
31.749999999999918
 31
0.0
  0
LINE
  5
7A5
  8
0
 62
     0
 10
41.244450000008612
 20
28.574999999999928
 30
0.0
 11
41.244450000008612
 21
29.368749999999931
 31
0.0
  0
LINE
  5
7A6
  8
0
 62
     0
 10
41.244450000008612
 20
26.19374999999993
 30
0.0
 11
41.244450000008612
 21
26.98749999999993
 31
0.0
  0
LINE
  5
7A7
  8
0
 62
     0
 10
41.244450000008612
 20
23.812499999999929
 30
0.0
 11
41.244450000008612
 21
24.606249999999928
 31
0.0
  0
LINE
  5
7A8
  8
0
 62
     0
 10
39.869635000008607
 20
30.956249999999919
 30
0.0
 11
39.869635000008607
 21
31.749999999999918
 31
0.0
  0
LINE
  5
7A9
  8
0
 62
     0
 10
39.869635000008607
 20
28.574999999999928
 30
0.0
 11
39.869635000008607
 21
29.368749999999931
 31
0.0
  0
LINE
  5
7AA
  8
0
 62
     0
 10
39.869635000008607
 20
26.19374999999993
 30
0.0
 11
39.869635000008607
 21
26.98749999999993
 31
0.0
  0
LINE
  5
7AB
  8
0
 62
     0
 10
39.869635000008607
 20
23.812499999999929
 30
0.0
 11
39.869635000008607
 21
24.606249999999928
 31
0.0
  0
LINE
  5
7AC
  8
0
 62
     0
 10
38.494820000008609
 20
30.956249999999919
 30
0.0
 11
38.494820000008609
 21
31.749999999999918
 31
0.0
  0
LINE
  5
7AD
  8
0
 62
     0
 10
38.494820000008609
 20
28.574999999999928
 30
0.0
 11
38.494820000008609
 21
29.368749999999931
 31
0.0
  0
LINE
  5
7AE
  8
0
 62
     0
 10
38.494820000008609
 20
26.19374999999993
 30
0.0
 11
38.494820000008609
 21
26.98749999999993
 31
0.0
  0
LINE
  5
7AF
  8
0
 62
     0
 10
38.494820000008609
 20
23.812499999999929
 30
0.0
 11
38.494820000008609
 21
24.606249999999928
 31
0.0
  0
LINE
  5
7B0
  8
0
 62
     0
 10
37.120005000008611
 20
30.956249999999919
 30
0.0
 11
37.120005000008611
 21
31.749999999999918
 31
0.0
  0
LINE
  5
7B1
  8
0
 62
     0
 10
37.120005000008611
 20
28.574999999999928
 30
0.0
 11
37.120005000008611
 21
29.368749999999931
 31
0.0
  0
LINE
  5
7B2
  8
0
 62
     0
 10
37.120005000008611
 20
26.19374999999993
 30
0.0
 11
37.120005000008611
 21
26.98749999999993
 31
0.0
  0
LINE
  5
7B3
  8
0
 62
     0
 10
37.120005000008611
 20
23.812499999999929
 30
0.0
 11
37.120005000008611
 21
24.606249999999928
 31
0.0
  0
LINE
  5
7B4
  8
0
 62
     0
 10
35.745190000008613
 20
30.956249999999919
 30
0.0
 11
35.745190000008613
 21
31.749999999999918
 31
0.0
  0
LINE
  5
7B5
  8
0
 62
     0
 10
35.745190000008613
 20
28.574999999999928
 30
0.0
 11
35.745190000008613
 21
29.368749999999931
 31
0.0
  0
LINE
  5
7B6
  8
0
 62
     0
 10
35.745190000008613
 20
26.19374999999993
 30
0.0
 11
35.745190000008613
 21
26.98749999999993
 31
0.0
  0
LINE
  5
7B7
  8
0
 62
     0
 10
35.745190000008613
 20
23.812499999999929
 30
0.0
 11
35.745190000008613
 21
24.606249999999928
 31
0.0
  0
LINE
  5
7B8
  8
0
 62
     0
 10
34.370375000008607
 20
30.956249999999919
 30
0.0
 11
34.370375000008607
 21
31.749999999999918
 31
0.0
  0
LINE
  5
7B9
  8
0
 62
     0
 10
34.370375000008607
 20
28.574999999999928
 30
0.0
 11
34.370375000008607
 21
29.368749999999931
 31
0.0
  0
LINE
  5
7BA
  8
0
 62
     0
 10
34.370375000008607
 20
26.19374999999993
 30
0.0
 11
34.370375000008607
 21
26.98749999999993
 31
0.0
  0
LINE
  5
7BB
  8
0
 62
     0
 10
34.370375000008607
 20
23.812499999999929
 30
0.0
 11
34.370375000008607
 21
24.606249999999928
 31
0.0
  0
LINE
  5
7BC
  8
0
 62
     0
 10
32.995560000008609
 20
30.956249999999919
 30
0.0
 11
32.995560000008609
 21
31.749999999999918
 31
0.0
  0
LINE
  5
7BD
  8
0
 62
     0
 10
32.995560000008609
 20
28.574999999999928
 30
0.0
 11
32.995560000008609
 21
29.368749999999931
 31
0.0
  0
LINE
  5
7BE
  8
0
 62
     0
 10
32.995560000008609
 20
26.19374999999993
 30
0.0
 11
32.995560000008609
 21
26.98749999999993
 31
0.0
  0
LINE
  5
7BF
  8
0
 62
     0
 10
32.995560000008609
 20
23.812499999999929
 30
0.0
 11
32.995560000008609
 21
24.606249999999928
 31
0.0
  0
LINE
  5
7C0
  8
0
 62
     0
 10
31.620745000008611
 20
30.956249999999919
 30
0.0
 11
31.620745000008611
 21
31.749999999999918
 31
0.0
  0
LINE
  5
7C1
  8
0
 62
     0
 10
31.620745000008611
 20
28.574999999999928
 30
0.0
 11
31.620745000008611
 21
29.368749999999931
 31
0.0
  0
LINE
  5
7C2
  8
0
 62
     0
 10
31.620745000008611
 20
26.19374999999993
 30
0.0
 11
31.620745000008611
 21
26.98749999999993
 31
0.0
  0
LINE
  5
7C3
  8
0
 62
     0
 10
31.620745000008611
 20
23.812499999999929
 30
0.0
 11
31.620745000008611
 21
24.606249999999928
 31
0.0
  0
LINE
  5
7C4
  8
0
 62
     0
 10
30.24593000000861
 20
30.956249999999919
 30
0.0
 11
30.24593000000861
 21
31.749999999999918
 31
0.0
  0
LINE
  5
7C5
  8
0
 62
     0
 10
30.24593000000861
 20
28.574999999999928
 30
0.0
 11
30.24593000000861
 21
29.368749999999931
 31
0.0
  0
LINE
  5
7C6
  8
0
 62
     0
 10
30.24593000000861
 20
26.19374999999993
 30
0.0
 11
30.24593000000861
 21
26.98749999999993
 31
0.0
  0
LINE
  5
7C7
  8
0
 62
     0
 10
30.24593000000861
 20
23.812499999999929
 30
0.0
 11
30.24593000000861
 21
24.606249999999928
 31
0.0
  0
LINE
  5
7C8
  8
0
 62
     0
 10
28.871115000008611
 20
30.95624999999993
 30
0.0
 11
28.871115000008611
 21
31.749999999999929
 31
0.0
  0
LINE
  5
7C9
  8
0
 62
     0
 10
28.871115000008611
 20
28.574999999999928
 30
0.0
 11
28.871115000008611
 21
29.368749999999931
 31
0.0
  0
LINE
  5
7CA
  8
0
 62
     0
 10
28.871115000008611
 20
26.19374999999993
 30
0.0
 11
28.871115000008611
 21
26.98749999999993
 31
0.0
  0
LINE
  5
7CB
  8
0
 62
     0
 10
28.871115000008611
 20
23.812499999999929
 30
0.0
 11
28.871115000008611
 21
24.606249999999928
 31
0.0
  0
LINE
  5
7CC
  8
0
 62
     0
 10
27.49630000000861
 20
30.95624999999993
 30
0.0
 11
27.49630000000861
 21
31.749999999999929
 31
0.0
  0
LINE
  5
7CD
  8
0
 62
     0
 10
27.49630000000861
 20
28.574999999999928
 30
0.0
 11
27.49630000000861
 21
29.368749999999931
 31
0.0
  0
LINE
  5
7CE
  8
0
 62
     0
 10
27.49630000000861
 20
26.19374999999993
 30
0.0
 11
27.49630000000861
 21
26.98749999999993
 31
0.0
  0
LINE
  5
7CF
  8
0
 62
     0
 10
27.49630000000861
 20
23.812499999999929
 30
0.0
 11
27.49630000000861
 21
24.606249999999928
 31
0.0
  0
LINE
  5
7D0
  8
0
 62
     0
 10
26.121485000008612
 20
30.95624999999993
 30
0.0
 11
26.121485000008612
 21
31.749999999999929
 31
0.0
  0
LINE
  5
7D1
  8
0
 62
     0
 10
26.121485000008612
 20
28.574999999999928
 30
0.0
 11
26.121485000008612
 21
29.368749999999931
 31
0.0
  0
LINE
  5
7D2
  8
0
 62
     0
 10
26.121485000008612
 20
26.19374999999993
 30
0.0
 11
26.121485000008612
 21
26.98749999999993
 31
0.0
  0
LINE
  5
7D3
  8
0
 62
     0
 10
26.121485000008612
 20
23.812499999999929
 30
0.0
 11
26.121485000008612
 21
24.606249999999928
 31
0.0
  0
ENDBLK
  5
7D5
  8
0
  0
BLOCK
  8
0
  2
*U16
 70
     1
 10
0.0
 20
0.0
 30
0.0
  3
*U16
  1

  0
TEXT
  5
951
  8
0
 10
23.89826713666643
 20
-11.74612390144773
 30
0.0
 40
6.0
  1
52
  7
BYGG-014976$0$ISO
  0
ENDBLK
  5
953
  8
0
  0
BLOCK
  8
0
  2
*X17
 70
     1
 10
0.0
 20
0.0
 30
0.0
  3
*X17
  1

  0
LINE
  5
955
  8
0
 62
     0
 10
47.848817111648493
 20
24.70630091036913
 30
0.0
 11
51.937472428186418
 21
24.70630091036913
 31
0.0
  0
LINE
  5
956
  8
0
 62
     0
 10
26.25906184511371
 20
24.70630091036913
 30
0.0
 11
30.347717161652209
 21
24.70630091036913
 31
0.0
  0
LINE
  5
957
  8
0
 62
     0
 10
48.20334481450675
 20
25.95630091036913
 30
0.0
 11
51.593779847422532
 21
25.95630091036913
 31
0.0
  0
LINE
  5
958
  8
0
 62
     0
 10
26.602754425878519
 20
25.95630091036913
 30
0.0
 11
29.993189458793719
 21
25.95630091036913
 31
0.0
  0
LINE
  5
959
  8
0
 62
     0
 10
48.856989799564872
 20
27.20630091036913
 30
0.0
 11
50.887849998044537
 21
27.20630091036913
 31
0.0
  0
LINE
  5
95A
  8
0
 62
     0
 10
27.308684275256159
 20
27.20630091036913
 30
0.0
 11
29.3395444737356
 21
27.20630091036913
 31
0.0
  0
LINE
  5
95B
  8
0
 62
     0
 10
48.931372811670371
 20
28.45630091036913
 30
0.0
 11
53.364175687805748
 21
28.45630091036913
 31
0.0
  0
LINE
  5
95C
  8
0
 62
     0
 10
24.83235858549369
 20
28.45630091036913
 30
0.0
 11
29.265161461630559
 21
28.45630091036913
 31
0.0
  0
LINE
  5
95D
  8
0
 62
     0
 10
51.056423376949631
 20
29.70630091036913
 30
0.0
 11
53.793144769846997
 21
29.70630091036913
 31
0.0
  0
LINE
  5
95E
  8
0
 62
     0
 10
24.403389503453582
 20
29.70630091036913
 30
0.0
 11
27.140110896349711
 21
29.70630091036913
 31
0.0
  0
LINE
  5
95F
  8
0
 62
     0
 10
51.993144769812709
 20
30.95630091036913
 30
0.0
 11
53.793144769846997
 21
30.95630091036913
 31
0.0
  0
LINE
  5
960
  8
0
 62
     0
 10
24.403389503453582
 20
30.95630091036913
 30
0.0
 11
26.203389503488211
 21
30.95630091036913
 31
0.0
  0
LINE
  5
961
  8
0
 62
     0
 10
51.993144769812709
 20
32.20630091036913
 30
0.0
 11
53.793144769846997
 21
32.20630091036913
 31
0.0
  0
LINE
  5
962
  8
0
 62
     0
 10
24.403389503453582
 20
32.20630091036913
 30
0.0
 11
26.203389503488101
 21
32.20630091036913
 31
0.0
  0
LINE
  5
963
  8
0
 62
     0
 10
51.993144769812709
 20
33.45630091036913
 30
0.0
 11
53.793144769846997
 21
33.45630091036913
 31
0.0
  0
LINE
  5
964
  8
0
 62
     0
 10
24.403389503453582
 20
33.45630091036913
 30
0.0
 11
26.20338950348799
 21
33.45630091036913
 31
0.0
  0
LINE
  5
965
  8
0
 62
     0
 10
51.993144769812709
 20
34.70630091036913
 30
0.0
 11
53.793144769846997
 21
34.70630091036913
 31
0.0
  0
LINE
  5
966
  8
0
 62
     0
 10
24.403389503453582
 20
34.70630091036913
 30
0.0
 11
26.20338950348787
 21
34.70630091036913
 31
0.0
  0
LINE
  5
967
  8
0
 62
     0
 10
51.993144769812709
 20
35.95630091036913
 30
0.0
 11
53.793144769846997
 21
35.95630091036913
 31
0.0
  0
LINE
  5
968
  8
0
 62
     0
 10
24.403389503453582
 20
35.95630091036913
 30
0.0
 11
26.20338950348776
 21
35.95630091036913
 31
0.0
  0
LINE
  5
969
  8
0
 62
     0
 10
51.993144769812709
 20
37.20630091036913
 30
0.0
 11
53.793144769846997
 21
37.20630091036913
 31
0.0
  0
LINE
  5
96A
  8
0
 62
     0
 10
24.403389503453582
 20
37.20630091036913
 30
0.0
 11
26.203389503487639
 21
37.20630091036913
 31
0.0
  0
LINE
  5
96B
  8
0
 62
     0
 10
51.993144769812709
 20
38.45630091036913
 30
0.0
 11
53.793144769846997
 21
38.45630091036913
 31
0.0
  0
LINE
  5
96C
  8
0
 62
     0
 10
24.403389503453582
 20
38.45630091036913
 30
0.0
 11
26.203389503487529
 21
38.45630091036913
 31
0.0
  0
LINE
  5
96D
  8
0
 62
     0
 10
51.993144769812709
 20
39.70630091036913
 30
0.0
 11
53.793144769846997
 21
39.70630091036913
 31
0.0
  0
LINE
  5
96E
  8
0
 62
     0
 10
24.403389503453582
 20
39.70630091036913
 30
0.0
 11
26.203389503487418
 21
39.70630091036913
 31
0.0
  0
LINE
  5
96F
  8
0
 62
     0
 10
51.993144769812709
 20
40.956300910369123
 30
0.0
 11
53.793144769846997
 21
40.956300910369123
 31
0.0
  0
LINE
  5
970
  8
0
 62
     0
 10
24.403389503453582
 20
40.956300910369123
 30
0.0
 11
26.203389503487529
 21
40.956300910369123
 31
0.0
  0
LINE
  5
971
  8
0
 62
     0
 10
51.993144769812709
 20
42.206300910369123
 30
0.0
 11
53.793144769846997
 21
42.206300910369123
 31
0.0
  0
LINE
  5
972
  8
0
 62
     0
 10
24.403389503453582
 20
42.206300910369123
 30
0.0
 11
26.203389503487639
 21
42.206300910369123
 31
0.0
  0
LINE
  5
973
  8
0
 62
     0
 10
51.993144769812709
 20
43.456300910369123
 30
0.0
 11
53.793144769846997
 21
43.456300910369123
 31
0.0
  0
LINE
  5
974
  8
0
 62
     0
 10
24.403389503453582
 20
43.456300910369123
 30
0.0
 11
26.20338950348776
 21
43.456300910369123
 31
0.0
  0
LINE
  5
975
  8
0
 62
     0
 10
51.993144769812709
 20
44.706300910369123
 30
0.0
 11
53.793144769846997
 21
44.706300910369123
 31
0.0
  0
LINE
  5
976
  8
0
 62
     0
 10
24.403389503453582
 20
44.706300910369123
 30
0.0
 11
26.20338950348799
 21
44.706300910369123
 31
0.0
  0
LINE
  5
977
  8
0
 62
     0
 10
51.993144769812709
 20
45.956300910369123
 30
0.0
 11
53.793144769846997
 21
45.956300910369123
 31
0.0
  0
LINE
  5
978
  8
0
 62
     0
 10
24.403389503453582
 20
45.956300910369123
 30
0.0
 11
26.203389503488101
 21
45.956300910369123
 31
0.0
  0
LINE
  5
979
  8
0
 62
     0
 10
51.993144769812709
 20
47.206300910369123
 30
0.0
 11
53.793144769846997
 21
47.206300910369123
 31
0.0
  0
LINE
  5
97A
  8
0
 62
     0
 10
24.403389503453582
 20
47.206300910369123
 30
0.0
 11
26.203389503488211
 21
47.206300910369123
 31
0.0
  0
LINE
  5
97B
  8
0
 62
     0
 10
51.993144769812709
 20
48.45630091036913
 30
0.0
 11
53.793144769846997
 21
48.45630091036913
 31
0.0
  0
LINE
  5
97C
  8
0
 62
     0
 10
24.403389503453582
 20
48.45630091036913
 30
0.0
 11
26.203389503488332
 21
48.45630091036913
 31
0.0
  0
LINE
  5
97D
  8
0
 62
     0
 10
49.99208014176611
 20
49.70630091036913
 30
0.0
 11
53.793144769846997
 21
49.70630091036913
 31
0.0
  0
LINE
  5
97E
  8
0
 62
     0
 10
24.403389503453582
 20
49.70630091036913
 30
0.0
 11
28.204454131535162
 21
49.70630091036913
 31
0.0
  0
LINE
  5
97F
  8
0
 62
     0
 10
48.893144769867369
 20
50.95630091036913
 30
0.0
 11
52.299833525535973
 21
50.95630091036913
 31
0.0
  0
LINE
  5
980
  8
0
 62
     0
 10
25.896700747765522
 20
50.95630091036913
 30
0.0
 11
29.30338950343355
 21
50.95630091036913
 31
0.0
  0
LINE
  5
981
  8
0
 62
     0
 10
48.681843588366853
 20
52.20630091036913
 30
0.0
 11
50.73207536743962
 21
52.20630091036913
 31
0.0
  0
LINE
  5
982
  8
0
 62
     0
 10
27.464458905860742
 20
52.20630091036913
 30
0.0
 11
29.51469068493418
 21
52.20630091036913
 31
0.0
  0
LINE
  5
983
  8
0
 62
     0
 10
47.967349628157642
 20
53.45630091036913
 30
0.0
 11
51.830537239568677
 21
53.45630091036913
 31
0.0
  0
LINE
  5
984
  8
0
 62
     0
 10
26.365997033732022
 20
53.45630091036913
 30
0.0
 11
30.229184645143281
 21
53.45630091036913
 31
0.0
  0
ENDBLK
  5
986
  8
0
  0
BLOCK
  8
0
  2
*U18
 70
     1
 10
0.0
 20
0.0
 30
0.0
  3
*U18
  1

  0
TEXT
  5
9B8
  8
0
 10
34.898267136650063
 20
90.262788212024788
 30
0.0
 40
6.0
  1
30
  7
BYGG-014976$0$ISO
  0
ENDBLK
  5
9BA
  8
0
  0
BLOCK
  8
0
  2
*U19
 70
     1
 10
0.0
 20
0.0
 30
0.0
  3
*U19
  1

  0
TEXT
  5
9E5
  8
0
 10
68.141259228894654
 20
34.999865307435478
 30
0.0
 40
6.0
  1
74
 50
90.0
  7
BYGG-014976$0$ISO
  0
ENDBLK
  5
9E7
  8
0
  0
BLOCK
  8
0
  2
*U20
 70
     1
 10
0.0
 20
0.0
 30
0.0
  3
*U20
  1

  0
TEXT
  5
9F0
  8
0
 62
     1
 10
4.2355095310447783
 20
4.4145522861116309
 30
0.0
 40
2.0
  1
Copyright Sapa. Rätt till ändringar förbehålles. We reserve the right to change the drawing.
 50
90.0
  7
BYGG-014976$0$ISO
  0
ENDBLK
  5
9F2
  8
0
  0
BLOCK
  8
0
  2
*U21
 70
     1
 10
0.0
 20
0.0
 30
0.0
  3
*U21
  1

  0
TEXT
  5
9F4
  8
0
 62
     1
 10
93.615022693827754
 20
14.333219839725979
 30
0.0
 40
3.5
  1
Vikt:
  7
BYGG-014976$0$ISO
  0
ENDBLK
  5
9F6
  8
0
  0
BLOCK
  8
0
  2
*U22
 70
     1
 10
0.0
 20
0.0
 30
0.0
  3
*U22
  1

  0
TEXT
  5
9F8
  8
0
 62
     1
 10
121.6340039895114
 20
14.333219839725979
 30
0.0
 40
3.5
  1
Perimeter:
  7
BYGG-014976$0$ISO
  0
ENDBLK
  5
9FA
  8
0
  0
BLOCK
  8
0
  2
*U23
 70
     1
 10
0.0
 20
0.0
 30
0.0
  3
*U23
  1

  0
TEXT
  5
9FC
  8
0
 62
     1
 10
93.615022693827754
 20
22.085065834235479
 30
0.0
 40
3.5
  1
Profilnr:
  7
BYGG-014976$0$ISO
  0
ENDBLK
  5
9FE
  8
0
  0
BLOCK
  8
0
  2
*U24
 70
     1
 10
0.0
 20
0.0
 30
0.0
  3
*U24
  1

  0
TEXT
  5
A00
  8
0
 62
     1
 10
130.22181596764241
 20
63.719622293387033
 30
0.0
 40
3.5
  1
Del 2:
  7
BYGG-014976$0$ISO
  0
TEXT
  5
A01
  8
0
 62
     1
 10
131.09681596764241
 20
52.052955626720362
 30
0.0
 40
3.5
  1
__________
  7
BYGG-014976$0$ISO
  0
ENDBLK
  5
A03
  8
0
  0
BLOCK
  8
0
  2
*U25
 70
     1
 10
0.0
 20
0.0
 30
0.0
  3
*U25
  1

  0
TEXT
  5
A05
  8
0
 62
     1
 10
25.646427730601541
 20
255.3986140738254
 30
0.0
 40
3.5
  1
Del 1:
  7
BYGG-014976$0$ISO
  0
TEXT
  5
A06
  8
0
 62
     1
 10
26.521427730601541
 20
243.7319474071586
 30
0.0
 40
3.5
  1
__________
  7
BYGG-014976$0$ISO
  0
ENDBLK
  5
A08
  8
0
  0
BLOCK
  8
0
  2
*U26
 70
     1
 10
0.0
 20
0.0
 30
0.0
  3
*U26
  1

  0
TEXT
  5
A0A
  8
0
 62
     1
 10
93.710566149484947
 20
6.5813738452164934
 30
0.0
 40
3.5
  1
G-ritn. godkänd:
  7
BYGG-014976$0$ISO
  0
ENDBLK
  5
A0C
  8
0
  0
BLOCK
  8
0
  2
*U27
 70
     1
 10
0.0
 20
0.0
 30
0.0
  3
*U27
  1

  0
TEXT
  5
A0E
  8
0
 62
     3
 10
149.7450256396138
 20
22.103092580874758
 30
0.0
 40
5.0
  1
/
  7
BYGG-014976$0$ISO
  0
ENDBLK
  5
A10
  8
0
  0
BLOCK
  8
0
  2
*U28
 70
     1
 10
0.0
 20
0.0
 30
0.0
  3
*U28
  1

  0
TEXT
  5
A12
  8
0
 10
13.46878405557265
 20
29.354041960743452
 30
0.0
 40
3.5
  1
Mindre synlig yta:
  7
BYGG-014976$0$ISO
  0
ENDBLK
  5
A14
  8
0
  0
BLOCK
  8
0
  2
*U29
 70
     1
 10
0.0
 20
0.0
 30
0.0
  3
*U29
  1

  0
TEXT
  5
A16
  8
0
 10
13.95790920971432
 20
35.46394413326076
 30
0.0
 40
3.5
  1
Synlig yta:
  7
BYGG-014976$0$ISO
  0
ENDBLK
  5
A18
  8
0
  0
BLOCK
  8
0
  2
*U30
 70
     1
 10
0.0
 20
0.0
 30
0.0
  3
*U30
  1

  0
TEXT
  5
A1A
  8
0
 62
     1
 10
121.7840039895114
 20
1.46186098016108
 30
0.0
 40
2.0
  1
PDF skapad:
  7
BYGG-014976$0$ISO
  0
ENDBLK
  5
A1C
  8
0
  0
BLOCK
  8
0
  2
*U31
 70
     1
 10
0.0
 20
0.0
 30
0.0
  3
*U31
  1

  0
TEXT
  5
A24
  8
0
 62
     1
 10
4.2355095310447783
 20
4.4145522861116309
 30
0.0
 40
2.0
  1
Copyright Sapa. Rätt till ändringar förbehålles. We reserve the right to change the drawing.
 50
90.0
  7
BYGG-014976$0$ISO
  0
ENDBLK
  5
A26
  8
0
  0
BLOCK
  8
0
  2
*U32
 70
     1
 10
0.0
 20
0.0
 30
0.0
  3
*U32
  1

  0
TEXT
  5
A28
  8
0
 62
     1
 10
130.22181596764241
 20
63.719622293387033
 30
0.0
 40
3.5
  1
Del 2:
  7
BYGG-014976$0$ISO
  0
TEXT
  5
A29
  8
0
 62
     1
 10
131.09681596764241
 20
52.052955626720362
 30
0.0
 40
3.5
  1
__________
  7
BYGG-014976$0$ISO
  0
ENDBLK
  5
A2B
  8
0
  0
BLOCK
  8
0
  2
*U33
 70
     1
 10
0.0
 20
0.0
 30
0.0
  3
*U33
  1

  0
TEXT
  5
A2D
  8
0
 62
     1
 10
25.646427730601541
 20
255.3986140738254
 30
0.0
 40
3.5
  1
Del 1:
  7
BYGG-014976$0$ISO
  0
TEXT
  5
A2E
  8
0
 62
     1
 10
26.521427730601541
 20
243.7319474071586
 30
0.0
 40
3.5
  1
__________
  7
BYGG-014976$0$ISO
  0
ENDBLK
  5
A30
  8
0
  0
BLOCK
  8
0
  2
*U34
 70
     1
 10
0.0
 20
0.0
 30
0.0
  3
*U34
  1

  0
TEXT
  5
A32
  8
0
 10
13.46878405557265
 20
29.354041960743452
 30
0.0
 40
3.5
  1
Mindre synlig yta:
  7
BYGG-014976$0$ISO
  0
ENDBLK
  5
A34
  8
0
  0
BLOCK
  8
0
  2
*U35
 70
     1
 10
0.0
 20
0.0
 30
0.0
  3
*U35
  1

  0
TEXT
  5
A36
  8
0
 10
13.95790920971432
 20
35.46394413326076
 30
0.0
 40
3.5
  1
Synlig yta:
  7
BYGG-014976$0$ISO
  0
ENDBLK
  5
A38
  8
0
  0
BLOCK
  8
0
  2
*U36
 70
     1
 10
0.0
 20
0.0
 30
0.0
  3
*U36
  1

  0
TEXT
  5
A3A
  8
0
 62
     1
 10
93.615022693827754
 20
14.333219839725979
 30
0.0
 40
3.5
  1
Vikt:
  7
BYGG-014976$0$ISO
  0
ENDBLK
  5
A3C
  8
0
  0
BLOCK
  8
0
  2
*U37
 70
     1
 10
0.0
 20
0.0
 30
0.0
  3
*U37
  1

  0
TEXT
  5
A3E
  8
0
 62
     1
 10
121.6340039895114
 20
14.333219839725979
 30
0.0
 40
3.5
  1
Perimeter:
  7
BYGG-014976$0$ISO
  0
ENDBLK
  5
A40
  8
0
  0
BLOCK
  8
0
  2
*U38
 70
     1
 10
0.0
 20
0.0
 30
0.0
  3
*U38
  1

  0
TEXT
  5
A42
  8
0
 62
     1
 10
93.615022693827754
 20
22.085065834235479
 30
0.0
 40
3.5
  1
Profilnr:
  7
BYGG-014976$0$ISO
  0
ENDBLK
  5
A44
  8
0
  0
BLOCK
  8
0
  2
*U39
 70
     1
 10
0.0
 20
0.0
 30
0.0
  3
*U39
  1

  0
TEXT
  5
A46
  8
0
 62
     1
 10
93.710566149484947
 20
6.5813738452164934
 30
0.0
 40
3.5
  1
G-ritn. godkänd:
  7
BYGG-014976$0$ISO
  0
ENDBLK
  5
A48
  8
0
  0
BLOCK
  8
0
  2
*U40
 70
     1
 10
0.0
 20
0.0
 30
0.0
  3
*U40
  1

  0
TEXT
  5
A4A
  8
0
 62
     3
 10
149.7450256396138
 20
22.103092580874758
 30
0.0
 40
5.0
  1
/
  7
BYGG-014976$0$ISO
  0
ENDBLK
  5
A4C
  8
0
  0
BLOCK
  8
0
  2
*U41
 70
     1
 10
0.0
 20
0.0
 30
0.0
  3
*U41
  1

  0
TEXT
  5
A4E
  8
0
 62
     1
 10
121.7840039895114
 20
1.46186098016108
 30
0.0
 40
2.0
  1
PDF skapad:
  7
BYGG-014976$0$ISO
  0
ENDBLK
  5
A50
  8
0
  0
BLOCK
  8
0
  2
*U42
 70
     1
 10
0.0
 20
0.0
 30
0.0
  3
*U42
  1

  0
TEXT
  5
A52
  8
0
 10
-0.1999999999840839
 20
-0.2465797624961787
 30
0.0
 40
6.0
  1
52
  7
BYGG-014976$0$ISO
  0
ENDBLK
  5
A54
  8
0
  0
BLOCK
  8
0
  2
*U43
 70
     1
 10
0.0
 20
0.0
 30
0.0
  3
*U43
  1

  0
TEXT
  5
A56
  8
0
 10
10.799999999999541
 20
101.7629229021574
 30
0.0
 40
6.0
  1
30
  7
BYGG-014976$0$ISO
  0
ENDBLK
  5
A58
  8
0
  0
BLOCK
  8
0
  2
*U44
 70
     1
 10
0.0
 20
0.0
 30
0.0
  3
*U44
  1

  0
TEXT
  5
A5A
  8
0
 10
44.042992092244127
 20
46.499999997568118
 30
0.0
 40
6.0
  1
74
 50
90.0
  7
BYGG-014976$0$ISO
  0
ENDBLK
  5
A5C
  8
0
  0
BLOCK
  8
0
  2
*X45
 70
     1
 10
0.0
 20
0.0
 30
0.0
  3
*X45
  1

  0
LINE
  5
D5C
  8
0
 62
     0
 10
23.750549974997959
 20
36.206435600501777
 30
0.0
 11
27.839205291535901
 21
36.206435600501777
 31
0.0
  0
LINE
  5
D5D
  8
0
 62
     0
 10
2.1607947084631851
 20
36.206435600501777
 30
0.0
 11
6.2494500250016918
 21
36.206435600501777
 31
0.0
  0
LINE
  5
D5E
  8
0
 62
     0
 10
24.105077677856229
 20
37.456435600501777
 30
0.0
 11
27.495512710772001
 21
37.456435600501777
 31
0.0
  0
LINE
  5
D5F
  8
0
 62
     0
 10
2.504487289227995
 20
37.456435600501777
 30
0.0
 11
5.8949223221432021
 21
37.456435600501777
 31
0.0
  0
LINE
  5
D60
  8
0
 62
     0
 10
24.758722662914352
 20
38.706435600501777
 30
0.0
 11
26.789582861394031
 21
38.706435600501777
 31
0.0
  0
LINE
  5
D61
  8
0
 62
     0
 10
3.210417138605635
 20
38.706435600501777
 30
0.0
 11
5.24127733708508
 21
38.706435600501777
 31
0.0
  0
LINE
  5
D62
  8
0
 62
     0
 10
24.833105675019851
 20
39.956435600501777
 30
0.0
 11
29.265908551155238
 21
39.956435600501777
 31
0.0
  0
LINE
  5
D63
  8
0
 62
     0
 10
0.7340914488431736
 20
39.956435600501777
 30
0.0
 11
5.1668943249800341
 21
39.956435600501777
 31
0.0
  0
LINE
  5
D64
  8
0
 62
     0
 10
26.958156240299221
 20
41.206435600501777
 30
0.0
 11
29.69487763319648
 21
41.206435600501777
 31
0.0
  0
LINE
  5
D65
  8
0
 62
     0
 10
0.3051223668030616
 20
41.206435600501777
 30
0.0
 11
3.0418437596991899
 21
41.206435600501777
 31
0.0
  0
LINE
  5
D66
  8
0
 62
     0
 10
27.894877633162199
 20
42.456435600501777
 30
0.0
 11
29.69487763319648
 21
42.456435600501777
 31
0.0
  0
LINE
  5
D67
  8
0
 62
     0
 10
0.3051223668030616
 20
42.456435600501777
 30
0.0
 11
2.1051223668376902
 21
42.456435600501777
 31
0.0
  0
LINE
  5
D68
  8
0
 62
     0
 10
27.894877633162199
 20
43.706435600501777
 30
0.0
 11
29.69487763319648
 21
43.706435600501777
 31
0.0
  0
LINE
  5
D69
  8
0
 62
     0
 10
0.3051223668030616
 20
43.706435600501777
 30
0.0
 11
2.105122366837576
 21
43.706435600501777
 31
0.0
  0
LINE
  5
D6A
  8
0
 62
     0
 10
27.894877633162199
 20
44.956435600501777
 30
0.0
 11
29.69487763319648
 21
44.956435600501777
 31
0.0
  0
LINE
  5
D6B
  8
0
 62
     0
 10
0.3051223668030616
 20
44.956435600501777
 30
0.0
 11
2.1051223668374628
 21
44.956435600501777
 31
0.0
  0
LINE
  5
D6C
  8
0
 62
     0
 10
27.894877633162199
 20
46.206435600501777
 30
0.0
 11
29.69487763319648
 21
46.206435600501777
 31
0.0
  0
LINE
  5
D6D
  8
0
 62
     0
 10
0.3051223668030616
 20
46.206435600501777
 30
0.0
 11
2.1051223668373491
 21
46.206435600501777
 31
0.0
  0
LINE
  5
D6E
  8
0
 62
     0
 10
27.894877633162199
 20
47.456435600501777
 30
0.0
 11
29.69487763319648
 21
47.456435600501777
 31
0.0
  0
LINE
  5
D6F
  8
0
 62
     0
 10
0.3051223668030616
 20
47.456435600501777
 30
0.0
 11
2.105122366837235
 21
47.456435600501777
 31
0.0
  0
LINE
  5
D70
  8
0
 62
     0
 10
27.894877633162199
 20
48.706435600501777
 30
0.0
 11
29.69487763319648
 21
48.706435600501777
 31
0.0
  0
LINE
  5
D71
  8
0
 62
     0
 10
0.3051223668030616
 20
48.706435600501777
 30
0.0
 11
2.1051223668371222
 21
48.706435600501777
 31
0.0
  0
LINE
  5
D72
  8
0
 62
     0
 10
27.894877633162199
 20
49.956435600501777
 30
0.0
 11
29.69487763319648
 21
49.956435600501777
 31
0.0
  0
LINE
  5
D73
  8
0
 62
     0
 10
0.3051223668030616
 20
49.956435600501777
 30
0.0
 11
2.105122366837008
 21
49.956435600501777
 31
0.0
  0
LINE
  5
D74
  8
0
 62
     0
 10
27.894877633162199
 20
51.206435600501777
 30
0.0
 11
29.69487763319648
 21
51.206435600501777
 31
0.0
  0
LINE
  5
D75
  8
0
 62
     0
 10
0.3051223668030616
 20
51.206435600501777
 30
0.0
 11
2.1051223668368939
 21
51.206435600501777
 31
0.0
  0
LINE
  5
D76
  8
0
 62
     0
 10
27.894877633162199
 20
52.456435600501777
 30
0.0
 11
29.69487763319648
 21
52.456435600501777
 31
0.0
  0
LINE
  5
D77
  8
0
 62
     0
 10
0.3051223668030616
 20
52.456435600501777
 30
0.0
 11
2.105122366837008
 21
52.456435600501777
 31
0.0
  0
LINE
  5
D78
  8
0
 62
     0
 10
27.894877633162199
 20
53.706435600501777
 30
0.0
 11
29.69487763319648
 21
53.706435600501777
 31
0.0
  0
LINE
  5
D79
  8
0
 62
     0
 10
0.3051223668030616
 20
53.706435600501777
 30
0.0
 11
2.1051223668371222
 21
53.706435600501777
 31
0.0
  0
LINE
  5
D7A
  8
0
 62
     0
 10
27.894877633162199
 20
54.956435600501777
 30
0.0
 11
29.69487763319648
 21
54.956435600501777
 31
0.0
  0
LINE
  5
D7B
  8
0
 62
     0
 10
0.3051223668030616
 20
54.956435600501777
 30
0.0
 11
2.105122366837235
 21
54.956435600501777
 31
0.0
  0
LINE
  5
D7C
  8
0
 62
     0
 10
27.894877633162199
 20
56.206435600501777
 30
0.0
 11
29.69487763319648
 21
56.206435600501777
 31
0.0
  0
LINE
  5
D7D
  8
0
 62
     0
 10
0.3051223668030616
 20
56.206435600501777
 30
0.0
 11
2.1051223668374628
 21
56.206435600501777
 31
0.0
  0
LINE
  5
D7E
  8
0
 62
     0
 10
27.894877633162199
 20
57.456435600501777
 30
0.0
 11
29.69487763319648
 21
57.456435600501777
 31
0.0
  0
LINE
  5
D7F
  8
0
 62
     0
 10
0.3051223668030616
 20
57.456435600501777
 30
0.0
 11
2.105122366837576
 21
57.456435600501777
 31
0.0
  0
LINE
  5
D80
  8
0
 62
     0
 10
27.894877633162199
 20
58.706435600501777
 30
0.0
 11
29.69487763319648
 21
58.706435600501777
 31
0.0
  0
LINE
  5
D81
  8
0
 62
     0
 10
0.3051223668030616
 20
58.706435600501777
 30
0.0
 11
2.1051223668376902
 21
58.706435600501777
 31
0.0
  0
LINE
  5
D82
  8
0
 62
     0
 10
27.894877633162199
 20
59.956435600501777
 30
0.0
 11
29.69487763319648
 21
59.956435600501777
 31
0.0
  0
LINE
  5
D83
  8
0
 62
     0
 10
0.3051223668030616
 20
59.956435600501777
 30
0.0
 11
2.1051223668378038
 21
59.956435600501777
 31
0.0
  0
LINE
  5
D84
  8
0
 62
     0
 10
25.893813005115479
 20
61.206435600501777
 30
0.0
 11
29.69487763319648
 21
61.206435600501777
 31
0.0
  0
LINE
  5
D85
  8
0
 62
     0
 10
0.3051223668030616
 20
61.206435600501777
 30
0.0
 11
4.106186994884637
 21
61.206435600501777
 31
0.0
  0
LINE
  5
D86
  8
0
 62
     0
 10
24.79487763321686
 20
62.456435600501777
 30
0.0
 11
28.20156638888546
 21
62.456435600501777
 31
0.0
  0
LINE
  5
D87
  8
0
 62
     0
 10
1.798433611115001
 20
62.456435600501777
 30
0.0
 11
5.2051223667830291
 21
62.456435600501777
 31
0.0
  0
LINE
  5
D88
  8
0
 62
     0
 10
24.58357645171634
 20
63.706435600501777
 30
0.0
 11
26.6338082307891
 21
63.706435600501777
 31
0.0
  0
LINE
  5
D89
  8
0
 62
     0
 10
3.366191769210217
 20
63.706435600501777
 30
0.0
 11
5.4164235482836602
 21
63.706435600501777
 31
0.0
  0
LINE
  5
D8A
  8
0
 62
     0
 10
23.869082491507129
 20
64.956435600501777
 30
0.0
 11
27.732270102918172
 21
64.956435600501777
 31
0.0
  0
LINE
  5
D8B
  8
0
 62
     0
 10
2.2677298970814941
 20
64.956435600501777
 30
0.0
 11
6.1309175084927574
 21
64.956435600501777
 31
0.0
  0
ENDBLK
  5
D8D
  8
0
  0
BLOCK
  8
0
  2
*X46
 70
     1
 10
0.0
 20
0.0
 30
0.0
  3
*X46
  1

  0
LINE
  5
D8F
  8
0
 62
     0
 10
23.750549974997959
 20
36.206435600501777
 30
0.0
 11
27.839205291535901
 21
36.206435600501777
 31
0.0
  0
LINE
  5
D90
  8
0
 62
     0
 10
2.1607947084631851
 20
36.206435600501777
 30
0.0
 11
6.2494500250016918
 21
36.206435600501777
 31
0.0
  0
LINE
  5
D91
  8
0
 62
     0
 10
24.105077677856229
 20
37.456435600501777
 30
0.0
 11
27.495512710772001
 21
37.456435600501777
 31
0.0
  0
LINE
  5
D92
  8
0
 62
     0
 10
2.504487289227995
 20
37.456435600501777
 30
0.0
 11
5.8949223221432021
 21
37.456435600501777
 31
0.0
  0
LINE
  5
D93
  8
0
 62
     0
 10
24.758722662914352
 20
38.706435600501777
 30
0.0
 11
26.789582861394031
 21
38.706435600501777
 31
0.0
  0
LINE
  5
D94
  8
0
 62
     0
 10
3.210417138605635
 20
38.706435600501777
 30
0.0
 11
5.24127733708508
 21
38.706435600501777
 31
0.0
  0
LINE
  5
D95
  8
0
 62
     0
 10
24.833105675019851
 20
39.956435600501777
 30
0.0
 11
29.265908551155238
 21
39.956435600501777
 31
0.0
  0
LINE
  5
D96
  8
0
 62
     0
 10
0.7340914488431736
 20
39.956435600501777
 30
0.0
 11
5.1668943249800341
 21
39.956435600501777
 31
0.0
  0
LINE
  5
D97
  8
0
 62
     0
 10
26.958156240299221
 20
41.206435600501777
 30
0.0
 11
29.69487763319648
 21
41.206435600501777
 31
0.0
  0
LINE
  5
D98
  8
0
 62
     0
 10
0.3051223668030616
 20
41.206435600501777
 30
0.0
 11
3.0418437596991899
 21
41.206435600501777
 31
0.0
  0
LINE
  5
D99
  8
0
 62
     0
 10
27.894877633162199
 20
42.456435600501777
 30
0.0
 11
29.69487763319648
 21
42.456435600501777
 31
0.0
  0
LINE
  5
D9A
  8
0
 62
     0
 10
0.3051223668030616
 20
42.456435600501777
 30
0.0
 11
2.1051223668376902
 21
42.456435600501777
 31
0.0
  0
LINE
  5
D9B
  8
0
 62
     0
 10
27.894877633162199
 20
43.706435600501777
 30
0.0
 11
29.69487763319648
 21
43.706435600501777
 31
0.0
  0
LINE
  5
D9C
  8
0
 62
     0
 10
0.3051223668030616
 20
43.706435600501777
 30
0.0
 11
2.105122366837576
 21
43.706435600501777
 31
0.0
  0
LINE
  5
D9D
  8
0
 62
     0
 10
27.894877633162199
 20
44.956435600501777
 30
0.0
 11
29.69487763319648
 21
44.956435600501777
 31
0.0
  0
LINE
  5
D9E
  8
0
 62
     0
 10
0.3051223668030616
 20
44.956435600501777
 30
0.0
 11
2.1051223668374628
 21
44.956435600501777
 31
0.0
  0
LINE
  5
D9F
  8
0
 62
     0
 10
27.894877633162199
 20
46.206435600501777
 30
0.0
 11
29.69487763319648
 21
46.206435600501777
 31
0.0
  0
LINE
  5
DA0
  8
0
 62
     0
 10
0.3051223668030616
 20
46.206435600501777
 30
0.0
 11
2.1051223668373491
 21
46.206435600501777
 31
0.0
  0
LINE
  5
DA1
  8
0
 62
     0
 10
27.894877633162199
 20
47.456435600501777
 30
0.0
 11
29.69487763319648
 21
47.456435600501777
 31
0.0
  0
LINE
  5
DA2
  8
0
 62
     0
 10
0.3051223668030616
 20
47.456435600501777
 30
0.0
 11
2.105122366837235
 21
47.456435600501777
 31
0.0
  0
LINE
  5
DA3
  8
0
 62
     0
 10
27.894877633162199
 20
48.706435600501777
 30
0.0
 11
29.69487763319648
 21
48.706435600501777
 31
0.0
  0
LINE
  5
DA4
  8
0
 62
     0
 10
0.3051223668030616
 20
48.706435600501777
 30
0.0
 11
2.1051223668371222
 21
48.706435600501777
 31
0.0
  0
LINE
  5
DA5
  8
0
 62
     0
 10
27.894877633162199
 20
49.956435600501777
 30
0.0
 11
29.69487763319648
 21
49.956435600501777
 31
0.0
  0
LINE
  5
DA6
  8
0
 62
     0
 10
0.3051223668030616
 20
49.956435600501777
 30
0.0
 11
2.105122366837008
 21
49.956435600501777
 31
0.0
  0
LINE
  5
DA7
  8
0
 62
     0
 10
27.894877633162199
 20
51.206435600501777
 30
0.0
 11
29.69487763319648
 21
51.206435600501777
 31
0.0
  0
LINE
  5
DA8
  8
0
 62
     0
 10
0.3051223668030616
 20
51.206435600501777
 30
0.0
 11
2.1051223668368939
 21
51.206435600501777
 31
0.0
  0
LINE
  5
DA9
  8
0
 62
     0
 10
27.894877633162199
 20
52.456435600501777
 30
0.0
 11
29.69487763319648
 21
52.456435600501777
 31
0.0
  0
LINE
  5
DAA
  8
0
 62
     0
 10
0.3051223668030616
 20
52.456435600501777
 30
0.0
 11
2.105122366837008
 21
52.456435600501777
 31
0.0
  0
LINE
  5
DAB
  8
0
 62
     0
 10
27.894877633162199
 20
53.706435600501777
 30
0.0
 11
29.69487763319648
 21
53.706435600501777
 31
0.0
  0
LINE
  5
DAC
  8
0
 62
     0
 10
0.3051223668030616
 20
53.706435600501777
 30
0.0
 11
2.1051223668371222
 21
53.706435600501777
 31
0.0
  0
LINE
  5
DAD
  8
0
 62
     0
 10
27.894877633162199
 20
54.956435600501777
 30
0.0
 11
29.69487763319648
 21
54.956435600501777
 31
0.0
  0
LINE
  5
DAE
  8
0
 62
     0
 10
0.3051223668030616
 20
54.956435600501777
 30
0.0
 11
2.105122366837235
 21
54.956435600501777
 31
0.0
  0
LINE
  5
DAF
  8
0
 62
     0
 10
27.894877633162199
 20
56.206435600501777
 30
0.0
 11
29.69487763319648
 21
56.206435600501777
 31
0.0
  0
LINE
  5
DB0
  8
0
 62
     0
 10
0.3051223668030616
 20
56.206435600501777
 30
0.0
 11
2.1051223668374628
 21
56.206435600501777
 31
0.0
  0
LINE
  5
DB1
  8
0
 62
     0
 10
27.894877633162199
 20
57.456435600501777
 30
0.0
 11
29.69487763319648
 21
57.456435600501777
 31
0.0
  0
LINE
  5
DB2
  8
0
 62
     0
 10
0.3051223668030616
 20
57.456435600501777
 30
0.0
 11
2.105122366837576
 21
57.456435600501777
 31
0.0
  0
LINE
  5
DB3
  8
0
 62
     0
 10
27.894877633162199
 20
58.706435600501777
 30
0.0
 11
29.69487763319648
 21
58.706435600501777
 31
0.0
  0
LINE
  5
DB4
  8
0
 62
     0
 10
0.3051223668030616
 20
58.706435600501777
 30
0.0
 11
2.1051223668376902
 21
58.706435600501777
 31
0.0
  0
LINE
  5
DB5
  8
0
 62
     0
 10
27.894877633162199
 20
59.956435600501777
 30
0.0
 11
29.69487763319648
 21
59.956435600501777
 31
0.0
  0
LINE
  5
DB6
  8
0
 62
     0
 10
0.3051223668030616
 20
59.956435600501777
 30
0.0
 11
2.1051223668378038
 21
59.956435600501777
 31
0.0
  0
LINE
  5
DB7
  8
0
 62
     0
 10
25.893813005115479
 20
61.206435600501777
 30
0.0
 11
29.69487763319648
 21
61.206435600501777
 31
0.0
  0
LINE
  5
DB8
  8
0
 62
     0
 10
0.3051223668030616
 20
61.206435600501777
 30
0.0
 11
4.106186994884637
 21
61.206435600501777
 31
0.0
  0
LINE
  5
DB9
  8
0
 62
     0
 10
24.79487763321686
 20
62.456435600501777
 30
0.0
 11
28.20156638888546
 21
62.456435600501777
 31
0.0
  0
LINE
  5
DBA
  8
0
 62
     0
 10
1.798433611115001
 20
62.456435600501777
 30
0.0
 11
5.2051223667830291
 21
62.456435600501777
 31
0.0
  0
LINE
  5
DBB
  8
0
 62
     0
 10
24.58357645171634
 20
63.706435600501777
 30
0.0
 11
26.6338082307891
 21
63.706435600501777
 31
0.0
  0
LINE
  5
DBC
  8
0
 62
     0
 10
3.366191769210217
 20
63.706435600501777
 30
0.0
 11
5.4164235482836602
 21
63.706435600501777
 31
0.0
  0
LINE
  5
DBD
  8
0
 62
     0
 10
23.869082491507129
 20
64.956435600501777
 30
0.0
 11
27.732270102918172
 21
64.956435600501777
 31
0.0
  0
LINE
  5
DBE
  8
0
 62
     0
 10
2.2677298970814941
 20
64.956435600501777
 30
0.0
 11
6.1309175084927574
 21
64.956435600501777
 31
0.0
  0
ENDBLK
  5
DC0
  8
0
  0
ENDSEC
  0
SECTION
  2
ENTITIES
  0
INSERT
  5
2EF
  8
SAPA_ANSLUTNING
  6
CONTINUOUS
  2
*X13
 10
0.0
 20
0.0
 30
0.0
1001
ACAD
1000
HATCH
1002
{
1070
    19
1000
ANSI37
1040
0.5
1040
1.5707963267948959
1000
R14_HATCH_DATA
1000
2EF
1011
1.0
1021
-0.0
1031
-0.0
1021
0.0
1031
0.0
1011
0.0
1021
-0.0
1031
-0.0
1021
1.0
1031
0.0
1011
0.0
1021
-0.0
1031
-0.0
1021
0.0
1031
1.0
1040
0.0
1010
0.0
1020
0.0
1030
1.0
1000
ANSI37
1070
     0
1070
     0
1071
        1
1071
        5
1071
       12
1070
     1
1040
45.000000000008043
1040
87.999999997568167
1040
45.000000000008043
1040
76.403510522025911
1070
     3
1040
35.00000000000805
1040
76.39864243285983
1040
-10.000000000000041
1040
-0.0048680891392656
1040
0.4499999466788523
1040
3.1415926535957608
1040
6.2827471789631941
1070
     1
1070
     1
1040
25.00000000000858
1040
76.395745920864883
1040
25.00000000000859
1040
85.699999994418306
1070
     2
1040
25.300000000008652
1040
85.699999994418164
1040
0.3000000000000682
1040
3.141592653590171
1040
4.712388980385068
1070
     0
1070
     1
1040
25.300000000008769
1040
85.999999994418246
1040
27.70000000000886
1040
85.999999994418246
1070
     2
1040
27.700000000008739
1040
85.699999994418405
1040
0.2999999999998408
1040
-1.5707963267945171
1040
0.0000000000003788
1070
     0
1070
     1
1040
28.00000000000859
1040
85.699999994418292
1040
28.00000000000859
1040
84.299999994418201
1070
     2
1040
28.300000000008769
1040
84.299999994418243
1040
0.3000000000001686
1040
3.1415926535899348
1040
5.2669074941304981
1070
     1
1070
     1
1040
28.45796020713664
1040
84.044953777108091
1040
29.905306804760531
1040
84.941352754350234
1070
     2
1040
29.80000000000868
1040
85.111383565890137
1040
0.1999999999999044
1040
5.2669074941306997
1040
6.283185307180438
1070
     1
1070
     1
1040
30.00000000000858
1040
85.111383565890307
1040
30.00000000000858
1040
87.799999997568008
1070
     2
1040
37.091514237481789
1040
118.5364321870348
1040
31.543903339916149
1040
4.4856367322284481
1040
4.9658063151292424
1070
     1
1071
        0
1070
     0
1070
     1
1040
1.5707963267948959
1040
0.5
1070
     0
1070
     2
1040
0.7853981633974484
1040
0.0000000000086118
1040
-0.0000000000000711
1040
1.122532015133644
1040
-1.1225320151336431
1070
     0
1040
5.4977871437821371
1040
0.0000000000086118
1040
-0.0000000000000711
1040
-1.1225320151336431
1040
-1.122532015133644
1070
     0
1040
0.057882035285277
1071
        1
1040
37.399851660866091
1040
84.116595225523483
1040
0.0
1002
}
  0
INSERT
  5
2F0
  8
SAPA_ANSLUTNING
  6
CONTINUOUS
  2
*X14
 10
0.0
 20
0.0
 30
0.0
1001
ACAD
1000
HATCH
1002
{
1070
    19
1000
HEX
1040
0.25
1040
1.5707963267948959
1000
R14_HATCH_DATA
1000
2F0
1011
1.0
1021
-0.0
1031
-0.0
1021
0.0
1031
0.0
1011
0.0
1021
-0.0
1031
-0.0
1021
1.0
1031
0.0
1011
0.0
1021
-0.0
1031
-0.0
1021
0.0
1031
1.0
1040
0.0
1010
0.0
1020
0.0
1030
1.0
1000
HEX
1070
     0
1070
     0
1071
        1
1071
        5
1071
        2
1070
     3
1040
35.00000000000805
1040
76.39864243285983
1040
-10.00000000000002
1040
-0.0048680891392656
1040
0.4499999466788522
1040
-3.1415926535838241
1040
3.1411545256202151
1070
     1
1070
     1
1040
45.000000000008043
1040
76.401538945965441
1040
45.000000000008043
1040
76.403510522025982
1071
        0
1070
     0
1070
     1
1040
1.5707963267948959
1040
0.25
1070
     0
1070
     3
1040
1.5707963267948959
1040
0.0000000000086118
1040
-0.0000000000000711
1040
1.374814999999999
1040
0.0000000000000001
1070
     2
1040
0.79375
1040
-1.587499999999999
1040
5.7595865315812871
1040
0.0000000000086118
1040
-0.0000000000000711
1040
-0.6874074999999995
1040
-1.190624715503902
1070
     2
1040
0.7937499999999995
1040
-1.587499999999999
1040
0.5235987755982993
1040
0.0000000000086118
1040
0.7937499999999318
1040
0.6874075000000002
1040
-1.190624715503902
1070
     2
1040
0.79375
1040
-1.587499999999999
1040
0.057882035285277
1071
        1
1040
36.242210933470432
1040
76.761594730455769
1040
0.0
1002
}
  0
ARC
  5
2F2
  8
SAPA_ANSLUTNING
 10
37.091514237481732
 20
118.5364321870348
 30
0.0
 40
31.543903339916149
 50
257.00805318554342
 51
284.5197437363172
  0
POLYLINE
  5
2F3
  8
SAPA_ANSLUTNING
 66
     1
 10
0.0
 20
0.0
 30
0.0
  0
VERTEX
  5
70C
  8
SAPA_ANSLUTNING
 10
29.93798115726716
 20
32.000000000718053
 30
0.0
 42
-0.5283966080225092
  0
VERTEX
  5
70D
  8
SAPA_ANSLUTNING
 10
31.8000000000082
 20
34.72999029467907
 30
0.0
  0
VERTEX
  5
70E
  8
SAPA_ANSLUTNING
 10
43.000000000009059
 20
34.731584345125391
 30
0.0
 42
0.9999989466455052
  0
VERTEX
  5
70F
  8
SAPA_ANSLUTNING
 10
43.000004213429257
 20
38.731584345121078
 30
0.0
  0
VERTEX
  5
710
  8
SAPA_ANSLUTNING
 10
31.811173593000738
 20
38.731584345121078
 30
0.0
 42
-0.9999999999999998
  0
VERTEX
  5
711
  8
SAPA_ANSLUTNING
 10
31.811173593000738
 20
42.731584345121071
 30
0.0
  0
VERTEX
  5
712
  8
SAPA_ANSLUTNING
 10
43.00000000001441
 20
42.731584345121071
 30
0.0
 42
1.0000000000000011
  0
VERTEX
  5
713
  8
SAPA_ANSLUTNING
 10
43.00000000001441
 20
46.731584345108338
 30
0.0
  0
VERTEX
  5
714
  8
SAPA_ANSLUTNING
 10
31.800000000008229
 20
46.731584345108338
 30
0.0
 42
-0.9999999999999998
  0
VERTEX
  5
715
  8
SAPA_ANSLUTNING
 10
31.800000000008229
 20
50.731584345108338
 30
0.0
  0
VERTEX
  5
716
  8
SAPA_ANSLUTNING
 10
43.000000000009088
 20
50.733178395554638
 30
0.0
 42
0.9999989466455052
  0
VERTEX
  5
717
  8
SAPA_ANSLUTNING
 10
43.000004213429293
 20
54.733178395550347
 30
0.0
  0
VERTEX
  5
718
  8
SAPA_ANSLUTNING
 10
31.800000000008229
 20
54.731584345103798
 30
0.0
 42
-0.9999999999999998
  0
VERTEX
  5
719
  8
SAPA_ANSLUTNING
 10
31.800000000008229
 20
58.731584345103791
 30
0.0
  0
VERTEX
  5
71A
  8
SAPA_ANSLUTNING
 10
42.988830620457968
 20
58.73317839555024
 30
0.0
 42
0.9999974985601646
  0
VERTEX
  5
71B
  8
SAPA_ANSLUTNING
 10
42.988830620457968
 20
62.733178395537621
 30
0.0
  0
VERTEX
  5
71C
  8
SAPA_ANSLUTNING
 10
31.800000000008229
 20
62.731584345091179
 30
0.0
 42
-0.9999999999999998
  0
VERTEX
  5
71D
  8
SAPA_ANSLUTNING
 10
31.800000000008229
 20
66.731584345091179
 30
0.0
  0
VERTEX
  5
71E
  8
SAPA_ANSLUTNING
 10
42.991342536799721
 20
66.731584345091179
 30
0.0
 42
0.9999989466455052
  0
VERTEX
  5
71F
  8
SAPA_ANSLUTNING
 10
42.991338323379743
 20
70.731584345086858
 30
0.0
  0
VERTEX
  5
720
  8
SAPA_ANSLUTNING
 10
27.000000000008018
 20
70.731584345086603
 30
0.0
 42
-0.7675133829436435
  0
VERTEX
  5
721
  8
SAPA_ANSLUTNING
 10
26.00081284515187
 20
74.464104194776681
 30
0.0
  0
SEQEND
  5
722
  8
SAPA_ANSLUTNING
  0
INSERT
  5
2F4
  8
SAPA_ANSLUTNING
  6
CONTINUOUS
  2
*X15
 10
0.0
 20
0.0
 30
0.0
1001
ACAD
1000
HATCH
1002
{
1070
    19
1000
HEX
1040
0.25
1040
1.5707963267948959
1000
ASC_BOUNDS
1070
     1
1070
     1
1070
     1
1005
2F5
1000
ASC_SEEDPOINT
1011
35.77852023912218
1021
-0.0
1031
-0.0
1021
27.869412117913139
1031
0.0
1000
R14_HATCH_DATA
1000
2F4
1011
1.0
1021
-0.0
1031
-0.0
1021
0.0
1031
0.0
1011
0.0
1021
-0.0
1031
-0.0
1021
1.0
1031
0.0
1011
0.0
1021
-0.0
1031
-0.0
1021
0.0
1031
1.0
1040
0.0
1010
0.0
1020
0.0
1030
1.0
1000
HEX
1070
     0
1070
     1
1071
        1
1071
        7
1070
     0
1070
     1
1071
        4
1040
24.999999999999432
1040
32.000000000718053
1040
24.999999999999432
1040
23.24332302915764
1040
45.000000000008043
1040
23.24332302915764
1040
45.000000000008043
1040
32.000000000718053
1071
        1
1005
2F5
1070
     0
1070
     1
1040
1.5707963267948959
1040
0.25
1070
     0
1070
     3
1040
1.5707963267948959
1040
0.0000000000086118
1040
-0.0000000000000711
1040
1.374814999999999
1040
0.0000000000000001
1070
     2
1040
0.79375
1040
-1.587499999999999
1040
5.7595865315812871
1040
0.0000000000086118
1040
-0.0000000000000711
1040
-0.6874074999999995
1040
-1.190624715503902
1070
     2
1040
0.7937499999999995
1040
-1.587499999999999
1040
0.5235987755982993
1040
0.0000000000086118
1040
0.7937499999999318
1040
0.6874075000000002
1040
-1.190624715503902
1070
     2
1040
0.79375
1040
-1.587499999999999
1040
0.1038756628916797
1071
        1
1040
35.77852023912218
1040
27.869412117913139
1040
0.0
1002
}
  0
POLYLINE
  5
2F5
  8
SAPA_ANSLUTNING
 66
     1
 10
0.0
 20
0.0
 30
0.0
 70
     1
1001
ACAD
1000
ASC_BOUNDS
1002
{
1070
    19
1005
2F4
1002
}
  0
VERTEX
  5
7D6
  8
SAPA_ANSLUTNING
 10
24.999999999999432
 20
32.000000000718053
 30
0.0
  0
VERTEX
  5
7D7
  8
SAPA_ANSLUTNING
 10
45.000000000008043
 20
32.000000000718053
 30
0.0
  0
VERTEX
  5
7D8
  8
SAPA_ANSLUTNING
 10
45.000000000008043
 20
23.24332302915764
 30
0.0
  0
VERTEX
  5
7D9
  8
SAPA_ANSLUTNING
 10
24.999999999999432
 20
23.24332302915764
 30
0.0
  0
SEQEND
  5
7DA
  8
SAPA_ANSLUTNING
  0
POLYLINE
  5
2F6
  8
SAPA_ANSLUTNING
 10
25.00000000000804
 20
76.393774343720565
 30
0.0
 66
     1
 70
     8
  0
VERTEX
  8
SAPA_ANSLUTNING
  5
DC1
 10
25.0000
 20
76.3938
 30
0.000000
  70
    32
  0
VERTEX
  8
SAPA_ANSLUTNING
  5
DC2
 10
25.0119
 20
76.6146
 30
0.000000
  70
    32
  0
VERTEX
  8
SAPA_ANSLUTNING
  5
DC3
 10
25.0479
 20
76.8349
 30
0.000000
  70
    32
  0
VERTEX
  8
SAPA_ANSLUTNING
  5
DC4
 10
25.1079
 20
77.0541
 30
0.000000
  70
    32
  0
VERTEX
  8
SAPA_ANSLUTNING
  5
DC5
 10
25.1917
 20
77.2718
 30
0.000000
  70
    32
  0
VERTEX
  8
SAPA_ANSLUTNING
  5
DC6
 10
25.2992
 20
77.4873
 30
0.000000
  70
    32
  0
VERTEX
  8
SAPA_ANSLUTNING
  5
DC7
 10
25.4300
 20
77.7003
 30
0.000000
  70
    32
  0
VERTEX
  8
SAPA_ANSLUTNING
  5
DC8
 10
25.5838
 20
77.9101
 30
0.000000
  70
    32
  0
VERTEX
  8
SAPA_ANSLUTNING
  5
DC9
 10
25.7604
 20
78.1162
 30
0.000000
  70
    32
  0
VERTEX
  8
SAPA_ANSLUTNING
  5
DCA
 10
25.9592
 20
78.3182
 30
0.000000
  70
    32
  0
VERTEX
  8
SAPA_ANSLUTNING
  5
DCB
 10
26.1798
 20
78.5156
 30
0.000000
  70
    32
  0
VERTEX
  8
SAPA_ANSLUTNING
  5
DCC
 10
26.4216
 20
78.7079
 30
0.000000
  70
    32
  0
VERTEX
  8
SAPA_ANSLUTNING
  5
DCD
 10
26.6841
 20
78.8947
 30
0.000000
  70
    32
  0
VERTEX
  8
SAPA_ANSLUTNING
  5
DCE
 10
26.9666
 20
79.0754
 30
0.000000
  70
    32
  0
VERTEX
  8
SAPA_ANSLUTNING
  5
DCF
 10
27.2685
 20
79.2496
 30
0.000000
  70
    32
  0
VERTEX
  8
SAPA_ANSLUTNING
  5
DD0
 10
27.5890
 20
79.4171
 30
0.000000
  70
    32
  0
VERTEX
  8
SAPA_ANSLUTNING
  5
DD1
 10
27.9274
 20
79.5772
 30
0.000000
  70
    32
  0
VERTEX
  8
SAPA_ANSLUTNING
  5
DD2
 10
28.2828
 20
79.7297
 30
0.000000
  70
    32
  0
VERTEX
  8
SAPA_ANSLUTNING
  5
DD3
 10
28.6544
 20
79.8741
 30
0.000000
  70
    32
  0
VERTEX
  8
SAPA_ANSLUTNING
  5
DD4
 10
29.0412
 20
80.0102
 30
0.000000
  70
    32
  0
VERTEX
  8
SAPA_ANSLUTNING
  5
DD5
 10
29.4425
 20
80.1376
 30
0.000000
  70
    32
  0
VERTEX
  8
SAPA_ANSLUTNING
  5
DD6
 10
29.8571
 20
80.2559
 30
0.000000
  70
    32
  0
VERTEX
  8
SAPA_ANSLUTNING
  5
DD7
 10
30.2841
 20
80.3650
 30
0.000000
  70
    32
  0
VERTEX
  8
SAPA_ANSLUTNING
  5
DD8
 10
30.7225
 20
80.4645
 30
0.000000
  70
    32
  0
VERTEX
  8
SAPA_ANSLUTNING
  5
DD9
 10
31.1711
 20
80.5542
 30
0.000000
  70
    32
  0
VERTEX
  8
SAPA_ANSLUTNING
  5
DDA
 10
31.6290
 20
80.6340
 30
0.000000
  70
    32
  0
VERTEX
  8
SAPA_ANSLUTNING
  5
DDB
 10
32.0951
 20
80.7035
 30
0.000000
  70
    32
  0
VERTEX
  8
SAPA_ANSLUTNING
  5
DDC
 10
32.5681
 20
80.7626
 30
0.000000
  70
    32
  0
VERTEX
  8
SAPA_ANSLUTNING
  5
DDD
 10
33.0469
 20
80.8112
 30
0.000000
  70
    32
  0
VERTEX
  8
SAPA_ANSLUTNING
  5
DDE
 10
33.5305
 20
80.8492
 30
0.000000
  70
    32
  0
VERTEX
  8
SAPA_ANSLUTNING
  5
DDF
 10
34.0176
 20
80.8765
 30
0.000000
  70
    32
  0
VERTEX
  8
SAPA_ANSLUTNING
  5
DE0
 10
34.5071
 20
80.8930
 30
0.000000
  70
    32
  0
VERTEX
  8
SAPA_ANSLUTNING
  5
DE1
 10
34.9978
 20
80.8986
 30
0.000000
  70
    32
  0
VERTEX
  8
SAPA_ANSLUTNING
  5
DE2
 10
35.4885
 20
80.8935
 30
0.000000
  70
    32
  0
VERTEX
  8
SAPA_ANSLUTNING
  5
DE3
 10
35.9780
 20
80.8775
 30
0.000000
  70
    32
  0
VERTEX
  8
SAPA_ANSLUTNING
  5
DE4
 10
36.4651
 20
80.8507
 30
0.000000
  70
    32
  0
VERTEX
  8
SAPA_ANSLUTNING
  5
DE5
 10
36.9488
 20
80.8131
 30
0.000000
  70
    32
  0
VERTEX
  8
SAPA_ANSLUTNING
  5
DE6
 10
37.4277
 20
80.7650
 30
0.000000
  70
    32
  0
VERTEX
  8
SAPA_ANSLUTNING
  5
DE7
 10
37.9008
 20
80.7063
 30
0.000000
  70
    32
  0
VERTEX
  8
SAPA_ANSLUTNING
  5
DE8
 10
38.3668
 20
80.6372
 30
0.000000
  70
    32
  0
VERTEX
  8
SAPA_ANSLUTNING
  5
DE9
 10
38.8248
 20
80.5580
 30
0.000000
  70
    32
  0
VERTEX
  8
SAPA_ANSLUTNING
  5
DEA
 10
39.2736
 20
80.4687
 30
0.000000
  70
    32
  0
VERTEX
  8
SAPA_ANSLUTNING
  5
DEB
 10
39.7120
 20
80.3696
 30
0.000000
  70
    32
  0
VERTEX
  8
SAPA_ANSLUTNING
  5
DEC
 10
40.1391
 20
80.2609
 30
0.000000
  70
    32
  0
VERTEX
  8
SAPA_ANSLUTNING
  5
DED
 10
40.5539
 20
80.1430
 30
0.000000
  70
    32
  0
VERTEX
  8
SAPA_ANSLUTNING
  5
DEE
 10
40.9552
 20
80.0160
 30
0.000000
  70
    32
  0
VERTEX
  8
SAPA_ANSLUTNING
  5
DEF
 10
41.3422
 20
79.8803
 30
0.000000
  70
    32
  0
VERTEX
  8
SAPA_ANSLUTNING
  5
DF0
 10
41.7140
 20
79.7362
 30
0.000000
  70
    32
  0
VERTEX
  8
SAPA_ANSLUTNING
  5
DF1
 10
42.0695
 20
79.5841
 30
0.000000
  70
    32
  0
VERTEX
  8
SAPA_ANSLUTNING
  5
DF2
 10
42.4080
 20
79.4243
 30
0.000000
  70
    32
  0
VERTEX
  8
SAPA_ANSLUTNING
  5
DF3
 10
42.7287
 20
79.2572
 30
0.000000
  70
    32
  0
VERTEX
  8
SAPA_ANSLUTNING
  5
DF4
 10
43.0308
 20
79.0832
 30
0.000000
  70
    32
  0
VERTEX
  8
SAPA_ANSLUTNING
  5
DF5
 10
43.3135
 20
78.9028
 30
0.000000
  70
    32
  0
VERTEX
  8
SAPA_ANSLUTNING
  5
DF6
 10
43.5762
 20
78.7163
 30
0.000000
  70
    32
  0
VERTEX
  8
SAPA_ANSLUTNING
  5
DF7
 10
43.8182
 20
78.5242
 30
0.000000
  70
    32
  0
VERTEX
  8
SAPA_ANSLUTNING
  5
DF8
 10
44.0390
 20
78.3270
 30
0.000000
  70
    32
  0
VERTEX
  8
SAPA_ANSLUTNING
  5
DF9
 10
44.2380
 20
78.1252
 30
0.000000
  70
    32
  0
VERTEX
  8
SAPA_ANSLUTNING
  5
DFA
 10
44.4147
 20
77.9192
 30
0.000000
  70
    32
  0
VERTEX
  8
SAPA_ANSLUTNING
  5
DFB
 10
44.5688
 20
77.7096
 30
0.000000
  70
    32
  0
VERTEX
  8
SAPA_ANSLUTNING
  5
DFC
 10
44.6998
 20
77.4968
 30
0.000000
  70
    32
  0
VERTEX
  8
SAPA_ANSLUTNING
  5
DFD
 10
44.8074
 20
77.2813
 30
0.000000
  70
    32
  0
VERTEX
  8
SAPA_ANSLUTNING
  5
DFE
 10
44.8914
 20
77.0637
 30
0.000000
  70
    32
  0
VERTEX
  8
SAPA_ANSLUTNING
  5
DFF
 10
44.9516
 20
76.8446
 30
0.000000
  70
    32
  0
VERTEX
  8
SAPA_ANSLUTNING
  5
E00
 10
44.9878
 20
76.6243
 30
0.000000
  70
    32
  0
VERTEX
  8
SAPA_ANSLUTNING
  5
E01
 10
45.0000
 20
76.4035
 30
0.000000
  70
    32
  0
VERTEX
  8
SAPA_ANSLUTNING
  5
E02
 10
44.9881
 20
76.1827
 30
0.000000
  70
    32
  0
VERTEX
  8
SAPA_ANSLUTNING
  5
E03
 10
44.9521
 20
75.9624
 30
0.000000
  70
    32
  0
VERTEX
  8
SAPA_ANSLUTNING
  5
E04
 10
44.8921
 20
75.7432
 30
0.000000
  70
    32
  0
VERTEX
  8
SAPA_ANSLUTNING
  5
E05
 10
44.8083
 20
75.5255
 30
0.000000
  70
    32
  0
VERTEX
  8
SAPA_ANSLUTNING
  5
E06
 10
44.7008
 20
75.3100
 30
0.000000
  70
    32
  0
VERTEX
  8
SAPA_ANSLUTNING
  5
E07
 10
44.5700
 20
75.0970
 30
0.000000
  70
    32
  0
VERTEX
  8
SAPA_ANSLUTNING
  5
E08
 10
44.4162
 20
74.8872
 30
0.000000
  70
    32
  0
VERTEX
  8
SAPA_ANSLUTNING
  5
E09
 10
44.2396
 20
74.6811
 30
0.000000
  70
    32
  0
VERTEX
  8
SAPA_ANSLUTNING
  5
E0A
 10
44.0408
 20
74.4790
 30
0.000000
  70
    32
  0
VERTEX
  8
SAPA_ANSLUTNING
  5
E0B
 10
43.8202
 20
74.2817
 30
0.000000
  70
    32
  0
VERTEX
  8
SAPA_ANSLUTNING
  5
E0C
 10
43.5784
 20
74.0894
 30
0.000000
  70
    32
  0
VERTEX
  8
SAPA_ANSLUTNING
  5
E0D
 10
43.3159
 20
73.9026
 30
0.000000
  70
    32
  0
VERTEX
  8
SAPA_ANSLUTNING
  5
E0E
 10
43.0334
 20
73.7219
 30
0.000000
  70
    32
  0
VERTEX
  8
SAPA_ANSLUTNING
  5
E0F
 10
42.7315
 20
73.5476
 30
0.000000
  70
    32
  0
VERTEX
  8
SAPA_ANSLUTNING
  5
E10
 10
42.4110
 20
73.3802
 30
0.000000
  70
    32
  0
VERTEX
  8
SAPA_ANSLUTNING
  5
E11
 10
42.0726
 20
73.2201
 30
0.000000
  70
    32
  0
VERTEX
  8
SAPA_ANSLUTNING
  5
E12
 10
41.7172
 20
73.0676
 30
0.000000
  70
    32
  0
VERTEX
  8
SAPA_ANSLUTNING
  5
E13
 10
41.3456
 20
72.9232
 30
0.000000
  70
    32
  0
VERTEX
  8
SAPA_ANSLUTNING
  5
E14
 10
40.9588
 20
72.7871
 30
0.000000
  70
    32
  0
VERTEX
  8
SAPA_ANSLUTNING
  5
E15
 10
40.5575
 20
72.6597
 30
0.000000
  70
    32
  0
VERTEX
  8
SAPA_ANSLUTNING
  5
E16
 10
40.1429
 20
72.5414
 30
0.000000
  70
    32
  0
VERTEX
  8
SAPA_ANSLUTNING
  5
E17
 10
39.7159
 20
72.4323
 30
0.000000
  70
    32
  0
VERTEX
  8
SAPA_ANSLUTNING
  5
E18
 10
39.2775
 20
72.3328
 30
0.000000
  70
    32
  0
VERTEX
  8
SAPA_ANSLUTNING
  5
E19
 10
38.8289
 20
72.2430
 30
0.000000
  70
    32
  0
VERTEX
  8
SAPA_ANSLUTNING
  5
E1A
 10
38.3710
 20
72.1633
 30
0.000000
  70
    32
  0
VERTEX
  8
SAPA_ANSLUTNING
  5
E1B
 10
37.9049
 20
72.0938
 30
0.000000
  70
    32
  0
VERTEX
  8
SAPA_ANSLUTNING
  5
E1C
 10
37.4319
 20
72.0347
 30
0.000000
  70
    32
  0
VERTEX
  8
SAPA_ANSLUTNING
  5
E1D
 10
36.9531
 20
71.9861
 30
0.000000
  70
    32
  0
VERTEX
  8
SAPA_ANSLUTNING
  5
E1E
 10
36.4695
 20
71.9481
 30
0.000000
  70
    32
  0
VERTEX
  8
SAPA_ANSLUTNING
  5
E1F
 10
35.9824
 20
71.9208
 30
0.000000
  70
    32
  0
VERTEX
  8
SAPA_ANSLUTNING
  5
E20
 10
35.4929
 20
71.9043
 30
0.000000
  70
    32
  0
VERTEX
  8
SAPA_ANSLUTNING
  5
E21
 10
35.0022
 20
71.8986
 30
0.000000
  70
    32
  0
VERTEX
  8
SAPA_ANSLUTNING
  5
E22
 10
34.5115
 20
71.9038
 30
0.000000
  70
    32
  0
VERTEX
  8
SAPA_ANSLUTNING
  5
E23
 10
34.0220
 20
71.9198
 30
0.000000
  70
    32
  0
VERTEX
  8
SAPA_ANSLUTNING
  5
E24
 10
33.5349
 20
71.9466
 30
0.000000
  70
    32
  0
VERTEX
  8
SAPA_ANSLUTNING
  5
E25
 10
33.0512
 20
71.9842
 30
0.000000
  70
    32
  0
VERTEX
  8
SAPA_ANSLUTNING
  5
E26
 10
32.5723
 20
72.0323
 30
0.000000
  70
    32
  0
VERTEX
  8
SAPA_ANSLUTNING
  5
E27
 10
32.0992
 20
72.0910
 30
0.000000
  70
    32
  0
VERTEX
  8
SAPA_ANSLUTNING
  5
E28
 10
31.6332
 20
72.1601
 30
0.000000
  70
    32
  0
VERTEX
  8
SAPA_ANSLUTNING
  5
E29
 10
31.1752
 20
72.2393
 30
0.000000
  70
    32
  0
VERTEX
  8
SAPA_ANSLUTNING
  5
E2A
 10
30.7264
 20
72.3286
 30
0.000000
  70
    32
  0
VERTEX
  8
SAPA_ANSLUTNING
  5
E2B
 10
30.2880
 20
72.4277
 30
0.000000
  70
    32
  0
VERTEX
  8
SAPA_ANSLUTNING
  5
E2C
 10
29.8609
 20
72.5364
 30
0.000000
  70
    32
  0
VERTEX
  8
SAPA_ANSLUTNING
  5
E2D
 10
29.4461
 20
72.6543
 30
0.000000
  70
    32
  0
VERTEX
  8
SAPA_ANSLUTNING
  5
E2E
 10
29.0448
 20
72.7813
 30
0.000000
  70
    32
  0
VERTEX
  8
SAPA_ANSLUTNING
  5
E2F
 10
28.6578
 20
72.9170
 30
0.000000
  70
    32
  0
VERTEX
  8
SAPA_ANSLUTNING
  5
E30
 10
28.2860
 20
73.0611
 30
0.000000
  70
    32
  0
VERTEX
  8
SAPA_ANSLUTNING
  5
E31
 10
27.9305
 20
73.2132
 30
0.000000
  70
    32
  0
VERTEX
  8
SAPA_ANSLUTNING
  5
E32
 10
27.5920
 20
73.3730
 30
0.000000
  70
    32
  0
VERTEX
  8
SAPA_ANSLUTNING
  5
E33
 10
27.2713
 20
73.5401
 30
0.000000
  70
    32
  0
VERTEX
  8
SAPA_ANSLUTNING
  5
E34
 10
26.9692
 20
73.7141
 30
0.000000
  70
    32
  0
VERTEX
  8
SAPA_ANSLUTNING
  5
E35
 10
26.6865
 20
73.8945
 30
0.000000
  70
    32
  0
VERTEX
  8
SAPA_ANSLUTNING
  5
E36
 10
26.4238
 20
74.0810
 30
0.000000
  70
    32
  0
VERTEX
  8
SAPA_ANSLUTNING
  5
E37
 10
26.1818
 20
74.2731
 30
0.000000
  70
    32
  0
VERTEX
  8
SAPA_ANSLUTNING
  5
E38
 10
25.9610
 20
74.4702
 30
0.000000
  70
    32
  0
VERTEX
  8
SAPA_ANSLUTNING
  5
E39
 10
25.7620
 20
74.6721
 30
0.000000
  70
    32
  0
VERTEX
  8
SAPA_ANSLUTNING
  5
E3A
 10
25.5853
 20
74.8781
 30
0.000000
  70
    32
  0
VERTEX
  8
SAPA_ANSLUTNING
  5
E3B
 10
25.4312
 20
75.0877
 30
0.000000
  70
    32
  0
VERTEX
  8
SAPA_ANSLUTNING
  5
E3C
 10
25.3002
 20
75.3005
 30
0.000000
  70
    32
  0
VERTEX
  8
SAPA_ANSLUTNING
  5
E3D
 10
25.1926
 20
75.5160
 30
0.000000
  70
    32
  0
VERTEX
  8
SAPA_ANSLUTNING
  5
E3E
 10
25.1086
 20
75.7335
 30
0.000000
  70
    32
  0
VERTEX
  8
SAPA_ANSLUTNING
  5
E3F
 10
25.0484
 20
75.9527
 30
0.000000
  70
    32
  0
VERTEX
  8
SAPA_ANSLUTNING
  5
E40
 10
25.0122
 20
76.1730
 30
0.000000
  70
    32
  0
VERTEX
  8
SAPA_ANSLUTNING
  5
E41
 10
25.0000
 20
76.3938
 30
0.000000
  70
    32
  0
SEQEND
  8
SAPA_ANSLUTNING
  5
E42
  0
LINE
  5
48D
  8
SAPA_ANSLUTNING
 10
51.84662478082813
 20
-32.000000000856751
 30
0.0
 11
96.846624780828137
 21
-10.00000000085674
 31
0.0
  0
LINE
  5
48E
  8
SAPA_ANSLUTNING
 10
96.846624780828137
 20
-32.000000000856751
 30
0.0
 11
51.84662478082813
 21
-10.00000000085674
 31
0.0
  0
LINE
  5
48F
  8
SAPA_ANSLUTNING
 10
126.84662478082809
 20
-32.000000000856751
 30
0.0
 11
164.00000000000799
 21
-23.826257452637272
 31
0.0
  0
LINE
  5
490
  8
SAPA_ANSLUTNING
 10
164.00000000000799
 20
-18.17374254907633
 30
0.0
 11
126.84662478082809
 21
-10.00000000085674
 31
0.0
  0
POLYLINE
  5
491
  8
SAPA_ANSLUTNING
 66
     1
 10
0.0
 20
0.0
 30
0.0
  0
VERTEX
  5
7DB
  8
SAPA_ANSLUTNING
 10
164.00000000000799
 20
-32.000000000856858
 30
0.0
  0
VERTEX
  5
7DC
  8
SAPA_ANSLUTNING
 10
126.84662478082809
 20
-32.000000000856751
 30
0.0
  0
VERTEX
  5
7DD
  8
SAPA_ANSLUTNING
 10
126.84662478082809
 20
-10.00000000085674
 30
0.0
  0
VERTEX
  5
7DE
  8
SAPA_ANSLUTNING
 10
164.00000000000799
 20
-10.000000000856859
 30
0.0
  0
SEQEND
  5
7DF
  8
SAPA_ANSLUTNING
  0
LINE
  5
492
  8
SAPA_ANSLUTNING
 10
51.84662478082813
 20
-54.000000000856737
 30
0.0
 11
151.84662478082811
 21
-32.000000000857078
 31
0.0
  0
POLYLINE
  5
493
  8
SAPA_ANSLUTNING
 66
     1
 10
0.0
 20
0.0
 30
0.0
 70
     1
  0
VERTEX
  5
7E0
  8
SAPA_ANSLUTNING
 10
51.84662478082813
 20
-32.000000000856751
 30
0.0
  0
VERTEX
  5
7E1
  8
SAPA_ANSLUTNING
 10
151.84662478082811
 20
-32.000000000857078
 30
0.0
  0
VERTEX
  5
7E2
  8
SAPA_ANSLUTNING
 10
151.84662478082811
 20
-54.000000000857078
 30
0.0
  0
VERTEX
  5
7E3
  8
SAPA_ANSLUTNING
 10
51.84662478082813
 20
-54.000000000856737
 30
0.0
  0
SEQEND
  5
7E4
  8
SAPA_ANSLUTNING
  0
LINE
  5
494
  8
SAPA_ANSLUTNING
 10
151.84662478082811
 20
-54.000000000856737
 30
0.0
 11
51.84662478082813
 21
-32.000000000856751
 31
0.0
  0
POLYLINE
  5
495
  8
SAPA_ANSLUTNING
 66
     1
 10
0.0
 20
0.0
 30
0.0
 70
     1
  0
VERTEX
  5
7E5
  8
SAPA_ANSLUTNING
 10
96.846624780828137
 20
-32.000000000856751
 30
0.0
  0
VERTEX
  5
7E6
  8
SAPA_ANSLUTNING
 10
96.846624780828137
 20
-10.00000000085674
 30
0.0
  0
VERTEX
  5
7E7
  8
SAPA_ANSLUTNING
 10
51.84662478082813
 20
-10.00000000085674
 30
0.0
  0
VERTEX
  5
7E8
  8
SAPA_ANSLUTNING
 10
51.84662478082813
 20
-32.000000000856751
 30
0.0
  0
SEQEND
  5
7E9
  8
SAPA_ANSLUTNING
  0
POLYLINE
  5
496
  8
SAPA_ANSLUTNING
 66
     1
 10
0.0
 20
0.0
 30
0.0
  0
VERTEX
  5
7EA
  8
SAPA_ANSLUTNING
 10
90.000000000008043
 20
-10.00000000085674
 30
0.0
  0
VERTEX
  5
7EB
  8
SAPA_ANSLUTNING
 10
126.84662478082809
 20
-10.00000000085674
 30
0.0
  0
SEQEND
  5
7EC
  8
SAPA_ANSLUTNING
  0
POLYLINE
  5
497
  8
SAPA_ANSLUTNING
  6
NEWDOT
 66
     1
 10
0.0
 20
0.0
 30
0.0
  0
VERTEX
  5
7ED
  8
SAPA_ANSLUTNING
  6
NEWDOT
 10
164.00000000000799
 20
202.99999999914391
 30
0.0
  0
VERTEX
  5
7EE
  8
SAPA_ANSLUTNING
  6
NEWDOT
 10
164.00000000000799
 20
-64.000000000856971
 30
0.0
  0
SEQEND
  5
7EF
  8
SAPA_ANSLUTNING
  6
NEWDOT
  0
POLYLINE
  5
498
  8
SAPA_ANSLUTNING
 66
     1
 10
0.0
 20
0.0
 30
0.0
 70
     1
  0
VERTEX
  5
7F0
  8
SAPA_ANSLUTNING
 10
29.84662478082814
 20
-54.000000000856737
 30
0.0
  0
VERTEX
  5
7F1
  8
SAPA_ANSLUTNING
 10
29.84662478082814
 20
13.999999999143251
 30
0.0
  0
VERTEX
  5
7F2
  8
SAPA_ANSLUTNING
 10
51.84662478082813
 20
13.999999999143251
 30
0.0
  0
VERTEX
  5
7F3
  8
SAPA_ANSLUTNING
 10
51.84662478082813
 20
-54.000000000856737
 30
0.0
  0
SEQEND
  5
7F4
  8
SAPA_ANSLUTNING
  0
POLYLINE
  5
499
  8
SAPA_ANSLUTNING
 66
     1
 10
0.0
 20
0.0
 30
0.0
  0
VERTEX
  5
7F5
  8
SAPA_ANSLUTNING
 10
29.84662478082814
 20
-54.000000000856737
 30
0.0
  0
VERTEX
  5
7F6
  8
SAPA_ANSLUTNING
 10
51.84662478082813
 20
13.999999999143251
 30
0.0
  0
SEQEND
  5
7F7
  8
SAPA_ANSLUTNING
  0
POLYLINE
  5
49A
  8
SAPA_ANSLUTNING
 66
     1
 10
0.0
 20
0.0
 30
0.0
  0
VERTEX
  5
7F8
  8
SAPA_ANSLUTNING
 10
29.84662478082814
 20
13.999999999143251
 30
0.0
  0
VERTEX
  5
7F9
  8
SAPA_ANSLUTNING
 10
51.84662478082813
 20
-54.000000000856737
 30
0.0
  0
SEQEND
  5
7FA
  8
SAPA_ANSLUTNING
  0
LINE
  5
49B
  8
SAPA_ANSLUTNING
 10
51.84662478082813
 20
1.9999999991432551
 30
0.0
 11
164.00000000000799
 21
1.9999999991432551
 31
0.0
  0
LINE
  5
49C
  8
SAPA_ANSLUTNING
 10
44.500000000006217
 20
119.9999999991399
 30
0.0
 11
44.50000000000577
 21
109.9999999991399
 31
0.0
  0
LINE
  5
49D
  8
SAPA_ANSLUTNING
 10
28.49201280985616
 20
10.00000000229317
 30
0.0
 11
-82.163219975823068
 21
10.00000000229317
 31
0.0
  0
POLYLINE
  5
4A4
  8
SAPA_ANSLUTNING
 66
     1
 10
0.0
 20
0.0
 30
0.0
  0
VERTEX
  5
7FB
  8
SAPA_ANSLUTNING
 10
45.000000000008043
 20
13.99999999913973
 30
0.0
  0
VERTEX
  5
7FC
  8
SAPA_ANSLUTNING
 10
45.000000000008043
 20
58.999999999139732
 30
0.0
  0
SEQEND
  5
7FD
  8
SAPA_ANSLUTNING
  0
LINE
  5
4A8
  8
SAPA_ANSLUTNING
 10
26.00000000096983
 20
87.999999998989665
 30
0.0
 11
44.000000000969827
 21
87.999999998989665
 31
0.0
  0
LINE
  5
4B9
  8
SAPA_ANSLUTNING
 10
44.500000000006217
 20
101.642672549888
 30
0.0
 11
44.50000000000577
 21
91.642672549888047
 31
0.0
  0
LINE
  5
4BA
  8
SAPA_ANSLUTNING
 10
45.00000000000577
 20
91.642672549888047
 30
0.0
 11
44.000000000005763
 21
91.642672549888047
 31
0.0
  0
LINE
  5
4D1
  8
SAPA_ANSLUTNING
 10
45.000000000006217
 20
101.642672549888
 30
0.0
 11
44.000000000006217
 21
101.642672549888
 31
0.0
  0
LINE
  5
4D2
  8
SAPA_ANSLUTNING
 10
45.00000000000577
 20
109.9999999991399
 30
0.0
 11
44.000000000005763
 21
109.9999999991399
 31
0.0
  0
LINE
  5
4D3
  8
SAPA_ANSLUTNING
 10
45.000000000006217
 20
119.9999999991399
 30
0.0
 11
44.000000000006217
 21
119.9999999991399
 31
0.0
  0
LINE
  5
4D4
  8
SAPA_ANSLUTNING
 10
164.00000000000799
 20
179.99999999914081
 30
0.0
 11
44.000000000008043
 21
179.99999999913979
 31
0.0
  0
LINE
  5
4D5
  8
SAPA_ANSLUTNING
 10
45.000000000008043
 20
178.99999999913979
 30
0.0
 11
164.00000000000799
 21
178.99999999914081
 31
0.0
  0
LINE
  5
4D6
  8
SAPA_ANSLUTNING
 10
164.00000000000799
 20
192.9999999991405
 30
0.0
 11
26.00000000096983
 21
192.9999999991397
 31
0.0
  0
LINE
  5
4D7
  8
SAPA_ANSLUTNING
 10
90.000000000008043
 20
58.999999999139732
 30
0.0
 11
164.00000000000799
 21
58.999999999139732
 31
0.0
  0
LINE
  5
4D8
  8
SAPA_ANSLUTNING
 10
90.000000000008043
 20
13.99999999913973
 30
0.0
 11
164.00000000000799
 21
13.99999999913973
 31
0.0
  0
POLYLINE
  5
4D9
  8
SAPA_ANSLUTNING
 66
     1
 10
0.0
 20
0.0
 30
0.0
  0
VERTEX
  5
7FE
  8
SAPA_ANSLUTNING
 10
90.898036486082077
 20
57.22814899684829
 30
0.0
 42
-0.3557231347462352
  0
VERTEX
  5
7FF
  8
SAPA_ANSLUTNING
 10
95.684040252231014
 20
51.352247947290493
 30
0.0
  0
VERTEX
  5
800
  8
SAPA_ANSLUTNING
 10
95.684028843962864
 20
21.065468238968489
 30
0.0
 42
0.9999999999999985
  0
VERTEX
  5
801
  8
SAPA_ANSLUTNING
 10
107.68402884396259
 20
21.065466494405769
 30
0.0
  0
VERTEX
  5
802
  8
SAPA_ANSLUTNING
 10
107.6840402522305
 20
51.352246202727649
 30
0.0
 42
-0.9999999999999998
  0
VERTEX
  5
803
  8
SAPA_ANSLUTNING
 10
119.6840402522306
 20
51.35224620272777
 30
0.0
  0
VERTEX
  5
804
  8
SAPA_ANSLUTNING
 10
119.68402884396239
 20
21.065466494405769
 30
0.0
 42
0.9999999999999985
  0
VERTEX
  5
805
  8
SAPA_ANSLUTNING
 10
131.68402884396241
 20
21.065464749842931
 30
0.0
  0
VERTEX
  5
806
  8
SAPA_ANSLUTNING
 10
131.68404025223029
 20
51.352244458164819
 30
0.0
 42
-0.9999999999999998
  0
VERTEX
  5
807
  8
SAPA_ANSLUTNING
 10
143.68404025223029
 20
51.352244458164819
 30
0.0
  0
VERTEX
  5
808
  8
SAPA_ANSLUTNING
 10
143.68402884396221
 20
21.065464749842931
 30
0.0
 42
0.9999999999999985
  0
VERTEX
  5
809
  8
SAPA_ANSLUTNING
 10
155.6840288439621
 20
21.06546300528009
 30
0.0
  0
VERTEX
  5
80A
  8
SAPA_ANSLUTNING
 10
155.68404025223029
 20
52.351615452422038
 30
0.0
 42
-0.5356640748054322
  0
VERTEX
  5
80B
  8
SAPA_ANSLUTNING
 10
164.00000000000799
 20
57.886624977858503
 30
0.0
 42
-0.5356640748054322
  0
SEQEND
  5
80C
  8
SAPA_ANSLUTNING
  0
POLYLINE
  5
4DA
  8
SAPA_ANSLUTNING
 66
     1
 10
0.0
 20
0.0
 30
0.0
  0
VERTEX
  5
80D
  8
SAPA_ANSLUTNING
 10
90.000000000008043
 20
173.6309457907775
 30
0.0
 42
-0.7343016746134257
  0
VERTEX
  5
80E
  8
SAPA_ANSLUTNING
 10
108.207466006076
 20
167.91802169192641
 30
0.0
  0
VERTEX
  5
80F
  8
SAPA_ANSLUTNING
 10
108.207466006076
 20
70.62079679247347
 30
0.0
 42
0.9999999999999998
  0
VERTEX
  5
810
  8
SAPA_ANSLUTNING
 10
128.207466006076
 20
70.620796792473584
 30
0.0
  0
VERTEX
  5
811
  8
SAPA_ANSLUTNING
 10
128.207466006076
 20
167.91802169192641
 30
0.0
 42
-0.9999999999999998
  0
VERTEX
  5
812
  8
SAPA_ANSLUTNING
 10
148.2074660060762
 20
167.91802169192641
 30
0.0
  0
VERTEX
  5
813
  8
SAPA_ANSLUTNING
 10
148.2074660060762
 20
70.620796792473584
 30
0.0
 42
0.6091937534068938
  0
VERTEX
  5
814
  8
SAPA_ANSLUTNING
 10
164.00000000000799
 20
62.469321470230277
 30
0.0
 42
0.6091937534068938
  0
SEQEND
  5
815
  8
SAPA_ANSLUTNING
  0
LINE
  5
4DB
  8
SAPA_ANSLUTNING
 10
44.000000000969827
 20
87.999999998989665
 30
0.0
 11
44.000000000969827
 21
179.99999999913979
 31
0.0
  0
LINE
  5
4DC
  8
SAPA_ANSLUTNING
 10
90.000000000008043
 20
58.999999999139732
 30
0.0
 11
45.000000000008043
 21
178.99999999913979
 31
0.0
  0
LINE
  5
4DD
  8
SAPA_ANSLUTNING
 10
45.000000000008043
 20
58.999999999139732
 30
0.0
 11
90.000000000008043
 21
178.99999999913979
 31
0.0
  0
LINE
  5
4DE
  8
SAPA_ANSLUTNING
 10
90.000000000008043
 20
58.999999999139732
 30
0.0
 11
90.000000000008043
 21
178.99999999913979
 31
0.0
  0
LINE
  5
4DF
  8
SAPA_ANSLUTNING
 10
44.000000000008043
 20
179.99999999913979
 30
0.0
 11
43.995346427456148
 21
79.697110562420605
 31
0.0
  0
LINE
  5
4E0
  8
SAPA_ANSLUTNING
 10
45.000000000008043
 20
178.99999999913979
 30
0.0
 11
45.000000000008043
 21
58.999999999139732
 31
0.0
  0
LINE
  5
4E1
  8
SAPA_ANSLUTNING
 10
83.684040252230574
 20
51.352247947290493
 30
0.0
 11
83.684051660498724
 21
21.065468238968489
 31
0.0
  0
LINE
  5
4E2
  8
SAPA_ANSLUTNING
 10
75.000000000008043
 20
58.999999999139732
 30
0.0
 11
75.000000000008043
 21
13.99999999913973
 31
0.0
  0
LINE
  5
4E3
  8
SAPA_ANSLUTNING
 10
45.000000000008043
 20
58.999999999139732
 30
0.0
 11
75.000000000008043
 21
13.99999999913973
 31
0.0
  0
LINE
  5
4E4
  8
SAPA_ANSLUTNING
 10
45.000000000008043
 20
13.99999999913973
 30
0.0
 11
75.000000000008043
 21
58.999999999139732
 31
0.0
  0
ARC
  5
4E5
  8
SAPA_ANSLUTNING
 10
77.684051660498966
 20
21.06546736668713
 30
0.0
 40
5.9999999999999494
 50
243.42672673645089
 51
0.0000083296734299
  0
LINE
  5
4E6
  8
SAPA_ANSLUTNING
 10
90.000000000008043
 20
13.99999999913973
 30
0.0
 11
45.000000000008043
 21
13.99999999913973
 31
0.0
  0
LINE
  5
4E7
  8
SAPA_ANSLUTNING
 10
45.000000000008043
 20
58.999999999139732
 30
0.0
 11
90.000000000008043
 21
58.999999999139732
 31
0.0
  0
LINE
  5
4E8
  8
SAPA_ANSLUTNING
 10
45.000000000008043
 20
58.999999999139732
 30
0.0
 11
90.000000000008043
 21
58.999999999139732
 31
0.0
  0
ARC
  5
4E9
  8
SAPA_ANSLUTNING
 10
89.684040252230801
 20
51.352247947290493
 30
0.0
 40
6.0000000000001128
 50
0.0
 51
180.0
  0
LINE
  5
4EA
  8
SAPA_ANSLUTNING
 10
44.500000000007127
 20
159.99999999913979
 30
0.0
 11
44.500000000007127
 21
149.99999999913959
 31
0.0
  0
LINE
  5
4EB
  8
SAPA_ANSLUTNING
 10
44.500000000006679
 20
139.99999999913979
 30
0.0
 11
44.500000000006217
 21
129.99999999913979
 31
0.0
  0
LINE
  5
4EC
  8
SAPA_ANSLUTNING
 10
45.000000000006217
 20
129.99999999913979
 30
0.0
 11
44.000000000006217
 21
129.99999999913979
 31
0.0
  0
LINE
  5
4ED
  8
SAPA_ANSLUTNING
 10
45.000000000007127
 20
149.99999999913979
 30
0.0
 11
44.000000000007127
 21
149.99999999913959
 31
0.0
  0
LINE
  5
4EE
  8
SAPA_ANSLUTNING
 10
45.000000000006672
 20
139.99999999913979
 30
0.0
 11
44.000000000006679
 21
139.99999999913979
 31
0.0
  0
LINE
  5
4EF
  8
SAPA_ANSLUTNING
 10
90.000000000008043
 20
178.99999999913979
 30
0.0
 11
45.000000000008043
 21
178.99999999913979
 31
0.0
  0
LINE
  5
4F0
  8
SAPA_ANSLUTNING
 10
44.500000000008043
 20
179.99999999913979
 30
0.0
 11
44.500000000007581
 21
169.99999999913979
 31
0.0
  0
LINE
  5
4F1
  8
SAPA_ANSLUTNING
 10
45.000000000007589
 20
169.99999999913959
 30
0.0
 11
44.000000000007581
 21
169.99999999913979
 31
0.0
  0
LINE
  5
4F2
  8
SAPA_ANSLUTNING
 10
45.000000000007127
 20
159.99999999913959
 30
0.0
 11
44.000000000007127
 21
159.99999999913979
 31
0.0
  0
LINE
  5
4F3
  8
SAPA_ANSLUTNING
 10
55.000000000008043
 20
179.49999999913939
 30
0.0
 11
45.000000000008043
 21
179.49999999913979
 31
0.0
  0
LINE
  5
4F4
  8
SAPA_ANSLUTNING
 10
44.000000000969827
 20
179.9999999991397
 30
0.0
 11
44.000000000969827
 21
192.9999999991397
 31
0.0
  0
LINE
  5
4F5
  8
SAPA_ANSLUTNING
 10
45.000000000008043
 20
179.99999999913979
 30
0.0
 11
44.000000000008043
 21
179.99999999913979
 31
0.0
  0
LINE
  5
4F6
  8
SAPA_ANSLUTNING
 10
45.000000000008043
 20
178.99999999913979
 30
0.0
 11
45.000000000008043
 21
179.99999999913979
 31
0.0
  0
LINE
  5
4F7
  8
SAPA_ANSLUTNING
 10
55.000000000008043
 20
178.99999999913939
 30
0.0
 11
55.000000000008043
 21
179.99999999913939
 31
0.0
  0
LINE
  5
4F8
  8
SAPA_ANSLUTNING
 10
65.000000000008043
 20
178.99999999913911
 30
0.0
 11
65.000000000008043
 21
179.99999999913911
 31
0.0
  0
LINE
  5
4F9
  8
SAPA_ANSLUTNING
 10
75.000000000008043
 20
178.99999999913871
 30
0.0
 11
75.000000000008043
 21
179.99999999913891
 31
0.0
  0
LINE
  5
4FA
  8
SAPA_ANSLUTNING
 10
75.000000000008043
 20
179.49999999913891
 30
0.0
 11
65.000000000008043
 21
179.49999999913911
 31
0.0
  0
LINE
  5
4FB
  8
SAPA_ANSLUTNING
 10
85.000000000008043
 20
178.99999999913851
 30
0.0
 11
85.000000000007574
 21
179.99999999913851
 31
0.0
  0
LINE
  5
4FC
  8
SAPA_ANSLUTNING
 10
95.000000000007574
 20
178.9999999991382
 30
0.0
 11
95.000000000007574
 21
179.9999999991382
 31
0.0
  0
LINE
  5
4FD
  8
SAPA_ANSLUTNING
 10
95.000000000007816
 20
179.4999999991382
 30
0.0
 11
85.000000000007574
 21
179.49999999913851
 31
0.0
  0
LINE
  5
4FE
  8
SAPA_ANSLUTNING
 10
115.0000000000078
 20
179.49999999913749
 30
0.0
 11
105.0000000000076
 21
179.4999999991378
 31
0.0
  0
LINE
  5
4FF
  8
SAPA_ANSLUTNING
 10
115.0000000000076
 20
178.9999999991376
 30
0.0
 11
115.0000000000078
 21
179.9999999991376
 31
0.0
  0
LINE
  5
500
  8
SAPA_ANSLUTNING
 10
105.0000000000076
 20
178.9999999991378
 30
0.0
 11
105.0000000000078
 21
179.9999999991378
 31
0.0
  0
LINE
  5
501
  8
SAPA_ANSLUTNING
 10
164.00000000000799
 20
179.49999999913931
 30
0.0
 11
159.7396115803563
 21
179.4999999991395
 31
0.0
  0
LINE
  5
502
  8
SAPA_ANSLUTNING
 10
149.7396115803563
 20
179.4999999991395
 30
0.0
 11
139.7396115803563
 21
179.4999999991395
 31
0.0
  0
LINE
  5
503
  8
SAPA_ANSLUTNING
 10
125.000000000008
 20
178.99999999913939
 30
0.0
 11
125.000000000008
 21
179.99999999913939
 31
0.0
  0
LINE
  5
504
  8
SAPA_ANSLUTNING
 10
139.7396115803563
 20
178.9999999991395
 30
0.0
 11
139.7396115803563
 21
179.9999999991395
 31
0.0
  0
LINE
  5
505
  8
SAPA_ANSLUTNING
 10
135.00000000000779
 20
178.99999999913939
 30
0.0
 11
135.00000000000779
 21
179.99999999913939
 31
0.0
  0
LINE
  5
506
  8
SAPA_ANSLUTNING
 10
135.00000000000779
 20
179.49999999913939
 30
0.0
 11
125.000000000008
 21
179.49999999913939
 31
0.0
  0
LINE
  5
507
  8
SAPA_ANSLUTNING
 10
149.7396115803563
 20
178.9999999991395
 30
0.0
 11
149.7396115803563
 21
179.9999999991395
 31
0.0
  0
LINE
  5
508
  8
SAPA_ANSLUTNING
 10
159.7396115803561
 20
178.9999999991395
 30
0.0
 11
159.7396115803563
 21
179.9999999991395
 31
0.0
  0
LINE
  5
509
  8
SAPA_ANSLUTNING
 10
26.992012809856391
 20
10.00000000229317
 30
0.0
 11
26.992012809856391
 21
-67.396851334037251
 31
0.0
  0
LINE
  5
50A
  8
SAPA_ANSLUTNING
  6
DASHED
 10
26.992012809856391
 20
-65.896851334037251
 30
0.0
 11
-82.163219975823296
 21
-65.896851334037251
 31
0.0
  0
LINE
  5
50B
  8
SAPA_ANSLUTNING
  6
NEWDOT
 10
-82.163219975823168
 20
-74.015035407647588
 30
0.0
 11
-82.163219975823296
 21
204.8580276405122
 31
0.0
  0
LINE
  5
50C
  8
SAPA_ANSLUTNING
 10
28.49201280985616
 20
13.513678806470921
 30
0.0
 11
28.492012809855709
 21
-67.396851334037592
 31
0.0
  0
LINE
  5
50D
  8
SAPA_ANSLUTNING
 10
26.00000000096983
 20
198.0000000345976
 30
0.0
 11
-82.163219975823296
 21
198.00000003459749
 31
0.0
  0
LINE
  5
50E
  8
SAPA_ANSLUTNING
 10
26.00000000096983
 20
198.0000000345976
 30
0.0
 11
26.00000000096983
 21
87.999999998989665
 31
0.0
  0
LINE
  5
50F
  8
SAPA_ANSLUTNING
 10
45.000000000008043
 20
58.999999999139732
 30
0.0
 11
75.000000000008043
 21
13.99999999913973
 31
0.0
  0
LINE
  5
510
  8
SAPA_ANSLUTNING
  6
CONTINUOUS
 10
28.492012809855709
 20
-67.396851334037592
 30
0.0
 11
-82.163219975823296
 21
-67.396851334037251
 31
0.0
  0
LINE
  5
523
  8
SAPA_ANSLUTNING
 10
43.995346427456148
 20
79.697110562420605
 30
0.0
 11
45.000000000008043
 21
79.697110562420605
 31
0.0
  0
POLYLINE
  5
63D
  8
SAPA_PROFIL
 62
     4
 66
     1
 10
0.0
 20
0.0
 30
0.0
 70
     1
  0
VERTEX
  5
BDC
  8
SAPA_PROFIL
 62
     4
 10
0.560460329556463
 20
40.023789213030902
 30
0.0
 42
-0.3095427405277249
  0
VERTEX
  5
BDD
  8
SAPA_PROFIL
 62
     4
 10
0.3051223668030616
 20
40.396713997645172
 30
0.0
  0
VERTEX
  5
BDE
  8
SAPA_PROFIL
 62
     4
 10
0.3051223668030616
 20
50.999999997562888
 30
0.0
  0
VERTEX
  5
BDF
  8
SAPA_PROFIL
 62
     4
 10
0.3051223668030616
 20
61.603285997490609
 30
0.0
 42
-0.3095427405277116
  0
VERTEX
  5
BE0
  8
SAPA_PROFIL
 62
     4
 10
0.560460329556463
 20
61.976210782104879
 30
0.0
  0
VERTEX
  5
BE1
  8
SAPA_PROFIL
 62
     4
 10
3.0297228252047712
 20
62.934067588234143
 30
0.0
 42
0.3951183166278546
  0
VERTEX
  5
BE2
  8
SAPA_PROFIL
 62
     4
 10
3.2074333670871051
 20
63.30368005932462
 30
0.0
  0
VERTEX
  5
BE3
  8
SAPA_PROFIL
 62
     4
 10
3.3461031241936321
 20
63.543863124106899
 30
0.0
 42
0.5773502691891896
  0
VERTEX
  5
BE4
  8
SAPA_PROFIL
 62
     4
 10
3.1642377893986122
 20
63.858863124106733
 30
0.0
  0
VERTEX
  5
BE5
  8
SAPA_PROFIL
 62
     4
 10
2.8971232611861519
 20
63.858863124106733
 30
0.0
  0
VERTEX
  5
BE6
  8
SAPA_PROFIL
 62
     4
 10
2.1051223667177501
 20
65.239999997523569
 30
0.0
  0
VERTEX
  5
BE7
  8
SAPA_PROFIL
 62
     4
 10
2.105122366708656
 20
65.58999999752325
 30
0.0
 42
-0.4142135623733655
  0
VERTEX
  5
BE8
  8
SAPA_PROFIL
 62
     4
 10
2.505122366699652
 20
65.989999997533118
 30
0.0
  0
VERTEX
  5
BE9
  8
SAPA_PROFIL
 62
     4
 10
5.9051223666997421
 20
65.989999997612927
 30
0.0
 42
-0.4142135623732407
  0
VERTEX
  5
BEA
  8
SAPA_PROFIL
 62
     4
 10
6.305122366708928
 20
65.589999997622158
 30
0.0
  0
VERTEX
  5
BEB
  8
SAPA_PROFIL
 62
     4
 10
6.2959864454237504
 20
65.245222046091044
 30
0.0
  0
VERTEX
  5
BEC
  8
SAPA_PROFIL
 62
     4
 10
5.3572823104536829
 20
63.602968599513019
 30
0.0
 42
0.1246505592471785
  0
VERTEX
  5
BED
  8
SAPA_PROFIL
 62
     4
 10
5.2051223667708646
 20
62.96825977362402
 30
0.0
  0
VERTEX
  5
BEE
  8
SAPA_PROFIL
 62
     4
 10
5.205122366786326
 20
62.317415997596193
 30
0.0
 42
-0.3095428336485235
  0
VERTEX
  5
BEF
  8
SAPA_PROFIL
 62
     4
 10
4.5667771430184976
 20
61.385103913113987
 30
0.0
  0
VERTEX
  5
BF0
  8
SAPA_PROFIL
 62
     4
 10
2.360460456344299
 20
60.529247831316859
 30
0.0
 42
0.3095428336421182
  0
VERTEX
  5
BF1
  8
SAPA_PROFIL
 62
     4
 10
2.1051223668378038
 20
60.156322997533493
 30
0.0
  0
VERTEX
  5
BF2
  8
SAPA_PROFIL
 62
     4
 10
2.1051223668368939
 20
50.99999999756789
 30
0.0
  0
VERTEX
  5
BF3
  8
SAPA_PROFIL
 62
     4
 10
2.1051223668378038
 20
41.843676997602529
 30
0.0
 42
0.3095428336421894
  0
VERTEX
  5
BF4
  8
SAPA_PROFIL
 62
     4
 10
2.360460456344299
 20
41.470752163818922
 30
0.0
  0
VERTEX
  5
BF5
  8
SAPA_PROFIL
 62
     4
 10
2.360459615183117
 20
41.470752490117647
 30
0.0
  0
VERTEX
  5
BF6
  8
SAPA_PROFIL
 62
     4
 10
2.3604604345791809
 20
41.470752172261989
 30
0.0
  0
VERTEX
  5
BF7
  8
SAPA_PROFIL
 62
     4
 10
4.5667771430184976
 20
40.614896082022028
 30
0.0
 42
-0.3095428336485546
  0
VERTEX
  5
BF8
  8
SAPA_PROFIL
 62
     4
 10
5.205122366786326
 20
39.682583997539609
 30
0.0
  0
VERTEX
  5
BF9
  8
SAPA_PROFIL
 62
     4
 10
5.2051223667708646
 20
39.031740221511768
 30
0.0
 42
0.1246505592471561
  0
VERTEX
  5
BFA
  8
SAPA_PROFIL
 62
     4
 10
5.357282310453229
 20
38.397031395622783
 30
0.0
  0
VERTEX
  5
BFB
  8
SAPA_PROFIL
 62
     4
 10
6.2959864454237504
 20
36.754777949044978
 30
0.0
  0
VERTEX
  5
BFC
  8
SAPA_PROFIL
 62
     4
 10
6.305122366708928
 20
36.409999997513857
 30
0.0
 42
-0.4142135623732407
  0
VERTEX
  5
BFD
  8
SAPA_PROFIL
 62
     4
 10
5.9051223666997421
 20
36.009999997523103
 30
0.0
  0
VERTEX
  5
BFE
  8
SAPA_PROFIL
 62
     4
 10
2.505122366699652
 20
36.009999997602897
 30
0.0
 42
-0.4142135623733655
  0
VERTEX
  5
BFF
  8
SAPA_PROFIL
 62
     4
 10
2.105122366708656
 20
36.409999997612537
 30
0.0
  0
VERTEX
  5
C00
  8
SAPA_PROFIL
 62
     4
 10
2.1051223667177501
 20
36.759999997612233
 30
0.0
  0
VERTEX
  5
C01
  8
SAPA_PROFIL
 62
     4
 10
2.8971232611861519
 20
38.141136871029289
 30
0.0
  0
VERTEX
  5
C02
  8
SAPA_PROFIL
 62
     4
 10
3.1642377893986122
 20
38.141136871029289
 30
0.0
 42
0.5773502691891445
  0
VERTEX
  5
C03
  8
SAPA_PROFIL
 62
     4
 10
3.3461031241936321
 20
38.456136871028889
 30
0.0
  0
VERTEX
  5
C04
  8
SAPA_PROFIL
 62
     4
 10
3.2074333670871051
 20
38.696319935811182
 30
0.0
 42
0.3951183166278546
  0
VERTEX
  5
C05
  8
SAPA_PROFIL
 62
     4
 10
3.0297228252047712
 20
39.065932406901879
 30
0.0
  0
SEQEND
  5
C06
  8
SAPA_PROFIL
 62
     4
  0
POLYLINE
  5
63E
  8
SAPA_PROFIL
 62
     4
 66
     1
 10
0.0
 20
0.0
 30
0.0
 70
     1
  0
VERTEX
  5
C07
  8
SAPA_PROFIL
 62
     4
 10
29.439539670443079
 20
40.023789213031357
 30
0.0
  0
VERTEX
  5
C08
  8
SAPA_PROFIL
 62
     4
 10
26.97027717479477
 20
39.065932406902327
 30
0.0
 42
0.3951183166278715
  0
VERTEX
  5
C09
  8
SAPA_PROFIL
 62
     4
 10
26.79256663291244
 20
38.69631993581163
 30
0.0
  0
VERTEX
  5
C0A
  8
SAPA_PROFIL
 62
     4
 10
26.653896875805909
 20
38.456136871029351
 30
0.0
 42
0.5773502691893923
  0
VERTEX
  5
C0B
  8
SAPA_PROFIL
 62
     4
 10
26.835762210600929
 20
38.141136871029524
 30
0.0
  0
VERTEX
  5
C0C
  8
SAPA_PROFIL
 62
     4
 10
27.102876738813389
 20
38.141136871029524
 30
0.0
  0
VERTEX
  5
C0D
  8
SAPA_PROFIL
 62
     4
 10
27.894877633282249
 20
36.759999997612681
 30
0.0
  0
VERTEX
  5
C0E
  8
SAPA_PROFIL
 62
     4
 10
27.894877633290442
 20
36.409999997612999
 30
0.0
 42
-0.4142135623733657
  0
VERTEX
  5
C0F
  8
SAPA_PROFIL
 62
     4
 10
27.4948776332999
 20
36.009999997603131
 30
0.0
  0
VERTEX
  5
C10
  8
SAPA_PROFIL
 62
     4
 10
24.094877633299799
 20
36.009999997523323
 30
0.0
 42
-0.4142135623732407
  0
VERTEX
  5
C11
  8
SAPA_PROFIL
 62
     4
 10
23.69487763329062
 20
36.409999997514092
 30
0.0
  0
VERTEX
  5
C12
  8
SAPA_PROFIL
 62
     4
 10
23.70401355457625
 20
36.754777949045661
 30
0.0
  0
VERTEX
  5
C13
  8
SAPA_PROFIL
 62
     4
 10
24.642717689546771
 20
38.397031395624367
 30
0.0
 42
0.1246505592468612
  0
VERTEX
  5
C14
  8
SAPA_PROFIL
 62
     4
 10
24.79487763322868
 20
39.031740221512003
 30
0.0
  0
VERTEX
  5
C15
  8
SAPA_PROFIL
 62
     4
 10
24.79487763321368
 20
39.682583997539837
 30
0.0
 42
-0.3095428336485416
  0
VERTEX
  5
C16
  8
SAPA_PROFIL
 62
     4
 10
25.43322285698105
 20
40.614896082022248
 30
0.0
  0
VERTEX
  5
C17
  8
SAPA_PROFIL
 62
     4
 10
27.63953954365525
 20
41.470752163819611
 30
0.0
 42
0.3095428336420965
  0
VERTEX
  5
C18
  8
SAPA_PROFIL
 62
     4
 10
27.894877633162199
 20
41.843676997602977
 30
0.0
  0
VERTEX
  5
C19
  8
SAPA_PROFIL
 62
     4
 10
27.894877633162199
 20
50.999999997568352
 30
0.0
  0
VERTEX
  5
C1A
  8
SAPA_PROFIL
 62
     4
 10
27.894877633162199
 20
60.156322997533721
 30
0.0
 42
0.3095428336420966
  0
VERTEX
  5
C1B
  8
SAPA_PROFIL
 62
     4
 10
27.63953954365525
 20
60.529247831317093
 30
0.0
  0
VERTEX
  5
C1C
  8
SAPA_PROFIL
 62
     4
 10
25.43322285698105
 20
61.385103913114222
 30
0.0
 42
-0.309542833648536
  0
VERTEX
  5
C1D
  8
SAPA_PROFIL
 62
     4
 10
24.79487763321368
 20
62.31741599759664
 30
0.0
  0
VERTEX
  5
C1E
  8
SAPA_PROFIL
 62
     4
 10
24.79487763322868
 20
62.968259773624482
 30
0.0
 42
0.1246505592468612
  0
VERTEX
  5
C1F
  8
SAPA_PROFIL
 62
     4
 10
24.642717689546771
 20
63.60296859951211
 30
0.0
  0
VERTEX
  5
C20
  8
SAPA_PROFIL
 62
     4
 10
23.70401355457625
 20
65.245222046090817
 30
0.0
  0
VERTEX
  5
C21
  8
SAPA_PROFIL
 62
     4
 10
23.69487763329062
 20
65.589999997622385
 30
0.0
 42
-0.4142135623732407
  0
VERTEX
  5
C22
  8
SAPA_PROFIL
 62
     4
 10
24.094877633299799
 20
65.989999997613154
 30
0.0
  0
VERTEX
  5
C23
  8
SAPA_PROFIL
 62
     4
 10
27.4948776332999
 20
65.989999997533346
 30
0.0
 42
-0.4142135623733657
  0
VERTEX
  5
C24
  8
SAPA_PROFIL
 62
     4
 10
27.894877633290442
 20
65.589999997523705
 30
0.0
  0
VERTEX
  5
C25
  8
SAPA_PROFIL
 62
     4
 10
27.894877633282249
 20
65.239999997524023
 30
0.0
  0
VERTEX
  5
C26
  8
SAPA_PROFIL
 62
     4
 10
27.102876738813389
 20
63.858863124106961
 30
0.0
  0
VERTEX
  5
C27
  8
SAPA_PROFIL
 62
     4
 10
26.835762210600929
 20
63.858863124106961
 30
0.0
 42
0.5773502691895012
  0
VERTEX
  5
C28
  8
SAPA_PROFIL
 62
     4
 10
26.653896875805909
 20
63.543863124107141
 30
0.0
  0
VERTEX
  5
C29
  8
SAPA_PROFIL
 62
     4
 10
26.79256663291244
 20
63.303680059325067
 30
0.0
 42
0.3951183166278822
  0
VERTEX
  5
C2A
  8
SAPA_PROFIL
 62
     4
 10
26.97027717479477
 20
62.93406758823437
 30
0.0
  0
VERTEX
  5
C2B
  8
SAPA_PROFIL
 62
     4
 10
29.439539670443079
 20
61.976210782105341
 30
0.0
 42
-0.309542740527736
  0
VERTEX
  5
C2C
  8
SAPA_PROFIL
 62
     4
 10
29.69487763319648
 20
61.603285997491071
 30
0.0
  0
VERTEX
  5
C2D
  8
SAPA_PROFIL
 62
     4
 10
29.69487763319648
 20
50.999999997573347
 30
0.0
  0
VERTEX
  5
C2E
  8
SAPA_PROFIL
 62
     4
 10
29.69487763319648
 20
40.396713997645399
 30
0.0
 42
-0.3095427405276612
  0
SEQEND
  5
C2F
  8
SAPA_PROFIL
 62
     4
  0
POLYLINE
  5
63F
  8
SAPA_PROFIL
 66
     1
 10
0.0
 20
0.0
 30
0.0
 70
     1
  0
VERTEX
  5
C30
  8
SAPA_PROFIL
 10
-0.0000000000004547
 20
14.00000000071816
 30
0.0
  0
VERTEX
  5
C31
  8
SAPA_PROFIL
 10
-21.499999999967262
 20
14.000000000701331
 30
0.0
 42
-0.4142135623565294
  0
VERTEX
  5
C32
  8
SAPA_PROFIL
 10
-21.999999999967709
 20
14.50000000067268
 30
0.0
  0
VERTEX
  5
C33
  8
SAPA_PROFIL
 10
-22.000000000179629
 20
18.200000000684319
 30
0.0
 42
-0.4142135623897996
  0
VERTEX
  5
C34
  8
SAPA_PROFIL
 10
-21.70000000017944
 20
18.500000000701331
 30
0.0
  0
VERTEX
  5
C35
  8
SAPA_PROFIL
 10
-20.932455532152741
 20
18.500000000701331
 30
0.0
 42
-0.2896898632853548
  0
VERTEX
  5
C36
  8
SAPA_PROFIL
 10
-20.028947629275081
 20
17.928571429330869
 30
0.0
 42
-0.5507604245882519
  0
VERTEX
  5
C37
  8
SAPA_PROFIL
 10
-20.30000000012069
 20
17.50000000074203
 30
0.0
  0
VERTEX
  5
C38
  8
SAPA_PROFIL
 10
-20.500000000143249
 20
17.500000000730431
 30
0.0
 42
0.4142135623677535
  0
VERTEX
  5
C39
  8
SAPA_PROFIL
 10
-20.80000000012615
 20
17.20000000071866
 30
0.0
  0
VERTEX
  5
C3A
  8
SAPA_PROFIL
 10
-20.80000000006612
 20
15.69999999953904
 30
0.0
 42
0.4142135623614654
  0
VERTEX
  5
C3B
  8
SAPA_PROFIL
 10
-20.300000000056119
 20
15.199999999548369
 30
0.0
  0
VERTEX
  5
C3C
  8
SAPA_PROFIL
 10
-17.00000000006548
 20
15.199999999548369
 30
0.0
 42
0.4142135623847744
  0
VERTEX
  5
C3D
  8
SAPA_PROFIL
 10
-16.50000000006548
 20
15.699999999568369
 30
0.0
  0
VERTEX
  5
C3E
  8
SAPA_PROFIL
 10
-16.500000000125048
 20
17.200000000957861
 30
0.0
 42
0.4142135623787421
  0
VERTEX
  5
C3F
  8
SAPA_PROFIL
 10
-16.800000000142521
 20
17.500000000945761
 30
0.0
  0
VERTEX
  5
C40
  8
SAPA_PROFIL
 10
-17.00000000012005
 20
17.50000000093393
 30
0.0
 42
-0.5507604245845086
  0
VERTEX
  5
C41
  8
SAPA_PROFIL
 10
-17.271052371017959
 20
17.928571429488208
 30
0.0
 42
-0.289689863320267
  0
VERTEX
  5
C42
  8
SAPA_PROFIL
 10
-16.367544468084809
 20
18.500000000975088
 30
0.0
  0
VERTEX
  5
C43
  8
SAPA_PROFIL
 10
-15.3700726560196
 20
18.500000000975088
 30
0.0
 42
-0.0436609429084833
  0
VERTEX
  5
C44
  8
SAPA_PROFIL
 10
-15.28324856718654
 20
18.492403877481252
 30
0.0
  0
VERTEX
  5
C45
  8
SAPA_PROFIL
 10
-13.71317591120259
 20
18.215557706558801
 30
0.0
 42
-0.8390996311773337
  0
VERTEX
  5
C46
  8
SAPA_PROFIL
 10
-13.71317591120259
 20
17.230749953546479
 30
0.0
  0
VERTEX
  5
C47
  8
SAPA_PROFIL
 10
-14.886824088869609
 20
17.023804113964498
 30
0.0
 42
0.3639702342662515
  0
VERTEX
  5
C48
  8
SAPA_PROFIL
 10
-15.3000000000361
 20
16.531400237458339
 30
0.0
  0
VERTEX
  5
C49
  8
SAPA_PROFIL
 10
-15.3000000000361
 20
15.699999999548369
 30
0.0
 42
0.437328258627285
  0
VERTEX
  5
C4A
  8
SAPA_PROFIL
 10
-14.76090554271377
 20
15.20153071924449
 30
0.0
  0
VERTEX
  5
C4B
  8
SAPA_PROFIL
 10
-0.2878467213236035
 20
15.788329482267381
 30
0.0
 42
0.4023941304320373
  0
VERTEX
  5
C4C
  8
SAPA_PROFIL
 10
-0.0000000000004547
 20
16.0880832108802
 30
0.0
  0
VERTEX
  5
C4D
  8
SAPA_PROFIL
 10
-0.0000000000004547
 20
16.88861642924542
 30
0.0
 42
-0.2596812337301571
  0
VERTEX
  5
C4E
  8
SAPA_PROFIL
 10
0.0946931952480554
 20
17.05864724078549
 30
0.0
  0
VERTEX
  5
C4F
  8
SAPA_PROFIL
 10
1.542039792871946
 20
17.95504621802786
 30
0.0
 42
-0.5877032589248628
  0
VERTEX
  5
C50
  8
SAPA_PROFIL
 10
1.999999999999545
 20
17.70000000071775
 30
0.0
  0
VERTEX
  5
C51
  8
SAPA_PROFIL
 10
1.999999999999545
 20
16.30000000071766
 30
0.0
 42
0.4142135623730951
  0
VERTEX
  5
C52
  8
SAPA_PROFIL
 10
2.2999999999997272
 20
16.000000000717701
 30
0.0
  0
VERTEX
  5
C53
  8
SAPA_PROFIL
 10
4.6999999999998181
 20
16.000000000717701
 30
0.0
 42
0.4142135623730397
  0
VERTEX
  5
C54
  8
SAPA_PROFIL
 10
4.9999999999995453
 20
16.30000000071766
 30
0.0
  0
VERTEX
  5
C55
  8
SAPA_PROFIL
 10
4.9999999999995453
 20
25.900000000717569
 30
0.0
 42
0.4142135623731437
  0
VERTEX
  5
C56
  8
SAPA_PROFIL
 10
4.6999999999998181
 20
26.20000000071775
 30
0.0
  0
VERTEX
  5
C57
  8
SAPA_PROFIL
 10
0.2999999999997271
 20
26.20000000071775
 30
0.0
 42
-0.4142135623730119
  0
VERTEX
  5
C58
  8
SAPA_PROFIL
 10
-0.0000000000004547
 20
26.500000000717701
 30
0.0
  0
VERTEX
  5
C59
  8
SAPA_PROFIL
 10
-0.0000000000004547
 20
27.984088066070971
 30
0.0
 42
-0.2596812337301531
  0
VERTEX
  5
C5A
  8
SAPA_PROFIL
 10
0.0946931952480554
 20
28.15411887761104
 30
0.0
  0
VERTEX
  5
C5B
  8
SAPA_PROFIL
 10
0.7420397928722196
 20
28.55504622216279
 30
0.0
 42
-0.5877032589250223
  0
VERTEX
  5
C5C
  8
SAPA_PROFIL
 10
1.1999999999998181
 20
28.300000004852681
 30
0.0
  0
VERTEX
  5
C5D
  8
SAPA_PROFIL
 10
1.1999999999998181
 20
27.900000000717569
 30
0.0
 42
0.4142135623731229
  0
VERTEX
  5
C5E
  8
SAPA_PROFIL
 10
1.499999999999545
 20
27.600000000717611
 30
0.0
  0
VERTEX
  5
C5F
  8
SAPA_PROFIL
 10
4.6999999999998181
 20
27.600000000717611
 30
0.0
 42
0.4142135623730744
  0
VERTEX
  5
C60
  8
SAPA_PROFIL
 10
4.9999999999995453
 20
27.9000000007178
 30
0.0
  0
VERTEX
  5
C61
  8
SAPA_PROFIL
 10
4.9999999999995453
 20
33.73417878710768
 30
0.0
 42
0.4683749459848296
  0
VERTEX
  5
C62
  8
SAPA_PROFIL
 10
4.6999999999998181
 20
34.000000000717698
 30
0.0
  0
VERTEX
  5
C63
  8
SAPA_PROFIL
 10
2.2999999999997272
 20
34.000000000717698
 30
0.0
 42
0.4683749459842226
  0
VERTEX
  5
C64
  8
SAPA_PROFIL
 10
1.999999999999545
 20
33.734178787108142
 30
0.0
  0
VERTEX
  5
C65
  8
SAPA_PROFIL
 10
1.999999999999545
 20
32.30000000071766
 30
0.0
 42
-0.5877032589248341
  0
VERTEX
  5
C66
  8
SAPA_PROFIL
 10
1.542039792871946
 20
32.044953783407777
 30
0.0
  0
VERTEX
  5
C67
  8
SAPA_PROFIL
 10
0.2946931952478735
 20
32.817484852477151
 30
0.0
 42
-0.2596812337301256
  0
VERTEX
  5
C68
  8
SAPA_PROFIL
 10
0.1999999999998181
 20
32.987515664017231
 30
0.0
  0
VERTEX
  5
C69
  8
SAPA_PROFIL
 10
0.1999999999998181
 20
35.999999997525613
 30
0.0
  0
VERTEX
  5
C6A
  8
SAPA_PROFIL
 10
0.6947262543671969
 20
37.282085913054857
 30
0.0
 42
0.4580511809929225
  0
VERTEX
  5
C6B
  8
SAPA_PROFIL
 10
0.5106585387143241
 20
37.697466295603697
 30
0.0
  0
VERTEX
  5
C6C
  8
SAPA_PROFIL
 10
0.4628127887158371
 20
37.711984704851027
 30
0.0
  0
VERTEX
  5
C6D
  8
SAPA_PROFIL
 10
0.4627291109281942
 20
39.216342519661907
 30
0.0
 42
-0.4757248385987927
  0
VERTEX
  5
C6E
  8
SAPA_PROFIL
 10
0.8343860557783955
 20
39.517338610119509
 30
0.0
  0
VERTEX
  5
C6F
  8
SAPA_PROFIL
 10
2.6476165264361948
 20
39.135892013991793
 30
0.0
 42
-0.2350054070139662
  0
VERTEX
  5
C70
  8
SAPA_PROFIL
 10
3.2066654433192521
 20
38.693911221269559
 30
0.0
 42
0.0011882050612086
  0
VERTEX
  5
C71
  8
SAPA_PROFIL
 10
3.207101034859988
 20
38.695268898952349
 30
0.0
  0
VERTEX
  5
C72
  8
SAPA_PROFIL
 10
3.3406302690218581
 20
38.445400825605361
 30
0.0
 42
-0.5773502691894064
  0
VERTEX
  5
C73
  8
SAPA_PROFIL
 10
3.157676528911451
 20
38.15124452535099
 30
0.0
  0
VERTEX
  5
C74
  8
SAPA_PROFIL
 10
2.8359188006934342
 20
38.161805891577501
 30
0.0
  0
VERTEX
  5
C75
  8
SAPA_PROFIL
 10
1.7513543537220351
 20
36.275962199716453
 30
0.0
  0
VERTEX
  5
C76
  8
SAPA_PROFIL
 10
1.6992976536598681
 20
36.10440815309255
 30
0.0
 42
0.8292414158586378
  0
VERTEX
  5
C77
  8
SAPA_PROFIL
 10
2.0312932866791011
 20
35.908274864561122
 30
0.0
 42
-0.2036002236713389
  0
VERTEX
  5
C78
  8
SAPA_PROFIL
 10
2.247213595499943
 20
35.999999997525379
 30
0.0
  0
VERTEX
  5
C79
  8
SAPA_PROFIL
 10
6.0999999999994543
 20
35.999999997525379
 30
0.0
 42
0.41421356237306
  0
VERTEX
  5
C7A
  8
SAPA_PROFIL
 10
6.3999999999996362
 20
36.299999997525333
 30
0.0
  0
VERTEX
  5
C7B
  8
SAPA_PROFIL
 10
6.3999999999996362
 20
36.599999997525522
 30
0.0
  0
VERTEX
  5
C7C
  8
SAPA_PROFIL
 10
5.4762395692964674
 20
38.199999997525431
 30
0.0
 42
-0.5773502691895401
  0
VERTEX
  5
C7D
  8
SAPA_PROFIL
 10
5.6494446500532831
 20
38.499999997525379
 30
0.0
  0
VERTEX
  5
C7E
  8
SAPA_PROFIL
 10
7.0350852961082628
 20
38.499999997525379
 30
0.0
 42
-0.2679491924311281
  0
VERTEX
  5
C7F
  8
SAPA_PROFIL
 10
7.9011106998927971
 20
37.999999997525379
 30
0.0
  0
VERTEX
  5
C80
  8
SAPA_PROFIL
 10
8.9114736709748286
 20
36.249999997525151
 30
0.0
 42
0.26794919243099
  0
VERTEX
  5
C81
  8
SAPA_PROFIL
 10
9.3444863728668661
 20
35.999999997525613
 30
0.0
  0
VERTEX
  5
C82
  8
SAPA_PROFIL
 10
20.655513627132219
 20
35.999999997525613
 30
0.0
 42
0.2679491924310374
  0
VERTEX
  5
C83
  8
SAPA_PROFIL
 10
21.088526329024258
 20
36.249999997525379
 30
0.0
  0
VERTEX
  5
C84
  8
SAPA_PROFIL
 10
22.098889300106752
 20
37.999999997525833
 30
0.0
 42
-0.267949192431151
  0
VERTEX
  5
C85
  8
SAPA_PROFIL
 10
22.964914703891282
 20
38.499999997525833
 30
0.0
  0
VERTEX
  5
C86
  8
SAPA_PROFIL
 10
24.35055534994672
 20
38.499999997525613
 30
0.0
 42
-0.5773502691897736
  0
VERTEX
  5
C87
  8
SAPA_PROFIL
 10
24.52376043070354
 20
38.199999997525651
 30
0.0
  0
VERTEX
  5
C88
  8
SAPA_PROFIL
 10
23.599999999999909
 20
36.599999997525742
 30
0.0
  0
VERTEX
  5
C89
  8
SAPA_PROFIL
 10
23.599999999999909
 20
36.299999997525788
 30
0.0
 42
0.4142135623731708
  0
VERTEX
  5
C8A
  8
SAPA_PROFIL
 10
23.900000000000091
 20
35.999999997525613
 30
0.0
  0
VERTEX
  5
C8B
  8
SAPA_PROFIL
 10
27.752786404500061
 20
35.999999997525613
 30
0.0
 42
-0.2036002236725054
  0
VERTEX
  5
C8C
  8
SAPA_PROFIL
 10
27.96870671332135
 20
35.908274864560667
 30
0.0
 42
0.8292414158560874
  0
VERTEX
  5
C8D
  8
SAPA_PROFIL
 10
28.30070234633968
 20
36.104408153093459
 30
0.0
  0
VERTEX
  5
C8E
  8
SAPA_PROFIL
 10
28.248645646277971
 20
36.275962199716901
 30
0.0
  0
VERTEX
  5
C8F
  8
SAPA_PROFIL
 10
27.164081199306111
 20
38.161805891577949
 30
0.0
  0
VERTEX
  5
C90
  8
SAPA_PROFIL
 10
26.84232347108809
 20
38.151244525351217
 30
0.0
 42
-0.5773502691895062
  0
VERTEX
  5
C91
  8
SAPA_PROFIL
 10
26.659369730977691
 20
38.445400825605823
 30
0.0
  0
VERTEX
  5
C92
  8
SAPA_PROFIL
 10
26.81150364208634
 20
38.730083108837221
 30
0.0
 42
-0.2216946626431207
  0
VERTEX
  5
C93
  8
SAPA_PROFIL
 10
27.35238347356335
 20
39.135892013992247
 30
0.0
  0
VERTEX
  5
C94
  8
SAPA_PROFIL
 10
29.165613944221601
 20
39.517338610119971
 30
0.0
 42
-0.4757248385934992
  0
VERTEX
  5
C95
  8
SAPA_PROFIL
 10
29.537270889071351
 20
39.216342519667592
 30
0.0
  0
VERTEX
  5
C96
  8
SAPA_PROFIL
 10
29.537187211283712
 20
37.711984704851488
 30
0.0
  0
VERTEX
  5
C97
  8
SAPA_PROFIL
 10
29.489341461285221
 20
37.697466295604158
 30
0.0
 42
0.4580511809929313
  0
VERTEX
  5
C98
  8
SAPA_PROFIL
 10
29.305273745632348
 20
37.282085913055077
 30
0.0
  0
VERTEX
  5
C99
  8
SAPA_PROFIL
 10
29.799999999999731
 20
35.999999997526288
 30
0.0
  0
VERTEX
  5
C9A
  8
SAPA_PROFIL
 10
29.799999999999731
 20
32.987515664017451
 30
0.0
 42
-0.2596812337301257
  0
VERTEX
  5
C9B
  8
SAPA_PROFIL
 10
29.705306804751221
 20
32.817484852477378
 30
0.0
  0
VERTEX
  5
C9C
  8
SAPA_PROFIL
 10
28.457960207127599
 20
32.044953783408012
 30
0.0
 42
-0.5877032589249777
  0
VERTEX
  5
C9D
  8
SAPA_PROFIL
 10
27.999999999999542
 20
32.300000000718107
 30
0.0
  0
VERTEX
  5
C9E
  8
SAPA_PROFIL
 10
27.999999999999542
 20
33.734178787108362
 30
0.0
 42
0.4683749459842228
  0
VERTEX
  5
C9F
  8
SAPA_PROFIL
 10
27.699999999999822
 20
34.000000000717939
 30
0.0
  0
VERTEX
  5
CA0
  8
SAPA_PROFIL
 10
25.299999999999731
 20
34.000000000717939
 30
0.0
 42
0.4683749459847173
  0
VERTEX
  5
CA1
  8
SAPA_PROFIL
 10
24.999999999999549
 20
33.734178787108362
 30
0.0
  0
VERTEX
  5
CA2
  8
SAPA_PROFIL
 10
24.999999999999549
 20
27.90000000071803
 30
0.0
  0
VERTEX
  5
CA3
  8
SAPA_PROFIL
 10
24.999999999999549
 20
25.90000000071802
 30
0.0
  0
VERTEX
  5
CA4
  8
SAPA_PROFIL
 10
24.999999999999549
 20
16.30000000071788
 30
0.0
 42
0.4142135623730951
  0
VERTEX
  5
CA5
  8
SAPA_PROFIL
 10
25.299999999999731
 20
16.000000000717929
 30
0.0
  0
VERTEX
  5
CA6
  8
SAPA_PROFIL
 10
27.699999999999822
 20
16.000000000717929
 30
0.0
 42
0.4142135623730951
  0
VERTEX
  5
CA7
  8
SAPA_PROFIL
 10
27.999999999999542
 20
16.30000000071788
 30
0.0
  0
VERTEX
  5
CA8
  8
SAPA_PROFIL
 10
27.999999999999542
 20
17.700000000717981
 30
0.0
 42
-0.5877032589248341
  0
VERTEX
  5
CA9
  8
SAPA_PROFIL
 10
28.457960207127599
 20
17.955046218028091
 30
0.0
  0
VERTEX
  5
CAA
  8
SAPA_PROFIL
 10
29.90530680475149
 20
17.058647240785941
 30
0.0
 42
-0.2596812337300371
  0
VERTEX
  5
CAB
  8
SAPA_PROFIL
 10
29.999999999999549
 20
16.888616429245872
 30
0.0
  0
VERTEX
  5
CAC
  8
SAPA_PROFIL
 10
29.999999999999549
 20
14.19999999756817
 30
0.0
 42
-0.414213562404161
  0
VERTEX
  5
CAD
  8
SAPA_PROFIL
 10
29.799999999978809
 20
13.99999999756812
 30
0.0
  0
SEQEND
  5
CAE
  8
SAPA_PROFIL
  0
POLYLINE
  5
640
  8
SAPA_PROFIL
 66
     1
 10
0.0
 20
0.0
 30
0.0
 70
     1
  0
VERTEX
  5
CAF
  8
SAPA_PROFIL
 10
6.6999999999998181
 20
15.99999999752538
 30
0.0
 42
0.4142135624878015
  0
VERTEX
  5
CB0
  8
SAPA_PROFIL
 10
7.0000000001173239
 20
15.699999997525421
 30
0.0
  0
VERTEX
  5
CB1
  8
SAPA_PROFIL
 10
8.6000000000781256
 20
15.699999998152061
 30
0.0
 42
0.4142135622584246
  0
VERTEX
  5
CB2
  8
SAPA_PROFIL
 10
8.7999999999997272
 20
15.89999999815211
 30
0.0
  0
VERTEX
  5
CB3
  8
SAPA_PROFIL
 10
8.7999999999997272
 20
16.099999998313141
 30
0.0
 42
-0.4142135622517338
  0
VERTEX
  5
CB4
  8
SAPA_PROFIL
 10
8.9999999999167812
 20
16.299999998313179
 30
0.0
  0
VERTEX
  5
CB5
  8
SAPA_PROFIL
 10
10.59999999991669
 20
16.299999998976428
 30
0.0
 42
-0.4142135624945394
  0
VERTEX
  5
CB6
  8
SAPA_PROFIL
 10
10.79999999999972
 20
16.099999998976379
 30
0.0
  0
VERTEX
  5
CB7
  8
SAPA_PROFIL
 10
10.79999999999972
 20
15.899999997401091
 30
0.0
 42
0.4142135623731784
  0
VERTEX
  5
CB8
  8
SAPA_PROFIL
 10
10.99999999999954
 20
15.699999997401051
 30
0.0
  0
VERTEX
  5
CB9
  8
SAPA_PROFIL
 10
18.999999999999542
 20
15.69999999740128
 30
0.0
 42
0.4142135623730119
  0
VERTEX
  5
CBA
  8
SAPA_PROFIL
 10
19.199999999999822
 20
15.899999997401091
 30
0.0
  0
VERTEX
  5
CBB
  8
SAPA_PROFIL
 10
19.199999999999822
 20
16.09999999897661
 30
0.0
 42
-0.4142135624945394
  0
VERTEX
  5
CBC
  8
SAPA_PROFIL
 10
19.400000000082851
 20
16.299999998976659
 30
0.0
  0
VERTEX
  5
CBD
  8
SAPA_PROFIL
 10
21.000000000082771
 20
16.29999999831341
 30
0.0
 42
-0.4142135622515674
  0
VERTEX
  5
CBE
  8
SAPA_PROFIL
 10
21.199999999999822
 20
16.099999998313361
 30
0.0
  0
VERTEX
  5
CBF
  8
SAPA_PROFIL
 10
21.199999999999822
 20
15.89999999815211
 30
0.0
 42
0.4142135622584246
  0
VERTEX
  5
CC0
  8
SAPA_PROFIL
 10
21.39999999992142
 20
15.699999998152061
 30
0.0
  0
VERTEX
  5
CC1
  8
SAPA_PROFIL
 10
22.99999999988222
 20
15.69999999752565
 30
0.0
 42
0.4142135624878013
  0
VERTEX
  5
CC2
  8
SAPA_PROFIL
 10
23.299999999999731
 20
15.999999997525601
 30
0.0
  0
VERTEX
  5
CC3
  8
SAPA_PROFIL
 10
23.299999999999731
 20
33.999999997525613
 30
0.0
 42
0.4142135623730765
  0
VERTEX
  5
CC4
  8
SAPA_PROFIL
 10
23.0
 20
34.299999997525561
 30
0.0
  0
VERTEX
  5
CC5
  8
SAPA_PROFIL
 10
21.400000000000091
 20
34.299999997525561
 30
0.0
 42
0.4142135623731161
  0
VERTEX
  5
CC6
  8
SAPA_PROFIL
 10
21.199999999999822
 20
34.099999997525522
 30
0.0
  0
VERTEX
  5
CC7
  8
SAPA_PROFIL
 10
21.199999999999822
 20
33.89999999752547
 30
0.0
 42
-0.414213562373012
  0
VERTEX
  5
CC8
  8
SAPA_PROFIL
 10
20.999999999999549
 20
33.699999997525651
 30
0.0
  0
VERTEX
  5
CC9
  8
SAPA_PROFIL
 10
19.399999999999629
 20
33.699999997525651
 30
0.0
 42
-0.4142135623729909
  0
VERTEX
  5
CCA
  8
SAPA_PROFIL
 10
19.199999999999822
 20
33.89999999752547
 30
0.0
  0
VERTEX
  5
CCB
  8
SAPA_PROFIL
 10
19.199999999999822
 20
34.099999997525742
 30
0.0
 42
0.4142135623730743
  0
VERTEX
  5
CCC
  8
SAPA_PROFIL
 10
18.999999999999542
 20
34.299999997525561
 30
0.0
  0
VERTEX
  5
CCD
  8
SAPA_PROFIL
 10
10.99999999999954
 20
34.299999997525561
 30
0.0
 42
0.4142135623730743
  0
VERTEX
  5
CCE
  8
SAPA_PROFIL
 10
10.79999999999972
 20
34.099999997525742
 30
0.0
  0
VERTEX
  5
CCF
  8
SAPA_PROFIL
 10
10.79999999999972
 20
33.89999999752547
 30
0.0
 42
-0.4142135623731574
  0
VERTEX
  5
CD0
  8
SAPA_PROFIL
 10
10.599999999999911
 20
33.699999997525417
 30
0.0
  0
VERTEX
  5
CD1
  8
SAPA_PROFIL
 10
8.9999999999995453
 20
33.699999997525417
 30
0.0
 42
-0.4142135623731784
  0
VERTEX
  5
CD2
  8
SAPA_PROFIL
 10
8.7999999999997272
 20
33.89999999752547
 30
0.0
  0
VERTEX
  5
CD3
  8
SAPA_PROFIL
 10
8.7999999999997272
 20
34.099999997525522
 30
0.0
 42
0.4142135623731159
  0
VERTEX
  5
CD4
  8
SAPA_PROFIL
 10
8.5999999999999091
 20
34.299999997525561
 30
0.0
  0
VERTEX
  5
CD5
  8
SAPA_PROFIL
 10
6.9999999999995453
 20
34.29999999752534
 30
0.0
 42
0.4142135623730764
  0
VERTEX
  5
CD6
  8
SAPA_PROFIL
 10
6.6999999999998181
 20
33.999999997525379
 30
0.0
  0
SEQEND
  5
CD7
  8
SAPA_PROFIL
  0
POLYLINE
  5
641
  8
SAPA_PROFIL
 66
     1
 10
0.0
 20
0.0
 30
0.0
 70
     1
  0
VERTEX
  5
CD8
  8
SAPA_PROFIL
 10
10.99999999999954
 20
86.299999997734972
 30
0.0
 42
0.4142135623731784
  0
VERTEX
  5
CD9
  8
SAPA_PROFIL
 10
10.79999999999972
 20
86.099999997734926
 30
0.0
  0
VERTEX
  5
CDA
  8
SAPA_PROFIL
 10
10.79999999999972
 20
85.899999996159636
 30
0.0
 42
-0.4142135624945394
  0
VERTEX
  5
CDB
  8
SAPA_PROFIL
 10
10.59999999991669
 20
85.69999999615959
 30
0.0
  0
VERTEX
  5
CDC
  8
SAPA_PROFIL
 10
8.9999999999167812
 20
85.699999996822839
 30
0.0
 42
-0.4142135622517339
  0
VERTEX
  5
CDD
  8
SAPA_PROFIL
 10
8.7999999999997272
 20
85.899999996822885
 30
0.0
  0
VERTEX
  5
CDE
  8
SAPA_PROFIL
 10
8.7999999999997272
 20
86.099999996984138
 30
0.0
 42
0.4142135622584246
  0
VERTEX
  5
CDF
  8
SAPA_PROFIL
 10
8.6000000000781256
 20
86.299999996984184
 30
0.0
  0
VERTEX
  5
CE0
  8
SAPA_PROFIL
 10
7.0000000001173239
 20
86.299999997610584
 30
0.0
 42
0.4142135624878013
  0
VERTEX
  5
CE1
  8
SAPA_PROFIL
 10
6.6999999999998181
 20
85.999999997610644
 30
0.0
  0
VERTEX
  5
CE2
  8
SAPA_PROFIL
 10
6.6999999999998181
 20
67.999999997610644
 30
0.0
 42
0.4142135623730765
  0
VERTEX
  5
CE3
  8
SAPA_PROFIL
 10
6.9999999999995453
 20
67.699999997610675
 30
0.0
  0
VERTEX
  5
CE4
  8
SAPA_PROFIL
 10
8.5999999999999091
 20
67.699999997610675
 30
0.0
 42
0.4142135623731161
  0
VERTEX
  5
CE5
  8
SAPA_PROFIL
 10
8.7999999999997272
 20
67.899999997610735
 30
0.0
  0
VERTEX
  5
CE6
  8
SAPA_PROFIL
 10
8.7999999999997272
 20
68.099999997610553
 30
0.0
 42
-0.4142135623731784
  0
VERTEX
  5
CE7
  8
SAPA_PROFIL
 10
8.9999999999995453
 20
68.299999997610598
 30
0.0
  0
VERTEX
  5
CE8
  8
SAPA_PROFIL
 10
10.599999999999911
 20
68.299999997610598
 30
0.0
 42
-0.4142135623731574
  0
VERTEX
  5
CE9
  8
SAPA_PROFIL
 10
10.79999999999972
 20
68.099999997610553
 30
0.0
  0
VERTEX
  5
CEA
  8
SAPA_PROFIL
 10
10.79999999999972
 20
67.899999997610493
 30
0.0
 42
0.4142135623729078
  0
VERTEX
  5
CEB
  8
SAPA_PROFIL
 10
10.99999999999954
 20
67.699999997610675
 30
0.0
  0
VERTEX
  5
CEC
  8
SAPA_PROFIL
 10
18.999999999999542
 20
67.699999997610675
 30
0.0
 42
0.4142135623730743
  0
VERTEX
  5
CED
  8
SAPA_PROFIL
 10
19.199999999999822
 20
67.899999997610493
 30
0.0
  0
VERTEX
  5
CEE
  8
SAPA_PROFIL
 10
19.199999999999822
 20
68.09999999761078
 30
0.0
 42
-0.4142135623729909
  0
VERTEX
  5
CEF
  8
SAPA_PROFIL
 10
19.399999999999629
 20
68.299999997610826
 30
0.0
  0
VERTEX
  5
CF0
  8
SAPA_PROFIL
 10
20.999999999999549
 20
68.299999997610826
 30
0.0
 42
-0.4142135623730119
  0
VERTEX
  5
CF1
  8
SAPA_PROFIL
 10
21.199999999999822
 20
68.09999999761078
 30
0.0
  0
VERTEX
  5
CF2
  8
SAPA_PROFIL
 10
21.199999999999822
 20
67.899999997610735
 30
0.0
 42
0.4142135623731159
  0
VERTEX
  5
CF3
  8
SAPA_PROFIL
 10
21.400000000000091
 20
67.699999997610675
 30
0.0
  0
VERTEX
  5
CF4
  8
SAPA_PROFIL
 10
23.0
 20
67.699999997610917
 30
0.0
 42
0.4142135623730764
  0
VERTEX
  5
CF5
  8
SAPA_PROFIL
 10
23.299999999999731
 20
67.999999997610871
 30
0.0
  0
VERTEX
  5
CF6
  8
SAPA_PROFIL
 10
23.299999999999731
 20
85.999999997610857
 30
0.0
 42
0.4142135624878015
  0
VERTEX
  5
CF7
  8
SAPA_PROFIL
 10
22.99999999988222
 20
86.299999997610826
 30
0.0
  0
VERTEX
  5
CF8
  8
SAPA_PROFIL
 10
21.39999999992142
 20
86.299999996984184
 30
0.0
 42
0.4142135622584246
  0
VERTEX
  5
CF9
  8
SAPA_PROFIL
 10
21.199999999999822
 20
86.099999996984138
 30
0.0
  0
VERTEX
  5
CFA
  8
SAPA_PROFIL
 10
21.199999999999822
 20
85.899999996822885
 30
0.0
 42
-0.4142135622515673
  0
VERTEX
  5
CFB
  8
SAPA_PROFIL
 10
21.000000000082771
 20
85.699999996823067
 30
0.0
  0
VERTEX
  5
CFC
  8
SAPA_PROFIL
 10
19.400000000082851
 20
85.699999996159818
 30
0.0
 42
-0.4142135624945394
  0
VERTEX
  5
CFD
  8
SAPA_PROFIL
 10
19.199999999999822
 20
85.899999996159863
 30
0.0
  0
VERTEX
  5
CFE
  8
SAPA_PROFIL
 10
19.199999999999822
 20
86.099999997735154
 30
0.0
 42
0.4142135623728455
  0
VERTEX
  5
CFF
  8
SAPA_PROFIL
 10
18.999999999999542
 20
86.299999997734972
 30
0.0
  0
SEQEND
  5
D00
  8
SAPA_PROFIL
  0
POLYLINE
  5
642
  8
SAPA_PROFIL
 66
     1
 10
0.0
 20
0.0
 30
0.0
 70
     1
  0
VERTEX
  5
D01
  8
SAPA_PROFIL
 10
9.3444863728668661
 20
65.999999997610871
 30
0.0
 42
0.267949192431007
  0
VERTEX
  5
D02
  8
SAPA_PROFIL
 10
8.9114736709748286
 20
65.749999997610871
 30
0.0
  0
VERTEX
  5
D03
  8
SAPA_PROFIL
 10
7.9011106998927971
 20
63.999999997610423
 30
0.0
 42
-0.2679491924311281
  0
VERTEX
  5
D04
  8
SAPA_PROFIL
 10
7.0350852961082628
 20
63.499999997610423
 30
0.0
  0
VERTEX
  5
D05
  8
SAPA_PROFIL
 10
5.6494446500532831
 20
63.499999997610637
 30
0.0
 42
-0.57735026918954
  0
VERTEX
  5
D06
  8
SAPA_PROFIL
 10
5.4762395692964674
 20
63.799999997610598
 30
0.0
  0
VERTEX
  5
D07
  8
SAPA_PROFIL
 10
6.3999999999996362
 20
65.39999999761028
 30
0.0
  0
VERTEX
  5
D08
  8
SAPA_PROFIL
 10
6.3999999999996362
 20
65.699999997610462
 30
0.0
 42
0.41421356237306
  0
VERTEX
  5
D09
  8
SAPA_PROFIL
 10
6.0999999999994543
 20
65.999999997610644
 30
0.0
  0
VERTEX
  5
D0A
  8
SAPA_PROFIL
 10
2.247213595499943
 20
65.999999997610644
 30
0.0
 42
-0.2036002236709541
  0
VERTEX
  5
D0B
  8
SAPA_PROFIL
 10
2.0312932866795559
 20
66.091725130574446
 30
0.0
 42
0.8292414158604859
  0
VERTEX
  5
D0C
  8
SAPA_PROFIL
 10
1.6992976536598681
 20
65.895591842043004
 30
0.0
  0
VERTEX
  5
D0D
  8
SAPA_PROFIL
 10
1.7513543537215801
 20
65.724037795419122
 30
0.0
  0
VERTEX
  5
D0E
  8
SAPA_PROFIL
 10
2.8359188006934342
 20
63.838194103558301
 30
0.0
  0
VERTEX
  5
D0F
  8
SAPA_PROFIL
 10
3.157676528911451
 20
63.848755469785033
 30
0.0
 42
-0.5773502691894565
  0
VERTEX
  5
D10
  8
SAPA_PROFIL
 10
3.3406302690218581
 20
63.554599169530427
 30
0.0
  0
VERTEX
  5
D11
  8
SAPA_PROFIL
 10
3.1884963579136629
 20
63.269916886299256
 30
0.0
 42
-0.2216946626431577
  0
VERTEX
  5
D12
  8
SAPA_PROFIL
 10
2.6476165264361948
 20
62.864107981144002
 30
0.0
  0
VERTEX
  5
D13
  8
SAPA_PROFIL
 10
0.8343860557783955
 20
62.482661385016279
 30
0.0
 42
-0.4757248385987928
  0
VERTEX
  5
D14
  8
SAPA_PROFIL
 10
0.4627291109281942
 20
62.783657475474108
 30
0.0
  0
VERTEX
  5
D15
  8
SAPA_PROFIL
 10
0.4628127887158371
 20
64.288015290284761
 30
0.0
  0
VERTEX
  5
D16
  8
SAPA_PROFIL
 10
0.5106585387143241
 20
64.302533699532091
 30
0.0
 42
0.4580511809928869
  0
VERTEX
  5
D17
  8
SAPA_PROFIL
 10
0.6947262543671969
 20
64.717914082081165
 30
0.0
  0
VERTEX
  5
D18
  8
SAPA_PROFIL
 10
0.1999999999998181
 20
65.999999997610416
 30
0.0
  0
VERTEX
  5
D19
  8
SAPA_PROFIL
 10
0.1999999999998181
 20
69.012484331118799
 30
0.0
 42
-0.2596812337301257
  0
VERTEX
  5
D1A
  8
SAPA_PROFIL
 10
0.2946931952478735
 20
69.182515142658872
 30
0.0
  0
VERTEX
  5
D1B
  8
SAPA_PROFIL
 10
1.542039792871946
 20
69.955046211728472
 30
0.0
 42
-0.5877032589249617
  0
VERTEX
  5
D1C
  8
SAPA_PROFIL
 10
1.999999999999545
 20
69.699999994418363
 30
0.0
  0
VERTEX
  5
D1D
  8
SAPA_PROFIL
 10
1.999999999999545
 20
68.265821208027887
 30
0.0
 42
0.4683749459842228
  0
VERTEX
  5
D1E
  8
SAPA_PROFIL
 10
2.2999999999997272
 20
67.999999994418317
 30
0.0
  0
VERTEX
  5
D1F
  8
SAPA_PROFIL
 10
4.6999999999993634
 20
67.999999994418545
 30
0.0
 42
0.4683749459847173
  0
VERTEX
  5
D20
  8
SAPA_PROFIL
 10
4.9999999999995453
 20
68.265821208028115
 30
0.0
  0
VERTEX
  5
D21
  8
SAPA_PROFIL
 10
4.9999999999995453
 20
74.099999994418454
 30
0.0
  0
VERTEX
  5
D22
  8
SAPA_PROFIL
 10
4.9999999999995453
 20
76.099999994418454
 30
0.0
  0
VERTEX
  5
D23
  8
SAPA_PROFIL
 10
4.9999999999995453
 20
85.699999994418363
 30
0.0
 42
0.4142135623730951
  0
VERTEX
  5
D24
  8
SAPA_PROFIL
 10
4.6999999999998181
 20
85.999999994418317
 30
0.0
  0
VERTEX
  5
D25
  8
SAPA_PROFIL
 10
2.2999999999997272
 20
85.999999994418317
 30
0.0
 42
0.4142135623730951
  0
VERTEX
  5
D26
  8
SAPA_PROFIL
 10
1.999999999999545
 20
85.699999994418363
 30
0.0
  0
VERTEX
  5
D27
  8
SAPA_PROFIL
 10
1.999999999999545
 20
84.299999994418272
 30
0.0
 42
-0.5877032589248625
  0
VERTEX
  5
D28
  8
SAPA_PROFIL
 10
1.542039792871946
 20
84.04495377710839
 30
0.0
  0
VERTEX
  5
D29
  8
SAPA_PROFIL
 10
0.0946931952480554
 20
84.941352754350547
 30
0.0
 42
-0.2596812337300832
  0
VERTEX
  5
D2A
  8
SAPA_PROFIL
 10
-0.0000000000004547
 20
85.111383565890605
 30
0.0
  0
VERTEX
  5
D2B
  8
SAPA_PROFIL
 10
-0.0000000000004547
 20
87.799999997568094
 30
0.0
 42
-0.4142135623731107
  0
VERTEX
  5
D2C
  8
SAPA_PROFIL
 10
0.1999999999998181
 20
87.999999997568125
 30
0.0
  0
VERTEX
  5
D2D
  8
SAPA_PROFIL
 10
29.799999999999731
 20
87.999999997568125
 30
0.0
 42
-0.4142135623730273
  0
VERTEX
  5
D2E
  8
SAPA_PROFIL
 10
29.999999999999549
 20
87.799999997568094
 30
0.0
  0
VERTEX
  5
D2F
  8
SAPA_PROFIL
 10
29.999999999999549
 20
85.111383565890378
 30
0.0
 42
-0.2596812337302099
  0
VERTEX
  5
D30
  8
SAPA_PROFIL
 10
29.90530680475149
 20
84.941352754350305
 30
0.0
  0
VERTEX
  5
D31
  8
SAPA_PROFIL
 10
28.457960207127599
 20
84.044953777108162
 30
0.0
 42
-0.5877032589250762
  0
VERTEX
  5
D32
  8
SAPA_PROFIL
 10
27.999999999999542
 20
84.299999994418272
 30
0.0
  0
VERTEX
  5
D33
  8
SAPA_PROFIL
 10
27.999999999999542
 20
85.699999994418363
 30
0.0
 42
0.4142135623730951
  0
VERTEX
  5
D34
  8
SAPA_PROFIL
 10
27.699999999999822
 20
85.999999994418317
 30
0.0
  0
VERTEX
  5
D35
  8
SAPA_PROFIL
 10
25.299999999999731
 20
85.999999994418317
 30
0.0
 42
0.4142135623730951
  0
VERTEX
  5
D36
  8
SAPA_PROFIL
 10
24.999999999999549
 20
85.699999994418363
 30
0.0
  0
VERTEX
  5
D37
  8
SAPA_PROFIL
 10
24.999999999999549
 20
76.099999994418226
 30
0.0
  0
VERTEX
  5
D38
  8
SAPA_PROFIL
 10
24.999999999999549
 20
74.099999994418226
 30
0.0
  0
VERTEX
  5
D39
  8
SAPA_PROFIL
 10
24.999999999999549
 20
68.265821208028569
 30
0.0
 42
0.4683749459843959
  0
VERTEX
  5
D3A
  8
SAPA_PROFIL
 10
25.299999999999269
 20
67.999999994418317
 30
0.0
  0
VERTEX
  5
D3B
  8
SAPA_PROFIL
 10
27.699999999999822
 20
67.999999994418317
 30
0.0
 42
0.4683749459842226
  0
VERTEX
  5
D3C
  8
SAPA_PROFIL
 10
27.999999999999542
 20
68.265821208027887
 30
0.0
  0
VERTEX
  5
D3D
  8
SAPA_PROFIL
 10
27.999999999999542
 20
69.699999994418135
 30
0.0
 42
-0.5877032589249771
  0
VERTEX
  5
D3E
  8
SAPA_PROFIL
 10
28.457960207127599
 20
69.955046211728245
 30
0.0
  0
VERTEX
  5
D3F
  8
SAPA_PROFIL
 10
29.705306804751221
 20
69.182515142658872
 30
0.0
 42
-0.2596812337301256
  0
VERTEX
  5
D40
  8
SAPA_PROFIL
 10
29.799999999999731
 20
69.012484331118799
 30
0.0
  0
VERTEX
  5
D41
  8
SAPA_PROFIL
 10
29.799999999999731
 20
65.999999997610416
 30
0.0
  0
VERTEX
  5
D42
  8
SAPA_PROFIL
 10
29.305273745632348
 20
64.717914082081393
 30
0.0
 42
0.4580511809929225
  0
VERTEX
  5
D43
  8
SAPA_PROFIL
 10
29.489341461285221
 20
64.302533699532546
 30
0.0
  0
VERTEX
  5
D44
  8
SAPA_PROFIL
 10
29.537187211283712
 20
64.288015290284989
 30
0.0
  0
VERTEX
  5
D45
  8
SAPA_PROFIL
 10
29.537270889071351
 20
62.783657475468893
 30
0.0
 42
-0.4757248385933691
  0
VERTEX
  5
D46
  8
SAPA_PROFIL
 10
29.165613944221601
 20
62.48266138501674
 30
0.0
  0
VERTEX
  5
D47
  8
SAPA_PROFIL
 10
27.35238347356335
 20
62.86410798114423
 30
0.0
 42
-0.2350054070140314
  0
VERTEX
  5
D48
  8
SAPA_PROFIL
 10
26.793334556680289
 20
63.306088773866691
 30
0.0
 42
0.0011882050611145
  0
VERTEX
  5
D49
  8
SAPA_PROFIL
 10
26.79289896513956
 20
63.304731096184128
 30
0.0
  0
VERTEX
  5
D4A
  8
SAPA_PROFIL
 10
26.659369730977691
 20
63.554599169530661
 30
0.0
 42
-0.5773502691894562
  0
VERTEX
  5
D4B
  8
SAPA_PROFIL
 10
26.842323471087639
 20
63.84875546978526
 30
0.0
  0
VERTEX
  5
D4C
  8
SAPA_PROFIL
 10
27.164081199306111
 20
63.838194103558521
 30
0.0
  0
VERTEX
  5
D4D
  8
SAPA_PROFIL
 10
28.248645646277971
 20
65.724037795419804
 30
0.0
  0
VERTEX
  5
D4E
  8
SAPA_PROFIL
 10
28.30070234633968
 20
65.895591842043245
 30
0.0
 42
0.8292414158590609
  0
VERTEX
  5
D4F
  8
SAPA_PROFIL
 10
27.968706713320898
 20
66.091725130575114
 30
0.0
 42
-0.2036002236714843
  0
VERTEX
  5
D50
  8
SAPA_PROFIL
 10
27.752786404500061
 20
65.999999997610871
 30
0.0
  0
VERTEX
  5
D51
  8
SAPA_PROFIL
 10
23.900000000000091
 20
65.999999997610871
 30
0.0
 42
0.4142135623731708
  0
VERTEX
  5
D52
  8
SAPA_PROFIL
 10
23.599999999999909
 20
65.699999997610689
 30
0.0
  0
VERTEX
  5
D53
  8
SAPA_PROFIL
 10
23.599999999999909
 20
65.399999997610493
 30
0.0
  0
VERTEX
  5
D54
  8
SAPA_PROFIL
 10
24.52376043070354
 20
63.799999997611053
 30
0.0
 42
-0.5773502691897499
  0
VERTEX
  5
D55
  8
SAPA_PROFIL
 10
24.35055534994672
 20
63.499999997610871
 30
0.0
  0
VERTEX
  5
D56
  8
SAPA_PROFIL
 10
22.964914703891282
 20
63.499999997610637
 30
0.0
 42
-0.2679491924311548
  0
VERTEX
  5
D57
  8
SAPA_PROFIL
 10
22.098889300106752
 20
63.999999997610637
 30
0.0
  0
VERTEX
  5
D58
  8
SAPA_PROFIL
 10
21.08852632902472
 20
65.749999997610871
 30
0.0
 42
0.2679491924310984
  0
VERTEX
  5
D59
  8
SAPA_PROFIL
 10
20.655513627132219
 20
65.999999997610871
 30
0.0
  0
SEQEND
  5
D5A
  8
SAPA_PROFIL
  0
INSERT
  5
648
  8
SAPA_ISOLATOR
  6
CONTINUOUS
  2
*X46
 10
0.0
 20
0.0
 30
0.0
1001
ACAD
1000
HATCH
1002
{
1070
    19
1000
ANSI31
1040
10.0
1040
5.4977871437821371
1000
R14_HATCH_DATA
1000
648
1011
1.0
1021
-0.0
1031
-0.0
1021
0.0
1031
0.0
1011
0.0
1021
-0.0
1031
-0.0
1021
1.0
1031
0.0
1011
0.0
1021
-0.0
1031
-0.0
1021
0.0
1031
1.0
1040
0.0
1010
0.0
1020
0.0
1030
1.0
1000
ANSI31
1070
     0
1070
     0
1071
        2
1071
        1
1071
       42
1070
     2
1040
0.7051223668029678
1040
40.3967139976452
1040
0.3999999999999057
1040
1.9408388670880541
1040
3.1415926535897389
1070
     0
1070
     1
1040
0.3051223668030616
1040
40.396713997645172
1040
0.3051223668030616
1040
50.999999997562888
1070
     1
1040
0.3051223668030616
1040
50.999999997562888
1040
0.3051223668030616
1040
61.603285997490609
1070
     2
1040
0.7051223668029821
1040
61.603285997490588
1040
0.3999999999999204
1040
3.1415926535898642
1040
4.3423464400915046
1070
     0
1070
     1
1040
0.560460329556463
1040
61.976210782104879
1040
3.0297228252047712
1040
62.934067588234143
1070
     2
1040
2.9212263667649161
1040
63.213760997543417
1040
0.2999998078416662
1040
5.0824315206778161
1040
6.5875953539804177
1070
     1
1070
     1
1040
3.2074333670871051
1040
63.30368005932462
1040
3.3461031241936321
1040
63.543863124106899
1070
     2
1040
3.1642377893986691
1040
63.648863124106647
1040
0.2100000000000745
1040
5.759586531582876
1040
7.8539816339747528
1070
     1
1070
     1
1040
3.1642377893986122
1040
63.858863124106733
1040
2.8971232611861519
1040
63.858863124106733
1070
     1
1040
2.8971232611861519
1040
63.858863124106733
1040
2.1051223667177501
1040
65.239999997523569
1070
     1
1040
2.1051223667177501
1040
65.239999997523569
1040
2.105122366708656
1040
65.58999999752325
1070
     2
1040
2.5051223667089029
1040
65.589999997532871
1040
0.4000000000002473
1040
3.1415926535657408
1040
4.7123889803615606
1070
     0
1070
     1
1040
2.505122366699652
1040
65.989999997533118
1040
5.9051223666997421
1040
65.989999997612927
1070
     2
1040
5.9051223667090511
1040
65.589999997613035
1040
0.3999999999998778
1040
4.7123889803614194
1040
6.2831853071568133
1070
     0
1070
     1
1040
6.305122366708928
1040
65.589999997622158
1040
6.2959864454237504
1040
65.245222046091044
1070
     1
1040
6.2959864454237504
1040
65.245222046091044
1040
5.3572823104536829
1040
63.602968599513019
1070
     2
1040
6.5343994262088714
1040
62.985182885640747
1040
1.329384779688892
1040
2.6582793702821581
1040
3.1543230303657399
1070
     1
1070
     1
1040
5.2051223667708646
1040
62.96825977362402
1040
5.205122366786326
1040
62.317415997596193
1070
     2
1040
4.2051223667862727
1040
62.317415997573121
1040
1.0000000000000531
1040
6.283185307156522
1040
7.483939433571976
1070
     0
1070
     1
1040
4.5667771430184976
1040
61.385103913113987
1040
2.360460456344299
1040
60.529247831316859
1070
     2
1040
2.5051223668373939
1040
60.156322997533749
1040
0.3999999999995902
1040
1.9408385271983699
1040
3.1415926535904499
1070
     1
1070
     1
1040
2.1051223668378038
1040
60.156322997533493
1040
2.1051223668368939
1040
50.99999999756789
1070
     1
1040
2.1051223668368939
1040
50.99999999756789
1040
2.1051223668378038
1040
41.843676997602529
1070
     2
1040
2.5051223668374858
1040
41.843676997602103
1040
0.3999999999996824
1040
3.1415926535887269
1040
4.3423467799810576
1070
     1
1070
     1
1040
2.360460456344299
1040
41.470752163818922
1040
2.360459615183117
1040
41.470752490117647
1070
     1
1040
2.360459615183117
1040
41.470752490117647
1040
2.3604604345791809
1040
41.470752172261989
1070
     1
1040
2.3604604345791809
1040
41.470752172261989
1040
4.5667771430184976
1040
40.614896082022028
1070
     2
1040
4.205122366786191
1040
39.682583997562851
1040
1.0000000000001339
1040
5.0824311807872498
1040
6.2831853072028201
1070
     0
1070
     1
1040
5.205122366786326
1040
39.682583997539609
1040
5.2051223667708646
1040
39.031740221511768
1070
     2
1040
6.534399426208874
1040
39.01481710949421
1040
1.3293847796889049
1040
3.1288622768132091
1040
3.6249059368967038
1070
     1
1070
     1
1040
5.357282310453229
1040
38.397031395622783
1040
6.2959864454237504
1040
36.754777949044978
1070
     1
1040
6.2959864454237504
1040
36.754777949044978
1040
6.305122366708928
1040
36.409999997513857
1070
     2
1040
5.9051223667090511
1040
36.409999997522981
1040
0.3999999999998778
1040
0.0000000000227729
1040
1.5707963268181659
1070
     0
1070
     1
1040
5.9051223666997421
1040
36.009999997523103
1040
2.505122366699652
1040
36.009999997602897
1070
     2
1040
2.5051223667087892
1040
36.409999997603038
1040
0.4000000000001336
1040
1.5707963268177401
1040
3.1415926536135599
1070
     0
1070
     1
1040
2.105122366708656
1040
36.409999997612537
1040
2.1051223667177501
1040
36.759999997612233
1070
     1
1040
2.1051223667177501
1040
36.759999997612233
1040
2.8971232611861519
1040
38.141136871029289
1070
     1
1040
2.8971232611861519
1040
38.141136871029289
1040
3.1642377893986122
1040
38.141136871029289
1070
     2
1040
3.1642377893987179
1040
38.351136871029247
1040
0.2099999999999689
1040
4.7123889803841816
1040
6.8067840827759296
1070
     1
1070
     1
1040
3.3461031241936321
1040
38.456136871028889
1040
3.2074333670871051
1040
38.696319935811182
1070
     2
1040
2.9212263667647949
1040
38.786238997592491
1040
0.2999998078418169
1040
5.9787752603785123
1040
7.4839390936811174
1070
     1
1070
     1
1040
3.0297228252047712
1040
39.065932406901879
1040
0.560460329556463
1040
40.023789213030902
1071
        0
1071
        1
1071
       40
1070
     2
1040
27.078773633234739
1040
38.786238997592953
1040
0.2999998078418087
1040
1.9408388670882331
1040
3.446002700390888
1070
     1
1070
     1
1040
26.79256663291244
1040
38.69631993581163
1040
26.653896875805909
1040
38.456136871029351
1070
     2
1040
26.835762210600809
1040
38.351136871029553
1040
0.2100000000000386
1040
2.6179938779927698
1040
4.7123889803852652
1070
     1
1070
     1
1040
26.835762210600929
1040
38.141136871029524
1040
27.102876738813389
1040
38.141136871029524
1070
     1
1040
27.102876738813389
1040
38.141136871029524
1040
27.894877633282249
1040
36.759999997612681
1070
     1
1040
27.894877633282249
1040
36.759999997612681
1040
27.894877633290442
1040
36.409999997612999
1070
     2
1040
27.494877633290411
1040
36.409999997603151
1040
0.4000000000000199
1040
6.283185307154965
1040
7.8539816339507862
1070
     0
1070
     1
1040
27.4948776332999
1040
36.009999997603131
1040
24.094877633299799
1040
36.009999997523323
1070
     2
1040
24.094877633290501
1040
36.409999997523201
1040
0.3999999999998778
1040
1.5707963267716261
1040
3.1415926535670202
1070
     0
1070
     1
1040
23.69487763329062
1040
36.409999997514092
1040
23.70401355457625
1040
36.754777949045661
1070
     1
1040
23.70401355457625
1040
36.754777949045661
1040
24.642717689546771
1040
38.397031395624367
1070
     2
1040
23.465600573790532
1040
39.014817109494949
1040
1.329384779689037
1040
5.7998720238734451
1040
6.2959156839557782
1070
     1
1070
     1
1040
24.79487763322868
1040
39.031740221512003
1040
24.79487763321368
1040
39.682583997539837
1070
     2
1040
25.79487763321362
1040
39.682583997563391
1040
0.9999999999999431
1040
3.1415926535662488
1040
4.3423467799817708
1070
     0
1070
     1
1040
25.43322285698105
1040
40.614896082022248
1040
27.63953954365525
1040
41.470752163819611
1070
     2
1040
27.49487763316235
1040
41.843676997603069
1040
0.3999999999998415
1040
5.0824311807873759
1040
6.2831853071793731
1070
     1
1070
     1
1040
27.894877633162199
1040
41.843676997602977
1040
27.894877633162199
1040
50.999999997568352
1070
     1
1040
27.894877633162199
1040
50.999999997568352
1040
27.894877633162199
1040
60.156322997533721
1070
     2
1040
27.49487763316235
1040
60.156322997533628
1040
0.3999999999998422
1040
0.0000000000002132
1040
1.200754126392209
1070
     1
1070
     1
1040
27.63953954365525
1040
60.529247831317093
1040
25.43322285698105
1040
61.385103913114222
1070
     2
1040
25.79487763321363
1040
62.3174159975731
1040
0.9999999999999563
1040
1.9408385271978239
1040
3.1415926536133258
1070
     0
1070
     1
1040
24.79487763321368
1040
62.31741599759664
1040
24.79487763322868
1040
62.968259773624482
1070
     2
1040
23.465600573790532
1040
62.985182885641528
1040
1.329384779689037
1040
6.2704549304033943
1040
6.7664985904857273
1070
     1
1070
     1
1040
24.642717689546771
1040
63.60296859951211
1040
23.70401355457625
1040
65.245222046090817
1070
     1
1040
23.70401355457625
1040
65.245222046090817
1040
23.69487763329062
1040
65.589999997622385
1070
     2
1040
24.094877633290501
1040
65.589999997613276
1040
0.3999999999998778
1040
3.141592653612566
1040
4.7123889804079591
1070
     0
1070
     1
1040
24.094877633299799
1040
65.989999997613154
1040
27.4948776332999
1040
65.989999997533346
1070
     2
1040
27.494877633290528
1040
65.58999999753344
1040
0.3999999999999062
1040
4.7123889804081021
1040
6.2831853072039223
1070
     0
1070
     1
1040
27.894877633290442
1040
65.589999997523705
1040
27.894877633282249
1040
65.239999997524023
1070
     1
1040
27.894877633282249
1040
65.239999997524023
1040
27.102876738813389
1040
63.858863124106961
1070
     1
1040
27.102876738813389
1040
63.858863124106961
1040
26.835762210600929
1040
63.858863124106961
1070
     2
1040
26.83576221060078
1040
63.648863124106938
1040
0.2100000000000222
1040
1.570796326794152
1040
3.665191429186974
1070
     1
1070
     1
1040
26.653896875805909
1040
63.543863124107141
1040
26.79256663291244
1040
63.303680059325067
1070
     2
1040
27.078773633234729
1040
63.213760997543751
1040
0.2999998078418021
1040
2.8371826067886792
1040
4.3423464400913714
1070
     1
1070
     1
1040
26.97027717479477
1040
62.93406758823437
1040
29.439539670443079
1040
61.976210782105341
1070
     2
1040
29.294877633196592
1040
61.603285997491056
1040
0.3999999999998939
1040
5.0824315206778197
1040
6.2831853071795498
1070
     0
1070
     1
1040
29.69487763319648
1040
61.603285997491071
1040
29.69487763319648
1040
50.999999997573347
1070
     1
1040
29.69487763319648
1040
50.999999997573347
1040
29.69487763319648
1040
40.396713997645399
1070
     2
1040
29.29487763319668
1040
40.396713997645591
1040
0.3999999999998067
1040
0.000000000000453
1040
1.20075378650191
1070
     0
1070
     1
1040
29.439539670443079
1040
40.023789213031357
1040
26.97027717479477
1040
39.065932406902327
1071
        0
1070
     0
1070
     1
1040
5.4977871437821371
1040
10.0
1070
     0
1070
     1
1040
0.0
1040
890.02975715496996
1040
167.45643560050181
1040
0.0000000000000003
1040
1.25
1070
     0
1071
        1
1040
890.02975715496996
1040
167.45643560050181
1040
0.0
1002
}
  0
ENDSEC
  0
EOF
