  0
SECTION
  2
HEADER
  9
$ACADVER
  1
AC1009
  9
$INSBASE
 10
62.839751437537643
 20
495.72533747203312
 30
0.0
  9
$EXTMIN
 10
-116.0000000010177
 20
-65.543828313683733
 30
0.0
  9
$EXTMAX
 10
217.9999999989823
 20
165.37987052680421
 30
0.0
  9
$LIMMIN
 10
0.0
 20
0.0
  9
$LIMMAX
 10
790.0
 20
790.0
  9
$ORTHOMODE
 70
     1
  9
$REGENMODE
 70
     1
  9
$FILLMODE
 70
     1
  9
$QTEXTMODE
 70
     0
  9
$MIRRTEXT
 70
     1
  9
$DRAGMODE
 70
     2
  9
$LTSCALE
 40
2.5
  9
$OSMODE
 70
   167
  9
$ATTMODE
 70
     1
  9
$TEXTSIZE
 40
5.0
  9
$TRACEWID
 40
0.05
  9
$TEXTSTYLE
  7
ISO
  9
$CLAYER
  8
0
  9
$CELTYPE
  6
BYLAYER
  9
$CECOLOR
 62
   256
  9
$DIMSCALE
 40
0.0
  9
$DIMASZ
 40
3.0
  9
$DIMEXO
 40
1.5
  9
$DIMDLI
 40
10.0
  9
$DIMRND
 40
0.0
  9
$DIMDLE
 40
0.0
  9
$DIMEXE
 40
1.5
  9
$DIMTP
 40
0.0
  9
$DIMTM
 40
0.0
  9
$DIMTXT
 40
3.0
  9
$DIMCEN
 40
-5.0
  9
$DIMTSZ
 40
0.0
  9
$DIMTOL
 70
     0
  9
$DIMLIM
 70
     0
  9
$DIMTIH
 70
     0
  9
$DIMTOH
 70
     1
  9
$DIMSE1
 70
     0
  9
$DIMSE2
 70
     0
  9
$DIMTAD
 70
     1
  9
$DIMZIN
 70
     8
  9
$DIMBLK
  1

  9
$DIMASO
 70
     1
  9
$DIMSHO
 70
     1
  9
$DIMPOST
  1

  9
$DIMAPOST
  1

  9
$DIMALT
 70
     0
  9
$DIMALTD
 70
     0
  9
$DIMALTF
 40
25.399999999999999
  9
$DIMLFAC
 40
-1.0
  9
$DIMTOFL
 70
     1
  9
$DIMTVP
 40
0.0
  9
$DIMTIX
 70
     0
  9
$DIMSOXD
 70
     0
  9
$DIMSAH
 70
     0
  9
$DIMBLK1
  1

  9
$DIMBLK2
  1

  9
$DIMSTYLE
  2
MASKIN
  9
$DIMCLRD
 70
   256
  9
$DIMCLRE
 70
   256
  9
$DIMCLRT
 70
     2
  9
$DIMTFAC
 40
1.0
  9
$DIMGAP
 40
1.0
  9
$LUNITS
 70
     2
  9
$LUPREC
 70
     4
  9
$SKETCHINC
 40
0.1
  9
$FILLETRAD
 40
0.0
  9
$AUNITS
 70
     0
  9
$AUPREC
 70
     0
  9
$MENU
  1
ACAD
  9
$ELEVATION
 40
0.0
  9
$PELEVATION
 40
0.0
  9
$THICKNESS
 40
0.0
  9
$LIMCHECK
 70
     0
  9
$BLIPMODE
 70
     0
  9
$CHAMFERA
 40
0.0
  9
$CHAMFERB
 40
0.0
  9
$SKPOLY
 70
     0
  9
$TDCREATE
 40
2451169.4686749768
  9
$TDUPDATE
 40
2455000.6170051042
  9
$TDINDWG
 40
0.4008533796
  9
$TDUSRTIMER
 40
0.4008533796
  9
$USRTIMER
 70
     1
  9
$ANGBASE
 50
0.0
  9
$ANGDIR
 70
     0
  9
$PDMODE
 70
     0
  9
$PDSIZE
 40
0.0
  9
$PLINEWID
 40
0.0
  9
$COORDS
 70
     1
  9
$SPLFRAME
 70
     0
  9
$SPLINETYPE
 70
     6
  9
$SPLINESEGS
 70
     8
  9
$ATTDIA
 70
     0
  9
$ATTREQ
 70
     1
  9
$HANDLING
 70
     1
  9
$HANDSEED
  5
207A
  9
$SURFTAB1
 70
     6
  9
$SURFTAB2
 70
     6
  9
$SURFTYPE
 70
     6
  9
$SURFU
 70
     6
  9
$SURFV
 70
     6
  9
$UCSNAME
  2

  9
$UCSORG
 10
0.0
 20
0.0
 30
0.0
  9
$UCSXDIR
 10
1.0
 20
0.0
 30
0.0
  9
$UCSYDIR
 10
0.0
 20
1.0
 30
0.0
  9
$PUCSNAME
  2

  9
$PUCSORG
 10
0.0
 20
0.0
 30
0.0
  9
$PUCSXDIR
 10
1.0
 20
0.0
 30
0.0
  9
$PUCSYDIR
 10
0.0
 20
1.0
 30
0.0
  9
$USERI1
 70
     0
  9
$USERI2
 70
     0
  9
$USERI3
 70
     0
  9
$USERI4
 70
     0
  9
$USERI5
 70
     0
  9
$USERR1
 40
0.0
  9
$USERR2
 40
0.0
  9
$USERR3
 40
0.0
  9
$USERR4
 40
0.0
  9
$USERR5
 40
0.0
  9
$WORLDVIEW
 70
     1
  9
$SHADEDGE
 70
     3
  9
$SHADEDIF
 70
    70
  9
$TILEMODE
 70
     1
  9
$MAXACTVP
 70
    16
  9
$PLIMCHECK
 70
     0
  9
$PEXTMIN
 10
1.0000000000000000E+020
 20
1.0000000000000000E+020
 30
1.0000000000000000E+020
  9
$PEXTMAX
 10
-1.0000000000000000E+020
 20
-1.0000000000000000E+020
 30
-1.0000000000000000E+020
  9
$PLIMMIN
 10
-4.23333740234375
 20
-4.2333331108093262
  9
$PLIMMAX
 10
292.69265747070312
 20
205.7399945259094
  9
$UNITMODE
 70
     0
  9
$VISRETAIN
 70
     1
  9
$PLINEGEN
 70
     0
  9
$PSLTSCALE
 70
     1
  0
ENDSEC
  0
SECTION
  2
TABLES
  0
TABLE
  2
VPORT
 70
     1
  0
VPORT
  2
*ACTIVE
 70
     0
 10
0.0
 20
0.0
 11
1.0
 21
1.0
 12
241.0069098971255
 22
16.25803303385711
 13
0.0
 23
0.0
 14
1.0
 24
1.0
 15
0.0
 25
0.0
 16
0.0
 26
0.0
 36
1.0
 17
0.0
 27
0.0
 37
0.0
 40
372.17510825130472
 41
2.362776025236593
 42
50.0
 43
0.0
 44
0.0
 50
0.0
 51
0.0
 71
     0
 72
   100
 73
     1
 74
     0
 75
     0
 76
     0
 77
     0
 78
     0
  0
ENDTAB
  0
TABLE
  2
LTYPE
 70
     3
  0
LTYPE
  2
CONTINUOUS
 70
     0
  3
Solid line
 72
    65
 73
     0
 40
0.0
  0
LTYPE
  2
BYGG-014976$0$DASHDOT
 70
     0
  3
__ . __ . __ . __ . __ . __ . __ . __ . __ . __
 72
    65
 73
     4
 40
1.0
 49
0.5
 49
-0.25
 49
0.0
 49
-0.25
  0
LTYPE
  2
NEWDOT
 70
     0
  3
____ . ____ . ____ . ____ . ____ . ____ . ____
 72
    65
 73
     4
 40
2.0
 49
1.0
 49
-0.5
 49
0.0
 49
-0.5
  0
ENDTAB
  0
TABLE
  2
LAYER
 70
    31
  0
LAYER
  2
0
 70
     0
 62
     7
  6
CONTINUOUS
  0
LAYER
  2
SAPA_ANSLUTNING
 70
     0
 62
     6
  6
CONTINUOUS
  0
LAYER
  2
SAPA_ISOLATOR
 70
     0
 62
     4
  6
CONTINUOUS
  0
LAYER
  2
SAPA_PROFIL
 70
     0
 62
     7
  6
CONTINUOUS
  0
ENDTAB
  0
TABLE
  2
STYLE
 70
     6
  0
STYLE
  2
STANDARD
 70
     0
 40
0.0
 41
1.0
 50
0.0
 71
     0
 42
0.2
  3
txt
  4

  0
STYLE
  2
ISO
 70
     0
 40
0.0
 41
1.0
 50
0.0
 71
     0
 42
5.0
  3
isocp3.shx
  4

  0
STYLE
  2
BYGG-021464$0$STANDARD
 70
     0
 40
0.0
 41
1.0
 50
0.0
 71
     0
 42
0.2
  3
txt
  4

  0
STYLE
  2
BYGG-021464$0$ISO
 70
     0
 40
0.0
 41
1.0
 50
0.0
 71
     0
 42
7.0
  3
ISO
  4

  0
STYLE
  2
BYGG-014976$0$STANDARD
 70
     0
 40
0.0
 41
1.0
 50
0.0
 71
     0
 42
0.2
  3
txt
  4

  0
STYLE
  2
BYGG-014976$0$ISO
 70
     0
 40
0.0
 41
1.0
 50
0.0
 71
     0
 42
3.5
  3
txt
  4

  0
ENDTAB
  0
TABLE
  2
VIEW
 70
     0
  0
ENDTAB
  0
TABLE
  2
UCS
 70
     0
  0
ENDTAB
  0
TABLE
  2
APPID
 70
    16
  0
APPID
  2
ACAD
 70
     0
  0
APPID
  2
ACAD_PSEXT
 70
     0
  0
APPID
  2
ACAECLAYERSTANDARD
 70
     0
  0
APPID
  2
ACAD_MLEADERVER
 70
     0
  0
APPID
  2
ACDBDYNAMICBLOCKGUID
 70
     0
  0
APPID
  2
ACDBBLOCKREPETAG
 70
     0
  0
APPID
  2
ACAD_EXEMPT_FROM_CAD_STANDARDS
 70
     0
  0
APPID
  2
ACAD_DSTYLE_DIMTEXT_FILL
 70
     0
  0
APPID
  2
ACAD_DSTYLE_DIMEXT_LENGTH
 70
     0
  0
APPID
  2
ACAD_DSTYLE_DIMEXT_ENABLED
 70
     0
  0
APPID
  2
ACAD_DSTYLE_DIM_LINETYPE
 70
     0
  0
APPID
  2
ACAD_DSTYLE_DIM_EXT1_LINETYPE
 70
     0
  0
APPID
  2
ACAD_DSTYLE_DIM_EXT2_LINETYPE
 70
     0
  0
APPID
  2
ACAD_DSTYLE_DIMJOGGED_JOGA
 70
     0
  0
APPID
  2
ACAD_DSTYLE_DIMARC_LENGTH_
 70
     0
  0
APPID
  2
ACADANNOTATIVE
 70
     0
  0
ENDTAB
  0
TABLE
  2
DIMSTYLE
 70
     3
  0
DIMSTYLE
  2
MASKIN
 70
     0
  3

  4

  5

  6

  7

 40
0.0
 41
3.0
 42
1.5
 43
10.0
 44
1.5
 45
0.0
 46
0.0
 47
0.0
 48
0.0
140
3.0
141
-5.0
142
0.0
143
25.399999999999999
144
-1.0
145
0.0
146
1.0
147
1.0
 71
     0
 72
     0
 73
     0
 74
     1
 75
     0
 76
     0
 77
     1
 78
     8
170
     0
171
     0
172
     1
173
     0
174
     0
175
     0
176
   256
177
   256
178
     2
  0
DIMSTYLE
  2
BYGG-021464$0$MASKIN
 70
     0
  3

  4

  5

  6

  7

 40
1.0
 41
3.0
 42
1.5
 43
10.0
 44
1.5
 45
0.0
 46
0.0
 47
0.0
 48
0.0
140
3.0
141
-5.0
142
0.0
143
25.399999999999999
144
1.0
145
0.0
146
1.0
147
0.09
 71
     0
 72
     0
 73
     0
 74
     0
 75
     0
 76
     0
 77
     1
 78
     8
170
     0
171
     0
172
     0
173
     0
174
     0
175
     0
176
   256
177
   256
178
   256
  0
DIMSTYLE
  2
BYGG-014976$0$MASKIN
 70
     0
  3

  4

  5

  6

  7

 40
0.0
 41
3.0
 42
1.5
 43
10.0
 44
1.5
 45
0.0
 46
0.0
 47
0.0
 48
0.0
140
3.0
141
-5.0
142
0.0
143
25.399999999999999
144
-1.0
145
0.0
146
1.0
147
1.0
 71
     0
 72
     0
 73
     0
 74
     0
 75
     0
 76
     0
 77
     1
 78
     8
170
     0
171
     0
172
     1
173
     0
174
     0
175
     0
176
   256
177
   256
178
   256
  0
ENDTAB
  0
ENDSEC
  0
SECTION
  2
BLOCKS
  0
BLOCK
  8
0
  2
$MODEL_SPACE
 70
     0
 10
0.0
 20
0.0
 30
0.0
  3
$MODEL_SPACE
  1

  0
ENDBLK
  5
D
  8
0
  0
BLOCK
 67
     1
  8
0
  2
$PAPER_SPACE
 70
     0
 10
0.0
 20
0.0
 30
0.0
  3
$PAPER_SPACE
  1

  0
ENDBLK
  5
12
 67
     1
  8
0
  0
BLOCK
  8
0
  2
*U13
 70
     1
 10
0.0
 20
0.0
 30
0.0
  3
*U13
  1

  0
TEXT
  5
1B88
  8
0
 10
23.89826713666643
 20
-11.74612390144773
 30
0.0
 40
6.0
  1
52
  7
BYGG-014976$0$ISO
  0
ENDBLK
  5
1B8A
  8
0
  0
BLOCK
  8
0
  2
*X14
 70
     1
 10
0.0
 20
0.0
 30
0.0
  3
*X14
  1

  0
LINE
  5
1B8C
  8
0
 62
     0
 10
47.848817111648493
 20
24.70630091036913
 30
0.0
 11
51.937472428186418
 21
24.70630091036913
 31
0.0
  0
LINE
  5
1B8D
  8
0
 62
     0
 10
26.25906184511371
 20
24.70630091036913
 30
0.0
 11
30.347717161652209
 21
24.70630091036913
 31
0.0
  0
LINE
  5
1B8E
  8
0
 62
     0
 10
48.20334481450675
 20
25.95630091036913
 30
0.0
 11
51.593779847422532
 21
25.95630091036913
 31
0.0
  0
LINE
  5
1B8F
  8
0
 62
     0
 10
26.602754425878519
 20
25.95630091036913
 30
0.0
 11
29.993189458793719
 21
25.95630091036913
 31
0.0
  0
LINE
  5
1B90
  8
0
 62
     0
 10
48.856989799564872
 20
27.20630091036913
 30
0.0
 11
50.887849998044537
 21
27.20630091036913
 31
0.0
  0
LINE
  5
1B91
  8
0
 62
     0
 10
27.308684275256159
 20
27.20630091036913
 30
0.0
 11
29.3395444737356
 21
27.20630091036913
 31
0.0
  0
LINE
  5
1B92
  8
0
 62
     0
 10
48.931372811670371
 20
28.45630091036913
 30
0.0
 11
53.364175687805748
 21
28.45630091036913
 31
0.0
  0
LINE
  5
1B93
  8
0
 62
     0
 10
24.83235858549369
 20
28.45630091036913
 30
0.0
 11
29.265161461630559
 21
28.45630091036913
 31
0.0
  0
LINE
  5
1B94
  8
0
 62
     0
 10
51.056423376949631
 20
29.70630091036913
 30
0.0
 11
53.793144769846997
 21
29.70630091036913
 31
0.0
  0
LINE
  5
1B95
  8
0
 62
     0
 10
24.403389503453582
 20
29.70630091036913
 30
0.0
 11
27.140110896349711
 21
29.70630091036913
 31
0.0
  0
LINE
  5
1B96
  8
0
 62
     0
 10
51.993144769812709
 20
30.95630091036913
 30
0.0
 11
53.793144769846997
 21
30.95630091036913
 31
0.0
  0
LINE
  5
1B97
  8
0
 62
     0
 10
24.403389503453582
 20
30.95630091036913
 30
0.0
 11
26.203389503488211
 21
30.95630091036913
 31
0.0
  0
LINE
  5
1B98
  8
0
 62
     0
 10
51.993144769812709
 20
32.20630091036913
 30
0.0
 11
53.793144769846997
 21
32.20630091036913
 31
0.0
  0
LINE
  5
1B99
  8
0
 62
     0
 10
24.403389503453582
 20
32.20630091036913
 30
0.0
 11
26.203389503488101
 21
32.20630091036913
 31
0.0
  0
LINE
  5
1B9A
  8
0
 62
     0
 10
51.993144769812709
 20
33.45630091036913
 30
0.0
 11
53.793144769846997
 21
33.45630091036913
 31
0.0
  0
LINE
  5
1B9B
  8
0
 62
     0
 10
24.403389503453582
 20
33.45630091036913
 30
0.0
 11
26.20338950348799
 21
33.45630091036913
 31
0.0
  0
LINE
  5
1B9C
  8
0
 62
     0
 10
51.993144769812709
 20
34.70630091036913
 30
0.0
 11
53.793144769846997
 21
34.70630091036913
 31
0.0
  0
LINE
  5
1B9D
  8
0
 62
     0
 10
24.403389503453582
 20
34.70630091036913
 30
0.0
 11
26.20338950348787
 21
34.70630091036913
 31
0.0
  0
LINE
  5
1B9E
  8
0
 62
     0
 10
51.993144769812709
 20
35.95630091036913
 30
0.0
 11
53.793144769846997
 21
35.95630091036913
 31
0.0
  0
LINE
  5
1B9F
  8
0
 62
     0
 10
24.403389503453582
 20
35.95630091036913
 30
0.0
 11
26.20338950348776
 21
35.95630091036913
 31
0.0
  0
LINE
  5
1BA0
  8
0
 62
     0
 10
51.993144769812709
 20
37.20630091036913
 30
0.0
 11
53.793144769846997
 21
37.20630091036913
 31
0.0
  0
LINE
  5
1BA1
  8
0
 62
     0
 10
24.403389503453582
 20
37.20630091036913
 30
0.0
 11
26.203389503487639
 21
37.20630091036913
 31
0.0
  0
LINE
  5
1BA2
  8
0
 62
     0
 10
51.993144769812709
 20
38.45630091036913
 30
0.0
 11
53.793144769846997
 21
38.45630091036913
 31
0.0
  0
LINE
  5
1BA3
  8
0
 62
     0
 10
24.403389503453582
 20
38.45630091036913
 30
0.0
 11
26.203389503487529
 21
38.45630091036913
 31
0.0
  0
LINE
  5
1BA4
  8
0
 62
     0
 10
51.993144769812709
 20
39.70630091036913
 30
0.0
 11
53.793144769846997
 21
39.70630091036913
 31
0.0
  0
LINE
  5
1BA5
  8
0
 62
     0
 10
24.403389503453582
 20
39.70630091036913
 30
0.0
 11
26.203389503487418
 21
39.70630091036913
 31
0.0
  0
LINE
  5
1BA6
  8
0
 62
     0
 10
51.993144769812709
 20
40.956300910369123
 30
0.0
 11
53.793144769846997
 21
40.956300910369123
 31
0.0
  0
LINE
  5
1BA7
  8
0
 62
     0
 10
24.403389503453582
 20
40.956300910369123
 30
0.0
 11
26.203389503487529
 21
40.956300910369123
 31
0.0
  0
LINE
  5
1BA8
  8
0
 62
     0
 10
51.993144769812709
 20
42.206300910369123
 30
0.0
 11
53.793144769846997
 21
42.206300910369123
 31
0.0
  0
LINE
  5
1BA9
  8
0
 62
     0
 10
24.403389503453582
 20
42.206300910369123
 30
0.0
 11
26.203389503487639
 21
42.206300910369123
 31
0.0
  0
LINE
  5
1BAA
  8
0
 62
     0
 10
51.993144769812709
 20
43.456300910369123
 30
0.0
 11
53.793144769846997
 21
43.456300910369123
 31
0.0
  0
LINE
  5
1BAB
  8
0
 62
     0
 10
24.403389503453582
 20
43.456300910369123
 30
0.0
 11
26.20338950348776
 21
43.456300910369123
 31
0.0
  0
LINE
  5
1BAC
  8
0
 62
     0
 10
51.993144769812709
 20
44.706300910369123
 30
0.0
 11
53.793144769846997
 21
44.706300910369123
 31
0.0
  0
LINE
  5
1BAD
  8
0
 62
     0
 10
24.403389503453582
 20
44.706300910369123
 30
0.0
 11
26.20338950348799
 21
44.706300910369123
 31
0.0
  0
LINE
  5
1BAE
  8
0
 62
     0
 10
51.993144769812709
 20
45.956300910369123
 30
0.0
 11
53.793144769846997
 21
45.956300910369123
 31
0.0
  0
LINE
  5
1BAF
  8
0
 62
     0
 10
24.403389503453582
 20
45.956300910369123
 30
0.0
 11
26.203389503488101
 21
45.956300910369123
 31
0.0
  0
LINE
  5
1BB0
  8
0
 62
     0
 10
51.993144769812709
 20
47.206300910369123
 30
0.0
 11
53.793144769846997
 21
47.206300910369123
 31
0.0
  0
LINE
  5
1BB1
  8
0
 62
     0
 10
24.403389503453582
 20
47.206300910369123
 30
0.0
 11
26.203389503488211
 21
47.206300910369123
 31
0.0
  0
LINE
  5
1BB2
  8
0
 62
     0
 10
51.993144769812709
 20
48.45630091036913
 30
0.0
 11
53.793144769846997
 21
48.45630091036913
 31
0.0
  0
LINE
  5
1BB3
  8
0
 62
     0
 10
24.403389503453582
 20
48.45630091036913
 30
0.0
 11
26.203389503488332
 21
48.45630091036913
 31
0.0
  0
LINE
  5
1BB4
  8
0
 62
     0
 10
49.99208014176611
 20
49.70630091036913
 30
0.0
 11
53.793144769846997
 21
49.70630091036913
 31
0.0
  0
LINE
  5
1BB5
  8
0
 62
     0
 10
24.403389503453582
 20
49.70630091036913
 30
0.0
 11
28.204454131535162
 21
49.70630091036913
 31
0.0
  0
LINE
  5
1BB6
  8
0
 62
     0
 10
48.893144769867369
 20
50.95630091036913
 30
0.0
 11
52.299833525535973
 21
50.95630091036913
 31
0.0
  0
LINE
  5
1BB7
  8
0
 62
     0
 10
25.896700747765522
 20
50.95630091036913
 30
0.0
 11
29.30338950343355
 21
50.95630091036913
 31
0.0
  0
LINE
  5
1BB8
  8
0
 62
     0
 10
48.681843588366853
 20
52.20630091036913
 30
0.0
 11
50.73207536743962
 21
52.20630091036913
 31
0.0
  0
LINE
  5
1BB9
  8
0
 62
     0
 10
27.464458905860742
 20
52.20630091036913
 30
0.0
 11
29.51469068493418
 21
52.20630091036913
 31
0.0
  0
LINE
  5
1BBA
  8
0
 62
     0
 10
47.967349628157642
 20
53.45630091036913
 30
0.0
 11
51.830537239568677
 21
53.45630091036913
 31
0.0
  0
LINE
  5
1BBB
  8
0
 62
     0
 10
26.365997033732022
 20
53.45630091036913
 30
0.0
 11
30.229184645143281
 21
53.45630091036913
 31
0.0
  0
ENDBLK
  5
1BBD
  8
0
  0
BLOCK
  8
0
  2
*U15
 70
     1
 10
0.0
 20
0.0
 30
0.0
  3
*U15
  1

  0
TEXT
  5
1BEF
  8
0
 10
34.898267136650063
 20
90.262788212024788
 30
0.0
 40
6.0
  1
30
  7
BYGG-014976$0$ISO
  0
ENDBLK
  5
1BF1
  8
0
  0
BLOCK
  8
0
  2
*U16
 70
     1
 10
0.0
 20
0.0
 30
0.0
  3
*U16
  1

  0
TEXT
  5
1C1C
  8
0
 10
68.141259228894654
 20
34.999865307435478
 30
0.0
 40
6.0
  1
74
 50
90.0
  7
BYGG-014976$0$ISO
  0
ENDBLK
  5
1C1E
  8
0
  0
BLOCK
  8
0
  2
*U17
 70
     1
 10
0.0
 20
0.0
 30
0.0
  3
*U17
  1

  0
TEXT
  5
1C27
  8
0
 62
     1
 10
4.2355095310447783
 20
4.4145522861116309
 30
0.0
 40
2.0
  1
Copyright Sapa. Rätt till ändringar förbehålles. We reserve the right to change the drawing.
 50
90.0
  7
BYGG-014976$0$ISO
  0
ENDBLK
  5
1C29
  8
0
  0
BLOCK
  8
0
  2
*U18
 70
     1
 10
0.0
 20
0.0
 30
0.0
  3
*U18
  1

  0
TEXT
  5
1C2B
  8
0
 62
     1
 10
93.615022693827754
 20
14.333219839725979
 30
0.0
 40
3.5
  1
Vikt:
  7
BYGG-014976$0$ISO
  0
ENDBLK
  5
1C2D
  8
0
  0
BLOCK
  8
0
  2
*U19
 70
     1
 10
0.0
 20
0.0
 30
0.0
  3
*U19
  1

  0
TEXT
  5
1C2F
  8
0
 62
     1
 10
121.6340039895114
 20
14.333219839725979
 30
0.0
 40
3.5
  1
Perimeter:
  7
BYGG-014976$0$ISO
  0
ENDBLK
  5
1C31
  8
0
  0
BLOCK
  8
0
  2
*U20
 70
     1
 10
0.0
 20
0.0
 30
0.0
  3
*U20
  1

  0
TEXT
  5
1C33
  8
0
 62
     1
 10
93.615022693827754
 20
22.085065834235479
 30
0.0
 40
3.5
  1
Profilnr:
  7
BYGG-014976$0$ISO
  0
ENDBLK
  5
1C35
  8
0
  0
BLOCK
  8
0
  2
*U21
 70
     1
 10
0.0
 20
0.0
 30
0.0
  3
*U21
  1

  0
TEXT
  5
1C37
  8
0
 62
     1
 10
130.22181596764241
 20
63.719622293387033
 30
0.0
 40
3.5
  1
Del 2:
  7
BYGG-014976$0$ISO
  0
TEXT
  5
1C38
  8
0
 62
     1
 10
131.09681596764241
 20
52.052955626720362
 30
0.0
 40
3.5
  1
__________
  7
BYGG-014976$0$ISO
  0
ENDBLK
  5
1C3A
  8
0
  0
BLOCK
  8
0
  2
*U22
 70
     1
 10
0.0
 20
0.0
 30
0.0
  3
*U22
  1

  0
TEXT
  5
1C3C
  8
0
 62
     1
 10
25.646427730601541
 20
255.3986140738254
 30
0.0
 40
3.5
  1
Del 1:
  7
BYGG-014976$0$ISO
  0
TEXT
  5
1C3D
  8
0
 62
     1
 10
26.521427730601541
 20
243.7319474071586
 30
0.0
 40
3.5
  1
__________
  7
BYGG-014976$0$ISO
  0
ENDBLK
  5
1C3F
  8
0
  0
BLOCK
  8
0
  2
*U23
 70
     1
 10
0.0
 20
0.0
 30
0.0
  3
*U23
  1

  0
TEXT
  5
1C41
  8
0
 62
     1
 10
93.710566149484947
 20
6.5813738452164934
 30
0.0
 40
3.5
  1
G-ritn. godkänd:
  7
BYGG-014976$0$ISO
  0
ENDBLK
  5
1C43
  8
0
  0
BLOCK
  8
0
  2
*U24
 70
     1
 10
0.0
 20
0.0
 30
0.0
  3
*U24
  1

  0
TEXT
  5
1C45
  8
0
 62
     3
 10
149.7450256396138
 20
22.103092580874758
 30
0.0
 40
5.0
  1
/
  7
BYGG-014976$0$ISO
  0
ENDBLK
  5
1C47
  8
0
  0
BLOCK
  8
0
  2
*U25
 70
     1
 10
0.0
 20
0.0
 30
0.0
  3
*U25
  1

  0
TEXT
  5
1C49
  8
0
 10
13.46878405557265
 20
29.354041960743452
 30
0.0
 40
3.5
  1
Mindre synlig yta:
  7
BYGG-014976$0$ISO
  0
ENDBLK
  5
1C4B
  8
0
  0
BLOCK
  8
0
  2
*U26
 70
     1
 10
0.0
 20
0.0
 30
0.0
  3
*U26
  1

  0
TEXT
  5
1C4D
  8
0
 10
13.95790920971432
 20
35.46394413326076
 30
0.0
 40
3.5
  1
Synlig yta:
  7
BYGG-014976$0$ISO
  0
ENDBLK
  5
1C4F
  8
0
  0
BLOCK
  8
0
  2
*U27
 70
     1
 10
0.0
 20
0.0
 30
0.0
  3
*U27
  1

  0
TEXT
  5
1C51
  8
0
 62
     1
 10
121.7840039895114
 20
1.46186098016108
 30
0.0
 40
2.0
  1
PDF skapad:
  7
BYGG-014976$0$ISO
  0
ENDBLK
  5
1C53
  8
0
  0
BLOCK
  8
0
  2
*U28
 70
     1
 10
0.0
 20
0.0
 30
0.0
  3
*U28
  1

  0
TEXT
  5
1C5B
  8
0
 62
     1
 10
4.2355095310447783
 20
4.4145522861116309
 30
0.0
 40
2.0
  1
Copyright Sapa. Rätt till ändringar förbehålles. We reserve the right to change the drawing.
 50
90.0
  7
BYGG-014976$0$ISO
  0
ENDBLK
  5
1C5D
  8
0
  0
BLOCK
  8
0
  2
*U29
 70
     1
 10
0.0
 20
0.0
 30
0.0
  3
*U29
  1

  0
TEXT
  5
1C5F
  8
0
 62
     1
 10
130.22181596764241
 20
63.719622293387033
 30
0.0
 40
3.5
  1
Del 2:
  7
BYGG-014976$0$ISO
  0
TEXT
  5
1C60
  8
0
 62
     1
 10
131.09681596764241
 20
52.052955626720362
 30
0.0
 40
3.5
  1
__________
  7
BYGG-014976$0$ISO
  0
ENDBLK
  5
1C62
  8
0
  0
BLOCK
  8
0
  2
*U30
 70
     1
 10
0.0
 20
0.0
 30
0.0
  3
*U30
  1

  0
TEXT
  5
1C64
  8
0
 62
     1
 10
25.646427730601541
 20
255.3986140738254
 30
0.0
 40
3.5
  1
Del 1:
  7
BYGG-014976$0$ISO
  0
TEXT
  5
1C65
  8
0
 62
     1
 10
26.521427730601541
 20
243.7319474071586
 30
0.0
 40
3.5
  1
__________
  7
BYGG-014976$0$ISO
  0
ENDBLK
  5
1C67
  8
0
  0
BLOCK
  8
0
  2
*U31
 70
     1
 10
0.0
 20
0.0
 30
0.0
  3
*U31
  1

  0
TEXT
  5
1C69
  8
0
 10
13.46878405557265
 20
29.354041960743452
 30
0.0
 40
3.5
  1
Mindre synlig yta:
  7
BYGG-014976$0$ISO
  0
ENDBLK
  5
1C6B
  8
0
  0
BLOCK
  8
0
  2
*U32
 70
     1
 10
0.0
 20
0.0
 30
0.0
  3
*U32
  1

  0
TEXT
  5
1C6D
  8
0
 10
13.95790920971432
 20
35.46394413326076
 30
0.0
 40
3.5
  1
Synlig yta:
  7
BYGG-014976$0$ISO
  0
ENDBLK
  5
1C6F
  8
0
  0
BLOCK
  8
0
  2
*U33
 70
     1
 10
0.0
 20
0.0
 30
0.0
  3
*U33
  1

  0
TEXT
  5
1C71
  8
0
 62
     1
 10
93.615022693827754
 20
14.333219839725979
 30
0.0
 40
3.5
  1
Vikt:
  7
BYGG-014976$0$ISO
  0
ENDBLK
  5
1C73
  8
0
  0
BLOCK
  8
0
  2
*U34
 70
     1
 10
0.0
 20
0.0
 30
0.0
  3
*U34
  1

  0
TEXT
  5
1C75
  8
0
 62
     1
 10
121.6340039895114
 20
14.333219839725979
 30
0.0
 40
3.5
  1
Perimeter:
  7
BYGG-014976$0$ISO
  0
ENDBLK
  5
1C77
  8
0
  0
BLOCK
  8
0
  2
*U35
 70
     1
 10
0.0
 20
0.0
 30
0.0
  3
*U35
  1

  0
TEXT
  5
1C79
  8
0
 62
     1
 10
93.615022693827754
 20
22.085065834235479
 30
0.0
 40
3.5
  1
Profilnr:
  7
BYGG-014976$0$ISO
  0
ENDBLK
  5
1C7B
  8
0
  0
BLOCK
  8
0
  2
*U36
 70
     1
 10
0.0
 20
0.0
 30
0.0
  3
*U36
  1

  0
TEXT
  5
1C7D
  8
0
 62
     1
 10
93.710566149484947
 20
6.5813738452164934
 30
0.0
 40
3.5
  1
G-ritn. godkänd:
  7
BYGG-014976$0$ISO
  0
ENDBLK
  5
1C7F
  8
0
  0
BLOCK
  8
0
  2
*U37
 70
     1
 10
0.0
 20
0.0
 30
0.0
  3
*U37
  1

  0
TEXT
  5
1C81
  8
0
 62
     3
 10
149.7450256396138
 20
22.103092580874758
 30
0.0
 40
5.0
  1
/
  7
BYGG-014976$0$ISO
  0
ENDBLK
  5
1C83
  8
0
  0
BLOCK
  8
0
  2
*U38
 70
     1
 10
0.0
 20
0.0
 30
0.0
  3
*U38
  1

  0
TEXT
  5
1C85
  8
0
 62
     1
 10
121.7840039895114
 20
1.46186098016108
 30
0.0
 40
2.0
  1
PDF skapad:
  7
BYGG-014976$0$ISO
  0
ENDBLK
  5
1C87
  8
0
  0
BLOCK
  8
0
  2
*U39
 70
     1
 10
0.0
 20
0.0
 30
0.0
  3
*U39
  1

  0
TEXT
  5
1C89
  8
0
 10
-4.2465797624952764
 20
-0.1999999999845429
 30
0.0
 40
6.0
  1
52
 50
90.000000000000028
  7
BYGG-014976$0$ISO
  0
ENDBLK
  5
1C8B
  8
0
  0
BLOCK
  8
0
  2
*U40
 70
     1
 10
0.0
 20
0.0
 30
0.0
  3
*U40
  1

  0
TEXT
  5
1C8D
  8
0
 10
97.762922902158351
 20
10.799999999999111
 30
0.0
 40
6.0
  1
30
 50
90.000000000000028
  7
BYGG-014976$0$ISO
  0
ENDBLK
  5
1C8F
  8
0
  0
BLOCK
  8
0
  2
*U41
 70
     1
 10
0.0
 20
0.0
 30
0.0
  3
*U41
  1

  0
TEXT
  5
1C91
  8
0
 10
55.499999997569013
 20
44.042992092243679
 30
0.0
 40
6.0
  1
74
 50
180.0
  7
BYGG-014976$0$ISO
  0
ENDBLK
  5
1C93
  8
0
  0
BLOCK
  8
0
  2
*X42
 70
     1
 10
0.0
 20
0.0
 30
0.0
  3
*X42
  1

  0
LINE
  5
1F93
  8
0
 62
     0
 10
64.956435600502431
 20
23.869082491506902
 30
0.0
 11
64.956435600502431
 21
27.7322701029176
 31
0.0
  0
LINE
  5
1F94
  8
0
 62
     0
 10
64.956435600502431
 20
2.2677298970812672
 30
0.0
 11
64.956435600502431
 21
6.1309175084921881
 31
0.0
  0
LINE
  5
1F95
  8
0
 62
     0
 10
63.706435600502431
 20
24.583576451715999
 30
0.0
 11
63.706435600502431
 21
26.633808230788649
 31
0.0
  0
LINE
  5
1F96
  8
0
 62
     0
 10
63.706435600502431
 20
3.3661917692099901
 30
0.0
 11
63.706435600502431
 21
5.4164235482829781
 31
0.0
  0
LINE
  5
1F97
  8
0
 62
     0
 10
62.456435600502431
 20
24.794877633216402
 30
0.0
 11
62.456435600502431
 21
28.201566388885681
 31
0.0
  0
LINE
  5
1F98
  8
0
 62
     0
 10
62.456435600502431
 20
1.7984336111138639
 30
0.0
 11
62.456435600502431
 21
5.2051223667825752
 31
0.0
  0
LINE
  5
1F99
  8
0
 62
     0
 10
61.206435600502431
 20
25.89381300511571
 30
0.0
 11
61.206435600502431
 21
29.694877633196029
 31
0.0
  0
LINE
  5
1F9A
  8
0
 62
     0
 10
61.206435600502431
 20
0.3051223668026068
 30
0.0
 11
61.206435600502431
 21
4.106186994883501
 31
0.0
  0
LINE
  5
1F9B
  8
0
 62
     0
 10
59.956435600502431
 20
27.894877633161741
 30
0.0
 11
59.956435600502431
 21
29.694877633196029
 31
0.0
  0
LINE
  5
1F9C
  8
0
 62
     0
 10
59.956435600502431
 20
0.3051223668026068
 30
0.0
 11
59.956435600502431
 21
2.1051223668373491
 31
0.0
  0
LINE
  5
1F9D
  8
0
 62
     0
 10
58.706435600502431
 20
27.894877633161741
 30
0.0
 11
58.706435600502431
 21
29.694877633196029
 31
0.0
  0
LINE
  5
1F9E
  8
0
 62
     0
 10
58.706435600502431
 20
0.3051223668026068
 30
0.0
 11
58.706435600502431
 21
2.105122366837235
 31
0.0
  0
LINE
  5
1F9F
  8
0
 62
     0
 10
57.456435600502431
 20
27.894877633161741
 30
0.0
 11
57.456435600502431
 21
29.694877633196029
 31
0.0
  0
LINE
  5
1FA0
  8
0
 62
     0
 10
57.456435600502431
 20
0.3051223668026068
 30
0.0
 11
57.456435600502431
 21
2.1051223668371222
 31
0.0
  0
LINE
  5
1FA1
  8
0
 62
     0
 10
56.206435600502431
 20
27.894877633161741
 30
0.0
 11
56.206435600502431
 21
29.694877633196029
 31
0.0
  0
LINE
  5
1FA2
  8
0
 62
     0
 10
56.206435600502431
 20
0.3051223668026068
 30
0.0
 11
56.206435600502431
 21
2.105122366837008
 31
0.0
  0
LINE
  5
1FA3
  8
0
 62
     0
 10
54.956435600502431
 20
27.894877633161741
 30
0.0
 11
54.956435600502431
 21
29.694877633196029
 31
0.0
  0
LINE
  5
1FA4
  8
0
 62
     0
 10
54.956435600502431
 20
0.3051223668026068
 30
0.0
 11
54.956435600502431
 21
2.1051223668368939
 31
0.0
  0
LINE
  5
1FA5
  8
0
 62
     0
 10
53.706435600502431
 20
27.894877633161741
 30
0.0
 11
53.706435600502431
 21
29.694877633196029
 31
0.0
  0
LINE
  5
1FA6
  8
0
 62
     0
 10
53.706435600502431
 20
0.3051223668026068
 30
0.0
 11
53.706435600502431
 21
2.105122366836667
 31
0.0
  0
LINE
  5
1FA7
  8
0
 62
     0
 10
52.456435600502431
 20
27.894877633161741
 30
0.0
 11
52.456435600502431
 21
29.694877633196029
 31
0.0
  0
LINE
  5
1FA8
  8
0
 62
     0
 10
52.456435600502431
 20
0.3051223668026068
 30
0.0
 11
52.456435600502431
 21
2.1051223668365528
 31
0.0
  0
LINE
  5
1FA9
  8
0
 62
     0
 10
51.206435600502431
 20
27.894877633161741
 30
0.0
 11
51.206435600502431
 21
29.694877633196029
 31
0.0
  0
LINE
  5
1FAA
  8
0
 62
     0
 10
51.206435600502431
 20
0.3051223668026068
 30
0.0
 11
51.206435600502431
 21
2.1051223668364401
 31
0.0
  0
LINE
  5
1FAB
  8
0
 62
     0
 10
49.956435600502431
 20
27.894877633161741
 30
0.0
 11
49.956435600502431
 21
29.694877633196029
 31
0.0
  0
LINE
  5
1FAC
  8
0
 62
     0
 10
49.956435600502431
 20
0.3051223668026068
 30
0.0
 11
49.956435600502431
 21
2.1051223668365528
 31
0.0
  0
LINE
  5
1FAD
  8
0
 62
     0
 10
48.706435600502431
 20
27.894877633161741
 30
0.0
 11
48.706435600502431
 21
29.694877633196029
 31
0.0
  0
LINE
  5
1FAE
  8
0
 62
     0
 10
48.706435600502431
 20
0.3051223668026068
 30
0.0
 11
48.706435600502431
 21
2.105122366836667
 31
0.0
  0
LINE
  5
1FAF
  8
0
 62
     0
 10
47.456435600502431
 20
27.894877633161741
 30
0.0
 11
47.456435600502431
 21
29.694877633196029
 31
0.0
  0
LINE
  5
1FB0
  8
0
 62
     0
 10
47.456435600502417
 20
0.3051223668026068
 30
0.0
 11
47.456435600502417
 21
2.1051223668367811
 31
0.0
  0
LINE
  5
1FB1
  8
0
 62
     0
 10
46.206435600502431
 20
27.894877633161741
 30
0.0
 11
46.206435600502431
 21
29.694877633196029
 31
0.0
  0
LINE
  5
1FB2
  8
0
 62
     0
 10
46.206435600502417
 20
0.3051223668026068
 30
0.0
 11
46.206435600502417
 21
2.1051223668368939
 31
0.0
  0
LINE
  5
1FB3
  8
0
 62
     0
 10
44.956435600502431
 20
27.894877633161741
 30
0.0
 11
44.956435600502431
 21
29.694877633196029
 31
0.0
  0
LINE
  5
1FB4
  8
0
 62
     0
 10
44.956435600502417
 20
0.3051223668026068
 30
0.0
 11
44.956435600502417
 21
2.105122366837008
 31
0.0
  0
LINE
  5
1FB5
  8
0
 62
     0
 10
43.706435600502431
 20
27.894877633161741
 30
0.0
 11
43.706435600502431
 21
29.694877633196029
 31
0.0
  0
LINE
  5
1FB6
  8
0
 62
     0
 10
43.706435600502417
 20
0.3051223668026068
 30
0.0
 11
43.706435600502417
 21
2.1051223668371222
 31
0.0
  0
LINE
  5
1FB7
  8
0
 62
     0
 10
42.456435600502431
 20
27.894877633161741
 30
0.0
 11
42.456435600502431
 21
29.694877633196029
 31
0.0
  0
LINE
  5
1FB8
  8
0
 62
     0
 10
42.456435600502417
 20
0.3051223668026068
 30
0.0
 11
42.456435600502417
 21
2.1051223668373491
 31
0.0
  0
LINE
  5
1FB9
  8
0
 62
     0
 10
41.206435600502431
 20
26.958156240298081
 30
0.0
 11
41.206435600502431
 21
29.694877633196029
 31
0.0
  0
LINE
  5
1FBA
  8
0
 62
     0
 10
41.206435600502417
 20
0.3051223668026068
 30
0.0
 11
41.206435600502417
 21
3.0418437596994181
 31
0.0
  0
LINE
  5
1FBB
  8
0
 62
     0
 10
39.956435600502438
 20
24.8331056750194
 30
0.0
 11
39.956435600502438
 21
29.265908551154102
 31
0.0
  0
LINE
  5
1FBC
  8
0
 62
     0
 10
39.956435600502431
 20
0.7340914488434011
 30
0.0
 11
39.956435600502431
 21
5.166894324979693
 31
0.0
  0
LINE
  5
1FBD
  8
0
 62
     0
 10
38.706435600502438
 20
24.75872266291379
 30
0.0
 11
38.706435600502438
 21
26.789582861393569
 31
0.0
  0
LINE
  5
1FBE
  8
0
 62
     0
 10
38.706435600502431
 20
3.2104171386051799
 30
0.0
 11
38.706435600502431
 21
5.2412773370846253
 31
0.0
  0
LINE
  5
1FBF
  8
0
 62
     0
 10
37.456435600502438
 20
24.105077677855661
 30
0.0
 11
37.456435600502438
 21
27.49551271077166
 31
0.0
  0
LINE
  5
1FC0
  8
0
 62
     0
 10
37.456435600502431
 20
2.5044872892273129
 30
0.0
 11
37.456435600502431
 21
5.894922322142861
 31
0.0
  0
LINE
  5
1FC1
  8
0
 62
     0
 10
36.206435600502438
 20
23.750549974997629
 30
0.0
 11
36.206435600502438
 21
27.839205291535219
 31
0.0
  0
LINE
  5
1FC2
  8
0
 62
     0
 10
36.206435600502431
 20
2.160794708462844
 30
0.0
 11
36.206435600502431
 21
6.2494500250011242
 31
0.0
  0
ENDBLK
  5
1FC4
  8
0
  0
BLOCK
  8
0
  2
*X43
 70
     1
 10
0.0
 20
0.0
 30
0.0
  3
*X43
  1

  0
LINE
  5
1FC6
  8
0
 62
     0
 10
64.956435600502431
 20
23.869082491506902
 30
0.0
 11
64.956435600502431
 21
27.7322701029176
 31
0.0
  0
LINE
  5
1FC7
  8
0
 62
     0
 10
64.956435600502431
 20
2.2677298970812672
 30
0.0
 11
64.956435600502431
 21
6.1309175084921881
 31
0.0
  0
LINE
  5
1FC8
  8
0
 62
     0
 10
63.706435600502431
 20
24.583576451715999
 30
0.0
 11
63.706435600502431
 21
26.633808230788649
 31
0.0
  0
LINE
  5
1FC9
  8
0
 62
     0
 10
63.706435600502431
 20
3.3661917692099901
 30
0.0
 11
63.706435600502431
 21
5.4164235482829781
 31
0.0
  0
LINE
  5
1FCA
  8
0
 62
     0
 10
62.456435600502431
 20
24.794877633216402
 30
0.0
 11
62.456435600502431
 21
28.201566388885681
 31
0.0
  0
LINE
  5
1FCB
  8
0
 62
     0
 10
62.456435600502431
 20
1.7984336111138639
 30
0.0
 11
62.456435600502431
 21
5.2051223667825752
 31
0.0
  0
LINE
  5
1FCC
  8
0
 62
     0
 10
61.206435600502431
 20
25.89381300511571
 30
0.0
 11
61.206435600502431
 21
29.694877633196029
 31
0.0
  0
LINE
  5
1FCD
  8
0
 62
     0
 10
61.206435600502431
 20
0.3051223668026068
 30
0.0
 11
61.206435600502431
 21
4.106186994883501
 31
0.0
  0
LINE
  5
1FCE
  8
0
 62
     0
 10
59.956435600502431
 20
27.894877633161741
 30
0.0
 11
59.956435600502431
 21
29.694877633196029
 31
0.0
  0
LINE
  5
1FCF
  8
0
 62
     0
 10
59.956435600502431
 20
0.3051223668026068
 30
0.0
 11
59.956435600502431
 21
2.1051223668373491
 31
0.0
  0
LINE
  5
1FD0
  8
0
 62
     0
 10
58.706435600502431
 20
27.894877633161741
 30
0.0
 11
58.706435600502431
 21
29.694877633196029
 31
0.0
  0
LINE
  5
1FD1
  8
0
 62
     0
 10
58.706435600502431
 20
0.3051223668026068
 30
0.0
 11
58.706435600502431
 21
2.105122366837235
 31
0.0
  0
LINE
  5
1FD2
  8
0
 62
     0
 10
57.456435600502431
 20
27.894877633161741
 30
0.0
 11
57.456435600502431
 21
29.694877633196029
 31
0.0
  0
LINE
  5
1FD3
  8
0
 62
     0
 10
57.456435600502431
 20
0.3051223668026068
 30
0.0
 11
57.456435600502431
 21
2.1051223668371222
 31
0.0
  0
LINE
  5
1FD4
  8
0
 62
     0
 10
56.206435600502431
 20
27.894877633161741
 30
0.0
 11
56.206435600502431
 21
29.694877633196029
 31
0.0
  0
LINE
  5
1FD5
  8
0
 62
     0
 10
56.206435600502431
 20
0.3051223668026068
 30
0.0
 11
56.206435600502431
 21
2.105122366837008
 31
0.0
  0
LINE
  5
1FD6
  8
0
 62
     0
 10
54.956435600502431
 20
27.894877633161741
 30
0.0
 11
54.956435600502431
 21
29.694877633196029
 31
0.0
  0
LINE
  5
1FD7
  8
0
 62
     0
 10
54.956435600502431
 20
0.3051223668026068
 30
0.0
 11
54.956435600502431
 21
2.1051223668368939
 31
0.0
  0
LINE
  5
1FD8
  8
0
 62
     0
 10
53.706435600502431
 20
27.894877633161741
 30
0.0
 11
53.706435600502431
 21
29.694877633196029
 31
0.0
  0
LINE
  5
1FD9
  8
0
 62
     0
 10
53.706435600502431
 20
0.3051223668026068
 30
0.0
 11
53.706435600502431
 21
2.105122366836667
 31
0.0
  0
LINE
  5
1FDA
  8
0
 62
     0
 10
52.456435600502431
 20
27.894877633161741
 30
0.0
 11
52.456435600502431
 21
29.694877633196029
 31
0.0
  0
LINE
  5
1FDB
  8
0
 62
     0
 10
52.456435600502431
 20
0.3051223668026068
 30
0.0
 11
52.456435600502431
 21
2.1051223668365528
 31
0.0
  0
LINE
  5
1FDC
  8
0
 62
     0
 10
51.206435600502431
 20
27.894877633161741
 30
0.0
 11
51.206435600502431
 21
29.694877633196029
 31
0.0
  0
LINE
  5
1FDD
  8
0
 62
     0
 10
51.206435600502431
 20
0.3051223668026068
 30
0.0
 11
51.206435600502431
 21
2.1051223668364401
 31
0.0
  0
LINE
  5
1FDE
  8
0
 62
     0
 10
49.956435600502431
 20
27.894877633161741
 30
0.0
 11
49.956435600502431
 21
29.694877633196029
 31
0.0
  0
LINE
  5
1FDF
  8
0
 62
     0
 10
49.956435600502431
 20
0.3051223668026068
 30
0.0
 11
49.956435600502431
 21
2.1051223668365528
 31
0.0
  0
LINE
  5
1FE0
  8
0
 62
     0
 10
48.706435600502431
 20
27.894877633161741
 30
0.0
 11
48.706435600502431
 21
29.694877633196029
 31
0.0
  0
LINE
  5
1FE1
  8
0
 62
     0
 10
48.706435600502431
 20
0.3051223668026068
 30
0.0
 11
48.706435600502431
 21
2.105122366836667
 31
0.0
  0
LINE
  5
1FE2
  8
0
 62
     0
 10
47.456435600502431
 20
27.894877633161741
 30
0.0
 11
47.456435600502431
 21
29.694877633196029
 31
0.0
  0
LINE
  5
1FE3
  8
0
 62
     0
 10
47.456435600502417
 20
0.3051223668026068
 30
0.0
 11
47.456435600502417
 21
2.1051223668367811
 31
0.0
  0
LINE
  5
1FE4
  8
0
 62
     0
 10
46.206435600502431
 20
27.894877633161741
 30
0.0
 11
46.206435600502431
 21
29.694877633196029
 31
0.0
  0
LINE
  5
1FE5
  8
0
 62
     0
 10
46.206435600502417
 20
0.3051223668026068
 30
0.0
 11
46.206435600502417
 21
2.1051223668368939
 31
0.0
  0
LINE
  5
1FE6
  8
0
 62
     0
 10
44.956435600502431
 20
27.894877633161741
 30
0.0
 11
44.956435600502431
 21
29.694877633196029
 31
0.0
  0
LINE
  5
1FE7
  8
0
 62
     0
 10
44.956435600502417
 20
0.3051223668026068
 30
0.0
 11
44.956435600502417
 21
2.105122366837008
 31
0.0
  0
LINE
  5
1FE8
  8
0
 62
     0
 10
43.706435600502431
 20
27.894877633161741
 30
0.0
 11
43.706435600502431
 21
29.694877633196029
 31
0.0
  0
LINE
  5
1FE9
  8
0
 62
     0
 10
43.706435600502417
 20
0.3051223668026068
 30
0.0
 11
43.706435600502417
 21
2.1051223668371222
 31
0.0
  0
LINE
  5
1FEA
  8
0
 62
     0
 10
42.456435600502431
 20
27.894877633161741
 30
0.0
 11
42.456435600502431
 21
29.694877633196029
 31
0.0
  0
LINE
  5
1FEB
  8
0
 62
     0
 10
42.456435600502417
 20
0.3051223668026068
 30
0.0
 11
42.456435600502417
 21
2.1051223668373491
 31
0.0
  0
LINE
  5
1FEC
  8
0
 62
     0
 10
41.206435600502431
 20
26.958156240298081
 30
0.0
 11
41.206435600502431
 21
29.694877633196029
 31
0.0
  0
LINE
  5
1FED
  8
0
 62
     0
 10
41.206435600502417
 20
0.3051223668026068
 30
0.0
 11
41.206435600502417
 21
3.0418437596994181
 31
0.0
  0
LINE
  5
1FEE
  8
0
 62
     0
 10
39.956435600502438
 20
24.8331056750194
 30
0.0
 11
39.956435600502438
 21
29.265908551154102
 31
0.0
  0
LINE
  5
1FEF
  8
0
 62
     0
 10
39.956435600502431
 20
0.7340914488434011
 30
0.0
 11
39.956435600502431
 21
5.166894324979693
 31
0.0
  0
LINE
  5
1FF0
  8
0
 62
     0
 10
38.706435600502438
 20
24.75872266291379
 30
0.0
 11
38.706435600502438
 21
26.789582861393569
 31
0.0
  0
LINE
  5
1FF1
  8
0
 62
     0
 10
38.706435600502431
 20
3.2104171386051799
 30
0.0
 11
38.706435600502431
 21
5.2412773370846253
 31
0.0
  0
LINE
  5
1FF2
  8
0
 62
     0
 10
37.456435600502438
 20
24.105077677855661
 30
0.0
 11
37.456435600502438
 21
27.49551271077166
 31
0.0
  0
LINE
  5
1FF3
  8
0
 62
     0
 10
37.456435600502431
 20
2.5044872892273129
 30
0.0
 11
37.456435600502431
 21
5.894922322142861
 31
0.0
  0
LINE
  5
1FF4
  8
0
 62
     0
 10
36.206435600502438
 20
23.750549974997629
 30
0.0
 11
36.206435600502438
 21
27.839205291535219
 31
0.0
  0
LINE
  5
1FF5
  8
0
 62
     0
 10
36.206435600502431
 20
2.160794708462844
 30
0.0
 11
36.206435600502431
 21
6.2494500250011242
 31
0.0
  0
ENDBLK
  5
1FF7
  8
0
  0
ENDSEC
  0
SECTION
  2
ENTITIES
  0
ARC
  5
358
  8
SAPA_ANSLUTNING
 10
118.5364321870348
 20
37.091514237473113
 30
0.0
 40
31.543903339916149
 50
165.480256263683
 51
192.99194681445661
  0
POLYLINE
  5
78D
  8
SAPA_ANSLUTNING
 10
76.393774343720636
 20
24.999999999999421
 30
0.0
 66
     1
 70
     8
  0
VERTEX
  8
SAPA_ANSLUTNING
  5
1FF8
 10
76.3938
 20
25.0000
 30
0.000000
  70
    32
  0
VERTEX
  8
SAPA_ANSLUTNING
  5
1FF9
 10
76.6146
 20
25.0119
 30
0.000000
  70
    32
  0
VERTEX
  8
SAPA_ANSLUTNING
  5
1FFA
 10
76.8349
 20
25.0479
 30
0.000000
  70
    32
  0
VERTEX
  8
SAPA_ANSLUTNING
  5
1FFB
 10
77.0541
 20
25.1079
 30
0.000000
  70
    32
  0
VERTEX
  8
SAPA_ANSLUTNING
  5
1FFC
 10
77.2718
 20
25.1917
 30
0.000000
  70
    32
  0
VERTEX
  8
SAPA_ANSLUTNING
  5
1FFD
 10
77.4873
 20
25.2992
 30
0.000000
  70
    32
  0
VERTEX
  8
SAPA_ANSLUTNING
  5
1FFE
 10
77.7003
 20
25.4300
 30
0.000000
  70
    32
  0
VERTEX
  8
SAPA_ANSLUTNING
  5
1FFF
 10
77.9101
 20
25.5838
 30
0.000000
  70
    32
  0
VERTEX
  8
SAPA_ANSLUTNING
  5
2000
 10
78.1162
 20
25.7604
 30
0.000000
  70
    32
  0
VERTEX
  8
SAPA_ANSLUTNING
  5
2001
 10
78.3182
 20
25.9592
 30
0.000000
  70
    32
  0
VERTEX
  8
SAPA_ANSLUTNING
  5
2002
 10
78.5156
 20
26.1798
 30
0.000000
  70
    32
  0
VERTEX
  8
SAPA_ANSLUTNING
  5
2003
 10
78.7079
 20
26.4216
 30
0.000000
  70
    32
  0
VERTEX
  8
SAPA_ANSLUTNING
  5
2004
 10
78.8947
 20
26.6841
 30
0.000000
  70
    32
  0
VERTEX
  8
SAPA_ANSLUTNING
  5
2005
 10
79.0754
 20
26.9666
 30
0.000000
  70
    32
  0
VERTEX
  8
SAPA_ANSLUTNING
  5
2006
 10
79.2496
 20
27.2685
 30
0.000000
  70
    32
  0
VERTEX
  8
SAPA_ANSLUTNING
  5
2007
 10
79.4171
 20
27.5890
 30
0.000000
  70
    32
  0
VERTEX
  8
SAPA_ANSLUTNING
  5
2008
 10
79.5772
 20
27.9274
 30
0.000000
  70
    32
  0
VERTEX
  8
SAPA_ANSLUTNING
  5
2009
 10
79.7297
 20
28.2828
 30
0.000000
  70
    32
  0
VERTEX
  8
SAPA_ANSLUTNING
  5
200A
 10
79.8741
 20
28.6544
 30
0.000000
  70
    32
  0
VERTEX
  8
SAPA_ANSLUTNING
  5
200B
 10
80.0102
 20
29.0412
 30
0.000000
  70
    32
  0
VERTEX
  8
SAPA_ANSLUTNING
  5
200C
 10
80.1376
 20
29.4425
 30
0.000000
  70
    32
  0
VERTEX
  8
SAPA_ANSLUTNING
  5
200D
 10
80.2559
 20
29.8571
 30
0.000000
  70
    32
  0
VERTEX
  8
SAPA_ANSLUTNING
  5
200E
 10
80.3650
 20
30.2841
 30
0.000000
  70
    32
  0
VERTEX
  8
SAPA_ANSLUTNING
  5
200F
 10
80.4645
 20
30.7225
 30
0.000000
  70
    32
  0
VERTEX
  8
SAPA_ANSLUTNING
  5
2010
 10
80.5542
 20
31.1711
 30
0.000000
  70
    32
  0
VERTEX
  8
SAPA_ANSLUTNING
  5
2011
 10
80.6340
 20
31.6290
 30
0.000000
  70
    32
  0
VERTEX
  8
SAPA_ANSLUTNING
  5
2012
 10
80.7035
 20
32.0951
 30
0.000000
  70
    32
  0
VERTEX
  8
SAPA_ANSLUTNING
  5
2013
 10
80.7626
 20
32.5681
 30
0.000000
  70
    32
  0
VERTEX
  8
SAPA_ANSLUTNING
  5
2014
 10
80.8112
 20
33.0469
 30
0.000000
  70
    32
  0
VERTEX
  8
SAPA_ANSLUTNING
  5
2015
 10
80.8492
 20
33.5305
 30
0.000000
  70
    32
  0
VERTEX
  8
SAPA_ANSLUTNING
  5
2016
 10
80.8765
 20
34.0176
 30
0.000000
  70
    32
  0
VERTEX
  8
SAPA_ANSLUTNING
  5
2017
 10
80.8930
 20
34.5071
 30
0.000000
  70
    32
  0
VERTEX
  8
SAPA_ANSLUTNING
  5
2018
 10
80.8986
 20
34.9978
 30
0.000000
  70
    32
  0
VERTEX
  8
SAPA_ANSLUTNING
  5
2019
 10
80.8935
 20
35.4885
 30
0.000000
  70
    32
  0
VERTEX
  8
SAPA_ANSLUTNING
  5
201A
 10
80.8775
 20
35.9780
 30
0.000000
  70
    32
  0
VERTEX
  8
SAPA_ANSLUTNING
  5
201B
 10
80.8507
 20
36.4651
 30
0.000000
  70
    32
  0
VERTEX
  8
SAPA_ANSLUTNING
  5
201C
 10
80.8131
 20
36.9488
 30
0.000000
  70
    32
  0
VERTEX
  8
SAPA_ANSLUTNING
  5
201D
 10
80.7650
 20
37.4277
 30
0.000000
  70
    32
  0
VERTEX
  8
SAPA_ANSLUTNING
  5
201E
 10
80.7063
 20
37.9008
 30
0.000000
  70
    32
  0
VERTEX
  8
SAPA_ANSLUTNING
  5
201F
 10
80.6372
 20
38.3668
 30
0.000000
  70
    32
  0
VERTEX
  8
SAPA_ANSLUTNING
  5
2020
 10
80.5580
 20
38.8248
 30
0.000000
  70
    32
  0
VERTEX
  8
SAPA_ANSLUTNING
  5
2021
 10
80.4687
 20
39.2736
 30
0.000000
  70
    32
  0
VERTEX
  8
SAPA_ANSLUTNING
  5
2022
 10
80.3696
 20
39.7120
 30
0.000000
  70
    32
  0
VERTEX
  8
SAPA_ANSLUTNING
  5
2023
 10
80.2609
 20
40.1391
 30
0.000000
  70
    32
  0
VERTEX
  8
SAPA_ANSLUTNING
  5
2024
 10
80.1430
 20
40.5539
 30
0.000000
  70
    32
  0
VERTEX
  8
SAPA_ANSLUTNING
  5
2025
 10
80.0160
 20
40.9552
 30
0.000000
  70
    32
  0
VERTEX
  8
SAPA_ANSLUTNING
  5
2026
 10
79.8803
 20
41.3422
 30
0.000000
  70
    32
  0
VERTEX
  8
SAPA_ANSLUTNING
  5
2027
 10
79.7362
 20
41.7140
 30
0.000000
  70
    32
  0
VERTEX
  8
SAPA_ANSLUTNING
  5
2028
 10
79.5841
 20
42.0695
 30
0.000000
  70
    32
  0
VERTEX
  8
SAPA_ANSLUTNING
  5
2029
 10
79.4243
 20
42.4080
 30
0.000000
  70
    32
  0
VERTEX
  8
SAPA_ANSLUTNING
  5
202A
 10
79.2572
 20
42.7287
 30
0.000000
  70
    32
  0
VERTEX
  8
SAPA_ANSLUTNING
  5
202B
 10
79.0832
 20
43.0308
 30
0.000000
  70
    32
  0
VERTEX
  8
SAPA_ANSLUTNING
  5
202C
 10
78.9028
 20
43.3135
 30
0.000000
  70
    32
  0
VERTEX
  8
SAPA_ANSLUTNING
  5
202D
 10
78.7163
 20
43.5762
 30
0.000000
  70
    32
  0
VERTEX
  8
SAPA_ANSLUTNING
  5
202E
 10
78.5242
 20
43.8182
 30
0.000000
  70
    32
  0
VERTEX
  8
SAPA_ANSLUTNING
  5
202F
 10
78.3270
 20
44.0390
 30
0.000000
  70
    32
  0
VERTEX
  8
SAPA_ANSLUTNING
  5
2030
 10
78.1252
 20
44.2380
 30
0.000000
  70
    32
  0
VERTEX
  8
SAPA_ANSLUTNING
  5
2031
 10
77.9192
 20
44.4147
 30
0.000000
  70
    32
  0
VERTEX
  8
SAPA_ANSLUTNING
  5
2032
 10
77.7096
 20
44.5688
 30
0.000000
  70
    32
  0
VERTEX
  8
SAPA_ANSLUTNING
  5
2033
 10
77.4968
 20
44.6998
 30
0.000000
  70
    32
  0
VERTEX
  8
SAPA_ANSLUTNING
  5
2034
 10
77.2813
 20
44.8074
 30
0.000000
  70
    32
  0
VERTEX
  8
SAPA_ANSLUTNING
  5
2035
 10
77.0637
 20
44.8914
 30
0.000000
  70
    32
  0
VERTEX
  8
SAPA_ANSLUTNING
  5
2036
 10
76.8446
 20
44.9516
 30
0.000000
  70
    32
  0
VERTEX
  8
SAPA_ANSLUTNING
  5
2037
 10
76.6243
 20
44.9878
 30
0.000000
  70
    32
  0
VERTEX
  8
SAPA_ANSLUTNING
  5
2038
 10
76.4035
 20
45.0000
 30
0.000000
  70
    32
  0
VERTEX
  8
SAPA_ANSLUTNING
  5
2039
 10
76.1827
 20
44.9881
 30
0.000000
  70
    32
  0
VERTEX
  8
SAPA_ANSLUTNING
  5
203A
 10
75.9624
 20
44.9521
 30
0.000000
  70
    32
  0
VERTEX
  8
SAPA_ANSLUTNING
  5
203B
 10
75.7432
 20
44.8921
 30
0.000000
  70
    32
  0
VERTEX
  8
SAPA_ANSLUTNING
  5
203C
 10
75.5255
 20
44.8083
 30
0.000000
  70
    32
  0
VERTEX
  8
SAPA_ANSLUTNING
  5
203D
 10
75.3100
 20
44.7008
 30
0.000000
  70
    32
  0
VERTEX
  8
SAPA_ANSLUTNING
  5
203E
 10
75.0970
 20
44.5700
 30
0.000000
  70
    32
  0
VERTEX
  8
SAPA_ANSLUTNING
  5
203F
 10
74.8872
 20
44.4162
 30
0.000000
  70
    32
  0
VERTEX
  8
SAPA_ANSLUTNING
  5
2040
 10
74.6811
 20
44.2396
 30
0.000000
  70
    32
  0
VERTEX
  8
SAPA_ANSLUTNING
  5
2041
 10
74.4790
 20
44.0408
 30
0.000000
  70
    32
  0
VERTEX
  8
SAPA_ANSLUTNING
  5
2042
 10
74.2817
 20
43.8202
 30
0.000000
  70
    32
  0
VERTEX
  8
SAPA_ANSLUTNING
  5
2043
 10
74.0894
 20
43.5784
 30
0.000000
  70
    32
  0
VERTEX
  8
SAPA_ANSLUTNING
  5
2044
 10
73.9026
 20
43.3159
 30
0.000000
  70
    32
  0
VERTEX
  8
SAPA_ANSLUTNING
  5
2045
 10
73.7219
 20
43.0334
 30
0.000000
  70
    32
  0
VERTEX
  8
SAPA_ANSLUTNING
  5
2046
 10
73.5476
 20
42.7315
 30
0.000000
  70
    32
  0
VERTEX
  8
SAPA_ANSLUTNING
  5
2047
 10
73.3802
 20
42.4110
 30
0.000000
  70
    32
  0
VERTEX
  8
SAPA_ANSLUTNING
  5
2048
 10
73.2201
 20
42.0726
 30
0.000000
  70
    32
  0
VERTEX
  8
SAPA_ANSLUTNING
  5
2049
 10
73.0676
 20
41.7172
 30
0.000000
  70
    32
  0
VERTEX
  8
SAPA_ANSLUTNING
  5
204A
 10
72.9232
 20
41.3456
 30
0.000000
  70
    32
  0
VERTEX
  8
SAPA_ANSLUTNING
  5
204B
 10
72.7871
 20
40.9588
 30
0.000000
  70
    32
  0
VERTEX
  8
SAPA_ANSLUTNING
  5
204C
 10
72.6597
 20
40.5575
 30
0.000000
  70
    32
  0
VERTEX
  8
SAPA_ANSLUTNING
  5
204D
 10
72.5414
 20
40.1429
 30
0.000000
  70
    32
  0
VERTEX
  8
SAPA_ANSLUTNING
  5
204E
 10
72.4323
 20
39.7159
 30
0.000000
  70
    32
  0
VERTEX
  8
SAPA_ANSLUTNING
  5
204F
 10
72.3328
 20
39.2775
 30
0.000000
  70
    32
  0
VERTEX
  8
SAPA_ANSLUTNING
  5
2050
 10
72.2430
 20
38.8289
 30
0.000000
  70
    32
  0
VERTEX
  8
SAPA_ANSLUTNING
  5
2051
 10
72.1633
 20
38.3710
 30
0.000000
  70
    32
  0
VERTEX
  8
SAPA_ANSLUTNING
  5
2052
 10
72.0938
 20
37.9049
 30
0.000000
  70
    32
  0
VERTEX
  8
SAPA_ANSLUTNING
  5
2053
 10
72.0347
 20
37.4319
 30
0.000000
  70
    32
  0
VERTEX
  8
SAPA_ANSLUTNING
  5
2054
 10
71.9861
 20
36.9531
 30
0.000000
  70
    32
  0
VERTEX
  8
SAPA_ANSLUTNING
  5
2055
 10
71.9481
 20
36.4695
 30
0.000000
  70
    32
  0
VERTEX
  8
SAPA_ANSLUTNING
  5
2056
 10
71.9208
 20
35.9824
 30
0.000000
  70
    32
  0
VERTEX
  8
SAPA_ANSLUTNING
  5
2057
 10
71.9043
 20
35.4929
 30
0.000000
  70
    32
  0
VERTEX
  8
SAPA_ANSLUTNING
  5
2058
 10
71.8986
 20
35.0022
 30
0.000000
  70
    32
  0
VERTEX
  8
SAPA_ANSLUTNING
  5
2059
 10
71.9038
 20
34.5115
 30
0.000000
  70
    32
  0
VERTEX
  8
SAPA_ANSLUTNING
  5
205A
 10
71.9198
 20
34.0220
 30
0.000000
  70
    32
  0
VERTEX
  8
SAPA_ANSLUTNING
  5
205B
 10
71.9466
 20
33.5349
 30
0.000000
  70
    32
  0
VERTEX
  8
SAPA_ANSLUTNING
  5
205C
 10
71.9842
 20
33.0512
 30
0.000000
  70
    32
  0
VERTEX
  8
SAPA_ANSLUTNING
  5
205D
 10
72.0323
 20
32.5723
 30
0.000000
  70
    32
  0
VERTEX
  8
SAPA_ANSLUTNING
  5
205E
 10
72.0910
 20
32.0992
 30
0.000000
  70
    32
  0
VERTEX
  8
SAPA_ANSLUTNING
  5
205F
 10
72.1601
 20
31.6332
 30
0.000000
  70
    32
  0
VERTEX
  8
SAPA_ANSLUTNING
  5
2060
 10
72.2393
 20
31.1752
 30
0.000000
  70
    32
  0
VERTEX
  8
SAPA_ANSLUTNING
  5
2061
 10
72.3286
 20
30.7264
 30
0.000000
  70
    32
  0
VERTEX
  8
SAPA_ANSLUTNING
  5
2062
 10
72.4277
 20
30.2880
 30
0.000000
  70
    32
  0
VERTEX
  8
SAPA_ANSLUTNING
  5
2063
 10
72.5364
 20
29.8609
 30
0.000000
  70
    32
  0
VERTEX
  8
SAPA_ANSLUTNING
  5
2064
 10
72.6543
 20
29.4461
 30
0.000000
  70
    32
  0
VERTEX
  8
SAPA_ANSLUTNING
  5
2065
 10
72.7813
 20
29.0448
 30
0.000000
  70
    32
  0
VERTEX
  8
SAPA_ANSLUTNING
  5
2066
 10
72.9170
 20
28.6578
 30
0.000000
  70
    32
  0
VERTEX
  8
SAPA_ANSLUTNING
  5
2067
 10
73.0611
 20
28.2860
 30
0.000000
  70
    32
  0
VERTEX
  8
SAPA_ANSLUTNING
  5
2068
 10
73.2132
 20
27.9305
 30
0.000000
  70
    32
  0
VERTEX
  8
SAPA_ANSLUTNING
  5
2069
 10
73.3730
 20
27.5920
 30
0.000000
  70
    32
  0
VERTEX
  8
SAPA_ANSLUTNING
  5
206A
 10
73.5401
 20
27.2713
 30
0.000000
  70
    32
  0
VERTEX
  8
SAPA_ANSLUTNING
  5
206B
 10
73.7141
 20
26.9692
 30
0.000000
  70
    32
  0
VERTEX
  8
SAPA_ANSLUTNING
  5
206C
 10
73.8945
 20
26.6865
 30
0.000000
  70
    32
  0
VERTEX
  8
SAPA_ANSLUTNING
  5
206D
 10
74.0810
 20
26.4238
 30
0.000000
  70
    32
  0
VERTEX
  8
SAPA_ANSLUTNING
  5
206E
 10
74.2731
 20
26.1818
 30
0.000000
  70
    32
  0
VERTEX
  8
SAPA_ANSLUTNING
  5
206F
 10
74.4702
 20
25.9610
 30
0.000000
  70
    32
  0
VERTEX
  8
SAPA_ANSLUTNING
  5
2070
 10
74.6721
 20
25.7620
 30
0.000000
  70
    32
  0
VERTEX
  8
SAPA_ANSLUTNING
  5
2071
 10
74.8781
 20
25.5853
 30
0.000000
  70
    32
  0
VERTEX
  8
SAPA_ANSLUTNING
  5
2072
 10
75.0877
 20
25.4312
 30
0.000000
  70
    32
  0
VERTEX
  8
SAPA_ANSLUTNING
  5
2073
 10
75.3005
 20
25.3002
 30
0.000000
  70
    32
  0
VERTEX
  8
SAPA_ANSLUTNING
  5
2074
 10
75.5160
 20
25.1926
 30
0.000000
  70
    32
  0
VERTEX
  8
SAPA_ANSLUTNING
  5
2075
 10
75.7335
 20
25.1086
 30
0.000000
  70
    32
  0
VERTEX
  8
SAPA_ANSLUTNING
  5
2076
 10
75.9527
 20
25.0484
 30
0.000000
  70
    32
  0
VERTEX
  8
SAPA_ANSLUTNING
  5
2077
 10
76.1730
 20
25.0122
 30
0.000000
  70
    32
  0
VERTEX
  8
SAPA_ANSLUTNING
  5
2078
 10
76.3938
 20
25.0000
 30
0.000000
  70
    32
  0
SEQEND
  8
SAPA_ANSLUTNING
  5
2079
  0
LINE
  5
1009
  8
SAPA_ANSLUTNING
  6
NEWDOT
 10
-116.0000000010177
 20
-65.543828313683704
 30
0.0
 11
217.9999999989823
 21
-65.543828313683733
 31
0.0
  0
CIRCLE
  5
1763
  8
SAPA_ANSLUTNING
 10
20.142367410117
 20
51.550211203167571
 30
0.0
 40
3.0
  0
LINE
  5
1764
  8
SAPA_ANSLUTNING
 10
-99.000000001017725
 20
165.37987052680421
 30
0.0
 11
-99.000000001017725
 21
34.999999999999432
 31
0.0
  0
LINE
  5
1765
  8
SAPA_ANSLUTNING
 10
200.9999999989823
 20
34.999999999999432
 30
0.0
 11
200.9999999989823
 21
165.37987052680421
 31
0.0
  0
LINE
  5
1766
  8
SAPA_ANSLUTNING
 10
190.9999999989823
 20
44.999999999999432
 30
0.0
 11
190.99999999898199
 21
165.3798705268041
 31
0.0
  0
LINE
  5
1767
  8
SAPA_ANSLUTNING
 10
-89.000000001017966
 20
165.3798705268041
 30
0.0
 11
-89.000000001017725
 21
44.999999999999432
 31
0.0
  0
LINE
  5
1768
  8
SAPA_ANSLUTNING
 10
-89.000000001017725
 20
44.999999999999432
 30
0.0
 11
190.9999999989823
 21
44.999999999999432
 31
0.0
  0
CIRCLE
  5
176C
  8
SAPA_ANSLUTNING
 10
-19.574503108135101
 20
105.9964940472358
 30
0.0
 40
3.0
  0
CIRCLE
  5
176D
  8
SAPA_ANSLUTNING
 10
-21.102076068810678
 20
57.147492294377457
 30
0.0
 40
2.0
  0
CIRCLE
  5
176E
  8
SAPA_ANSLUTNING
 10
-32.813461207520049
 20
79.536618960902501
 30
0.0
 40
3.0
  0
CIRCLE
  5
176F
  8
SAPA_ANSLUTNING
 10
-65.910856455984685
 20
83.098526993050996
 30
0.0
 40
3.0
  0
CIRCLE
  5
1770
  8
SAPA_ANSLUTNING
 10
-77.113054387707052
 20
59.182869956808531
 30
0.0
 40
2.0
  0
CIRCLE
  5
1771
  8
SAPA_ANSLUTNING
 10
-54.199471317275311
 20
60.709400326525952
 30
0.0
 40
2.0
  0
CIRCLE
  5
1772
  8
SAPA_ANSLUTNING
 10
-82.714147683710493
 20
89.713493462949714
 30
0.0
 40
2.0
  0
CIRCLE
  5
1773
  8
SAPA_ANSLUTNING
 10
-61.328141353859792
 20
105.9964940472358
 30
0.0
 40
3.0
  0
CIRCLE
  5
1774
  8
SAPA_ANSLUTNING
 10
-75.076290440138095
 20
126.3502453530144
 30
0.0
 40
2.0
  0
CIRCLE
  5
1775
  8
SAPA_ANSLUTNING
 10
-52.162707369706368
 20
127.87677572273179
 30
0.0
 40
2.0
  0
CIRCLE
  5
1776
  8
SAPA_ANSLUTNING
 10
-26.193982157828032
 20
131.94752644422471
 30
0.0
 40
2.0
  0
CIRCLE
  5
1777
  8
SAPA_ANSLUTNING
 10
-63.874092508415742
 20
150.26590238925689
 30
0.0
 40
3.0
  0
CIRCLE
  5
1778
  8
SAPA_ANSLUTNING
 10
-39.432940257213893
 20
150.26590238925689
 30
0.0
 40
2.0
  0
CIRCLE
  5
1779
  8
SAPA_ANSLUTNING
 10
132.16432026800339
 20
124.82371498329699
 30
0.0
 40
3.0
  0
CIRCLE
  5
177A
  8
SAPA_ANSLUTNING
 10
-9.8998781370901252
 20
83.098524691366379
 30
0.0
 40
2.0
  0
CIRCLE
  5
177B
  8
SAPA_ANSLUTNING
 10
13.522888360424069
 20
77.501243600156499
 30
0.0
 40
2.0
  0
CIRCLE
  5
177C
  8
SAPA_ANSLUTNING
 10
37.454849624734379
 20
65.28899373736283
 30
0.0
 40
2.0
  0
CIRCLE
  5
177D
  8
SAPA_ANSLUTNING
 10
11.48612819276059
 20
99.381525275652507
 30
0.0
 40
3.0
  0
CIRCLE
  5
177E
  8
SAPA_ANSLUTNING
 10
48.657047556456739
 20
89.204650773605294
 30
0.0
 40
3.0
  0
CIRCLE
  5
177F
  8
SAPA_ANSLUTNING
 10
49.166238543348292
 20
104.9788086685474
 30
0.0
 40
2.0
  0
CIRCLE
  5
1780
  8
SAPA_ANSLUTNING
 10
78.190109676581415
 20
80.554306641275957
 30
0.0
 40
2.0
  0
CIRCLE
  5
1781
  8
SAPA_ANSLUTNING
 10
60.368432695166121
 20
66.81552410708025
 30
0.0
 40
2.0
  0
CIRCLE
  5
1782
  8
SAPA_ANSLUTNING
 10
84.809588726274342
 20
54.603274244287043
 30
0.0
 40
3.0
  0
CIRCLE
  5
1783
  8
SAPA_ANSLUTNING
 10
102.1220709408917
 20
68.342056778482274
 30
0.0
 40
2.0
  0
CIRCLE
  5
1784
  8
SAPA_ANSLUTNING
 10
125.0356540113234
 20
69.868587148199708
 30
0.0
 40
2.0
  0
CIRCLE
  5
1785
  8
SAPA_ANSLUTNING
 10
113.3242688726141
 20
92.257713814724738
 30
0.0
 40
3.0
  0
CIRCLE
  5
1786
  8
SAPA_ANSLUTNING
 10
98.704402589799429
 20
105.85945170683991
 30
0.0
 40
2.0
  0
CIRCLE
  5
1787
  8
SAPA_ANSLUTNING
 10
56.804095786920698
 20
141.61556055861209
 30
0.0
 40
2.0
  0
CIRCLE
  5
1788
  8
SAPA_ANSLUTNING
 10
8.9401770382046362
 20
143.6509336176735
 30
0.0
 40
3.0
  0
CIRCLE
  5
1789
  8
SAPA_ANSLUTNING
 10
-2.2620208935177279
 20
119.73527658143109
 30
0.0
 40
2.0
  0
CIRCLE
  5
178A
  8
SAPA_ANSLUTNING
 10
-11.97380119370427
 20
140.7833050326106
 30
0.0
 40
2.0
  0
CIRCLE
  5
178B
  8
SAPA_ANSLUTNING
 10
39.491613572303322
 20
127.87677802441689
 30
0.0
 40
3.0
  0
CIRCLE
  5
178C
  8
SAPA_ANSLUTNING
 10
20.651562176914009
 20
121.2618069511485
 30
0.0
 40
2.0
  0
CIRCLE
  5
178D
  8
SAPA_ANSLUTNING
 10
-14.65689181881771
 20
160.2224649327608
 30
0.0
 40
2.0
  0
CIRCLE
  5
178E
  8
SAPA_ANSLUTNING
 10
32.872134522610402
 20
153.82781042140579
 30
0.0
 40
2.0
  0
CIRCLE
  5
178F
  8
SAPA_ANSLUTNING
 10
118.41617118172501
 20
145.1774662890756
 30
0.0
 40
2.0
  0
CIRCLE
  5
1790
  8
SAPA_ANSLUTNING
 10
79.717678857352439
 20
143.14209092832959
 30
0.0
 40
2.0
  0
CIRCLE
  5
1791
  8
SAPA_ANSLUTNING
 10
70.552244873199015
 20
121.2618092528336
 30
0.0
 40
3.0
  0
CIRCLE
  5
1792
  8
SAPA_ANSLUTNING
 10
101.1036889671077
 20
131.43868375488029
 30
0.0
 40
3.0
  0
CIRCLE
  5
1793
  8
SAPA_ANSLUTNING
 10
94.484209917414759
 20
157.38971615186929
 30
0.0
 40
2.0
  0
CIRCLE
  5
1794
  8
SAPA_ANSLUTNING
 10
167.29847568413061
 20
75.974713230438624
 30
0.0
 40
2.0
  0
CIRCLE
  5
1795
  8
SAPA_ANSLUTNING
 10
149.9859934695132
 20
62.235930696243372
 30
0.0
 40
3.0
  0
CIRCLE
  5
1796
  8
SAPA_ANSLUTNING
 10
181.0466247704089
 20
55.620961924660037
 30
0.0
 40
3.0
  0
CIRCLE
  5
1797
  8
SAPA_ANSLUTNING
 10
168.31686143781999
 20
108.5407143990108
 30
0.0
 40
2.0
  0
CIRCLE
  5
1798
  8
SAPA_ANSLUTNING
 10
143.36651441982031
 20
88.186963093232293
 30
0.0
 40
2.0
  0
CIRCLE
  5
1799
  8
SAPA_ANSLUTNING
 10
178.50067361585289
 20
99.890370266681089
 30
0.0
 40
3.0
  0
CIRCLE
  5
179A
  8
SAPA_ANSLUTNING
 10
175.95471868139239
 20
145.1774662890756
 30
0.0
 40
2.0
  0
CIRCLE
  5
179B
  8
SAPA_ANSLUTNING
 10
158.6422364667751
 20
131.43868375488029
 30
0.0
 40
3.0
  0
CIRCLE
  5
179C
  8
SAPA_ANSLUTNING
 10
152.0227574170822
 20
157.38971615186929
 30
0.0
 40
2.0
  0
CIRCLE
  5
179D
  8
SAPA_ANSLUTNING
 10
141.32975425215679
 20
146.70399665879299
 30
0.0
 40
2.0
  0
LINE
  5
179E
  8
SAPA_ANSLUTNING
 10
-99.000000001017725
 20
34.999999999999432
 30
0.0
 11
-99.000000001017725
 21
-65.543828313683704
 31
0.0
  0
LINE
  5
179F
  8
SAPA_ANSLUTNING
 10
200.9999999989823
 20
34.999999999999432
 30
0.0
 11
200.9999999989823
 21
-65.543828313683733
 31
0.0
  0
LINE
  5
17A1
  8
SAPA_ANSLUTNING
 10
3.7071848068338791
 20
35.041868764993637
 30
0.0
 11
3.7071848068338791
 21
-65.543828313683704
 31
0.0
  0
LINE
  5
183F
  8
SAPA_ANSLUTNING
 10
11.65247865278627
 20
44.19999999999947
 30
0.0
 11
13.19890212170959
 21
20.90759506057098
 31
0.0
  0
LINE
  5
1840
  8
SAPA_ANSLUTNING
 10
13.19890212170959
 20
20.90759506057098
 30
0.0
 11
13.99999999850821
 21
20.90759506057098
 31
0.0
  0
LINE
  5
1841
  8
SAPA_ANSLUTNING
 10
13.99999999850821
 20
20.90759506057098
 30
0.0
 11
12.41165030615832
 21
44.999999999999432
 31
0.0
  0
LINE
  5
1842
  8
SAPA_ANSLUTNING
 10
12.41165030615832
 20
44.999999999999432
 30
0.0
 11
2.384203386199828
 21
44.999999999999432
 31
0.0
  0
LINE
  5
1843
  8
SAPA_ANSLUTNING
 10
2.384203386199828
 20
44.999999999999432
 30
0.0
 11
2.9082811790302681
 21
34.999999999999432
 31
0.0
  0
LINE
  5
1844
  8
SAPA_ANSLUTNING
 10
2.9082811790302681
 20
34.999999999999432
 30
0.0
 11
3.7071848068338791
 21
35.041868764993637
 31
0.0
  0
LINE
  5
1845
  8
SAPA_ANSLUTNING
 10
3.7071848068338791
 20
35.041868764993637
 30
0.0
 11
3.2272274864245669
 21
44.19999999999947
 31
0.0
  0
LINE
  5
1846
  8
SAPA_ANSLUTNING
 10
3.2272274864245669
 20
44.19999999999947
 30
0.0
 11
11.65247865278627
 21
44.19999999999947
 31
0.0
  0
LINE
  5
1847
  8
SAPA_ANSLUTNING
  6
NEWDOT
 10
-116.0000000010177
 20
165.37987052680421
 30
0.0
 11
217.9999999989823
 21
165.37987052680421
 31
0.0
  0
LINE
  5
1848
  8
SAPA_ANSLUTNING
 10
200.9999999989823
 20
34.999999999999432
 30
0.0
 11
87.061944008314313
 21
34.999999999999318
 31
0.0
  0
LINE
  5
1849
  8
SAPA_ANSLUTNING
 10
-99.000000001017725
 20
34.999999999999432
 30
0.0
 11
2.9082811790302681
 21
34.999999999999318
 31
0.0
  0
LINE
  5
184A
  8
SAPA_ANSLUTNING
 10
23.8125
 20
43.994079999999997
 30
0.0
 11
24.606249999999999
 21
43.994079999999997
 31
0.0
1001
ACAD
1010
0.0
1020
0.0
1030
0.0
  0
LINE
  5
184B
  8
SAPA_ANSLUTNING
 10
26.193750000000001
 20
43.994079999999997
 30
0.0
 11
26.987500000000001
 21
43.994079999999997
 31
0.0
1001
ACAD
1010
0.0
1020
0.0
1030
0.0
  0
LINE
  5
184C
  8
SAPA_ANSLUTNING
 10
28.574999999999999
 20
43.994079999999997
 30
0.0
 11
29.368749999999999
 21
43.994079999999997
 31
0.0
1001
ACAD
1010
0.0
1020
0.0
1030
0.0
  0
LINE
  5
184D
  8
SAPA_ANSLUTNING
 10
30.956250000000001
 20
43.994079999999997
 30
0.0
 11
31.749999999999989
 21
43.994079999999997
 31
0.0
1001
ACAD
1010
0.0
1020
0.0
1030
0.0
  0
LINE
  5
184E
  8
SAPA_ANSLUTNING
 10
23.8125
 20
42.619264999999999
 30
0.0
 11
24.606249999999999
 21
42.619264999999999
 31
0.0
1001
ACAD
1010
0.0
1020
0.0
1030
0.0
  0
LINE
  5
184F
  8
SAPA_ANSLUTNING
 10
26.193750000000001
 20
42.619264999999999
 30
0.0
 11
26.987500000000001
 21
42.619264999999999
 31
0.0
1001
ACAD
1010
0.0
1020
0.0
1030
0.0
  0
LINE
  5
1850
  8
SAPA_ANSLUTNING
 10
28.574999999999999
 20
42.619264999999999
 30
0.0
 11
29.368749999999999
 21
42.619264999999999
 31
0.0
1001
ACAD
1010
0.0
1020
0.0
1030
0.0
  0
LINE
  5
1851
  8
SAPA_ANSLUTNING
 10
30.956250000000001
 20
42.619264999999999
 30
0.0
 11
31.749999999999989
 21
42.619264999999999
 31
0.0
1001
ACAD
1010
0.0
1020
0.0
1030
0.0
  0
LINE
  5
1852
  8
SAPA_ANSLUTNING
 10
23.8125
 20
41.244450000000001
 30
0.0
 11
24.606249999999999
 21
41.244450000000001
 31
0.0
1001
ACAD
1010
0.0
1020
0.0
1030
0.0
  0
LINE
  5
1853
  8
SAPA_ANSLUTNING
 10
26.193750000000001
 20
41.244450000000001
 30
0.0
 11
26.987500000000001
 21
41.244450000000001
 31
0.0
1001
ACAD
1010
0.0
1020
0.0
1030
0.0
  0
LINE
  5
1854
  8
SAPA_ANSLUTNING
 10
28.574999999999999
 20
41.244450000000001
 30
0.0
 11
29.368749999999999
 21
41.244450000000001
 31
0.0
1001
ACAD
1010
0.0
1020
0.0
1030
0.0
  0
LINE
  5
1855
  8
SAPA_ANSLUTNING
 10
30.956250000000001
 20
41.244450000000001
 30
0.0
 11
31.749999999999989
 21
41.244450000000001
 31
0.0
1001
ACAD
1010
0.0
1020
0.0
1030
0.0
  0
LINE
  5
1856
  8
SAPA_ANSLUTNING
 10
23.8125
 20
39.869635000000002
 30
0.0
 11
24.606249999999999
 21
39.869635000000002
 31
0.0
1001
ACAD
1010
0.0
1020
0.0
1030
0.0
  0
LINE
  5
1857
  8
SAPA_ANSLUTNING
 10
26.193750000000001
 20
39.869635000000002
 30
0.0
 11
26.987500000000001
 21
39.869635000000002
 31
0.0
1001
ACAD
1010
0.0
1020
0.0
1030
0.0
  0
LINE
  5
1858
  8
SAPA_ANSLUTNING
 10
28.574999999999999
 20
39.869635000000002
 30
0.0
 11
29.368749999999999
 21
39.869635000000002
 31
0.0
1001
ACAD
1010
0.0
1020
0.0
1030
0.0
  0
LINE
  5
1859
  8
SAPA_ANSLUTNING
 10
30.956250000000001
 20
39.869635000000002
 30
0.0
 11
31.749999999999989
 21
39.869635000000002
 31
0.0
1001
ACAD
1010
0.0
1020
0.0
1030
0.0
  0
LINE
  5
185A
  8
SAPA_ANSLUTNING
 10
23.8125
 20
38.494819999999997
 30
0.0
 11
24.606249999999999
 21
38.494819999999997
 31
0.0
1001
ACAD
1010
0.0
1020
0.0
1030
0.0
  0
LINE
  5
185B
  8
SAPA_ANSLUTNING
 10
26.193750000000001
 20
38.494819999999997
 30
0.0
 11
26.987500000000001
 21
38.494819999999997
 31
0.0
1001
ACAD
1010
0.0
1020
0.0
1030
0.0
  0
LINE
  5
185C
  8
SAPA_ANSLUTNING
 10
28.574999999999999
 20
38.494819999999997
 30
0.0
 11
29.368749999999999
 21
38.494819999999997
 31
0.0
1001
ACAD
1010
0.0
1020
0.0
1030
0.0
  0
LINE
  5
185D
  8
SAPA_ANSLUTNING
 10
30.956250000000001
 20
38.494819999999997
 30
0.0
 11
31.749999999999989
 21
38.494819999999997
 31
0.0
1001
ACAD
1010
0.0
1020
0.0
1030
0.0
  0
LINE
  5
185E
  8
SAPA_ANSLUTNING
 10
23.8125
 20
37.120004999999999
 30
0.0
 11
24.606249999999999
 21
37.120004999999999
 31
0.0
1001
ACAD
1010
0.0
1020
0.0
1030
0.0
  0
LINE
  5
185F
  8
SAPA_ANSLUTNING
 10
26.193750000000001
 20
37.120004999999999
 30
0.0
 11
26.987500000000001
 21
37.120004999999999
 31
0.0
1001
ACAD
1010
0.0
1020
0.0
1030
0.0
  0
LINE
  5
1860
  8
SAPA_ANSLUTNING
 10
28.574999999999999
 20
37.120004999999999
 30
0.0
 11
29.368749999999999
 21
37.120004999999999
 31
0.0
1001
ACAD
1010
0.0
1020
0.0
1030
0.0
  0
LINE
  5
1861
  8
SAPA_ANSLUTNING
 10
30.956250000000001
 20
37.120004999999999
 30
0.0
 11
31.749999999999989
 21
37.120004999999999
 31
0.0
1001
ACAD
1010
0.0
1020
0.0
1030
0.0
  0
LINE
  5
1862
  8
SAPA_ANSLUTNING
 10
23.8125
 20
35.745190000000001
 30
0.0
 11
24.606249999999999
 21
35.745190000000001
 31
0.0
1001
ACAD
1010
0.0
1020
0.0
1030
0.0
  0
LINE
  5
1863
  8
SAPA_ANSLUTNING
 10
26.193750000000001
 20
35.745190000000001
 30
0.0
 11
26.987500000000001
 21
35.745190000000001
 31
0.0
1001
ACAD
1010
0.0
1020
0.0
1030
0.0
  0
LINE
  5
1864
  8
SAPA_ANSLUTNING
 10
28.574999999999999
 20
35.745190000000001
 30
0.0
 11
29.368749999999999
 21
35.745190000000001
 31
0.0
1001
ACAD
1010
0.0
1020
0.0
1030
0.0
  0
LINE
  5
1865
  8
SAPA_ANSLUTNING
 10
30.956250000000001
 20
35.745190000000001
 30
0.0
 11
31.749999999999989
 21
35.745190000000001
 31
0.0
1001
ACAD
1010
0.0
1020
0.0
1030
0.0
  0
LINE
  5
1866
  8
SAPA_ANSLUTNING
 10
23.8125
 20
34.370375000000003
 30
0.0
 11
24.606249999999999
 21
34.370375000000003
 31
0.0
1001
ACAD
1010
0.0
1020
0.0
1030
0.0
  0
LINE
  5
1867
  8
SAPA_ANSLUTNING
 10
26.193750000000001
 20
34.370375000000003
 30
0.0
 11
26.987500000000001
 21
34.370375000000003
 31
0.0
1001
ACAD
1010
0.0
1020
0.0
1030
0.0
  0
LINE
  5
1868
  8
SAPA_ANSLUTNING
 10
28.574999999999999
 20
34.370375000000003
 30
0.0
 11
29.368749999999999
 21
34.370375000000003
 31
0.0
1001
ACAD
1010
0.0
1020
0.0
1030
0.0
  0
LINE
  5
1869
  8
SAPA_ANSLUTNING
 10
30.956250000000001
 20
34.370375000000003
 30
0.0
 11
31.749999999999989
 21
34.370375000000003
 31
0.0
1001
ACAD
1010
0.0
1020
0.0
1030
0.0
  0
LINE
  5
186A
  8
SAPA_ANSLUTNING
 10
23.8125
 20
32.995559999999998
 30
0.0
 11
24.606249999999999
 21
32.995559999999998
 31
0.0
1001
ACAD
1010
0.0
1020
0.0
1030
0.0
  0
LINE
  5
186B
  8
SAPA_ANSLUTNING
 10
26.193750000000001
 20
32.995559999999998
 30
0.0
 11
26.987500000000001
 21
32.995559999999998
 31
0.0
1001
ACAD
1010
0.0
1020
0.0
1030
0.0
  0
LINE
  5
186C
  8
SAPA_ANSLUTNING
 10
28.574999999999999
 20
32.995559999999998
 30
0.0
 11
29.368749999999999
 21
32.995559999999998
 31
0.0
1001
ACAD
1010
0.0
1020
0.0
1030
0.0
  0
LINE
  5
186D
  8
SAPA_ANSLUTNING
 10
30.956250000000001
 20
32.995559999999998
 30
0.0
 11
31.749999999999989
 21
32.995559999999998
 31
0.0
1001
ACAD
1010
0.0
1020
0.0
1030
0.0
  0
LINE
  5
186E
  8
SAPA_ANSLUTNING
 10
23.8125
 20
31.620744999999999
 30
0.0
 11
24.606249999999999
 21
31.620744999999999
 31
0.0
1001
ACAD
1010
0.0
1020
0.0
1030
0.0
  0
LINE
  5
186F
  8
SAPA_ANSLUTNING
 10
26.193750000000001
 20
31.620744999999999
 30
0.0
 11
26.987500000000001
 21
31.620744999999999
 31
0.0
1001
ACAD
1010
0.0
1020
0.0
1030
0.0
  0
LINE
  5
1870
  8
SAPA_ANSLUTNING
 10
28.574999999999999
 20
31.620744999999999
 30
0.0
 11
29.368749999999999
 21
31.620744999999999
 31
0.0
1001
ACAD
1010
0.0
1020
0.0
1030
0.0
  0
LINE
  5
1871
  8
SAPA_ANSLUTNING
 10
30.956250000000001
 20
31.620744999999999
 30
0.0
 11
31.749999999999989
 21
31.620744999999999
 31
0.0
1001
ACAD
1010
0.0
1020
0.0
1030
0.0
  0
LINE
  5
1872
  8
SAPA_ANSLUTNING
 10
23.8125
 20
30.245930000000001
 30
0.0
 11
24.606249999999999
 21
30.245930000000001
 31
0.0
1001
ACAD
1010
0.0
1020
0.0
1030
0.0
  0
LINE
  5
1873
  8
SAPA_ANSLUTNING
 10
26.193750000000001
 20
30.245930000000001
 30
0.0
 11
26.987500000000001
 21
30.245930000000001
 31
0.0
1001
ACAD
1010
0.0
1020
0.0
1030
0.0
  0
LINE
  5
1874
  8
SAPA_ANSLUTNING
 10
28.574999999999999
 20
30.245930000000001
 30
0.0
 11
29.368749999999999
 21
30.245930000000001
 31
0.0
1001
ACAD
1010
0.0
1020
0.0
1030
0.0
  0
LINE
  5
1875
  8
SAPA_ANSLUTNING
 10
30.956250000000001
 20
30.245930000000001
 30
0.0
 11
31.749999999999989
 21
30.245930000000001
 31
0.0
1001
ACAD
1010
0.0
1020
0.0
1030
0.0
  0
LINE
  5
1876
  8
SAPA_ANSLUTNING
 10
23.8125
 20
28.871114999999989
 30
0.0
 11
24.606249999999999
 21
28.871114999999989
 31
0.0
1001
ACAD
1010
0.0
1020
0.0
1030
0.0
  0
LINE
  5
1877
  8
SAPA_ANSLUTNING
 10
26.193750000000001
 20
28.871114999999989
 30
0.0
 11
26.987500000000001
 21
28.871114999999989
 31
0.0
1001
ACAD
1010
0.0
1020
0.0
1030
0.0
  0
LINE
  5
1878
  8
SAPA_ANSLUTNING
 10
28.574999999999999
 20
28.871114999999989
 30
0.0
 11
29.368749999999999
 21
28.871114999999989
 31
0.0
1001
ACAD
1010
0.0
1020
0.0
1030
0.0
  0
LINE
  5
1879
  8
SAPA_ANSLUTNING
 10
30.956250000000001
 20
28.871114999999989
 30
0.0
 11
31.749999999999989
 21
28.871114999999989
 31
0.0
1001
ACAD
1010
0.0
1020
0.0
1030
0.0
  0
LINE
  5
187A
  8
SAPA_ANSLUTNING
 10
23.8125
 20
27.496300000000002
 30
0.0
 11
24.606249999999999
 21
27.496300000000002
 31
0.0
1001
ACAD
1010
0.0
1020
0.0
1030
0.0
  0
LINE
  5
187B
  8
SAPA_ANSLUTNING
 10
26.193750000000001
 20
27.496300000000002
 30
0.0
 11
26.987500000000001
 21
27.496300000000002
 31
0.0
1001
ACAD
1010
0.0
1020
0.0
1030
0.0
  0
LINE
  5
187C
  8
SAPA_ANSLUTNING
 10
28.574999999999999
 20
27.496300000000002
 30
0.0
 11
29.368749999999999
 21
27.496300000000002
 31
0.0
1001
ACAD
1010
0.0
1020
0.0
1030
0.0
  0
LINE
  5
187D
  8
SAPA_ANSLUTNING
 10
30.956250000000001
 20
27.496300000000002
 30
0.0
 11
31.749999999999989
 21
27.496300000000002
 31
0.0
1001
ACAD
1010
0.0
1020
0.0
1030
0.0
  0
LINE
  5
187E
  8
SAPA_ANSLUTNING
 10
23.8125
 20
26.121485
 30
0.0
 11
24.606249999999999
 21
26.121485
 31
0.0
1001
ACAD
1010
0.0
1020
0.0
1030
0.0
  0
LINE
  5
187F
  8
SAPA_ANSLUTNING
 10
26.193750000000001
 20
26.121485
 30
0.0
 11
26.987500000000001
 21
26.121485
 31
0.0
1001
ACAD
1010
0.0
1020
0.0
1030
0.0
  0
LINE
  5
1880
  8
SAPA_ANSLUTNING
 10
28.574999999999999
 20
26.121485
 30
0.0
 11
29.368749999999999
 21
26.121485
 31
0.0
1001
ACAD
1010
0.0
1020
0.0
1030
0.0
  0
LINE
  5
1881
  8
SAPA_ANSLUTNING
 10
30.956250000000001
 20
26.121485
 30
0.0
 11
31.749999999999989
 21
26.121485
 31
0.0
1001
ACAD
1010
0.0
1020
0.0
1030
0.0
  0
LINE
  5
1882
  8
SAPA_ANSLUTNING
 10
23.66623416638955
 20
24.99999999999083
 30
0.0
 11
23.415618172093669
 21
25.43407963530067
 31
0.0
1001
ACAD
1010
0.0
1020
0.0
1030
0.0
  0
LINE
  5
1883
  8
SAPA_ANSLUTNING
 10
25.003117887597579
 20
25.434079471046768
 30
0.0
 11
24.606242887597581
 21
26.121487135300661
 31
0.0
1001
ACAD
1010
0.0
1020
0.0
1030
0.0
  0
LINE
  5
1884
  8
SAPA_ANSLUTNING
 10
23.812492887597571
 20
27.496302463808458
 30
0.0
 11
23.41561788759757
 21
28.183710128062359
 31
0.0
1001
ACAD
1010
0.0
1020
0.0
1030
0.0
  0
LINE
  5
1885
  8
SAPA_ANSLUTNING
 10
26.19374260310148
 20
26.121486971046771
 30
0.0
 11
25.796867603101479
 21
26.808894635300661
 31
0.0
1001
ACAD
1010
0.0
1020
0.0
1030
0.0
  0
LINE
  5
1886
  8
SAPA_ANSLUTNING
 10
25.003117603101479
 20
28.183709963808461
 30
0.0
 11
24.606242603101482
 21
28.871117628062361
 31
0.0
1001
ACAD
1010
0.0
1020
0.0
1030
0.0
  0
LINE
  5
1887
  8
SAPA_ANSLUTNING
 10
23.812492603101479
 20
30.245932956570162
 30
0.0
 11
23.415617603101481
 21
30.933340620824051
 31
0.0
1001
ACAD
1010
0.0
1020
0.0
1030
0.0
  0
LINE
  5
1888
  8
SAPA_ANSLUTNING
 10
28.428733028405158
 20
24.99999999999082
 30
0.0
 11
28.178117318605381
 21
25.43407914253897
 31
0.0
1001
ACAD
1010
0.0
1020
0.0
1030
0.0
  0
LINE
  5
1889
  8
SAPA_ANSLUTNING
 10
27.384367318605381
 20
26.80889447104677
 30
0.0
 11
26.98749231860538
 21
27.49630213530066
 31
0.0
1001
ACAD
1010
0.0
1020
0.0
1030
0.0
  0
LINE
  5
188A
  8
SAPA_ANSLUTNING
 10
26.193742318605381
 20
28.87111746380846
 30
0.0
 11
25.796867318605379
 21
29.55852512806236
 31
0.0
1001
ACAD
1010
0.0
1020
0.0
1030
0.0
  0
LINE
  5
188B
  8
SAPA_ANSLUTNING
 10
25.00311731860538
 20
30.93334045657015
 30
0.0
 11
24.606242318605378
 21
31.62074812082405
 31
0.0
1001
ACAD
1010
0.0
1020
0.0
1030
0.0
  0
LINE
  5
188C
  8
SAPA_ANSLUTNING
 10
23.812492318605379
 20
32.995563449331847
 30
0.0
 11
23.415617318605381
 21
33.682971113585737
 31
0.0
1001
ACAD
1010
0.0
1020
0.0
1030
0.0
  0
LINE
  5
188D
  8
SAPA_ANSLUTNING
 10
29.76561703410928
 20
25.434078978285068
 30
0.0
 11
29.368742034109282
 21
26.121486642538969
 31
0.0
1001
ACAD
1010
0.0
1020
0.0
1030
0.0
  0
LINE
  5
188E
  8
SAPA_ANSLUTNING
 10
28.574992034109279
 20
27.496301971046769
 30
0.0
 11
28.178117034109281
 21
28.183709635300659
 31
0.0
1001
ACAD
1010
0.0
1020
0.0
1030
0.0
  0
LINE
  5
188F
  8
SAPA_ANSLUTNING
 10
27.384367034109282
 20
29.558524963808459
 30
0.0
 11
26.98749203410928
 21
30.245932628062359
 31
0.0
1001
ACAD
1010
0.0
1020
0.0
1030
0.0
  0
LINE
  5
1890
  8
SAPA_ANSLUTNING
 10
26.193742034109281
 20
31.620747956570149
 30
0.0
 11
25.79686703410928
 21
32.308155620824053
 31
0.0
1001
ACAD
1010
0.0
1020
0.0
1030
0.0
  0
LINE
  5
1891
  8
SAPA_ANSLUTNING
 10
25.00311703410928
 20
33.682970949331853
 30
0.0
 11
24.606242034109279
 21
34.370378613585743
 31
0.0
1001
ACAD
1010
0.0
1020
0.0
1030
0.0
  0
LINE
  5
1892
  8
SAPA_ANSLUTNING
 10
23.81249203410928
 20
35.745193942093543
 30
0.0
 11
23.415617034109282
 21
36.432601606347433
 31
0.0
1001
ACAD
1010
0.0
1020
0.0
1030
0.0
  0
LINE
  5
1893
  8
SAPA_ANSLUTNING
 10
30.956241749613191
 20
26.121486478285071
 30
0.0
 11
30.559366749613179
 21
26.808894142538971
 31
0.0
1001
ACAD
1010
0.0
1020
0.0
1030
0.0
  0
LINE
  5
1894
  8
SAPA_ANSLUTNING
 10
29.765616749613191
 20
28.183709471046772
 30
0.0
 11
29.368741749613179
 21
28.871117135300661
 31
0.0
1001
ACAD
1010
0.0
1020
0.0
1030
0.0
  0
LINE
  5
1895
  8
SAPA_ANSLUTNING
 10
28.574991749613179
 20
30.245932463808462
 30
0.0
 11
28.178116749613181
 21
30.933340128062358
 31
0.0
1001
ACAD
1010
0.0
1020
0.0
1030
0.0
  0
LINE
  5
1896
  8
SAPA_ANSLUTNING
 10
27.384366749613179
 20
32.308155456570148
 30
0.0
 11
26.987491749613181
 21
32.995563120824052
 31
0.0
1001
ACAD
1010
0.0
1020
0.0
1030
0.0
  0
LINE
  5
1897
  8
SAPA_ANSLUTNING
 10
26.193741749613181
 20
34.370378449331838
 30
0.0
 11
25.79686674961318
 21
35.057786113585742
 31
0.0
1001
ACAD
1010
0.0
1020
0.0
1030
0.0
  0
LINE
  5
1898
  8
SAPA_ANSLUTNING
 10
25.003116749613181
 20
36.432601442093528
 30
0.0
 11
24.606241749613179
 21
37.120009106347418
 31
0.0
1001
ACAD
1010
0.0
1020
0.0
1030
0.0
  0
LINE
  5
1899
  8
SAPA_ANSLUTNING
 10
23.81249174961318
 20
38.494824434855218
 30
0.0
 11
23.415616749613179
 21
39.182232099109108
 31
0.0
1001
ACAD
1010
0.0
1020
0.0
1030
0.0
  0
LINE
  5
189A
  8
SAPA_ANSLUTNING
 10
32.000000000718131
 20
27.06327415655208
 30
0.0
 11
31.749991465117098
 21
27.49630164253897
 31
0.0
1001
ACAD
1010
0.0
1020
0.0
1030
0.0
  0
LINE
  5
189B
  8
SAPA_ANSLUTNING
 10
30.956241465117099
 20
28.871116971046771
 30
0.0
 11
30.55936646511709
 21
29.558524635300671
 31
0.0
1001
ACAD
1010
0.0
1020
0.0
1030
0.0
  0
LINE
  5
189C
  8
SAPA_ANSLUTNING
 10
29.765616465117098
 20
30.933339963808471
 30
0.0
 11
29.36874146511709
 21
31.620747628062361
 31
0.0
1001
ACAD
1010
0.0
1020
0.0
1030
0.0
  0
LINE
  5
189D
  8
SAPA_ANSLUTNING
 10
28.574991465117101
 20
32.995562956570161
 30
0.0
 11
28.178116465117089
 21
33.682970620824051
 31
0.0
1001
ACAD
1010
0.0
1020
0.0
1030
0.0
  0
LINE
  5
189E
  8
SAPA_ANSLUTNING
 10
27.3843664651171
 20
35.057785949331851
 30
0.0
 11
26.987491465117088
 21
35.745193613585741
 31
0.0
1001
ACAD
1010
0.0
1020
0.0
1030
0.0
  0
LINE
  5
189F
  8
SAPA_ANSLUTNING
 10
26.193741465117089
 20
37.120008942093527
 30
0.0
 11
25.796866465117091
 21
37.807416606347431
 31
0.0
1001
ACAD
1010
0.0
1020
0.0
1030
0.0
  0
LINE
  5
18A0
  8
SAPA_ANSLUTNING
 10
25.003116465117088
 20
39.182231934855217
 30
0.0
 11
24.60624146511709
 21
39.869639599109121
 31
0.0
1001
ACAD
1010
0.0
1020
0.0
1030
0.0
  0
LINE
  5
18A1
  8
SAPA_ANSLUTNING
 10
23.812491465117091
 20
41.244454927616907
 30
0.0
 11
23.41561646511709
 21
41.931862591870811
 31
0.0
1001
ACAD
1010
0.0
1020
0.0
1030
0.0
  0
LINE
  5
18A2
  8
SAPA_ANSLUTNING
 10
32.000000000718117
 20
29.81290415655209
 30
0.0
 11
31.749991180620992
 21
30.245932135300659
 31
0.0
1001
ACAD
1010
0.0
1020
0.0
1030
0.0
  0
LINE
  5
18A3
  8
SAPA_ANSLUTNING
 10
30.956241180620999
 20
31.62074746380846
 30
0.0
 11
30.559366180620991
 21
32.30815512806236
 31
0.0
1001
ACAD
1010
0.0
1020
0.0
1030
0.0
  0
LINE
  5
18A4
  8
SAPA_ANSLUTNING
 10
29.765616180620992
 20
33.68297045657016
 30
0.0
 11
29.36874118062099
 21
34.37037812082405
 31
0.0
1001
ACAD
1010
0.0
1020
0.0
1030
0.0
  0
LINE
  5
18A5
  8
SAPA_ANSLUTNING
 10
28.574991180620991
 20
35.74519344933185
 30
0.0
 11
28.178116180620989
 21
36.43260111358574
 31
0.0
1001
ACAD
1010
0.0
1020
0.0
1030
0.0
  0
LINE
  5
18A6
  8
SAPA_ANSLUTNING
 10
27.38436618062099
 20
37.807416442093533
 30
0.0
 11
26.987491180620989
 21
38.49482410634743
 31
0.0
1001
ACAD
1010
0.0
1020
0.0
1030
0.0
  0
LINE
  5
18A7
  8
SAPA_ANSLUTNING
 10
26.193741180620989
 20
39.869639434855223
 30
0.0
 11
25.796866180620992
 21
40.557047099109113
 31
0.0
1001
ACAD
1010
0.0
1020
0.0
1030
0.0
  0
LINE
  5
18A8
  8
SAPA_ANSLUTNING
 10
25.003116180620989
 20
41.931862427616913
 30
0.0
 11
24.606241180620991
 21
42.61927009187081
 31
0.0
1001
ACAD
1010
0.0
1020
0.0
1030
0.0
  0
LINE
  5
18A9
  8
SAPA_ANSLUTNING
 10
23.812491180620992
 20
43.994085420378603
 30
0.0
 11
23.41561618062099
 21
44.681493084632493
 31
0.0
1001
ACAD
1010
0.0
1020
0.0
1030
0.0
  0
LINE
  5
18AA
  8
SAPA_ANSLUTNING
 10
32.000000000718117
 20
32.56253415655209
 30
0.0
 11
31.749990896124899
 21
32.995562628062359
 31
0.0
1001
ACAD
1010
0.0
1020
0.0
1030
0.0
  0
LINE
  5
18AB
  8
SAPA_ANSLUTNING
 10
30.9562408961249
 20
34.370377956570152
 30
0.0
 11
30.559365896124898
 21
35.057785620824049
 31
0.0
1001
ACAD
1010
0.0
1020
0.0
1030
0.0
  0
LINE
  5
18AC
  8
SAPA_ANSLUTNING
 10
29.765615896124899
 20
36.432600949331849
 30
0.0
 11
29.368740896124901
 21
37.120008613585739
 31
0.0
1001
ACAD
1010
0.0
1020
0.0
1030
0.0
  0
LINE
  5
18AD
  8
SAPA_ANSLUTNING
 10
28.574990896124898
 20
38.494823942093532
 30
0.0
 11
28.178115896124901
 21
39.182231606347429
 31
0.0
1001
ACAD
1010
0.0
1020
0.0
1030
0.0
  0
LINE
  5
18AE
  8
SAPA_ANSLUTNING
 10
27.384365896124901
 20
40.557046934855222
 30
0.0
 11
26.9874908961249
 21
41.244454599109112
 31
0.0
1001
ACAD
1010
0.0
1020
0.0
1030
0.0
  0
LINE
  5
18AF
  8
SAPA_ANSLUTNING
 10
26.193740896124901
 20
42.619269927616912
 30
0.0
 11
25.796865896124899
 21
43.306677591870809
 31
0.0
1001
ACAD
1010
0.0
1020
0.0
1030
0.0
  0
LINE
  5
18B0
  8
SAPA_ANSLUTNING
 10
25.0031158961249
 20
44.681492920378602
 30
0.0
 11
24.819225747967021
 21
44.999999999999417
 31
0.0
1001
ACAD
1010
0.0
1020
0.0
1030
0.0
  0
LINE
  5
18B1
  8
SAPA_ANSLUTNING
 10
32.000000000718117
 20
35.312164156552093
 30
0.0
 11
31.749990611628789
 21
35.745193120824048
 31
0.0
1001
ACAD
1010
0.0
1020
0.0
1030
0.0
  0
LINE
  5
18B2
  8
SAPA_ANSLUTNING
 10
30.9562406116288
 20
37.120008449331841
 30
0.0
 11
30.559365611628792
 21
37.807416113585738
 31
0.0
1001
ACAD
1010
0.0
1020
0.0
1030
0.0
  0
LINE
  5
18B3
  8
SAPA_ANSLUTNING
 10
29.765615611628789
 20
39.182231442093531
 30
0.0
 11
29.368740611628791
 21
39.869639106347428
 31
0.0
1001
ACAD
1010
0.0
1020
0.0
1030
0.0
  0
LINE
  5
18B4
  8
SAPA_ANSLUTNING
 10
28.574990611628792
 20
41.244454434855221
 30
0.0
 11
28.17811561162879
 21
41.931862099109111
 31
0.0
1001
ACAD
1010
0.0
1020
0.0
1030
0.0
  0
LINE
  5
18B5
  8
SAPA_ANSLUTNING
 10
27.384365611628791
 20
43.306677427616911
 30
0.0
 11
26.98749061162879
 21
43.994085091870808
 31
0.0
1001
ACAD
1010
0.0
1020
0.0
1030
0.0
  0
LINE
  5
18B6
  8
SAPA_ANSLUTNING
 10
32.000000000718117
 20
38.061794156552097
 30
0.0
 11
31.7499903271327
 21
38.494823613585751
 31
0.0
1001
ACAD
1010
0.0
1020
0.0
1030
0.0
  0
LINE
  5
18B7
  8
SAPA_ANSLUTNING
 10
30.956240327132701
 20
39.869638942093552
 30
0.0
 11
30.559365327132699
 21
40.557046606347441
 31
0.0
1001
ACAD
1010
0.0
1020
0.0
1030
0.0
  0
LINE
  5
18B8
  8
SAPA_ANSLUTNING
 10
29.7656153271327
 20
41.931861934855228
 30
0.0
 11
29.368740327132699
 21
42.619269599109131
 31
0.0
1001
ACAD
1010
0.0
1020
0.0
1030
0.0
  0
LINE
  5
18B9
  8
SAPA_ANSLUTNING
 10
28.574990327132699
 20
43.994084927616917
 30
0.0
 11
28.178115327132701
 21
44.681492591870807
 31
0.0
1001
ACAD
1010
0.0
1020
0.0
1030
0.0
  0
LINE
  5
18BA
  8
SAPA_ANSLUTNING
 10
32.000000000718117
 20
40.811424156552093
 30
0.0
 11
31.749990042636611
 21
41.24445410634744
 31
0.0
1001
ACAD
1010
0.0
1020
0.0
1030
0.0
  0
LINE
  5
18BB
  8
SAPA_ANSLUTNING
 10
30.956240042636612
 20
42.619269434855227
 30
0.0
 11
30.55936504263661
 21
43.30667709910913
 31
0.0
1001
ACAD
1010
0.0
1020
0.0
1030
0.0
  0
LINE
  5
18BC
  8
SAPA_ANSLUTNING
 10
29.765615042636611
 20
44.681492427616917
 30
0.0
 11
29.581724609982629
 21
44.999999999999439
 31
0.0
1001
ACAD
1010
0.0
1020
0.0
1030
0.0
  0
LINE
  5
18BD
  8
SAPA_ANSLUTNING
 10
32.000000000718117
 20
43.561054156552103
 30
0.0
 11
31.749989758140511
 21
43.994084599109136
 31
0.0
1001
ACAD
1010
0.0
1020
0.0
1030
0.0
  0
LINE
  5
18BE
  8
SAPA_ANSLUTNING
 10
23.415625568992201
 20
44.68149784799558
 30
0.0
 11
23.599512872189091
 21
44.999999999999417
 31
0.0
1001
ACAD
1010
0.0
1020
0.0
1030
0.0
  0
LINE
  5
18BF
  8
SAPA_ANSLUTNING
 10
23.415625284496102
 20
41.931867355233877
 30
0.0
 11
23.8125002844961
 21
42.61927501948778
 31
0.0
1001
ACAD
1010
0.0
1020
0.0
1030
0.0
  0
LINE
  5
18C0
  8
SAPA_ANSLUTNING
 10
24.606250284496099
 20
43.994090347995567
 30
0.0
 11
25.0031252844961
 21
44.68149801224947
 31
0.0
1001
ACAD
1010
0.0
1020
0.0
1030
0.0
  0
LINE
  5
18C1
  8
SAPA_ANSLUTNING
 10
23.415625000000009
 20
39.182236862472202
 30
0.0
 11
23.812500000000011
 21
39.869644526726091
 31
0.0
1001
ACAD
1010
0.0
1020
0.0
1030
0.0
  0
LINE
  5
18C2
  8
SAPA_ANSLUTNING
 10
24.60625000000001
 20
41.244459855233877
 30
0.0
 11
25.003125000000011
 21
41.931867519487781
 31
0.0
1001
ACAD
1010
0.0
1020
0.0
1030
0.0
  0
LINE
  5
18C3
  8
SAPA_ANSLUTNING
 10
25.796875000000011
 20
43.306682847995567
 30
0.0
 11
26.193750000000009
 21
43.994090512249471
 31
0.0
1001
ACAD
1010
0.0
1020
0.0
1030
0.0
  0
LINE
  5
18C4
  8
SAPA_ANSLUTNING
 10
23.41562471550391
 20
36.432606369710491
 30
0.0
 11
23.812499715503911
 21
37.120014033964388
 31
0.0
1001
ACAD
1010
0.0
1020
0.0
1030
0.0
  0
LINE
  5
18C5
  8
SAPA_ANSLUTNING
 10
24.60624971550391
 20
38.494829362472181
 30
0.0
 11
25.003124715503908
 21
39.182237026726078
 31
0.0
1001
ACAD
1010
0.0
1020
0.0
1030
0.0
  0
LINE
  5
18C6
  8
SAPA_ANSLUTNING
 10
25.796874715503911
 20
40.557052355233871
 30
0.0
 11
26.193749715503909
 21
41.244460019487761
 31
0.0
1001
ACAD
1010
0.0
1020
0.0
1030
0.0
  0
LINE
  5
18C7
  8
SAPA_ANSLUTNING
 10
26.987499715503908
 20
42.619275347995561
 30
0.0
 11
27.38437471550391
 21
43.306683012249451
 31
0.0
1001
ACAD
1010
0.0
1020
0.0
1030
0.0
  0
LINE
  5
18C8
  8
SAPA_ANSLUTNING
 10
28.178124715503909
 20
44.681498340757251
 30
0.0
 11
28.362011734204721
 21
44.999999999999417
 31
0.0
1001
ACAD
1010
0.0
1020
0.0
1030
0.0
  0
LINE
  5
18C9
  8
SAPA_ANSLUTNING
 10
23.41562443100781
 20
33.682975876948802
 30
0.0
 11
23.812499431007812
 21
34.370383541202699
 31
0.0
1001
ACAD
1010
0.0
1020
0.0
1030
0.0
  0
LINE
  5
18CA
  8
SAPA_ANSLUTNING
 10
24.606249431007811
 20
35.745198869710492
 30
0.0
 11
25.003124431007809
 21
36.432606533964389
 31
0.0
1001
ACAD
1010
0.0
1020
0.0
1030
0.0
  0
LINE
  5
18CB
  8
SAPA_ANSLUTNING
 10
25.796874431007812
 20
37.807421862472189
 30
0.0
 11
26.193749431007809
 21
38.494829526726079
 31
0.0
1001
ACAD
1010
0.0
1020
0.0
1030
0.0
  0
LINE
  5
18CC
  8
SAPA_ANSLUTNING
 10
26.987499431007809
 20
39.869644855233872
 30
0.0
 11
27.38437443100781
 21
40.557052519487769
 31
0.0
1001
ACAD
1010
0.0
1020
0.0
1030
0.0
  0
LINE
  5
18CD
  8
SAPA_ANSLUTNING
 10
28.178124431007809
 20
41.931867847995562
 30
0.0
 11
28.574999431007811
 21
42.619275512249452
 31
0.0
1001
ACAD
1010
0.0
1020
0.0
1030
0.0
  0
LINE
  5
18CE
  8
SAPA_ANSLUTNING
 10
29.36874943100781
 20
43.994090840757252
 30
0.0
 11
29.765624431007812
 21
44.681498505011149
 31
0.0
1001
ACAD
1010
0.0
1020
0.0
1030
0.0
  0
LINE
  5
18CF
  8
SAPA_ANSLUTNING
 10
23.415624146511711
 20
30.933345384187099
 30
0.0
 11
23.812499146511708
 21
31.620753048440999
 31
0.0
1001
ACAD
1010
0.0
1020
0.0
1030
0.0
  0
LINE
  5
18D0
  8
SAPA_ANSLUTNING
 10
24.606249146511711
 20
32.995568376948789
 30
0.0
 11
25.003124146511709
 21
33.682976041202693
 31
0.0
1001
ACAD
1010
0.0
1020
0.0
1030
0.0
  0
LINE
  5
18D1
  8
SAPA_ANSLUTNING
 10
25.796874146511708
 20
35.057791369710479
 30
0.0
 11
26.19374914651171
 21
35.745199033964383
 31
0.0
1001
ACAD
1010
0.0
1020
0.0
1030
0.0
  0
LINE
  5
18D2
  8
SAPA_ANSLUTNING
 10
26.987499146511709
 20
37.120014362472169
 30
0.0
 11
27.384374146511711
 21
37.807422026726073
 31
0.0
1001
ACAD
1010
0.0
1020
0.0
1030
0.0
  0
LINE
  5
18D3
  8
SAPA_ANSLUTNING
 10
28.17812414651172
 20
39.182237355233859
 30
0.0
 11
28.574999146511711
 21
39.869645019487763
 31
0.0
1001
ACAD
1010
0.0
1020
0.0
1030
0.0
  0
LINE
  5
18D4
  8
SAPA_ANSLUTNING
 10
29.368749146511721
 20
41.244460347995549
 30
0.0
 11
29.765624146511708
 21
41.931868012249438
 31
0.0
1001
ACAD
1010
0.0
1020
0.0
1030
0.0
  0
LINE
  5
18D5
  8
SAPA_ANSLUTNING
 10
30.559374146511718
 20
43.306683340757232
 30
0.0
 11
30.95624914651172
 21
43.994091005011128
 31
0.0
1001
ACAD
1010
0.0
1020
0.0
1030
0.0
  0
LINE
  5
18D6
  8
SAPA_ANSLUTNING
 10
23.415623862015611
 20
28.18371489142541
 30
0.0
 11
23.812498862015609
 21
28.87112255567931
 31
0.0
1001
ACAD
1010
0.0
1020
0.0
1030
0.0
  0
LINE
  5
18D7
  8
SAPA_ANSLUTNING
 10
24.606248862015612
 20
30.2459378841871
 30
0.0
 11
25.00312386201561
 21
30.933345548441
 31
0.0
1001
ACAD
1010
0.0
1020
0.0
1030
0.0
  0
LINE
  5
18D8
  8
SAPA_ANSLUTNING
 10
25.796873862015609
 20
32.30816087694879
 30
0.0
 11
26.193748862015621
 21
32.995568541202687
 31
0.0
1001
ACAD
1010
0.0
1020
0.0
1030
0.0
  0
LINE
  5
18D9
  8
SAPA_ANSLUTNING
 10
26.98749886201561
 20
34.37038386971048
 30
0.0
 11
27.384373862015622
 21
35.057791533964377
 31
0.0
1001
ACAD
1010
0.0
1020
0.0
1030
0.0
  0
LINE
  5
18DA
  8
SAPA_ANSLUTNING
 10
28.17812386201561
 20
36.43260686247217
 30
0.0
 11
28.574998862015619
 21
37.120014526726067
 31
0.0
1001
ACAD
1010
0.0
1020
0.0
1030
0.0
  0
LINE
  5
18DB
  8
SAPA_ANSLUTNING
 10
29.368748862015611
 20
38.49482985523386
 30
0.0
 11
29.765623862015619
 21
39.182237519487757
 31
0.0
1001
ACAD
1010
0.0
1020
0.0
1030
0.0
  0
LINE
  5
18DC
  8
SAPA_ANSLUTNING
 10
30.559373862015612
 20
40.55705284799555
 30
0.0
 11
30.95624886201562
 21
41.244460512249447
 31
0.0
1001
ACAD
1010
0.0
1020
0.0
1030
0.0
  0
LINE
  5
18DD
  8
SAPA_ANSLUTNING
 10
31.749998862015619
 20
42.619275840757233
 30
0.0
 11
32.000000000718117
 21
43.052290514940047
 31
0.0
1001
ACAD
1010
0.0
1020
0.0
1030
0.0
  0
LINE
  5
18DE
  8
SAPA_ANSLUTNING
 10
23.415623577519519
 20
25.434084398663721
 30
0.0
 11
23.81249857751952
 21
26.121492062917611
 31
0.0
1001
ACAD
1010
0.0
1020
0.0
1030
0.0
  0
LINE
  5
18DF
  8
SAPA_ANSLUTNING
 10
24.606248577519519
 20
27.496307391425411
 30
0.0
 11
25.003123577519521
 21
28.183715055679311
 31
0.0
1001
ACAD
1010
0.0
1020
0.0
1030
0.0
  0
LINE
  5
18E0
  8
SAPA_ANSLUTNING
 10
25.79687357751952
 20
29.558530384187112
 30
0.0
 11
26.193748577519521
 21
30.245938048441001
 31
0.0
1001
ACAD
1010
0.0
1020
0.0
1030
0.0
  0
LINE
  5
18E1
  8
SAPA_ANSLUTNING
 10
26.987498577519521
 20
31.620753376948802
 30
0.0
 11
27.384373577519519
 21
32.308161041202702
 31
0.0
1001
ACAD
1010
0.0
1020
0.0
1030
0.0
  0
LINE
  5
18E2
  8
SAPA_ANSLUTNING
 10
28.178123577519521
 20
33.682976369710488
 30
0.0
 11
28.574998577519519
 21
34.370384033964392
 31
0.0
1001
ACAD
1010
0.0
1020
0.0
1030
0.0
  0
LINE
  5
18E3
  8
SAPA_ANSLUTNING
 10
29.368748577519519
 20
35.745199362472178
 30
0.0
 11
29.76562357751952
 21
36.432607026726082
 31
0.0
1001
ACAD
1010
0.0
1020
0.0
1030
0.0
  0
LINE
  5
18E4
  8
SAPA_ANSLUTNING
 10
30.55937357751953
 20
37.807422355233868
 30
0.0
 11
30.956248577519521
 21
38.494830019487758
 31
0.0
1001
ACAD
1010
0.0
1020
0.0
1030
0.0
  0
LINE
  5
18E5
  8
SAPA_ANSLUTNING
 10
31.749998577519531
 20
39.869645347995558
 30
0.0
 11
32.000000000718117
 21
40.302660514940051
 31
0.0
1001
ACAD
1010
0.0
1020
0.0
1030
0.0
  0
LINE
  5
18E6
  8
SAPA_ANSLUTNING
 10
24.752504453766569
 20
24.999999999990809
 30
0.0
 11
25.003123293023421
 21
25.434084562917612
 31
0.0
1001
ACAD
1010
0.0
1020
0.0
1030
0.0
  0
LINE
  5
18E7
  8
SAPA_ANSLUTNING
 10
25.79687329302342
 20
26.808899891425408
 30
0.0
 11
26.193748293023418
 21
27.496307555679309
 31
0.0
1001
ACAD
1010
0.0
1020
0.0
1030
0.0
  0
LINE
  5
18E8
  8
SAPA_ANSLUTNING
 10
26.987498293023421
 20
28.871122884187098
 30
0.0
 11
27.384373293023419
 21
29.558530548440999
 31
0.0
1001
ACAD
1010
0.0
1020
0.0
1030
0.0
  0
LINE
  5
18E9
  8
SAPA_ANSLUTNING
 10
28.178123293023418
 20
30.933345876948799
 30
0.0
 11
28.57499829302342
 21
31.620753541202689
 31
0.0
1001
ACAD
1010
0.0
1020
0.0
1030
0.0
  0
LINE
  5
18EA
  8
SAPA_ANSLUTNING
 10
29.368748293023419
 20
32.995568869710489
 30
0.0
 11
29.76562329302342
 21
33.682976533964393
 31
0.0
1001
ACAD
1010
0.0
1020
0.0
1030
0.0
  0
LINE
  5
18EB
  8
SAPA_ANSLUTNING
 10
30.55937329302342
 20
35.057791862472179
 30
0.0
 11
30.956248293023421
 21
35.745199526726083
 31
0.0
1001
ACAD
1010
0.0
1020
0.0
1030
0.0
  0
LINE
  5
18EC
  8
SAPA_ANSLUTNING
 10
31.74999829302342
 20
37.120014855233869
 30
0.0
 11
32.000000000718117
 21
37.553030514940062
 31
0.0
1001
ACAD
1010
0.0
1020
0.0
1030
0.0
  0
LINE
  5
18ED
  8
SAPA_ANSLUTNING
 10
26.987498008527322
 20
26.121492391425409
 30
0.0
 11
27.384373008527319
 21
26.80890005567931
 31
0.0
1001
ACAD
1010
0.0
1020
0.0
1030
0.0
  0
LINE
  5
18EE
  8
SAPA_ANSLUTNING
 10
28.178123008527319
 20
28.183715384187099
 30
0.0
 11
28.57499800852732
 21
28.871123048441
 31
0.0
1001
ACAD
1010
0.0
1020
0.0
1030
0.0
  0
LINE
  5
18EF
  8
SAPA_ANSLUTNING
 10
29.36874800852733
 20
30.2459383769488
 30
0.0
 11
29.765623008527321
 21
30.933346041202689
 31
0.0
1001
ACAD
1010
0.0
1020
0.0
1030
0.0
  0
LINE
  5
18F0
  8
SAPA_ANSLUTNING
 10
30.559373008527331
 20
32.30816136971049
 30
0.0
 11
30.956248008527322
 21
32.995569033964387
 31
0.0
1001
ACAD
1010
0.0
1020
0.0
1030
0.0
  0
LINE
  5
18F1
  8
SAPA_ANSLUTNING
 10
31.749998008527331
 20
34.37038436247218
 30
0.0
 11
32.000000000718117
 21
34.803400514940073
 31
0.0
1001
ACAD
1010
0.0
1020
0.0
1030
0.0
  0
LINE
  5
18F2
  8
SAPA_ANSLUTNING
 10
28.178122724031219
 20
25.43408489142541
 30
0.0
 11
28.574997724031231
 21
26.12149255567931
 31
0.0
1001
ACAD
1010
0.0
1020
0.0
1030
0.0
  0
LINE
  5
18F3
  8
SAPA_ANSLUTNING
 10
29.36874772403122
 20
27.496307884187111
 30
0.0
 11
29.765622724031228
 21
28.183715548441
 31
0.0
1001
ACAD
1010
0.0
1020
0.0
1030
0.0
  0
LINE
  5
18F4
  8
SAPA_ANSLUTNING
 10
30.559372724031221
 20
29.558530876948801
 30
0.0
 11
30.956247724031229
 21
30.24593854120269
 31
0.0
1001
ACAD
1010
0.0
1020
0.0
1030
0.0
  0
LINE
  5
18F5
  8
SAPA_ANSLUTNING
 10
31.749997724031221
 20
31.620753869710491
 30
0.0
 11
32.000000000718117
 21
32.053770514940076
 31
0.0
1001
ACAD
1010
0.0
1020
0.0
1030
0.0
  0
LINE
  5
18F6
  8
SAPA_ANSLUTNING
 10
29.515003315782181
 20
24.99999999999082
 30
0.0
 11
29.765622439535129
 21
25.434085055679311
 31
0.0
1001
ACAD
1010
0.0
1020
0.0
1030
0.0
  0
LINE
  5
18F7
  8
SAPA_ANSLUTNING
 10
30.559372439535132
 20
26.808900384187108
 30
0.0
 11
30.956247439535129
 21
27.496308048441001
 31
0.0
1001
ACAD
1010
0.0
1020
0.0
1030
0.0
  0
LINE
  5
18F8
  8
SAPA_ANSLUTNING
 10
31.749997439535129
 20
28.871123376948798
 30
0.0
 11
32.000000000718117
 21
29.30414051494008
 31
0.0
1001
ACAD
1010
0.0
1020
0.0
1030
0.0
  0
LINE
  5
18F9
  8
SAPA_ANSLUTNING
 10
31.749997155039029
 20
26.121492884187109
 30
0.0
 11
32.000000000718117
 21
26.55451051494008
 31
0.0
1001
ACAD
1010
0.0
1020
0.0
1030
0.0
  0
LINE
  5
18FA
  8
SAPA_ANSLUTNING
 10
32.000000000718117
 20
24.99999999999082
 30
0.0
 11
32.000000000718117
 21
44.999999999999417
 31
0.0
  0
LINE
  5
18FB
  8
SAPA_ANSLUTNING
 10
32.000000000718117
 20
44.999999999999417
 30
0.0
 11
23.243323029157711
 21
44.999999999999417
 31
0.0
  0
LINE
  5
18FC
  8
SAPA_ANSLUTNING
 10
23.243323029157711
 20
44.999999999999417
 30
0.0
 11
23.243323029157711
 21
24.99999999999082
 31
0.0
  0
LINE
  5
18FD
  8
SAPA_ANSLUTNING
 10
23.243323029157711
 20
24.99999999999082
 30
0.0
 11
32.000000000718117
 21
24.99999999999082
 31
0.0
  0
LINE
  5
18FE
  8
SAPA_ANSLUTNING
 10
74.43513831831514
 20
43.994079999999997
 30
0.0
 11
74.612499999999983
 21
43.994079999999997
 31
0.0
1001
ACAD
1010
0.0
1020
0.0
1030
0.0
  0
LINE
  5
18FF
  8
SAPA_ANSLUTNING
 10
76.200000000000003
 20
43.994079999999997
 30
0.0
 11
76.993750000000006
 21
43.994079999999997
 31
0.0
1001
ACAD
1010
0.0
1020
0.0
1030
0.0
  0
LINE
  5
1900
  8
SAPA_ANSLUTNING
 10
73.81874999999998
 20
42.619264999999999
 30
0.0
 11
74.612499999999983
 21
42.619264999999999
 31
0.0
1001
ACAD
1010
0.0
1020
0.0
1030
0.0
  0
LINE
  5
1901
  8
SAPA_ANSLUTNING
 10
76.199999999999989
 20
42.619264999999999
 30
0.0
 11
76.993749999999991
 21
42.619264999999999
 31
0.0
1001
ACAD
1010
0.0
1020
0.0
1030
0.0
  0
LINE
  5
1902
  8
SAPA_ANSLUTNING
 10
78.581249999999997
 20
42.619264999999999
 30
0.0
 11
79.316086580965234
 21
42.619264999999999
 31
0.0
1001
ACAD
1010
0.0
1020
0.0
1030
0.0
  0
LINE
  5
1903
  8
SAPA_ANSLUTNING
 10
73.81874999999998
 20
41.244450000000001
 30
0.0
 11
74.612499999999983
 21
41.244450000000001
 31
0.0
1001
ACAD
1010
0.0
1020
0.0
1030
0.0
  0
LINE
  5
1904
  8
SAPA_ANSLUTNING
 10
76.199999999999989
 20
41.244450000000001
 30
0.0
 11
76.993749999999991
 21
41.244450000000001
 31
0.0
1001
ACAD
1010
0.0
1020
0.0
1030
0.0
  0
LINE
  5
1905
  8
SAPA_ANSLUTNING
 10
78.581249999999997
 20
41.244450000000001
 30
0.0
 11
79.375
 21
41.244450000000001
 31
0.0
1001
ACAD
1010
0.0
1020
0.0
1030
0.0
  0
LINE
  5
1906
  8
SAPA_ANSLUTNING
 10
73.81874999999998
 20
39.869635000000002
 30
0.0
 11
74.612499999999983
 21
39.869635000000002
 31
0.0
1001
ACAD
1010
0.0
1020
0.0
1030
0.0
  0
LINE
  5
1907
  8
SAPA_ANSLUTNING
 10
76.199999999999989
 20
39.869635000000002
 30
0.0
 11
76.993749999999991
 21
39.869635000000002
 31
0.0
1001
ACAD
1010
0.0
1020
0.0
1030
0.0
  0
LINE
  5
1908
  8
SAPA_ANSLUTNING
 10
78.581249999999997
 20
39.869635000000002
 30
0.0
 11
79.375
 21
39.869635000000002
 31
0.0
1001
ACAD
1010
0.0
1020
0.0
1030
0.0
  0
LINE
  5
1909
  8
SAPA_ANSLUTNING
 10
72.183754963094344
 20
38.494819999999997
 30
0.0
 11
72.231249999999989
 21
38.494819999999997
 31
0.0
1001
ACAD
1010
0.0
1020
0.0
1030
0.0
  0
LINE
  5
190A
  8
SAPA_ANSLUTNING
 10
73.818749999999994
 20
38.494819999999997
 30
0.0
 11
74.612499999999983
 21
38.494819999999997
 31
0.0
1001
ACAD
1010
0.0
1020
0.0
1030
0.0
  0
LINE
  5
190B
  8
SAPA_ANSLUTNING
 10
76.200000000000003
 20
38.494819999999997
 30
0.0
 11
76.993750000000006
 21
38.494819999999997
 31
0.0
1001
ACAD
1010
0.0
1020
0.0
1030
0.0
  0
LINE
  5
190C
  8
SAPA_ANSLUTNING
 10
78.581250000000011
 20
38.494819999999997
 30
0.0
 11
79.375000000000014
 21
38.494819999999997
 31
0.0
1001
ACAD
1010
0.0
1020
0.0
1030
0.0
  0
LINE
  5
190D
  8
SAPA_ANSLUTNING
 10
72.001752053393773
 20
37.120004999999999
 30
0.0
 11
72.231249999999989
 21
37.120004999999999
 31
0.0
1001
ACAD
1010
0.0
1020
0.0
1030
0.0
  0
LINE
  5
190E
  8
SAPA_ANSLUTNING
 10
73.818749999999994
 20
37.120004999999999
 30
0.0
 11
74.612499999999983
 21
37.120004999999999
 31
0.0
1001
ACAD
1010
0.0
1020
0.0
1030
0.0
  0
LINE
  5
190F
  8
SAPA_ANSLUTNING
 10
76.200000000000003
 20
37.120004999999999
 30
0.0
 11
76.993750000000006
 21
37.120004999999999
 31
0.0
1001
ACAD
1010
0.0
1020
0.0
1030
0.0
  0
LINE
  5
1910
  8
SAPA_ANSLUTNING
 10
78.581250000000011
 20
37.120004999999999
 30
0.0
 11
79.375000000000014
 21
37.120004999999999
 31
0.0
1001
ACAD
1010
0.0
1020
0.0
1030
0.0
  0
LINE
  5
1911
  8
SAPA_ANSLUTNING
 10
71.911443140444945
 20
35.745190000000001
 30
0.0
 11
72.231249999999989
 21
35.745190000000001
 31
0.0
1001
ACAD
1010
0.0
1020
0.0
1030
0.0
  0
LINE
  5
1912
  8
SAPA_ANSLUTNING
 10
73.818749999999994
 20
35.745190000000001
 30
0.0
 11
74.612499999999983
 21
35.745190000000001
 31
0.0
1001
ACAD
1010
0.0
1020
0.0
1030
0.0
  0
LINE
  5
1913
  8
SAPA_ANSLUTNING
 10
76.200000000000003
 20
35.745190000000001
 30
0.0
 11
76.993750000000006
 21
35.745190000000001
 31
0.0
1001
ACAD
1010
0.0
1020
0.0
1030
0.0
  0
LINE
  5
1914
  8
SAPA_ANSLUTNING
 10
78.581250000000011
 20
35.745190000000001
 30
0.0
 11
79.375000000000014
 21
35.745190000000001
 31
0.0
1001
ACAD
1010
0.0
1020
0.0
1030
0.0
  0
LINE
  5
1915
  8
SAPA_ANSLUTNING
 10
71.907326048094561
 20
34.370375000000003
 30
0.0
 11
72.231249999999989
 21
34.370375000000003
 31
0.0
1001
ACAD
1010
0.0
1020
0.0
1030
0.0
  0
LINE
  5
1916
  8
SAPA_ANSLUTNING
 10
73.818749999999994
 20
34.370375000000003
 30
0.0
 11
74.612499999999983
 21
34.370375000000003
 31
0.0
1001
ACAD
1010
0.0
1020
0.0
1030
0.0
  0
LINE
  5
1917
  8
SAPA_ANSLUTNING
 10
76.200000000000003
 20
34.370375000000003
 30
0.0
 11
76.993750000000006
 21
34.370375000000003
 31
0.0
1001
ACAD
1010
0.0
1020
0.0
1030
0.0
  0
LINE
  5
1918
  8
SAPA_ANSLUTNING
 10
78.581250000000011
 20
34.370375000000003
 30
0.0
 11
79.375000000000014
 21
34.370375000000003
 31
0.0
1001
ACAD
1010
0.0
1020
0.0
1030
0.0
  0
LINE
  5
1919
  8
SAPA_ANSLUTNING
 10
71.98919060249797
 20
32.995559999999998
 30
0.0
 11
72.231249999999989
 21
32.995559999999998
 31
0.0
1001
ACAD
1010
0.0
1020
0.0
1030
0.0
  0
LINE
  5
191A
  8
SAPA_ANSLUTNING
 10
73.818749999999994
 20
32.995559999999998
 30
0.0
 11
74.612499999999983
 21
32.995559999999998
 31
0.0
1001
ACAD
1010
0.0
1020
0.0
1030
0.0
  0
LINE
  5
191B
  8
SAPA_ANSLUTNING
 10
76.200000000000003
 20
32.995559999999998
 30
0.0
 11
76.993750000000006
 21
32.995559999999998
 31
0.0
1001
ACAD
1010
0.0
1020
0.0
1030
0.0
  0
LINE
  5
191C
  8
SAPA_ANSLUTNING
 10
78.581250000000011
 20
32.995559999999998
 30
0.0
 11
79.375000000000014
 21
32.995559999999998
 31
0.0
1001
ACAD
1010
0.0
1020
0.0
1030
0.0
  0
LINE
  5
191D
  8
SAPA_ANSLUTNING
 10
72.162052211305721
 20
31.620744999999999
 30
0.0
 11
72.231249999999989
 21
31.620744999999999
 31
0.0
1001
ACAD
1010
0.0
1020
0.0
1030
0.0
  0
LINE
  5
191E
  8
SAPA_ANSLUTNING
 10
73.818749999999994
 20
31.620744999999999
 30
0.0
 11
74.612499999999983
 21
31.620744999999999
 31
0.0
1001
ACAD
1010
0.0
1020
0.0
1030
0.0
  0
LINE
  5
191F
  8
SAPA_ANSLUTNING
 10
76.200000000000003
 20
31.620744999999999
 30
0.0
 11
76.993750000000006
 21
31.620744999999999
 31
0.0
1001
ACAD
1010
0.0
1020
0.0
1030
0.0
  0
LINE
  5
1920
  8
SAPA_ANSLUTNING
 10
78.581250000000011
 20
31.620744999999999
 30
0.0
 11
79.375000000000014
 21
31.620744999999999
 31
0.0
1001
ACAD
1010
0.0
1020
0.0
1030
0.0
  0
LINE
  5
1921
  8
SAPA_ANSLUTNING
 10
73.81874999999998
 20
30.245930000000001
 30
0.0
 11
74.612499999999983
 21
30.245930000000001
 31
0.0
1001
ACAD
1010
0.0
1020
0.0
1030
0.0
  0
LINE
  5
1922
  8
SAPA_ANSLUTNING
 10
76.199999999999989
 20
30.245930000000001
 30
0.0
 11
76.993749999999991
 21
30.245930000000001
 31
0.0
1001
ACAD
1010
0.0
1020
0.0
1030
0.0
  0
LINE
  5
1923
  8
SAPA_ANSLUTNING
 10
78.581249999999997
 20
30.245930000000001
 30
0.0
 11
79.375
 21
30.245930000000001
 31
0.0
1001
ACAD
1010
0.0
1020
0.0
1030
0.0
  0
LINE
  5
1924
  8
SAPA_ANSLUTNING
 10
73.81874999999998
 20
28.871114999999989
 30
0.0
 11
74.612499999999983
 21
28.871114999999989
 31
0.0
1001
ACAD
1010
0.0
1020
0.0
1030
0.0
  0
LINE
  5
1925
  8
SAPA_ANSLUTNING
 10
76.199999999999989
 20
28.871114999999989
 30
0.0
 11
76.993749999999991
 21
28.871114999999989
 31
0.0
1001
ACAD
1010
0.0
1020
0.0
1030
0.0
  0
LINE
  5
1926
  8
SAPA_ANSLUTNING
 10
78.581249999999997
 20
28.871114999999989
 30
0.0
 11
79.375
 21
28.871114999999989
 31
0.0
1001
ACAD
1010
0.0
1020
0.0
1030
0.0
  0
LINE
  5
1927
  8
SAPA_ANSLUTNING
 10
73.81874999999998
 20
27.496300000000002
 30
0.0
 11
74.612499999999983
 21
27.496300000000002
 31
0.0
1001
ACAD
1010
0.0
1020
0.0
1030
0.0
  0
LINE
  5
1928
  8
SAPA_ANSLUTNING
 10
76.199999999999989
 20
27.496300000000002
 30
0.0
 11
76.993749999999991
 21
27.496300000000002
 31
0.0
1001
ACAD
1010
0.0
1020
0.0
1030
0.0
  0
LINE
  5
1929
  8
SAPA_ANSLUTNING
 10
78.581249999999997
 20
27.496300000000002
 30
0.0
 11
79.370310870913997
 21
27.496300000000002
 31
0.0
1001
ACAD
1010
0.0
1020
0.0
1030
0.0
  0
LINE
  5
192A
  8
SAPA_ANSLUTNING
 10
74.324609670772745
 20
26.121485
 30
0.0
 11
74.612499999999983
 21
26.121485
 31
0.0
1001
ACAD
1010
0.0
1020
0.0
1030
0.0
  0
LINE
  5
192B
  8
SAPA_ANSLUTNING
 10
76.200000000000003
 20
26.121485
 30
0.0
 11
76.993750000000006
 21
26.121485
 31
0.0
1001
ACAD
1010
0.0
1020
0.0
1030
0.0
  0
LINE
  5
192C
  8
SAPA_ANSLUTNING
 10
76.035267897872259
 20
25.03196283377439
 30
0.0
 11
75.803108783722465
 21
25.43407421492202
 31
0.0
1001
ACAD
1010
0.0
1020
0.0
1030
0.0
  0
LINE
  5
192D
  8
SAPA_ANSLUTNING
 10
75.009358783722462
 20
26.80888954342981
 30
0.0
 11
74.612483783722453
 21
27.49629720768371
 31
0.0
1001
ACAD
1010
0.0
1020
0.0
1030
0.0
  0
LINE
  5
192E
  8
SAPA_ANSLUTNING
 10
73.818733783722465
 20
28.871112536191511
 30
0.0
 11
73.42185878372247
 21
29.5585202004454
 31
0.0
1001
ACAD
1010
0.0
1020
0.0
1030
0.0
  0
LINE
  5
192F
  8
SAPA_ANSLUTNING
 10
72.628108783722453
 20
30.933335528953201
 30
0.0
 11
72.231233783722473
 21
31.620743193207101
 31
0.0
1001
ACAD
1010
0.0
1020
0.0
1030
0.0
  0
LINE
  5
1930
  8
SAPA_ANSLUTNING
 10
77.39060849922636
 20
25.434074050668119
 30
0.0
 11
76.993733499226366
 21
26.12148171492202
 31
0.0
1001
ACAD
1010
0.0
1020
0.0
1030
0.0
  0
LINE
  5
1931
  8
SAPA_ANSLUTNING
 10
76.199983499226363
 20
27.496297043429809
 30
0.0
 11
75.803108499226369
 21
28.18370470768371
 31
0.0
1001
ACAD
1010
0.0
1020
0.0
1030
0.0
  0
LINE
  5
1932
  8
SAPA_ANSLUTNING
 10
75.009358499226366
 20
29.55852003619151
 30
0.0
 11
74.612483499226371
 21
30.245927700445399
 31
0.0
1001
ACAD
1010
0.0
1020
0.0
1030
0.0
  0
LINE
  5
1933
  8
SAPA_ANSLUTNING
 10
73.818733499226369
 20
31.6207430289532
 30
0.0
 11
73.421858499226374
 21
32.308150693207097
 31
0.0
1001
ACAD
1010
0.0
1020
0.0
1030
0.0
  0
LINE
  5
1934
  8
SAPA_ANSLUTNING
 10
72.628108499226371
 20
33.68296602171489
 30
0.0
 11
72.231233499226363
 21
34.370373685968787
 31
0.0
1001
ACAD
1010
0.0
1020
0.0
1030
0.0
  0
LINE
  5
1935
  8
SAPA_ANSLUTNING
 10
78.534553285205348
 20
26.202333560299
 30
0.0
 11
78.184358214730253
 21
26.808889214922019
 31
0.0
1001
ACAD
1010
0.0
1020
0.0
1030
0.0
  0
LINE
  5
1936
  8
SAPA_ANSLUTNING
 10
77.390608214730236
 20
28.183704543429819
 30
0.0
 11
76.993733214730256
 21
28.871112207683709
 31
0.0
1001
ACAD
1010
0.0
1020
0.0
1030
0.0
  0
LINE
  5
1937
  8
SAPA_ANSLUTNING
 10
76.199983214730253
 20
30.245927536191509
 30
0.0
 11
75.803108214730258
 21
30.933335200445409
 31
0.0
1001
ACAD
1010
0.0
1020
0.0
1030
0.0
  0
LINE
  5
1938
  8
SAPA_ANSLUTNING
 10
75.009358214730256
 20
32.308150528953199
 30
0.0
 11
74.612483214730261
 21
32.995558193207103
 31
0.0
1001
ACAD
1010
0.0
1020
0.0
1030
0.0
  0
LINE
  5
1939
  8
SAPA_ANSLUTNING
 10
73.818733214730258
 20
34.370373521714889
 30
0.0
 11
73.421858214730264
 21
35.057781185968793
 31
0.0
1001
ACAD
1010
0.0
1020
0.0
1030
0.0
  0
LINE
  5
193A
  8
SAPA_ANSLUTNING
 10
72.628108214730261
 20
36.432596514476579
 30
0.0
 11
72.231233214730267
 21
37.120004178730483
 31
0.0
1001
ACAD
1010
0.0
1020
0.0
1030
0.0
  0
LINE
  5
193B
  8
SAPA_ANSLUTNING
 10
78.581232930234165
 20
28.871112043429822
 30
0.0
 11
78.184357930234185
 21
29.558519707683711
 31
0.0
1001
ACAD
1010
0.0
1020
0.0
1030
0.0
  0
LINE
  5
193C
  8
SAPA_ANSLUTNING
 10
77.390607930234182
 20
30.933335036191512
 30
0.0
 11
76.993732930234188
 21
31.620742700445408
 31
0.0
1001
ACAD
1010
0.0
1020
0.0
1030
0.0
  0
LINE
  5
193D
  8
SAPA_ANSLUTNING
 10
76.199982930234185
 20
32.995558028953212
 30
0.0
 11
75.803107930234191
 21
33.682965693207102
 31
0.0
1001
ACAD
1010
0.0
1020
0.0
1030
0.0
  0
LINE
  5
193E
  8
SAPA_ANSLUTNING
 10
75.009357930234188
 20
35.057781021714902
 30
0.0
 11
74.612482930234194
 21
35.745188685968792
 31
0.0
1001
ACAD
1010
0.0
1020
0.0
1030
0.0
  0
LINE
  5
193F
  8
SAPA_ANSLUTNING
 10
73.818732930234191
 20
37.120004014476592
 30
0.0
 11
73.421857930234196
 21
37.807411678730482
 31
0.0
1001
ACAD
1010
0.0
1020
0.0
1030
0.0
  0
LINE
  5
1940
  8
SAPA_ANSLUTNING
 10
72.628107930234194
 20
39.182227007238268
 30
0.0
 11
72.399652958983211
 21
39.577922624686671
 31
0.0
1001
ACAD
1010
0.0
1020
0.0
1030
0.0
  0
LINE
  5
1941
  8
SAPA_ANSLUTNING
 10
79.771857645738081
 20
29.55851954342981
 30
0.0
 11
79.374982645738086
 21
30.24592720768371
 31
0.0
1001
ACAD
1010
0.0
1020
0.0
1030
0.0
  0
LINE
  5
1942
  8
SAPA_ANSLUTNING
 10
78.581232645738083
 20
31.620742536191511
 30
0.0
 11
78.184357645738089
 21
32.308150200445397
 31
0.0
1001
ACAD
1010
0.0
1020
0.0
1030
0.0
  0
LINE
  5
1943
  8
SAPA_ANSLUTNING
 10
77.390607645738086
 20
33.682965528953197
 30
0.0
 11
76.993732645738092
 21
34.370373193207087
 31
0.0
1001
ACAD
1010
0.0
1020
0.0
1030
0.0
  0
LINE
  5
1944
  8
SAPA_ANSLUTNING
 10
76.199982645738075
 20
35.745188521714887
 30
0.0
 11
75.803107645738095
 21
36.432596185968791
 31
0.0
1001
ACAD
1010
0.0
1020
0.0
1030
0.0
  0
LINE
  5
1945
  8
SAPA_ANSLUTNING
 10
75.009357645738092
 20
37.807411514476577
 30
0.0
 11
74.612482645738098
 21
38.494819178730481
 31
0.0
1001
ACAD
1010
0.0
1020
0.0
1030
0.0
  0
LINE
  5
1946
  8
SAPA_ANSLUTNING
 10
73.818732645738095
 20
39.869634507238267
 30
0.0
 11
73.4218576457381
 21
40.557042171492157
 31
0.0
1001
ACAD
1010
0.0
1020
0.0
1030
0.0
  0
LINE
  5
1947
  8
SAPA_ANSLUTNING
 10
79.771857361241985
 20
32.308150036191499
 30
0.0
 11
79.37498236124199
 21
32.995557700445403
 31
0.0
1001
ACAD
1010
0.0
1020
0.0
1030
0.0
  0
LINE
  5
1948
  8
SAPA_ANSLUTNING
 10
78.581232361241987
 20
34.370373028953189
 30
0.0
 11
78.184357361241993
 21
35.057780693207093
 31
0.0
1001
ACAD
1010
0.0
1020
0.0
1030
0.0
  0
LINE
  5
1949
  8
SAPA_ANSLUTNING
 10
77.39060736124199
 20
36.432596021714879
 30
0.0
 11
76.993732361241996
 21
37.120003685968783
 31
0.0
1001
ACAD
1010
0.0
1020
0.0
1030
0.0
  0
LINE
  5
194A
  8
SAPA_ANSLUTNING
 10
76.199982361241993
 20
38.494819014476569
 30
0.0
 11
75.803107361241999
 21
39.182226678730473
 31
0.0
1001
ACAD
1010
0.0
1020
0.0
1030
0.0
  0
LINE
  5
194B
  8
SAPA_ANSLUTNING
 10
75.009357361241996
 20
40.557042007238259
 30
0.0
 11
74.612482361242002
 21
41.244449671492148
 31
0.0
1001
ACAD
1010
0.0
1020
0.0
1030
0.0
  0
LINE
  5
194C
  8
SAPA_ANSLUTNING
 10
73.818732361241985
 20
42.619264999999949
 30
0.0
 11
73.649713426216522
 21
42.912014382905262
 31
0.0
1001
ACAD
1010
0.0
1020
0.0
1030
0.0
  0
LINE
  5
194D
  8
SAPA_ANSLUTNING
 10
80.826931940650866
 20
33.230337258880937
 30
0.0
 11
80.565607076745877
 21
33.682965200445402
 31
0.0
1001
ACAD
1010
0.0
1020
0.0
1030
0.0
  0
LINE
  5
194E
  8
SAPA_ANSLUTNING
 10
79.771857076745874
 20
35.057780528953188
 30
0.0
 11
79.37498207674588
 21
35.745188193207078
 31
0.0
1001
ACAD
1010
0.0
1020
0.0
1030
0.0
  0
LINE
  5
194F
  8
SAPA_ANSLUTNING
 10
78.581232076745863
 20
37.120003521714878
 30
0.0
 11
78.184357076745883
 21
37.807411185968782
 31
0.0
1001
ACAD
1010
0.0
1020
0.0
1030
0.0
  0
LINE
  5
1950
  8
SAPA_ANSLUTNING
 10
77.39060707674588
 20
39.182226514476568
 30
0.0
 11
76.993732076745886
 21
39.869634178730472
 31
0.0
1001
ACAD
1010
0.0
1020
0.0
1030
0.0
  0
LINE
  5
1951
  8
SAPA_ANSLUTNING
 10
76.199982076745883
 20
41.244449507238258
 30
0.0
 11
75.803107076745889
 21
41.931857171492148
 31
0.0
1001
ACAD
1010
0.0
1020
0.0
1030
0.0
  0
LINE
  5
1952
  8
SAPA_ANSLUTNING
 10
75.009357076745886
 20
43.306672499999941
 30
0.0
 11
74.612482076745891
 21
43.994080164253837
 31
0.0
1001
ACAD
1010
0.0
1020
0.0
1030
0.0
  0
LINE
  5
1953
  8
SAPA_ANSLUTNING
 10
80.881297408071077
 20
35.885803507131911
 30
0.0
 11
80.565606792249767
 21
36.432595693207091
 31
0.0
1001
ACAD
1010
0.0
1020
0.0
1030
0.0
  0
LINE
  5
1954
  8
SAPA_ANSLUTNING
 10
79.771856792249778
 20
37.807411021714877
 30
0.0
 11
79.374981792249784
 21
38.494818685968781
 31
0.0
1001
ACAD
1010
0.0
1020
0.0
1030
0.0
  0
LINE
  5
1955
  8
SAPA_ANSLUTNING
 10
78.581231792249781
 20
39.869634014476581
 30
0.0
 11
78.184356792249787
 21
40.557041678730471
 31
0.0
1001
ACAD
1010
0.0
1020
0.0
1030
0.0
  0
LINE
  5
1956
  8
SAPA_ANSLUTNING
 10
77.390606792249784
 20
41.931857007238257
 30
0.0
 11
76.99373179224979
 21
42.619264671492161
 31
0.0
1001
ACAD
1010
0.0
1020
0.0
1030
0.0
  0
LINE
  5
1957
  8
SAPA_ANSLUTNING
 10
76.199981792249787
 20
43.994079999999947
 30
0.0
 11
75.803106792249793
 21
44.681487664253851
 31
0.0
1001
ACAD
1010
0.0
1020
0.0
1030
0.0
  0
LINE
  5
1958
  8
SAPA_ANSLUTNING
 10
79.771856507753697
 20
40.557041514476587
 30
0.0
 11
79.374981507753702
 21
41.244449178730477
 31
0.0
1001
ACAD
1010
0.0
1020
0.0
1030
0.0
  0
LINE
  5
1959
  8
SAPA_ANSLUTNING
 10
78.581231507753685
 20
42.61926450723827
 30
0.0
 11
78.184356507753705
 21
43.306672171492167
 31
0.0
1001
ACAD
1010
0.0
1020
0.0
1030
0.0
  0
LINE
  5
195A
  8
SAPA_ANSLUTNING
 10
77.390606507753702
 20
44.68148749999996
 30
0.0
 11
77.33095146378615
 21
44.784813067079519
 31
0.0
1001
ACAD
1010
0.0
1020
0.0
1030
0.0
  0
LINE
  5
195B
  8
SAPA_ANSLUTNING
 10
72.231241180620984
 20
38.49483429008913
 30
0.0
 11
72.628116180620978
 21
39.18224195434302
 31
0.0
1001
ACAD
1010
0.0
1020
0.0
1030
0.0
  0
LINE
  5
195C
  8
SAPA_ANSLUTNING
 10
73.421866180620981
 20
40.557057282850813
 30
0.0
 11
73.818741180620975
 21
41.24446494710471
 31
0.0
1001
ACAD
1010
0.0
1020
0.0
1030
0.0
  0
LINE
  5
195D
  8
SAPA_ANSLUTNING
 10
74.612491180620978
 20
42.619280275612503
 30
0.0
 11
75.009366180620972
 21
43.3066879398664
 31
0.0
1001
ACAD
1010
0.0
1020
0.0
1030
0.0
  0
LINE
  5
195E
  8
SAPA_ANSLUTNING
 10
75.803116180620975
 20
44.681503268374193
 30
0.0
 11
75.958875990762365
 21
44.951287173316359
 31
0.0
1001
ACAD
1010
0.0
1020
0.0
1030
0.0
  0
LINE
  5
195F
  8
SAPA_ANSLUTNING
 10
72.231240896124888
 20
35.74520379732742
 30
0.0
 11
72.628115896124882
 21
36.432611461581317
 31
0.0
1001
ACAD
1010
0.0
1020
0.0
1030
0.0
  0
LINE
  5
1960
  8
SAPA_ANSLUTNING
 10
73.421865896124885
 20
37.80742679008911
 30
0.0
 11
73.818740896124865
 21
38.494834454343007
 31
0.0
1001
ACAD
1010
0.0
1020
0.0
1030
0.0
  0
LINE
  5
1961
  8
SAPA_ANSLUTNING
 10
74.612490896124882
 20
39.8696497828508
 30
0.0
 11
75.009365896124876
 21
40.55705744710469
 31
0.0
1001
ACAD
1010
0.0
1020
0.0
1030
0.0
  0
LINE
  5
1962
  8
SAPA_ANSLUTNING
 10
75.803115896124879
 20
41.93187277561249
 30
0.0
 11
76.199990896124874
 21
42.61928043986638
 31
0.0
1001
ACAD
1010
0.0
1020
0.0
1030
0.0
  0
LINE
  5
1963
  8
SAPA_ANSLUTNING
 10
76.993740896124876
 20
43.99409576837418
 30
0.0
 11
77.390615896124871
 21
44.681503432628077
 31
0.0
1001
ACAD
1010
0.0
1020
0.0
1030
0.0
  0
LINE
  5
1964
  8
SAPA_ANSLUTNING
 10
72.231240611628806
 20
32.995573304565731
 30
0.0
 11
72.6281156116288
 21
33.682980968819628
 31
0.0
1001
ACAD
1010
0.0
1020
0.0
1030
0.0
  0
LINE
  5
1965
  8
SAPA_ANSLUTNING
 10
73.421865611628803
 20
35.057796297327421
 30
0.0
 11
73.818740611628783
 21
35.745203961581318
 31
0.0
1001
ACAD
1010
0.0
1020
0.0
1030
0.0
  0
LINE
  5
1966
  8
SAPA_ANSLUTNING
 10
74.6124906116288
 20
37.120019290089111
 30
0.0
 11
75.009365611628795
 21
37.807426954343008
 31
0.0
1001
ACAD
1010
0.0
1020
0.0
1030
0.0
  0
LINE
  5
1967
  8
SAPA_ANSLUTNING
 10
75.803115611628783
 20
39.182242282850801
 30
0.0
 11
76.199990611628792
 21
39.869649947104698
 31
0.0
1001
ACAD
1010
0.0
1020
0.0
1030
0.0
  0
LINE
  5
1968
  8
SAPA_ANSLUTNING
 10
76.993740611628795
 20
41.244465275612491
 30
0.0
 11
77.390615611628789
 21
41.931872939866381
 31
0.0
1001
ACAD
1010
0.0
1020
0.0
1030
0.0
  0
LINE
  5
1969
  8
SAPA_ANSLUTNING
 10
78.184365611628792
 20
43.306688268374181
 30
0.0
 11
78.497720847812573
 21
43.849435458262242
 31
0.0
1001
ACAD
1010
0.0
1020
0.0
1030
0.0
  0
LINE
  5
196A
  8
SAPA_ANSLUTNING
 10
72.378168997212001
 20
30.500430733469909
 30
0.0
 11
72.628115327132704
 21
30.933350476057949
 31
0.0
1001
ACAD
1010
0.0
1020
0.0
1030
0.0
  0
LINE
  5
196B
  8
SAPA_ANSLUTNING
 10
73.421865327132707
 20
32.308165804565739
 30
0.0
 11
73.818740327132701
 21
32.995573468819643
 31
0.0
1001
ACAD
1010
0.0
1020
0.0
1030
0.0
  0
LINE
  5
196C
  8
SAPA_ANSLUTNING
 10
74.612490327132704
 20
34.370388797327429
 30
0.0
 11
75.009365327132699
 21
35.057796461581333
 31
0.0
1001
ACAD
1010
0.0
1020
0.0
1030
0.0
  0
LINE
  5
196D
  8
SAPA_ANSLUTNING
 10
75.803115327132701
 20
36.432611790089119
 30
0.0
 11
76.199990327132696
 21
37.120019454343023
 31
0.0
1001
ACAD
1010
0.0
1020
0.0
1030
0.0
  0
LINE
  5
196E
  8
SAPA_ANSLUTNING
 10
76.993740327132699
 20
38.494834782850809
 30
0.0
 11
77.390615327132693
 21
39.182242447104713
 31
0.0
1001
ACAD
1010
0.0
1020
0.0
1030
0.0
  0
LINE
  5
196F
  8
SAPA_ANSLUTNING
 10
78.184365327132696
 20
40.557057775612492
 30
0.0
 11
78.58124032713269
 21
41.244465439866389
 31
0.0
1001
ACAD
1010
0.0
1020
0.0
1030
0.0
  0
LINE
  5
1970
  8
SAPA_ANSLUTNING
 10
73.421865042636611
 20
29.558535311804039
 30
0.0
 11
73.818740042636605
 21
30.245942976057929
 31
0.0
1001
ACAD
1010
0.0
1020
0.0
1030
0.0
  0
LINE
  5
1971
  8
SAPA_ANSLUTNING
 10
74.612490042636594
 20
31.620758304565729
 30
0.0
 11
75.009365042636603
 21
32.30816596881963
 31
0.0
1001
ACAD
1010
0.0
1020
0.0
1030
0.0
  0
LINE
  5
1972
  8
SAPA_ANSLUTNING
 10
75.803115042636605
 20
33.68298129732743
 30
0.0
 11
76.1999900426366
 21
34.37038896158132
 31
0.0
1001
ACAD
1010
0.0
1020
0.0
1030
0.0
  0
LINE
  5
1973
  8
SAPA_ANSLUTNING
 10
76.993740042636603
 20
35.74520429008912
 30
0.0
 11
77.390615042636597
 21
36.43261195434301
 31
0.0
1001
ACAD
1010
0.0
1020
0.0
1030
0.0
  0
LINE
  5
1974
  8
SAPA_ANSLUTNING
 10
78.1843650426366
 20
37.807427282850803
 30
0.0
 11
78.581240042636594
 21
38.4948349471047
 31
0.0
1001
ACAD
1010
0.0
1020
0.0
1030
0.0
  0
LINE
  5
1975
  8
SAPA_ANSLUTNING
 10
79.374990042636597
 20
39.869650275612493
 30
0.0
 11
79.771865042636591
 21
40.557057939866382
 31
0.0
1001
ACAD
1010
0.0
1020
0.0
1030
0.0
  0
LINE
  5
1976
  8
SAPA_ANSLUTNING
 10
73.613298348571931
 20
27.140477523944892
 30
0.0
 11
73.818739758140509
 21
27.49631248329624
 31
0.0
1001
ACAD
1010
0.0
1020
0.0
1030
0.0
  0
LINE
  5
1977
  8
SAPA_ANSLUTNING
 10
74.612489758140512
 20
28.87112781180404
 30
0.0
 11
75.009364758140507
 21
29.558535476057941
 31
0.0
1001
ACAD
1010
0.0
1020
0.0
1030
0.0
  0
LINE
  5
1978
  8
SAPA_ANSLUTNING
 10
75.803114758140509
 20
30.933350804565741
 30
0.0
 11
76.199989758140504
 21
31.620758468819631
 31
0.0
1001
ACAD
1010
0.0
1020
0.0
1030
0.0
  0
LINE
  5
1979
  8
SAPA_ANSLUTNING
 10
76.993739758140507
 20
32.995573797327431
 30
0.0
 11
77.390614758140501
 21
33.682981461581321
 31
0.0
1001
ACAD
1010
0.0
1020
0.0
1030
0.0
  0
LINE
  5
197A
  8
SAPA_ANSLUTNING
 10
78.184364758140504
 20
35.057796790089121
 30
0.0
 11
78.581239758140484
 21
35.745204454343011
 31
0.0
1001
ACAD
1010
0.0
1020
0.0
1030
0.0
  0
LINE
  5
197B
  8
SAPA_ANSLUTNING
 10
79.374989758140501
 20
37.120019782850797
 30
0.0
 11
79.771864758140495
 21
37.8074274471047
 31
0.0
1001
ACAD
1010
0.0
1020
0.0
1030
0.0
  0
LINE
  5
197C
  8
SAPA_ANSLUTNING
 10
74.612489473644402
 20
26.121497319042351
 30
0.0
 11
75.009364473644396
 21
26.808904983296241
 31
0.0
1001
ACAD
1010
0.0
1020
0.0
1030
0.0
  0
LINE
  5
197D
  8
SAPA_ANSLUTNING
 10
75.803114473644399
 20
28.183720311804041
 30
0.0
 11
76.199989473644393
 21
28.871127976057942
 31
0.0
1001
ACAD
1010
0.0
1020
0.0
1030
0.0
  0
LINE
  5
197E
  8
SAPA_ANSLUTNING
 10
76.993739473644396
 20
30.245943304565738
 30
0.0
 11
77.390614473644391
 21
30.933350968819632
 31
0.0
1001
ACAD
1010
0.0
1020
0.0
1030
0.0
  0
LINE
  5
197F
  8
SAPA_ANSLUTNING
 10
78.184364473644393
 20
32.308166297327432
 30
0.0
 11
78.581239473644388
 21
32.995573961581321
 31
0.0
1001
ACAD
1010
0.0
1020
0.0
1030
0.0
  0
LINE
  5
1980
  8
SAPA_ANSLUTNING
 10
79.374989473644391
 20
34.370389290089122
 30
0.0
 11
79.771864473644385
 21
35.057796954343011
 31
0.0
1001
ACAD
1010
0.0
1020
0.0
1030
0.0
  0
LINE
  5
1981
  8
SAPA_ANSLUTNING
 10
80.565614473644388
 20
36.432612282850798
 30
0.0
 11
80.819750468146466
 21
36.872788737360437
 31
0.0
1001
ACAD
1010
0.0
1020
0.0
1030
0.0
  0
LINE
  5
1982
  8
SAPA_ANSLUTNING
 10
75.803114189148303
 20
25.434089819042359
 30
0.0
 11
76.199989189148312
 21
26.121497483296249
 31
0.0
1001
ACAD
1010
0.0
1020
0.0
1030
0.0
  0
LINE
  5
1983
  8
SAPA_ANSLUTNING
 10
76.993739189148314
 20
27.496312811804049
 30
0.0
 11
77.390614189148309
 21
28.18372047605795
 31
0.0
1001
ACAD
1010
0.0
1020
0.0
1030
0.0
  0
LINE
  5
1984
  8
SAPA_ANSLUTNING
 10
78.184364189148312
 20
29.55853580456575
 30
0.0
 11
78.581239189148306
 21
30.24594346881964
 31
0.0
1001
ACAD
1010
0.0
1020
0.0
1030
0.0
  0
LINE
  5
1985
  8
SAPA_ANSLUTNING
 10
79.374989189148309
 20
31.62075879732744
 30
0.0
 11
79.771864189148303
 21
32.308166461581337
 31
0.0
1001
ACAD
1010
0.0
1020
0.0
1030
0.0
  0
LINE
  5
1986
  8
SAPA_ANSLUTNING
 10
80.565614189148306
 20
33.68298179008913
 30
0.0
 11
80.885212789455608
 21
34.236542803849282
 31
0.0
1001
ACAD
1010
0.0
1020
0.0
1030
0.0
  0
LINE
  5
1987
  8
SAPA_ANSLUTNING
 10
77.243627081364906
 20
25.179501337319479
 30
0.0
 11
77.390613904652213
 21
25.43408998329625
 31
0.0
1001
ACAD
1010
0.0
1020
0.0
1030
0.0
  0
LINE
  5
1988
  8
SAPA_ANSLUTNING
 10
78.184363904652216
 20
26.80890531180405
 30
0.0
 11
78.58123890465221
 21
27.496312976057951
 31
0.0
1001
ACAD
1010
0.0
1020
0.0
1030
0.0
  0
LINE
  5
1989
  8
SAPA_ANSLUTNING
 10
79.374988904652213
 20
28.87112830456574
 30
0.0
 11
79.771863904652193
 21
29.558535968819641
 31
0.0
1001
ACAD
1010
0.0
1020
0.0
1030
0.0
  0
LINE
  5
198A
  8
SAPA_ANSLUTNING
 10
76.430700640564609
 20
44.999804216822561
 30
0.0
 11
76.430896423741501
 21
44.999999999999439
 31
0.0
1001
ACAD
1010
0.0
1020
0.0
1030
0.0
  0
LINE
  5
198B
  8
SAPA_ANSLUTNING
 10
78.013218425633696
 20
44.337257971624368
 30
0.0
 11
78.675960454008788
 21
44.999999999999453
 31
0.0
1001
ACAD
1010
0.0
1020
0.0
1030
0.0
  0
LINE
  5
198C
  8
SAPA_ANSLUTNING
 10
79.033164447096198
 20
43.112139962819583
 30
0.0
 11
80.921024484276074
 21
44.999999999999439
 31
0.0
1001
ACAD
1010
0.0
1020
0.0
1030
0.0
  0
LINE
  5
198D
  8
SAPA_ANSLUTNING
 10
79.777418707901703
 20
41.61133019335778
 30
0.0
 11
83.166088514543361
 21
44.999999999999439
 31
0.0
1001
ACAD
1010
0.0
1020
0.0
1030
0.0
  0
LINE
  5
198E
  8
SAPA_ANSLUTNING
 10
80.320844997236748
 20
39.90969245242556
 30
0.0
 11
85.411152544810662
 21
44.999999999999453
 31
0.0
1001
ACAD
1010
0.0
1020
0.0
1030
0.0
  0
LINE
  5
198F
  8
SAPA_ANSLUTNING
 10
80.68801936738889
 20
38.031802792310401
 30
0.0
 11
87.656216575077934
 21
44.999999999999439
 31
0.0
1001
ACAD
1010
0.0
1020
0.0
1030
0.0
  0
LINE
  5
1990
  8
SAPA_ANSLUTNING
 10
80.877526755235607
 20
35.976246149889832
 30
0.0
 11
87.472054686741131
 21
42.570774081395363
 31
0.0
1001
ACAD
1010
0.0
1020
0.0
1030
0.0
  0
LINE
  5
1991
  8
SAPA_ANSLUTNING
 10
80.860805094670795
 20
33.714460459057747
 30
0.0
 11
87.124926694412636
 21
39.978582058799589
 31
0.0
1001
ACAD
1010
0.0
1020
0.0
1030
0.0
  0
LINE
  5
1992
  8
SAPA_ANSLUTNING
 10
80.552322265262234
 20
31.160913599381889
 30
0.0
 11
86.996713463200521
 21
37.605304797320173
 31
0.0
1001
ACAD
1010
0.0
1020
0.0
1030
0.0
  0
LINE
  5
1993
  8
SAPA_ANSLUTNING
 10
76.636472696147621
 20
24.999999999999989
 30
0.0
 11
76.652944222595593
 21
25.016471526447958
 31
0.0
1001
ACAD
1010
0.0
1020
0.0
1030
0.0
  0
LINE
  5
1994
  8
SAPA_ANSLUTNING
 10
79.588040383602959
 20
27.95156768745532
 30
0.0
 11
87.037841032042664
 21
35.401368335895022
 31
0.0
1001
ACAD
1010
0.0
1020
0.0
1030
0.0
  0
LINE
  5
1995
  8
SAPA_ANSLUTNING
 10
78.881536726414893
 20
25.0
 30
0.0
 11
87.216956001283165
 21
33.335419274868229
 31
0.0
1001
ACAD
1010
0.0
1020
0.0
1030
0.0
  0
LINE
  5
1996
  8
SAPA_ANSLUTNING
 10
81.126600756682194
 20
24.999999999999989
 30
0.0
 11
84.160832941752744
 21
28.034232185070529
 31
0.0
1001
ACAD
1010
0.0
1020
0.0
1030
0.0
  0
LINE
  5
1997
  8
SAPA_ANSLUTNING
 10
86.126600756682194
 20
29.999999999999989
 30
0.0
 11
87.512780061255086
 21
31.38617930457286
 31
0.0
1001
ACAD
1010
0.0
1020
0.0
1030
0.0
  0
LINE
  5
1998
  8
SAPA_ANSLUTNING
 10
83.371664786949495
 20
25.0
 30
0.0
 11
85.999999994418317
 21
27.62833520746883
 31
0.0
1001
ACAD
1010
0.0
1020
0.0
1030
0.0
  0
LINE
  5
1999
  8
SAPA_ANSLUTNING
 10
85.616728817216782
 20
25.0
 30
0.0
 11
85.999999994418317
 21
25.383271177201539
 31
0.0
1001
ACAD
1010
0.0
1020
0.0
1030
0.0
  0
LINE
  5
199A
  8
SAPA_ANSLUTNING
 10
78.27294539229527
 20
24.999999999999979
 30
0.0
 11
77.784355701920774
 21
25.488589690374479
 31
0.0
1001
ACAD
1010
0.0
1020
0.0
1030
0.0
  0
LINE
  5
199B
  8
SAPA_ANSLUTNING
 10
80.518009422562557
 20
24.999999999999979
 30
0.0
 11
78.870098116616049
 21
26.64791130594649
 31
0.0
1001
ACAD
1010
0.0
1020
0.0
1030
0.0
  0
LINE
  5
199C
  8
SAPA_ANSLUTNING
 10
82.763073452829843
 20
24.999999999999979
 30
0.0
 11
79.656098232498309
 21
28.10697522033152
 31
0.0
1001
ACAD
1010
0.0
1020
0.0
1030
0.0
  0
LINE
  5
199D
  8
SAPA_ANSLUTNING
 10
85.00813748309713
 20
24.999999999999989
 30
0.0
 11
80.233414584942523
 21
29.7747228981546
 31
0.0
1001
ACAD
1010
0.0
1020
0.0
1030
0.0
  0
LINE
  5
199E
  8
SAPA_ANSLUTNING
 10
85.999999994418317
 20
26.253201518946081
 30
0.0
 11
84.248800194907574
 21
28.004401318456829
 31
0.0
1001
ACAD
1010
0.0
1020
0.0
1030
0.0
  0
LINE
  5
199F
  8
SAPA_ANSLUTNING
 10
84.00440131287499
 20
28.248800200489409
 30
0.0
 11
80.632587570843597
 21
31.620613942520809
 31
0.0
1001
ACAD
1010
0.0
1020
0.0
1030
0.0
  0
LINE
  5
19A0
  8
SAPA_ANSLUTNING
 10
84.808104486068061
 20
29.690161057563628
 30
0.0
 11
80.856419316979327
 21
33.641846226652362
 31
0.0
1001
ACAD
1010
0.0
1020
0.0
1030
0.0
  0
LINE
  5
19A1
  8
SAPA_ANSLUTNING
 10
86.743329573898976
 20
29.999999999999979
 30
0.0
 11
80.882263842424322
 21
35.86106573147466
 31
0.0
1001
ACAD
1010
0.0
1020
0.0
1030
0.0
  0
LINE
  5
19A2
  8
SAPA_ANSLUTNING
 10
87.492870520882406
 20
31.49552308328385
 30
0.0
 11
80.640215724625904
 21
38.348177879540373
 31
0.0
1001
ACAD
1010
0.0
1020
0.0
1030
0.0
  0
LINE
  5
19A3
  8
SAPA_ANSLUTNING
 10
87.134832678992765
 20
34.098624955440812
 30
0.0
 11
79.873862825355999
 21
41.359594809077556
 31
0.0
1001
ACAD
1010
0.0
1020
0.0
1030
0.0
  0
LINE
  5
19A4
  8
SAPA_ANSLUTNING
 10
86.99845557016107
 20
36.480066094539779
 30
0.0
 11
78.478521664701404
 21
44.999999999999439
 31
0.0
1001
ACAD
1010
0.0
1020
0.0
1030
0.0
  0
LINE
  5
19A5
  8
SAPA_ANSLUTNING
 10
87.033082035860815
 20
38.690503659107293
 30
0.0
 11
80.723585694968676
 21
44.999999999999439
 31
0.0
1001
ACAD
1010
0.0
1020
0.0
1030
0.0
  0
LINE
  5
19A6
  8
SAPA_ANSLUTNING
 10
87.206791109274661
 20
40.761858615960747
 30
0.0
 11
82.968649725235977
 21
44.999999999999439
 31
0.0
1001
ACAD
1010
0.0
1020
0.0
1030
0.0
  0
LINE
  5
19A7
  8
SAPA_ANSLUTNING
 10
87.497973473415428
 20
42.715740282087289
 30
0.0
 11
85.213713755503264
 21
44.999999999999453
 31
0.0
1001
ACAD
1010
0.0
1020
0.0
1030
0.0
  0
LINE
  5
19A8
  8
SAPA_ANSLUTNING
 10
87.891251730440317
 20
44.567526055329679
 30
0.0
 11
87.45877778577055
 21
44.999999999999453
 31
0.0
1001
ACAD
1010
0.0
1020
0.0
1030
0.0
  0
ARC
  5
19A9
  8
SAPA_ANSLUTNING
 10
32.729990294679162
 20
31.799999999999571
 30
0.0
 40
1.999999999999998
 50
248.59271595887679
 51
0.0
  0
LINE
  5
19AA
  8
SAPA_ANSLUTNING
 10
34.729990294679148
 20
31.799999999999571
 30
0.0
 11
34.731584345125462
 21
43.000000000000441
 31
0.0
  0
ARC
  5
19AB
  8
SAPA_ANSLUTNING
 10
36.731584345125512
 20
43.000000000000441
 30
0.0
 40
2.000000000000056
 50
0.0001207055973198
 51
180.0
  0
LINE
  5
19AC
  8
SAPA_ANSLUTNING
 10
38.731584345121142
 20
43.000004213420638
 30
0.0
 11
38.731584345121163
 21
31.81117359299213
 31
0.0
  0
ARC
  5
19AD
  8
SAPA_ANSLUTNING
 10
40.731584345121149
 20
31.81117359299213
 30
0.0
 40
2.0
 50
180.0
 51
0.0
  0
LINE
  5
19AE
  8
SAPA_ANSLUTNING
 10
42.731584345121149
 20
31.81117359299213
 30
0.0
 11
42.731584345121142
 21
43.000000000005777
 31
0.0
  0
ARC
  5
19AF
  8
SAPA_ANSLUTNING
 10
44.731584345114783
 20
43.000000000005777
 30
0.0
 40
1.9999999999936331
 50
0.0000000000002036
 51
180.0
  0
LINE
  5
19B0
  8
SAPA_ANSLUTNING
 10
46.731584345108409
 20
43.000000000005777
 30
0.0
 11
46.731584345108423
 21
31.799999999999599
 31
0.0
  0
ARC
  5
19B1
  8
SAPA_ANSLUTNING
 10
48.731584345108423
 20
31.799999999999599
 30
0.0
 40
2.0
 50
180.0
 51
0.0
  0
LINE
  5
19B2
  8
SAPA_ANSLUTNING
 10
50.731584345108423
 20
31.799999999999599
 30
0.0
 11
50.733178395554731
 21
43.000000000000469
 31
0.0
  0
ARC
  5
19B3
  8
SAPA_ANSLUTNING
 10
52.733178395554781
 20
43.000000000000469
 30
0.0
 40
2.000000000000056
 50
0.0001207055973198
 51
180.0
  0
LINE
  5
19B4
  8
SAPA_ANSLUTNING
 10
54.733178395550418
 20
43.000004213420667
 30
0.0
 11
54.731584345103869
 21
31.799999999999599
 31
0.0
  0
ARC
  5
19B5
  8
SAPA_ANSLUTNING
 10
56.731584345103869
 20
31.799999999999599
 30
0.0
 40
2.0
 50
180.0
 51
0.0
  0
LINE
  5
19B6
  8
SAPA_ANSLUTNING
 10
58.731584345103862
 20
31.799999999999599
 30
0.0
 11
58.733178395550297
 21
42.988830620449349
 31
0.0
  0
ARC
  5
19B7
  8
SAPA_ANSLUTNING
 10
60.733178395543987
 20
42.988825617563421
 30
0.0
 40
1.9999999999999469
 50
0.0001433221245229
 51
179.9998566778755
  0
LINE
  5
19B8
  8
SAPA_ANSLUTNING
 10
62.733178395537692
 20
42.988830620449349
 30
0.0
 11
62.73158434509125
 21
31.799999999999599
 31
0.0
  0
ARC
  5
19B9
  8
SAPA_ANSLUTNING
 10
64.73158434509125
 20
31.799999999999599
 30
0.0
 40
2.0
 50
180.0
 51
0.0
  0
LINE
  5
19BA
  8
SAPA_ANSLUTNING
 10
66.73158434509125
 20
31.799999999999599
 30
0.0
 11
66.73158434509125
 21
42.991342536791102
 31
0.0
  0
ARC
  5
19BB
  8
SAPA_ANSLUTNING
 10
68.731584345086873
 20
42.991338323371011
 30
0.0
 40
2.0000000000000608
 50
0.0000000000032569
 51
179.9998792944059
  0
LINE
  5
19BC
  8
SAPA_ANSLUTNING
 10
70.731584345086929
 20
42.991338323371131
 30
0.0
 11
70.731584345086688
 21
26.9999999999994
 31
0.0
  0
ARC
  5
19BD
  8
SAPA_ANSLUTNING
 10
72.731584345086631
 20
26.999999999999339
 30
0.0
 40
1.9999999999999429
 50
179.99999999999821
 51
330.02688506016722
  0
POLYLINE
  5
1A2F
  8
SAPA_PROFIL
 62
     4
 66
     1
 10
0.0
 20
0.0
 30
0.0
 70
     1
  0
VERTEX
  5
1E13
  8
SAPA_PROFIL
 62
     4
 10
40.023789213031812
 20
0.5604603295560154
 30
0.0
 42
0.3095427405277249
  0
VERTEX
  5
1E14
  8
SAPA_PROFIL
 62
     4
 10
40.396713997646081
 20
0.3051223668026139
 30
0.0
  0
VERTEX
  5
1E15
  8
SAPA_PROFIL
 62
     4
 10
50.999999997563798
 20
0.3051223668026139
 30
0.0
  0
VERTEX
  5
1E16
  8
SAPA_PROFIL
 62
     4
 10
61.603285997491518
 20
0.3051223668026175
 30
0.0
 42
0.3095427405277116
  0
VERTEX
  5
1E17
  8
SAPA_PROFIL
 62
     4
 10
61.976210782105788
 20
0.5604603295560189
 30
0.0
  0
VERTEX
  5
1E18
  8
SAPA_PROFIL
 62
     4
 10
62.934067588235038
 20
3.0297228252043271
 30
0.0
 42
-0.3951183166278546
  0
VERTEX
  5
1E19
  8
SAPA_PROFIL
 62
     4
 10
63.303680059325522
 20
3.207433367086661
 30
0.0
  0
VERTEX
  5
1E1A
  8
SAPA_PROFIL
 62
     4
 10
63.543863124107808
 20
3.346103124193188
 30
0.0
 42
-0.5773502691891896
  0
VERTEX
  5
1E1B
  8
SAPA_PROFIL
 62
     4
 10
63.858863124107643
 20
3.1642377893981681
 30
0.0
  0
VERTEX
  5
1E1C
  8
SAPA_PROFIL
 62
     4
 10
63.858863124107643
 20
2.8971232611857078
 30
0.0
  0
VERTEX
  5
1E1D
  8
SAPA_PROFIL
 62
     4
 10
65.239999997524464
 20
2.105122366717306
 30
0.0
  0
VERTEX
  5
1E1E
  8
SAPA_PROFIL
 62
     4
 10
65.589999997524146
 20
2.1051223667082111
 30
0.0
 42
0.4142135623733655
  0
VERTEX
  5
1E1F
  8
SAPA_PROFIL
 62
     4
 10
65.989999997534014
 20
2.5051223666992071
 30
0.0
  0
VERTEX
  5
1E20
  8
SAPA_PROFIL
 62
     4
 10
65.989999997613836
 20
5.905122366699298
 30
0.0
 42
0.4142135623732407
  0
VERTEX
  5
1E21
  8
SAPA_PROFIL
 62
     4
 10
65.589999997623053
 20
6.3051223667084839
 30
0.0
  0
VERTEX
  5
1E22
  8
SAPA_PROFIL
 62
     4
 10
65.245222046091953
 20
6.2959864454233063
 30
0.0
  0
VERTEX
  5
1E23
  8
SAPA_PROFIL
 62
     4
 10
63.602968599513922
 20
5.3572823104532388
 30
0.0
 42
-0.1246505592471785
  0
VERTEX
  5
1E24
  8
SAPA_PROFIL
 62
     4
 10
62.968259773624929
 20
5.2051223667704214
 30
0.0
  0
VERTEX
  5
1E25
  8
SAPA_PROFIL
 62
     4
 10
62.317415997597081
 20
5.2051223667858819
 30
0.0
 42
0.3095428336485235
  0
VERTEX
  5
1E26
  8
SAPA_PROFIL
 62
     4
 10
61.385103913114897
 20
4.5667771430180544
 30
0.0
  0
VERTEX
  5
1E27
  8
SAPA_PROFIL
 62
     4
 10
60.529247831317768
 20
2.360460456343854
 30
0.0
 42
-0.3095428336421182
  0
VERTEX
  5
1E28
  8
SAPA_PROFIL
 62
     4
 10
60.156322997534389
 20
2.1051223668373602
 30
0.0
  0
VERTEX
  5
1E29
  8
SAPA_PROFIL
 62
     4
 10
50.9999999975688
 20
2.1051223668364472
 30
0.0
  0
VERTEX
  5
1E2A
  8
SAPA_PROFIL
 62
     4
 10
41.843676997603417
 20
2.1051223668373562
 30
0.0
 42
-0.3095428336421894
  0
VERTEX
  5
1E2B
  8
SAPA_PROFIL
 62
     4
 10
41.470752163819832
 20
2.3604604563438509
 30
0.0
  0
VERTEX
  5
1E2C
  8
SAPA_PROFIL
 62
     4
 10
41.470752490118556
 20
2.3604596151826689
 30
0.0
  0
VERTEX
  5
1E2D
  8
SAPA_PROFIL
 62
     4
 10
41.470752172262898
 20
2.3604604345787328
 30
0.0
  0
VERTEX
  5
1E2E
  8
SAPA_PROFIL
 62
     4
 10
40.614896082022923
 20
4.5667771430180499
 30
0.0
 42
0.3095428336485546
  0
VERTEX
  5
1E2F
  8
SAPA_PROFIL
 62
     4
 10
39.682583997540512
 20
5.2051223667858793
 30
0.0
  0
VERTEX
  5
1E30
  8
SAPA_PROFIL
 62
     4
 10
39.031740221512671
 20
5.205122366770417
 30
0.0
 42
-0.1246505592471561
  0
VERTEX
  5
1E31
  8
SAPA_PROFIL
 62
     4
 10
38.397031395623678
 20
5.3572823104527814
 30
0.0
  0
VERTEX
  5
1E32
  8
SAPA_PROFIL
 62
     4
 10
36.754777949045881
 20
6.2959864454233019
 30
0.0
  0
VERTEX
  5
1E33
  8
SAPA_PROFIL
 62
     4
 10
36.409999997514767
 20
6.3051223667084813
 30
0.0
 42
0.4142135623732407
  0
VERTEX
  5
1E34
  8
SAPA_PROFIL
 62
     4
 10
36.009999997523998
 20
5.9051223666992954
 30
0.0
  0
VERTEX
  5
1E35
  8
SAPA_PROFIL
 62
     4
 10
36.009999997603813
 20
2.505122366699204
 30
0.0
 42
0.4142135623733655
  0
VERTEX
  5
1E36
  8
SAPA_PROFIL
 62
     4
 10
36.409999997613447
 20
2.105122366708208
 30
0.0
  0
VERTEX
  5
1E37
  8
SAPA_PROFIL
 62
     4
 10
36.759999997613129
 20
2.1051223667173029
 30
0.0
  0
VERTEX
  5
1E38
  8
SAPA_PROFIL
 62
     4
 10
38.141136871030191
 20
2.8971232611857038
 30
0.0
  0
VERTEX
  5
1E39
  8
SAPA_PROFIL
 62
     4
 10
38.141136871030191
 20
3.1642377893981641
 30
0.0
 42
-0.5773502691891445
  0
VERTEX
  5
1E3A
  8
SAPA_PROFIL
 62
     4
 10
38.456136871029791
 20
3.346103124193184
 30
0.0
  0
VERTEX
  5
1E3B
  8
SAPA_PROFIL
 62
     4
 10
38.696319935812078
 20
3.2074333670866571
 30
0.0
 42
-0.3951183166278546
  0
VERTEX
  5
1E3C
  8
SAPA_PROFIL
 62
     4
 10
39.065932406902782
 20
3.029722825204324
 30
0.0
  0
SEQEND
  5
1E3D
  8
SAPA_PROFIL
 62
     4
  0
POLYLINE
  5
1A30
  8
SAPA_PROFIL
 62
     4
 66
     1
 10
0.0
 20
0.0
 30
0.0
 70
     1
  0
VERTEX
  5
1E3E
  8
SAPA_PROFIL
 62
     4
 10
40.023789213032252
 20
29.439539670442642
 30
0.0
  0
VERTEX
  5
1E3F
  8
SAPA_PROFIL
 62
     4
 10
39.065932406903229
 20
26.97027717479433
 30
0.0
 42
-0.3951183166278715
  0
VERTEX
  5
1E40
  8
SAPA_PROFIL
 62
     4
 10
38.696319935812532
 20
26.792566632911988
 30
0.0
  0
VERTEX
  5
1E41
  8
SAPA_PROFIL
 62
     4
 10
38.456136871030239
 20
26.653896875805462
 30
0.0
 42
-0.5773502691893923
  0
VERTEX
  5
1E42
  8
SAPA_PROFIL
 62
     4
 10
38.141136871030412
 20
26.835762210600489
 30
0.0
  0
VERTEX
  5
1E43
  8
SAPA_PROFIL
 62
     4
 10
38.141136871030412
 20
27.102876738812949
 30
0.0
  0
VERTEX
  5
1E44
  8
SAPA_PROFIL
 62
     4
 10
36.759999997613583
 20
27.894877633281801
 30
0.0
  0
VERTEX
  5
1E45
  8
SAPA_PROFIL
 62
     4
 10
36.409999997613888
 20
27.89487763328999
 30
0.0
 42
0.4142135623733657
  0
VERTEX
  5
1E46
  8
SAPA_PROFIL
 62
     4
 10
36.009999997604027
 20
27.494877633299449
 30
0.0
  0
VERTEX
  5
1E47
  8
SAPA_PROFIL
 62
     4
 10
36.009999997524218
 20
24.094877633299362
 30
0.0
 42
0.4142135623732407
  0
VERTEX
  5
1E48
  8
SAPA_PROFIL
 62
     4
 10
36.409999997514987
 20
23.694877633290169
 30
0.0
  0
VERTEX
  5
1E49
  8
SAPA_PROFIL
 62
     4
 10
36.754777949046563
 20
23.704013554575798
 30
0.0
  0
VERTEX
  5
1E4A
  8
SAPA_PROFIL
 62
     4
 10
38.397031395625262
 20
24.64271768954632
 30
0.0
 42
-0.1246505592468612
  0
VERTEX
  5
1E4B
  8
SAPA_PROFIL
 62
     4
 10
39.031740221512891
 20
24.794877633228229
 30
0.0
  0
VERTEX
  5
1E4C
  8
SAPA_PROFIL
 62
     4
 10
39.682583997540732
 20
24.794877633213229
 30
0.0
 42
0.3095428336485416
  0
VERTEX
  5
1E4D
  8
SAPA_PROFIL
 62
     4
 10
40.614896082023151
 20
25.433222856980599
 30
0.0
  0
VERTEX
  5
1E4E
  8
SAPA_PROFIL
 62
     4
 10
41.470752163820507
 20
27.639539543654799
 30
0.0
 42
-0.3095428336420965
  0
VERTEX
  5
1E4F
  8
SAPA_PROFIL
 62
     4
 10
41.843676997603879
 20
27.894877633161752
 30
0.0
  0
VERTEX
  5
1E50
  8
SAPA_PROFIL
 62
     4
 10
50.99999999756924
 20
27.894877633161752
 30
0.0
  0
VERTEX
  5
1E51
  8
SAPA_PROFIL
 62
     4
 10
60.156322997534623
 20
27.894877633161759
 30
0.0
 42
-0.3095428336420966
  0
VERTEX
  5
1E52
  8
SAPA_PROFIL
 62
     4
 10
60.529247831317988
 20
27.639539543654809
 30
0.0
  0
VERTEX
  5
1E53
  8
SAPA_PROFIL
 62
     4
 10
61.385103913115117
 20
25.43322285698061
 30
0.0
 42
0.309542833648536
  0
VERTEX
  5
1E54
  8
SAPA_PROFIL
 62
     4
 10
62.317415997597543
 20
24.794877633213229
 30
0.0
  0
VERTEX
  5
1E55
  8
SAPA_PROFIL
 62
     4
 10
62.96825977362537
 20
24.794877633228239
 30
0.0
 42
-0.1246505592468612
  0
VERTEX
  5
1E56
  8
SAPA_PROFIL
 62
     4
 10
63.602968599513012
 20
24.64271768954633
 30
0.0
  0
VERTEX
  5
1E57
  8
SAPA_PROFIL
 62
     4
 10
65.245222046091726
 20
23.704013554575809
 30
0.0
  0
VERTEX
  5
1E58
  8
SAPA_PROFIL
 62
     4
 10
65.589999997623295
 20
23.694877633290179
 30
0.0
 42
0.4142135623732407
  0
VERTEX
  5
1E59
  8
SAPA_PROFIL
 62
     4
 10
65.989999997614049
 20
24.094877633299362
 30
0.0
  0
VERTEX
  5
1E5A
  8
SAPA_PROFIL
 62
     4
 10
65.989999997534241
 20
27.494877633299449
 30
0.0
 42
0.4142135623733657
  0
VERTEX
  5
1E5B
  8
SAPA_PROFIL
 62
     4
 10
65.5899999975246
 20
27.89487763328999
 30
0.0
  0
VERTEX
  5
1E5C
  8
SAPA_PROFIL
 62
     4
 10
65.239999997524919
 20
27.894877633281808
 30
0.0
  0
VERTEX
  5
1E5D
  8
SAPA_PROFIL
 62
     4
 10
63.858863124107863
 20
27.102876738812949
 30
0.0
  0
VERTEX
  5
1E5E
  8
SAPA_PROFIL
 62
     4
 10
63.858863124107863
 20
26.835762210600489
 30
0.0
 42
-0.5773502691895012
  0
VERTEX
  5
1E5F
  8
SAPA_PROFIL
 62
     4
 10
63.543863124108022
 20
26.653896875805469
 30
0.0
  0
VERTEX
  5
1E60
  8
SAPA_PROFIL
 62
     4
 10
63.30368005932597
 20
26.792566632911999
 30
0.0
 42
-0.3951183166278822
  0
VERTEX
  5
1E61
  8
SAPA_PROFIL
 62
     4
 10
62.934067588235258
 20
26.97027717479433
 30
0.0
  0
VERTEX
  5
1E62
  8
SAPA_PROFIL
 62
     4
 10
61.976210782106229
 20
29.439539670442642
 30
0.0
 42
0.309542740527736
  0
VERTEX
  5
1E63
  8
SAPA_PROFIL
 62
     4
 10
61.603285997491959
 20
29.69487763319604
 30
0.0
  0
VERTEX
  5
1E64
  8
SAPA_PROFIL
 62
     4
 10
50.99999999757425
 20
29.69487763319604
 30
0.0
  0
VERTEX
  5
1E65
  8
SAPA_PROFIL
 62
     4
 10
40.396713997646302
 20
29.69487763319604
 30
0.0
 42
0.3095427405276612
  0
SEQEND
  5
1E66
  8
SAPA_PROFIL
 62
     4
  0
POLYLINE
  5
1A31
  8
SAPA_PROFIL
 66
     1
 10
0.0
 20
0.0
 30
0.0
 70
     1
  0
VERTEX
  5
1E67
  8
SAPA_PROFIL
 10
14.00000000071906
 20
-0.0000000000009095
 30
0.0
  0
VERTEX
  5
1E68
  8
SAPA_PROFIL
 10
14.00000000070224
 20
-21.499999999967709
 30
0.0
 42
0.4142135623565294
  0
VERTEX
  5
1E69
  8
SAPA_PROFIL
 10
14.500000000673589
 20
-21.999999999968171
 30
0.0
  0
VERTEX
  5
1E6A
  8
SAPA_PROFIL
 10
18.200000000685229
 20
-22.00000000018008
 30
0.0
 42
0.4142135623897996
  0
VERTEX
  5
1E6B
  8
SAPA_PROFIL
 10
18.50000000070224
 20
-21.700000000179902
 30
0.0
  0
VERTEX
  5
1E6C
  8
SAPA_PROFIL
 10
18.50000000070224
 20
-20.932455532153199
 30
0.0
 42
0.2896898632853548
  0
VERTEX
  5
1E6D
  8
SAPA_PROFIL
 10
17.928571429331779
 20
-20.028947629275532
 30
0.0
 42
0.5507604245882519
  0
VERTEX
  5
1E6E
  8
SAPA_PROFIL
 10
17.50000000074294
 20
-20.300000000121148
 30
0.0
  0
VERTEX
  5
1E6F
  8
SAPA_PROFIL
 10
17.500000000731351
 20
-20.5000000001437
 30
0.0
 42
-0.4142135623677535
  0
VERTEX
  5
1E70
  8
SAPA_PROFIL
 10
17.200000000719569
 20
-20.800000000126602
 30
0.0
  0
VERTEX
  5
1E71
  8
SAPA_PROFIL
 10
15.69999999953995
 20
-20.800000000066571
 30
0.0
 42
-0.4142135623614654
  0
VERTEX
  5
1E72
  8
SAPA_PROFIL
 10
15.199999999549281
 20
-20.300000000056571
 30
0.0
  0
VERTEX
  5
1E73
  8
SAPA_PROFIL
 10
15.19999999954927
 20
-17.000000000065938
 30
0.0
 42
-0.4142135623847744
  0
VERTEX
  5
1E74
  8
SAPA_PROFIL
 10
15.699999999569281
 20
-16.500000000065938
 30
0.0
  0
VERTEX
  5
1E75
  8
SAPA_PROFIL
 10
17.20000000095877
 20
-16.50000000012551
 30
0.0
 42
-0.4142135623787421
  0
VERTEX
  5
1E76
  8
SAPA_PROFIL
 10
17.50000000094667
 20
-16.800000000142969
 30
0.0
  0
VERTEX
  5
1E77
  8
SAPA_PROFIL
 10
17.50000000093485
 20
-17.000000000120512
 30
0.0
 42
0.5507604245845086
  0
VERTEX
  5
1E78
  8
SAPA_PROFIL
 10
17.928571429489121
 20
-17.27105237101841
 30
0.0
 42
0.289689863320267
  0
VERTEX
  5
1E79
  8
SAPA_PROFIL
 10
18.500000000976002
 20
-16.367544468085271
 30
0.0
  0
VERTEX
  5
1E7A
  8
SAPA_PROFIL
 10
18.500000000976002
 20
-15.370072656020049
 30
0.0
 42
0.0436609429084833
  0
VERTEX
  5
1E7B
  8
SAPA_PROFIL
 10
18.492403877482161
 20
-15.283248567187
 30
0.0
  0
VERTEX
  5
1E7C
  8
SAPA_PROFIL
 10
18.2155577065597
 20
-13.71317591120305
 30
0.0
 42
0.8390996311773337
  0
VERTEX
  5
1E7D
  8
SAPA_PROFIL
 10
17.230749953547381
 20
-13.71317591120305
 30
0.0
  0
VERTEX
  5
1E7E
  8
SAPA_PROFIL
 10
17.023804113965411
 20
-14.886824088870069
 30
0.0
 42
-0.3639702342662515
  0
VERTEX
  5
1E7F
  8
SAPA_PROFIL
 10
16.531400237459248
 20
-15.30000000003656
 30
0.0
  0
VERTEX
  5
1E80
  8
SAPA_PROFIL
 10
15.69999999954927
 20
-15.30000000003656
 30
0.0
 42
-0.437328258627285
  0
VERTEX
  5
1E81
  8
SAPA_PROFIL
 10
15.20153071924539
 20
-14.76090554271422
 30
0.0
  0
VERTEX
  5
1E82
  8
SAPA_PROFIL
 10
15.78832948226829
 20
-0.2878467213240583
 30
0.0
 42
-0.4023941304320373
  0
VERTEX
  5
1E83
  8
SAPA_PROFIL
 10
16.088083210881098
 20
-0.0000000000009095
 30
0.0
  0
VERTEX
  5
1E84
  8
SAPA_PROFIL
 10
16.888616429246319
 20
-0.0000000000009095
 30
0.0
 42
0.2596812337301571
  0
VERTEX
  5
1E85
  8
SAPA_PROFIL
 10
17.058647240786389
 20
0.0946931952476007
 30
0.0
  0
VERTEX
  5
1E86
  8
SAPA_PROFIL
 10
17.955046218028759
 20
1.5420397928714911
 30
0.0
 42
0.5877032589248628
  0
VERTEX
  5
1E87
  8
SAPA_PROFIL
 10
17.700000000718649
 20
1.9999999999990901
 30
0.0
  0
VERTEX
  5
1E88
  8
SAPA_PROFIL
 10
16.300000000718558
 20
1.9999999999990901
 30
0.0
 42
-0.4142135623730951
  0
VERTEX
  5
1E89
  8
SAPA_PROFIL
 10
16.000000000718611
 20
2.299999999999272
 30
0.0
  0
VERTEX
  5
1E8A
  8
SAPA_PROFIL
 10
16.000000000718611
 20
4.6999999999993634
 30
0.0
 42
-0.4142135623730397
  0
VERTEX
  5
1E8B
  8
SAPA_PROFIL
 10
16.300000000718558
 20
4.9999999999990896
 30
0.0
  0
VERTEX
  5
1E8C
  8
SAPA_PROFIL
 10
25.900000000718471
 20
4.9999999999990941
 30
0.0
 42
-0.4142135623731437
  0
VERTEX
  5
1E8D
  8
SAPA_PROFIL
 10
26.200000000718649
 20
4.699999999999366
 30
0.0
  0
VERTEX
  5
1E8E
  8
SAPA_PROFIL
 10
26.200000000718649
 20
0.2999999999992759
 30
0.0
 42
0.4142135623730119
  0
VERTEX
  5
1E8F
  8
SAPA_PROFIL
 10
26.500000000718611
 20
-0.0000000000009059
 30
0.0
  0
VERTEX
  5
1E90
  8
SAPA_PROFIL
 10
27.98408806607187
 20
-0.0000000000009059
 30
0.0
 42
0.2596812337301531
  0
VERTEX
  5
1E91
  8
SAPA_PROFIL
 10
28.154118877611939
 20
0.0946931952476042
 30
0.0
  0
VERTEX
  5
1E92
  8
SAPA_PROFIL
 10
28.555046222163689
 20
0.7420397928717684
 30
0.0
 42
0.5877032589250223
  0
VERTEX
  5
1E93
  8
SAPA_PROFIL
 10
28.30000000485358
 20
1.199999999999366
 30
0.0
  0
VERTEX
  5
1E94
  8
SAPA_PROFIL
 10
27.900000000718471
 20
1.199999999999366
 30
0.0
 42
-0.4142135623731229
  0
VERTEX
  5
1E95
  8
SAPA_PROFIL
 10
27.60000000071852
 20
1.4999999999990941
 30
0.0
  0
VERTEX
  5
1E96
  8
SAPA_PROFIL
 10
27.60000000071852
 20
4.699999999999366
 30
0.0
 42
-0.4142135623730744
  0
VERTEX
  5
1E97
  8
SAPA_PROFIL
 10
27.900000000718698
 20
4.9999999999990941
 30
0.0
  0
VERTEX
  5
1E98
  8
SAPA_PROFIL
 10
33.73417878710859
 20
4.9999999999990941
 30
0.0
 42
-0.4683749459848296
  0
VERTEX
  5
1E99
  8
SAPA_PROFIL
 10
34.000000000718607
 20
4.699999999999366
 30
0.0
  0
VERTEX
  5
1E9A
  8
SAPA_PROFIL
 10
34.000000000718607
 20
2.2999999999992751
 30
0.0
 42
-0.4683749459842226
  0
VERTEX
  5
1E9B
  8
SAPA_PROFIL
 10
33.734178787109038
 20
1.9999999999990941
 30
0.0
  0
VERTEX
  5
1E9C
  8
SAPA_PROFIL
 10
32.300000000718562
 20
1.9999999999990941
 30
0.0
 42
0.5877032589248341
  0
VERTEX
  5
1E9D
  8
SAPA_PROFIL
 10
32.04495378340868
 20
1.5420397928714951
 30
0.0
  0
VERTEX
  5
1E9E
  8
SAPA_PROFIL
 10
32.817484852478053
 20
0.2946931952474223
 30
0.0
 42
0.2596812337301256
  0
VERTEX
  5
1E9F
  8
SAPA_PROFIL
 10
32.987515664018133
 20
0.1999999999993669
 30
0.0
  0
VERTEX
  5
1EA0
  8
SAPA_PROFIL
 10
35.999999997526508
 20
0.1999999999993704
 30
0.0
  0
VERTEX
  5
1EA1
  8
SAPA_PROFIL
 10
37.282085913055759
 20
0.6947262543667492
 30
0.0
 42
-0.4580511809929225
  0
VERTEX
  5
1EA2
  8
SAPA_PROFIL
 10
37.697466295604613
 20
0.5106585387138765
 30
0.0
  0
VERTEX
  5
1EA3
  8
SAPA_PROFIL
 10
37.711984704851943
 20
0.4628127887153895
 30
0.0
  0
VERTEX
  5
1EA4
  8
SAPA_PROFIL
 10
39.21634251966281
 20
0.4627291109277465
 30
0.0
 42
0.4757248385987927
  0
VERTEX
  5
1EA5
  8
SAPA_PROFIL
 10
39.517338610120412
 20
0.8343860557779478
 30
0.0
  0
VERTEX
  5
1EA6
  8
SAPA_PROFIL
 10
39.135892013992702
 20
2.6476165264357472
 30
0.0
 42
0.2350054070139662
  0
VERTEX
  5
1EA7
  8
SAPA_PROFIL
 10
38.693911221270461
 20
3.206665443318804
 30
0.0
 42
-0.0011882050612086
  0
VERTEX
  5
1EA8
  8
SAPA_PROFIL
 10
38.695268898953252
 20
3.2071010348595399
 30
0.0
  0
VERTEX
  5
1EA9
  8
SAPA_PROFIL
 10
38.445400825606271
 20
3.34063026902141
 30
0.0
 42
0.5773502691894064
  0
VERTEX
  5
1EAA
  8
SAPA_PROFIL
 10
38.151244525351892
 20
3.1576765289110038
 30
0.0
  0
VERTEX
  5
1EAB
  8
SAPA_PROFIL
 10
38.161805891578403
 20
2.8359188006929861
 30
0.0
  0
VERTEX
  5
1EAC
  8
SAPA_PROFIL
 10
36.275962199717348
 20
1.7513543537215881
 30
0.0
  0
VERTEX
  5
1EAD
  8
SAPA_PROFIL
 10
36.104408153093452
 20
1.6992976536594211
 30
0.0
 42
-0.8292414158586378
  0
VERTEX
  5
1EAE
  8
SAPA_PROFIL
 10
35.908274864562017
 20
2.0312932866786531
 30
0.0
 42
0.2036002236713389
  0
VERTEX
  5
1EAF
  8
SAPA_PROFIL
 10
35.999999997526281
 20
2.247213595499495
 30
0.0
  0
VERTEX
  5
1EB0
  8
SAPA_PROFIL
 10
35.999999997526281
 20
6.0999999999990058
 30
0.0
 42
-0.41421356237306
  0
VERTEX
  5
1EB1
  8
SAPA_PROFIL
 10
36.299999997526228
 20
6.3999999999991877
 30
0.0
  0
VERTEX
  5
1EB2
  8
SAPA_PROFIL
 10
36.599999997526417
 20
6.3999999999991877
 30
0.0
  0
VERTEX
  5
1EB3
  8
SAPA_PROFIL
 10
38.199999997526326
 20
5.4762395692960188
 30
0.0
 42
0.5773502691895401
  0
VERTEX
  5
1EB4
  8
SAPA_PROFIL
 10
38.499999997526281
 20
5.6494446500528346
 30
0.0
  0
VERTEX
  5
1EB5
  8
SAPA_PROFIL
 10
38.499999997526281
 20
7.0350852961078161
 30
0.0
 42
0.2679491924311281
  0
VERTEX
  5
1EB6
  8
SAPA_PROFIL
 10
37.999999997526281
 20
7.9011106998923486
 30
0.0
  0
VERTEX
  5
1EB7
  8
SAPA_PROFIL
 10
36.249999997526047
 20
8.9114736709743791
 30
0.0
 42
-0.26794919243099
  0
VERTEX
  5
1EB8
  8
SAPA_PROFIL
 10
35.999999997526508
 20
9.3444863728664203
 30
0.0
  0
VERTEX
  5
1EB9
  8
SAPA_PROFIL
 10
35.999999997526501
 20
20.655513627131771
 30
0.0
 42
-0.2679491924310374
  0
VERTEX
  5
1EBA
  8
SAPA_PROFIL
 10
36.249999997526281
 20
21.088526329023811
 30
0.0
  0
VERTEX
  5
1EBB
  8
SAPA_PROFIL
 10
37.999999997526729
 20
22.0988893001063
 30
0.0
 42
0.267949192431151
  0
VERTEX
  5
1EBC
  8
SAPA_PROFIL
 10
38.499999997526729
 20
22.96491470389083
 30
0.0
  0
VERTEX
  5
1EBD
  8
SAPA_PROFIL
 10
38.499999997526501
 20
24.350555349946269
 30
0.0
 42
0.5773502691897736
  0
VERTEX
  5
1EBE
  8
SAPA_PROFIL
 10
38.199999997526547
 20
24.523760430703089
 30
0.0
  0
VERTEX
  5
1EBF
  8
SAPA_PROFIL
 10
36.599999997526638
 20
23.599999999999461
 30
0.0
  0
VERTEX
  5
1EC0
  8
SAPA_PROFIL
 10
36.299999997526683
 20
23.599999999999461
 30
0.0
 42
-0.4142135623731708
  0
VERTEX
  5
1EC1
  8
SAPA_PROFIL
 10
35.999999997526501
 20
23.89999999999965
 30
0.0
  0
VERTEX
  5
1EC2
  8
SAPA_PROFIL
 10
35.999999997526501
 20
27.752786404499609
 30
0.0
 42
0.2036002236725054
  0
VERTEX
  5
1EC3
  8
SAPA_PROFIL
 10
35.908274864561562
 20
27.968706713320898
 30
0.0
 42
-0.8292414158560874
  0
VERTEX
  5
1EC4
  8
SAPA_PROFIL
 10
36.104408153094361
 20
28.300702346339229
 30
0.0
  0
VERTEX
  5
1EC5
  8
SAPA_PROFIL
 10
36.275962199717803
 20
28.24864564627752
 30
0.0
  0
VERTEX
  5
1EC6
  8
SAPA_PROFIL
 10
38.161805891578851
 20
27.164081199305659
 30
0.0
  0
VERTEX
  5
1EC7
  8
SAPA_PROFIL
 10
38.151244525352112
 20
26.842323471087649
 30
0.0
 42
0.5773502691895062
  0
VERTEX
  5
1EC8
  8
SAPA_PROFIL
 10
38.445400825606711
 20
26.659369730977239
 30
0.0
  0
VERTEX
  5
1EC9
  8
SAPA_PROFIL
 10
38.730083108838109
 20
26.811503642085889
 30
0.0
 42
0.2216946626431207
  0
VERTEX
  5
1ECA
  8
SAPA_PROFIL
 10
39.135892013993143
 20
27.352383473562899
 30
0.0
  0
VERTEX
  5
1ECB
  8
SAPA_PROFIL
 10
39.517338610120859
 20
29.16561394422116
 30
0.0
 42
0.4757248385934992
  0
VERTEX
  5
1ECC
  8
SAPA_PROFIL
 10
39.216342519668487
 20
29.5372708890709
 30
0.0
  0
VERTEX
  5
1ECD
  8
SAPA_PROFIL
 10
37.711984704852377
 20
29.537187211283261
 30
0.0
  0
VERTEX
  5
1ECE
  8
SAPA_PROFIL
 10
37.697466295605047
 20
29.489341461284781
 30
0.0
 42
-0.4580511809929313
  0
VERTEX
  5
1ECF
  8
SAPA_PROFIL
 10
37.28208591305598
 20
29.305273745631901
 30
0.0
  0
VERTEX
  5
1ED0
  8
SAPA_PROFIL
 10
35.999999997527183
 20
29.79999999999928
 30
0.0
  0
VERTEX
  5
1ED1
  8
SAPA_PROFIL
 10
32.987515664018353
 20
29.79999999999928
 30
0.0
 42
0.2596812337301257
  0
VERTEX
  5
1ED2
  8
SAPA_PROFIL
 10
32.81748485247828
 20
29.705306804750769
 30
0.0
  0
VERTEX
  5
1ED3
  8
SAPA_PROFIL
 10
32.0449537834089
 20
28.457960207127151
 30
0.0
 42
0.5877032589249777
  0
VERTEX
  5
1ED4
  8
SAPA_PROFIL
 10
32.30000000071901
 20
27.999999999999101
 30
0.0
  0
VERTEX
  5
1ED5
  8
SAPA_PROFIL
 10
33.734178787109258
 20
27.999999999999101
 30
0.0
 42
-0.4683749459842228
  0
VERTEX
  5
1ED6
  8
SAPA_PROFIL
 10
34.000000000718828
 20
27.69999999999937
 30
0.0
  0
VERTEX
  5
1ED7
  8
SAPA_PROFIL
 10
34.000000000718828
 20
25.29999999999928
 30
0.0
 42
-0.4683749459847173
  0
VERTEX
  5
1ED8
  8
SAPA_PROFIL
 10
33.734178787109258
 20
24.999999999999101
 30
0.0
  0
VERTEX
  5
1ED9
  8
SAPA_PROFIL
 10
27.900000000718919
 20
24.999999999999101
 30
0.0
  0
VERTEX
  5
1EDA
  8
SAPA_PROFIL
 10
25.900000000718929
 20
24.999999999999091
 30
0.0
  0
VERTEX
  5
1EDB
  8
SAPA_PROFIL
 10
16.300000000718779
 20
24.999999999999091
 30
0.0
 42
-0.4142135623730951
  0
VERTEX
  5
1EDC
  8
SAPA_PROFIL
 10
16.000000000718831
 20
25.299999999999269
 30
0.0
  0
VERTEX
  5
1EDD
  8
SAPA_PROFIL
 10
16.000000000718831
 20
27.69999999999936
 30
0.0
 42
-0.4142135623730951
  0
VERTEX
  5
1EDE
  8
SAPA_PROFIL
 10
16.300000000718779
 20
27.999999999999091
 30
0.0
  0
VERTEX
  5
1EDF
  8
SAPA_PROFIL
 10
17.70000000071888
 20
27.999999999999091
 30
0.0
 42
0.5877032589248341
  0
VERTEX
  5
1EE0
  8
SAPA_PROFIL
 10
17.955046218028979
 20
28.457960207127151
 30
0.0
  0
VERTEX
  5
1EE1
  8
SAPA_PROFIL
 10
17.05864724078684
 20
29.905306804751032
 30
0.0
 42
0.2596812337300371
  0
VERTEX
  5
1EE2
  8
SAPA_PROFIL
 10
16.88861642924677
 20
29.999999999999091
 30
0.0
  0
VERTEX
  5
1EE3
  8
SAPA_PROFIL
 10
14.199999997569069
 20
29.999999999999091
 30
0.0
 42
0.414213562404161
  0
VERTEX
  5
1EE4
  8
SAPA_PROFIL
 10
13.99999999756902
 20
29.79999999997835
 30
0.0
  0
SEQEND
  5
1EE5
  8
SAPA_PROFIL
  0
POLYLINE
  5
1A32
  8
SAPA_PROFIL
 66
     1
 10
0.0
 20
0.0
 30
0.0
 70
     1
  0
VERTEX
  5
1EE6
  8
SAPA_PROFIL
 10
15.999999997526279
 20
6.6999999999993634
 30
0.0
 42
-0.4142135624878015
  0
VERTEX
  5
1EE7
  8
SAPA_PROFIL
 10
15.69999999752633
 20
7.0000000001168701
 30
0.0
  0
VERTEX
  5
1EE8
  8
SAPA_PROFIL
 10
15.69999999815297
 20
8.6000000000776708
 30
0.0
 42
-0.4142135622584246
  0
VERTEX
  5
1EE9
  8
SAPA_PROFIL
 10
15.89999999815301
 20
8.7999999999992724
 30
0.0
  0
VERTEX
  5
1EEA
  8
SAPA_PROFIL
 10
16.09999999831404
 20
8.7999999999992724
 30
0.0
 42
0.4142135622517338
  0
VERTEX
  5
1EEB
  8
SAPA_PROFIL
 10
16.299999998314082
 20
8.9999999999163265
 30
0.0
  0
VERTEX
  5
1EEC
  8
SAPA_PROFIL
 10
16.299999998977331
 20
10.59999999991623
 30
0.0
 42
0.4142135624945394
  0
VERTEX
  5
1EED
  8
SAPA_PROFIL
 10
16.099999998977289
 20
10.799999999999271
 30
0.0
  0
VERTEX
  5
1EEE
  8
SAPA_PROFIL
 10
15.899999997402
 20
10.799999999999271
 30
0.0
 42
-0.4142135623731784
  0
VERTEX
  5
1EEF
  8
SAPA_PROFIL
 10
15.69999999740195
 20
10.999999999999091
 30
0.0
  0
VERTEX
  5
1EF0
  8
SAPA_PROFIL
 10
15.69999999740218
 20
18.999999999999091
 30
0.0
 42
-0.4142135623730119
  0
VERTEX
  5
1EF1
  8
SAPA_PROFIL
 10
15.89999999740199
 20
19.19999999999936
 30
0.0
  0
VERTEX
  5
1EF2
  8
SAPA_PROFIL
 10
16.099999998977509
 20
19.19999999999936
 30
0.0
 42
0.4142135624945394
  0
VERTEX
  5
1EF3
  8
SAPA_PROFIL
 10
16.299999998977562
 20
19.4000000000824
 30
0.0
  0
VERTEX
  5
1EF4
  8
SAPA_PROFIL
 10
16.299999998314309
 20
21.000000000082309
 30
0.0
 42
0.4142135622515674
  0
VERTEX
  5
1EF5
  8
SAPA_PROFIL
 10
16.09999999831426
 20
21.19999999999937
 30
0.0
  0
VERTEX
  5
1EF6
  8
SAPA_PROFIL
 10
15.89999999815301
 20
21.19999999999937
 30
0.0
 42
-0.4142135622584246
  0
VERTEX
  5
1EF7
  8
SAPA_PROFIL
 10
15.699999998152959
 20
21.399999999920968
 30
0.0
  0
VERTEX
  5
1EF8
  8
SAPA_PROFIL
 10
15.69999999752655
 20
22.999999999881769
 30
0.0
 42
-0.4142135624878013
  0
VERTEX
  5
1EF9
  8
SAPA_PROFIL
 10
15.999999997526499
 20
23.299999999999269
 30
0.0
  0
VERTEX
  5
1EFA
  8
SAPA_PROFIL
 10
33.999999997526501
 20
23.29999999999928
 30
0.0
 42
-0.4142135623730765
  0
VERTEX
  5
1EFB
  8
SAPA_PROFIL
 10
34.299999997526463
 20
22.999999999999549
 30
0.0
  0
VERTEX
  5
1EFC
  8
SAPA_PROFIL
 10
34.299999997526463
 20
21.39999999999965
 30
0.0
 42
-0.4142135623731161
  0
VERTEX
  5
1EFD
  8
SAPA_PROFIL
 10
34.09999999752641
 20
21.19999999999937
 30
0.0
  0
VERTEX
  5
1EFE
  8
SAPA_PROFIL
 10
33.899999997526372
 20
21.19999999999937
 30
0.0
 42
0.414213562373012
  0
VERTEX
  5
1EFF
  8
SAPA_PROFIL
 10
33.699999997526547
 20
20.999999999999101
 30
0.0
  0
VERTEX
  5
1F00
  8
SAPA_PROFIL
 10
33.699999997526547
 20
19.399999999999189
 30
0.0
 42
0.4142135623729909
  0
VERTEX
  5
1F01
  8
SAPA_PROFIL
 10
33.899999997526372
 20
19.19999999999937
 30
0.0
  0
VERTEX
  5
1F02
  8
SAPA_PROFIL
 10
34.099999997526638
 20
19.19999999999937
 30
0.0
 42
-0.4142135623730743
  0
VERTEX
  5
1F03
  8
SAPA_PROFIL
 10
34.299999997526463
 20
18.999999999999091
 30
0.0
  0
VERTEX
  5
1F04
  8
SAPA_PROFIL
 10
34.299999997526463
 20
10.999999999999091
 30
0.0
 42
-0.4142135623730743
  0
VERTEX
  5
1F05
  8
SAPA_PROFIL
 10
34.099999997526652
 20
10.79999999999928
 30
0.0
  0
VERTEX
  5
1F06
  8
SAPA_PROFIL
 10
33.899999997526372
 20
10.79999999999928
 30
0.0
 42
0.4142135623731574
  0
VERTEX
  5
1F07
  8
SAPA_PROFIL
 10
33.699999997526326
 20
10.59999999999946
 30
0.0
  0
VERTEX
  5
1F08
  8
SAPA_PROFIL
 10
33.699999997526326
 20
8.9999999999990976
 30
0.0
 42
0.4142135623731784
  0
VERTEX
  5
1F09
  8
SAPA_PROFIL
 10
33.899999997526372
 20
8.7999999999992795
 30
0.0
  0
VERTEX
  5
1F0A
  8
SAPA_PROFIL
 10
34.099999997526417
 20
8.7999999999992795
 30
0.0
 42
-0.4142135623731159
  0
VERTEX
  5
1F0B
  8
SAPA_PROFIL
 10
34.299999997526463
 20
8.5999999999994614
 30
0.0
  0
VERTEX
  5
1F0C
  8
SAPA_PROFIL
 10
34.299999997526243
 20
6.9999999999990941
 30
0.0
 42
-0.4142135623730764
  0
VERTEX
  5
1F0D
  8
SAPA_PROFIL
 10
33.999999997526281
 20
6.699999999999366
 30
0.0
  0
SEQEND
  5
1F0E
  8
SAPA_PROFIL
  0
POLYLINE
  5
1A33
  8
SAPA_PROFIL
 66
     1
 10
0.0
 20
0.0
 30
0.0
 70
     1
  0
VERTEX
  5
1F0F
  8
SAPA_PROFIL
 10
86.299999997735867
 20
10.999999999999099
 30
0.0
 42
-0.4142135623731784
  0
VERTEX
  5
1F10
  8
SAPA_PROFIL
 10
86.099999997735836
 20
10.79999999999929
 30
0.0
  0
VERTEX
  5
1F11
  8
SAPA_PROFIL
 10
85.899999996160517
 20
10.79999999999929
 30
0.0
 42
0.4142135624945394
  0
VERTEX
  5
1F12
  8
SAPA_PROFIL
 10
85.699999996160486
 20
10.59999999991625
 30
0.0
  0
VERTEX
  5
1F13
  8
SAPA_PROFIL
 10
85.699999996823735
 20
8.9999999999163407
 30
0.0
 42
0.4142135622517339
  0
VERTEX
  5
1F14
  8
SAPA_PROFIL
 10
85.89999999682378
 20
8.7999999999992866
 30
0.0
  0
VERTEX
  5
1F15
  8
SAPA_PROFIL
 10
86.099999996985034
 20
8.7999999999992866
 30
0.0
 42
-0.4142135622584246
  0
VERTEX
  5
1F16
  8
SAPA_PROFIL
 10
86.299999996985079
 20
8.6000000000776851
 30
0.0
  0
VERTEX
  5
1F17
  8
SAPA_PROFIL
 10
86.299999997611508
 20
7.0000000001168869
 30
0.0
 42
-0.4142135624878013
  0
VERTEX
  5
1F18
  8
SAPA_PROFIL
 10
85.999999997611553
 20
6.6999999999993811
 30
0.0
  0
VERTEX
  5
1F19
  8
SAPA_PROFIL
 10
67.999999997611553
 20
6.6999999999993767
 30
0.0
 42
-0.4142135623730765
  0
VERTEX
  5
1F1A
  8
SAPA_PROFIL
 10
67.699999997611599
 20
6.9999999999991038
 30
0.0
  0
VERTEX
  5
1F1B
  8
SAPA_PROFIL
 10
67.699999997611599
 20
8.5999999999994685
 30
0.0
 42
-0.4142135623731161
  0
VERTEX
  5
1F1C
  8
SAPA_PROFIL
 10
67.899999997611644
 20
8.7999999999992866
 30
0.0
  0
VERTEX
  5
1F1D
  8
SAPA_PROFIL
 10
68.099999997611462
 20
8.7999999999992866
 30
0.0
 42
0.4142135623731784
  0
VERTEX
  5
1F1E
  8
SAPA_PROFIL
 10
68.299999997611508
 20
8.9999999999991047
 30
0.0
  0
VERTEX
  5
1F1F
  8
SAPA_PROFIL
 10
68.299999997611508
 20
10.59999999999947
 30
0.0
 42
0.4142135623731574
  0
VERTEX
  5
1F20
  8
SAPA_PROFIL
 10
68.099999997611462
 20
10.79999999999929
 30
0.0
  0
VERTEX
  5
1F21
  8
SAPA_PROFIL
 10
67.899999997611417
 20
10.79999999999929
 30
0.0
 42
-0.4142135623729078
  0
VERTEX
  5
1F22
  8
SAPA_PROFIL
 10
67.699999997611599
 20
10.999999999999099
 30
0.0
  0
VERTEX
  5
1F23
  8
SAPA_PROFIL
 10
67.699999997611599
 20
18.999999999999101
 30
0.0
 42
-0.4142135623730743
  0
VERTEX
  5
1F24
  8
SAPA_PROFIL
 10
67.899999997611417
 20
19.19999999999937
 30
0.0
  0
VERTEX
  5
1F25
  8
SAPA_PROFIL
 10
68.09999999761169
 20
19.19999999999937
 30
0.0
 42
0.4142135623729909
  0
VERTEX
  5
1F26
  8
SAPA_PROFIL
 10
68.299999997611735
 20
19.399999999999189
 30
0.0
  0
VERTEX
  5
1F27
  8
SAPA_PROFIL
 10
68.299999997611735
 20
20.999999999999101
 30
0.0
 42
0.4142135623730119
  0
VERTEX
  5
1F28
  8
SAPA_PROFIL
 10
68.09999999761169
 20
21.199999999999381
 30
0.0
  0
VERTEX
  5
1F29
  8
SAPA_PROFIL
 10
67.899999997611644
 20
21.199999999999381
 30
0.0
 42
-0.4142135623731159
  0
VERTEX
  5
1F2A
  8
SAPA_PROFIL
 10
67.699999997611599
 20
21.39999999999965
 30
0.0
  0
VERTEX
  5
1F2B
  8
SAPA_PROFIL
 10
67.699999997611826
 20
22.999999999999559
 30
0.0
 42
-0.4142135623730764
  0
VERTEX
  5
1F2C
  8
SAPA_PROFIL
 10
67.999999997611781
 20
23.29999999999929
 30
0.0
  0
VERTEX
  5
1F2D
  8
SAPA_PROFIL
 10
85.999999997611766
 20
23.29999999999929
 30
0.0
 42
-0.4142135624878015
  0
VERTEX
  5
1F2E
  8
SAPA_PROFIL
 10
86.299999997611735
 20
22.99999999988178
 30
0.0
  0
VERTEX
  5
1F2F
  8
SAPA_PROFIL
 10
86.299999996985079
 20
21.399999999920979
 30
0.0
 42
-0.4142135622584246
  0
VERTEX
  5
1F30
  8
SAPA_PROFIL
 10
86.099999996985034
 20
21.199999999999381
 30
0.0
  0
VERTEX
  5
1F31
  8
SAPA_PROFIL
 10
85.89999999682378
 20
21.199999999999381
 30
0.0
 42
0.4142135622515673
  0
VERTEX
  5
1F32
  8
SAPA_PROFIL
 10
85.699999996823962
 20
21.000000000082331
 30
0.0
  0
VERTEX
  5
1F33
  8
SAPA_PROFIL
 10
85.699999996160699
 20
19.400000000082411
 30
0.0
 42
0.4142135624945394
  0
VERTEX
  5
1F34
  8
SAPA_PROFIL
 10
85.899999996160744
 20
19.19999999999937
 30
0.0
  0
VERTEX
  5
1F35
  8
SAPA_PROFIL
 10
86.099999997736035
 20
19.19999999999937
 30
0.0
 42
-0.4142135623728455
  0
VERTEX
  5
1F36
  8
SAPA_PROFIL
 10
86.299999997735867
 20
18.999999999999101
 30
0.0
  0
SEQEND
  5
1F37
  8
SAPA_PROFIL
  0
POLYLINE
  5
1A34
  8
SAPA_PROFIL
 66
     1
 10
0.0
 20
0.0
 30
0.0
 70
     1
  0
VERTEX
  5
1F38
  8
SAPA_PROFIL
 10
65.999999997611781
 20
9.3444863728664274
 30
0.0
 42
-0.267949192431007
  0
VERTEX
  5
1F39
  8
SAPA_PROFIL
 10
65.749999997611781
 20
8.911473670974388
 30
0.0
  0
VERTEX
  5
1F3A
  8
SAPA_PROFIL
 10
63.999999997611312
 20
7.901110699892353
 30
0.0
 42
0.2679491924311281
  0
VERTEX
  5
1F3B
  8
SAPA_PROFIL
 10
63.499999997611319
 20
7.0350852961078187
 30
0.0
  0
VERTEX
  5
1F3C
  8
SAPA_PROFIL
 10
63.499999997611553
 20
5.649444650052839
 30
0.0
 42
0.57735026918954
  0
VERTEX
  5
1F3D
  8
SAPA_PROFIL
 10
63.799999997611501
 20
5.4762395692960233
 30
0.0
  0
VERTEX
  5
1F3E
  8
SAPA_PROFIL
 10
65.399999997611189
 20
6.3999999999991921
 30
0.0
  0
VERTEX
  5
1F3F
  8
SAPA_PROFIL
 10
65.699999997611371
 20
6.3999999999991921
 30
0.0
 42
-0.41421356237306
  0
VERTEX
  5
1F40
  8
SAPA_PROFIL
 10
65.999999997611553
 20
6.0999999999990102
 30
0.0
  0
VERTEX
  5
1F41
  8
SAPA_PROFIL
 10
65.999999997611553
 20
2.2472135954994981
 30
0.0
 42
0.2036002236709541
  0
VERTEX
  5
1F42
  8
SAPA_PROFIL
 10
66.091725130575355
 20
2.0312932866791118
 30
0.0
 42
-0.8292414158604859
  0
VERTEX
  5
1F43
  8
SAPA_PROFIL
 10
65.895591842043927
 20
1.699297653659424
 30
0.0
  0
VERTEX
  5
1F44
  8
SAPA_PROFIL
 10
65.724037795420031
 20
1.751354353721136
 30
0.0
  0
VERTEX
  5
1F45
  8
SAPA_PROFIL
 10
63.838194103559189
 20
2.8359188006929901
 30
0.0
  0
VERTEX
  5
1F46
  8
SAPA_PROFIL
 10
63.848755469785942
 20
3.1576765289110069
 30
0.0
 42
0.5773502691894565
  0
VERTEX
  5
1F47
  8
SAPA_PROFIL
 10
63.554599169531329
 20
3.340630269021414
 30
0.0
  0
VERTEX
  5
1F48
  8
SAPA_PROFIL
 10
63.269916886300159
 20
3.1884963579132188
 30
0.0
 42
0.2216946626431577
  0
VERTEX
  5
1F49
  8
SAPA_PROFIL
 10
62.864107981144898
 20
2.6476165264357512
 30
0.0
  0
VERTEX
  5
1F4A
  8
SAPA_PROFIL
 10
62.482661385017188
 20
0.8343860557779514
 30
0.0
 42
0.4757248385987928
  0
VERTEX
  5
1F4B
  8
SAPA_PROFIL
 10
62.783657475475017
 20
0.4627291109277501
 30
0.0
  0
VERTEX
  5
1F4C
  8
SAPA_PROFIL
 10
64.288015290285671
 20
0.462812788715393
 30
0.0
  0
VERTEX
  5
1F4D
  8
SAPA_PROFIL
 10
64.302533699533001
 20
0.51065853871388
 30
0.0
 42
-0.4580511809928869
  0
VERTEX
  5
1F4E
  8
SAPA_PROFIL
 10
64.717914082082075
 20
0.6947262543667528
 30
0.0
  0
VERTEX
  5
1F4F
  8
SAPA_PROFIL
 10
65.999999997611326
 20
0.199999999999374
 30
0.0
  0
VERTEX
  5
1F50
  8
SAPA_PROFIL
 10
69.012484331119708
 20
0.1999999999993776
 30
0.0
 42
0.2596812337301257
  0
VERTEX
  5
1F51
  8
SAPA_PROFIL
 10
69.182515142659781
 20
0.294693195247433
 30
0.0
  0
VERTEX
  5
1F52
  8
SAPA_PROFIL
 10
69.955046211729382
 20
1.5420397928715059
 30
0.0
 42
0.5877032589249617
  0
VERTEX
  5
1F53
  8
SAPA_PROFIL
 10
69.699999994419272
 20
1.9999999999991041
 30
0.0
  0
VERTEX
  5
1F54
  8
SAPA_PROFIL
 10
68.265821208028797
 20
1.9999999999991041
 30
0.0
 42
-0.4683749459842228
  0
VERTEX
  5
1F55
  8
SAPA_PROFIL
 10
67.999999994419227
 20
2.2999999999992862
 30
0.0
  0
VERTEX
  5
1F56
  8
SAPA_PROFIL
 10
67.999999994419454
 20
4.6999999999989219
 30
0.0
 42
-0.4683749459847173
  0
VERTEX
  5
1F57
  8
SAPA_PROFIL
 10
68.265821208029024
 20
4.9999999999991038
 30
0.0
  0
VERTEX
  5
1F58
  8
SAPA_PROFIL
 10
74.099999994419363
 20
4.9999999999991038
 30
0.0
  0
VERTEX
  5
1F59
  8
SAPA_PROFIL
 10
76.099999994419363
 20
4.9999999999991038
 30
0.0
  0
VERTEX
  5
1F5A
  8
SAPA_PROFIL
 10
85.699999994419272
 20
4.9999999999991083
 30
0.0
 42
-0.4142135623730951
  0
VERTEX
  5
1F5B
  8
SAPA_PROFIL
 10
85.999999994419227
 20
4.6999999999993811
 30
0.0
  0
VERTEX
  5
1F5C
  8
SAPA_PROFIL
 10
85.999999994419227
 20
2.2999999999992902
 30
0.0
 42
-0.4142135623730951
  0
VERTEX
  5
1F5D
  8
SAPA_PROFIL
 10
85.699999994419272
 20
1.999999999999108
 30
0.0
  0
VERTEX
  5
1F5E
  8
SAPA_PROFIL
 10
84.299999994419181
 20
1.999999999999108
 30
0.0
 42
0.5877032589248625
  0
VERTEX
  5
1F5F
  8
SAPA_PROFIL
 10
84.044953777109285
 20
1.5420397928715091
 30
0.0
  0
VERTEX
  5
1F60
  8
SAPA_PROFIL
 10
84.941352754351442
 20
0.0946931952476185
 30
0.0
 42
0.2596812337300832
  0
VERTEX
  5
1F61
  8
SAPA_PROFIL
 10
85.111383565891515
 20
-0.0000000000008917
 30
0.0
  0
VERTEX
  5
1F62
  8
SAPA_PROFIL
 10
87.799999997568989
 20
-0.0000000000008917
 30
0.0
 42
0.4142135623731107
  0
VERTEX
  5
1F63
  8
SAPA_PROFIL
 10
87.999999997569034
 20
0.1999999999993811
 30
0.0
  0
VERTEX
  5
1F64
  8
SAPA_PROFIL
 10
87.99999999756902
 20
29.79999999999929
 30
0.0
 42
0.4142135623730273
  0
VERTEX
  5
1F65
  8
SAPA_PROFIL
 10
87.799999997568975
 20
29.999999999999108
 30
0.0
  0
VERTEX
  5
1F66
  8
SAPA_PROFIL
 10
85.111383565891259
 20
29.999999999999108
 30
0.0
 42
0.2596812337302099
  0
VERTEX
  5
1F67
  8
SAPA_PROFIL
 10
84.9413527543512
 20
29.905306804751049
 30
0.0
  0
VERTEX
  5
1F68
  8
SAPA_PROFIL
 10
84.044953777109058
 20
28.457960207127162
 30
0.0
 42
0.5877032589250762
  0
VERTEX
  5
1F69
  8
SAPA_PROFIL
 10
84.299999994419153
 20
27.999999999999108
 30
0.0
  0
VERTEX
  5
1F6A
  8
SAPA_PROFIL
 10
85.699999994419244
 20
27.999999999999108
 30
0.0
 42
-0.4142135623730951
  0
VERTEX
  5
1F6B
  8
SAPA_PROFIL
 10
85.999999994419213
 20
27.699999999999381
 30
0.0
  0
VERTEX
  5
1F6C
  8
SAPA_PROFIL
 10
85.999999994419213
 20
25.29999999999929
 30
0.0
 42
-0.4142135623730951
  0
VERTEX
  5
1F6D
  8
SAPA_PROFIL
 10
85.699999994419244
 20
24.999999999999108
 30
0.0
  0
VERTEX
  5
1F6E
  8
SAPA_PROFIL
 10
76.099999994419122
 20
24.999999999999108
 30
0.0
  0
VERTEX
  5
1F6F
  8
SAPA_PROFIL
 10
74.099999994419122
 20
24.999999999999108
 30
0.0
  0
VERTEX
  5
1F70
  8
SAPA_PROFIL
 10
68.265821208029465
 20
24.999999999999108
 30
0.0
 42
-0.4683749459843959
  0
VERTEX
  5
1F71
  8
SAPA_PROFIL
 10
67.999999994419213
 20
25.299999999998828
 30
0.0
  0
VERTEX
  5
1F72
  8
SAPA_PROFIL
 10
67.999999994419213
 20
27.699999999999381
 30
0.0
 42
-0.4683749459842226
  0
VERTEX
  5
1F73
  8
SAPA_PROFIL
 10
68.265821208028783
 20
27.999999999999108
 30
0.0
  0
VERTEX
  5
1F74
  8
SAPA_PROFIL
 10
69.699999994419031
 20
27.999999999999108
 30
0.0
 42
0.5877032589249771
  0
VERTEX
  5
1F75
  8
SAPA_PROFIL
 10
69.95504621172914
 20
28.457960207127162
 30
0.0
  0
VERTEX
  5
1F76
  8
SAPA_PROFIL
 10
69.182515142659767
 20
29.70530680475078
 30
0.0
 42
0.2596812337301256
  0
VERTEX
  5
1F77
  8
SAPA_PROFIL
 10
69.012484331119694
 20
29.79999999999929
 30
0.0
  0
VERTEX
  5
1F78
  8
SAPA_PROFIL
 10
65.999999997611312
 20
29.79999999999929
 30
0.0
  0
VERTEX
  5
1F79
  8
SAPA_PROFIL
 10
64.717914082082288
 20
29.305273745631911
 30
0.0
 42
-0.4580511809929225
  0
VERTEX
  5
1F7A
  8
SAPA_PROFIL
 10
64.302533699533441
 20
29.489341461284781
 30
0.0
  0
VERTEX
  5
1F7B
  8
SAPA_PROFIL
 10
64.288015290285884
 20
29.537187211283271
 30
0.0
  0
VERTEX
  5
1F7C
  8
SAPA_PROFIL
 10
62.783657475469781
 20
29.537270889070911
 30
0.0
 42
0.4757248385933691
  0
VERTEX
  5
1F7D
  8
SAPA_PROFIL
 10
62.482661385017629
 20
29.16561394422116
 30
0.0
  0
VERTEX
  5
1F7E
  8
SAPA_PROFIL
 10
62.864107981145132
 20
27.352383473562909
 30
0.0
 42
0.2350054070140314
  0
VERTEX
  5
1F7F
  8
SAPA_PROFIL
 10
63.306088773867579
 20
26.793334556679849
 30
0.0
 42
-0.0011882050611145
  0
VERTEX
  5
1F80
  8
SAPA_PROFIL
 10
63.304731096185023
 20
26.79289896513912
 30
0.0
  0
VERTEX
  5
1F81
  8
SAPA_PROFIL
 10
63.554599169531549
 20
26.65936973097725
 30
0.0
 42
0.5773502691894562
  0
VERTEX
  5
1F82
  8
SAPA_PROFIL
 10
63.848755469786163
 20
26.842323471087202
 30
0.0
  0
VERTEX
  5
1F83
  8
SAPA_PROFIL
 10
63.838194103559417
 20
27.16408119930567
 30
0.0
  0
VERTEX
  5
1F84
  8
SAPA_PROFIL
 10
65.724037795420699
 20
28.24864564627752
 30
0.0
  0
VERTEX
  5
1F85
  8
SAPA_PROFIL
 10
65.895591842044141
 20
28.300702346339239
 30
0.0
 42
-0.8292414158590609
  0
VERTEX
  5
1F86
  8
SAPA_PROFIL
 10
66.091725130576023
 20
27.968706713320461
 30
0.0
 42
0.2036002236714843
  0
VERTEX
  5
1F87
  8
SAPA_PROFIL
 10
65.999999997611766
 20
27.75278640449962
 30
0.0
  0
VERTEX
  5
1F88
  8
SAPA_PROFIL
 10
65.999999997611781
 20
23.89999999999965
 30
0.0
 42
-0.4142135623731708
  0
VERTEX
  5
1F89
  8
SAPA_PROFIL
 10
65.699999997611599
 20
23.599999999999469
 30
0.0
  0
VERTEX
  5
1F8A
  8
SAPA_PROFIL
 10
65.399999997611417
 20
23.599999999999469
 30
0.0
  0
VERTEX
  5
1F8B
  8
SAPA_PROFIL
 10
63.799999997611948
 20
24.523760430703089
 30
0.0
 42
0.5773502691897499
  0
VERTEX
  5
1F8C
  8
SAPA_PROFIL
 10
63.499999997611773
 20
24.35055534994628
 30
0.0
  0
VERTEX
  5
1F8D
  8
SAPA_PROFIL
 10
63.499999997611553
 20
22.964914703890841
 30
0.0
 42
0.2679491924311548
  0
VERTEX
  5
1F8E
  8
SAPA_PROFIL
 10
63.999999997611539
 20
22.098889300106311
 30
0.0
  0
VERTEX
  5
1F8F
  8
SAPA_PROFIL
 10
65.749999997611781
 20
21.088526329024269
 30
0.0
 42
-0.2679491924310984
  0
VERTEX
  5
1F90
  8
SAPA_PROFIL
 10
65.999999997611781
 20
20.655513627131779
 30
0.0
  0
SEQEND
  5
1F91
  8
SAPA_PROFIL
  0
INSERT
  5
1A3A
  8
SAPA_ISOLATOR
  6
CONTINUOUS
  2
*X43
 10
0.0
 20
0.0
 30
0.0
1001
ACAD
1000
HATCH
1002
{
1070
    19
1000
ANSI31
1040
10.0
1040
5.4977871437821371
1000
R14_HATCH_DATA
1000
1A3A
1011
1.0
1021
0.0
1031
0.0
1021
0.0
1031
0.0
1011
0.0
1021
0.0
1031
0.0
1021
1.0
1031
0.0
1011
0.0
1021
0.0
1031
0.0
1021
0.0
1031
1.0
1040
0.0
1010
0.0
1020
0.0
1030
1.0
1000
ANSI31
1070
     0
1070
     0
1071
        2
1071
        1
1071
       42
1070
     3
1040
40.396713997646103
1040
0.7051223668025202
1040
0.2828427124745531
1040
0.2828427124745531
1040
0.9999999999999925
1040
2.7262370304854988
1040
3.9269908169871912
1070
     1
1070
     1
1040
40.396713997646081
1040
0.3051223668026139
1040
50.999999997563798
1040
0.3051223668026139
1070
     1
1040
50.999999997563798
1040
0.3051223668026139
1040
61.603285997491518
1040
0.3051223668026175
1070
     3
1040
61.60328599749149
1040
0.705122366802538
1040
-0.282842712474562
1040
0.282842712474562
1040
0.9999999999999962
1040
2.3561944901924141
1040
3.5569482766940581
1070
     1
1070
     1
1040
61.976210782105788
1040
0.5604603295560189
1040
62.934067588235038
1040
3.0297228252043271
1070
     3
1040
63.21376099754432
1040
2.921226366764472
1040
-0.2121318984795039
1040
0.2121318984795039
1040
0.9999999999999989
1040
5.8678296840752644
1040
7.3729935173778669
1070
     0
1070
     1
1040
63.303680059325522
1040
3.207433367086661
1040
63.543863124107808
1040
3.346103124193188
1070
     3
1040
63.648863124107557
1040
3.1642377893982241
1040
-0.1484924240492271
1040
0.1484924240492271
1040
0.9999999999999985
1040
0.2617993878007391
1040
2.356194490192614
1070
     0
1070
     1
1040
63.858863124107643
1040
3.1642377893981681
1040
63.858863124107643
1040
2.8971232611857078
1070
     1
1040
63.858863124107643
1040
2.8971232611857078
1040
65.239999997524464
1040
2.105122366717306
1070
     1
1040
65.239999997524464
1040
2.105122366717306
1040
65.589999997524146
1040
2.1051223667082111
1070
     3
1040
65.589999997533766
1040
2.5051223667084588
1040
0.2828427124748035
1040
0.2828427124748035
1040
0.9999999999999676
1040
3.926990816963241
1040
5.4977871437589929
1070
     1
1070
     1
1040
65.989999997534014
1040
2.5051223666992071
1040
65.989999997613836
1040
5.905122366699298
1070
     3
1040
65.589999997613944
1040
5.905122366708607
1040
0.2828427124745385
1040
0.2828427124745385
1040
0.9999999999999935
1040
5.4977871437588641
1040
7.0685834705542288
1070
     1
1070
     1
1040
65.589999997623053
1040
6.3051223667084839
1040
65.245222046091953
1040
6.2959864454233063
1070
     1
1040
65.245222046091953
1040
6.2959864454233063
1040
63.602968599513922
1040
5.3572823104532388
1070
     3
1040
62.985182885641649
1040
6.5343994262084273
1040
-0.9400169925241968
1040
0.9400169925241968
1040
0.999999999999988
1040
3.443677533679609
1040
3.939721193763194
1070
     0
1070
     1
1040
62.968259773624929
1040
5.2051223667704214
1040
62.317415997597081
1040
5.2051223667858819
1070
     3
1040
62.317415997574017
1040
4.2051223667858286
1040
-0.707106781186586
1040
0.707106781186586
1040
0.999999999999993
1040
-0.7853981633974519
1040
0.4153559629949449
1070
     1
1070
     1
1040
61.385103913114897
1040
4.5667771430180544
1040
60.529247831317768
1040
2.360460456343854
1070
     3
1040
60.156322997534659
1040
2.5051223668369502
1040
-0.2828427124743292
1040
0.2828427124743292
1040
0.9999999999999994
1040
2.726236690595818
1040
3.9269908169878982
1070
     0
1070
     1
1040
60.156322997534389
1040
2.1051223668373602
1040
50.9999999975688
1040
2.1051223668364472
1070
     1
1040
50.9999999975688
1040
2.1051223668364472
1040
41.843676997603417
1040
2.1051223668373562
1070
     3
1040
41.843676997602998
1040
2.505122366837039
1040
0.2828427124743951
1040
0.2828427124743951
1040
0.9999999999999952
1040
2.3561944901912759
1040
3.5569486165836111
1070
     0
1070
     1
1040
41.470752163819832
1040
2.3604604563438509
1040
41.470752490118556
1040
2.3604596151826689
1070
     1
1040
41.470752490118556
1040
2.3604596151826689
1040
41.470752172262898
1040
2.3604604345787328
1070
     1
1040
41.470752172262898
1040
2.3604604345787328
1040
40.614896082022923
1040
4.5667771430180499
1070
     3
1040
39.682583997563754
1040
4.2051223667857442
1040
-0.7071067811866442
1040
0.7071067811866443
1040
0.9999999999999966
1040
4.2970330173898041
1040
5.49778714380537
1070
     1
1070
     1
1040
39.682583997540512
1040
5.2051223667858793
1040
39.031740221512671
1040
5.205122366770417
1070
     3
1040
39.014817109495112
1040
6.5343994262084273
1040
0.9400169925242042
1040
0.9400169925242042
1040
0.9999999999999882
1040
2.343464113415755
1040
2.839507773499252
1070
     0
1070
     1
1040
38.397031395623678
1040
5.3572823104527814
1040
36.754777949045881
1040
6.2959864454233019
1070
     1
1040
36.754777949045881
1040
6.2959864454233019
1040
36.409999997514767
1040
6.3051223667084813
1070
     3
1040
36.409999997523883
1040
5.9051223667086026
1040
-0.2828427124745349
1040
0.2828427124745349
1040
0.9999999999999834
1040
-0.7853981633746838
1040
0.7853981634207266
1070
     1
1070
     1
1040
36.009999997523998
1040
5.9051223666992954
1040
36.009999997603813
1040
2.505122366699204
1070
     3
1040
36.40999999760394
1040
2.5051223667083411
1040
-0.2828427124747162
1040
0.2828427124747162
1040
0.9999999999999815
1040
0.7853981634203016
1040
2.3561944902161032
1070
     1
1070
     1
1040
36.409999997613447
1040
2.105122366708208
1040
36.759999997613129
1040
2.1051223667173029
1070
     1
1040
36.759999997613129
1040
2.1051223667173029
1040
38.141136871030191
1040
2.8971232611857038
1070
     1
1040
38.141136871030191
1040
2.8971232611857038
1040
38.141136871030191
1040
3.1642377893981641
1070
     3
1040
38.351136871030157
1040
3.1642377893982712
1040
-0.1484924240491553
1040
0.1484924240491553
1040
0.9999999999999687
1040
5.4977871437816139
1040
7.5921822461733512
1070
     0
1070
     1
1040
38.456136871029791
1040
3.346103124193184
1040
38.696319935812078
1040
3.2074333670866571
1070
     3
1040
38.786238997593401
1040
2.9212263667643472
1040
0.2121318984796102
1040
0.2121318984796103
1040
0.9999999999999925
1040
-1.089808210198524
1040
0.4153556231040856
1070
     0
1070
     1
1040
39.065932406902782
1040
3.029722825204324
1040
40.023789213031812
1040
0.5604603295560154
1071
        0
1071
        1
1071
       40
1070
     3
1040
38.786238997593848
1040
27.078773633234292
1040
-0.2121318984796031
1040
0.2121318984796031
1040
0.9999999999999985
1040
2.7262370304856849
1040
4.2314008637883482
1070
     0
1070
     1
1040
38.696319935812532
1040
26.792566632911988
1040
38.456136871030239
1040
26.653896875805462
1070
     3
1040
38.351136871030462
1040
26.835762210600361
1040
-0.1484924240492027
1040
0.1484924240492027
1040
0.9999999999999968
1040
3.4033920413902332
1040
5.4977871437827108
1070
     0
1070
     1
1040
38.141136871030412
1040
26.835762210600489
1040
38.141136871030412
1040
27.102876738812949
1070
     1
1040
38.141136871030412
1040
27.102876738812949
1040
36.759999997613583
1040
27.894877633281801
1070
     1
1040
36.759999997613583
1040
27.894877633281801
1040
36.409999997613888
1040
27.89487763328999
1070
     3
1040
36.409999997604046
1040
27.49487763328997
1040
0.2828427124746335
1040
0.2828427124746335
1040
0.9999999999999969
1040
0.7853981633974497
1040
2.356194490168646
1070
     1
1070
     1
1040
36.009999997604027
1040
27.494877633299449
1040
36.009999997524218
1040
24.094877633299362
1070
     3
1040
36.409999997524103
1040
24.09487763329005
1040
0.2828427124745333
1040
0.2828427124745332
1040
0.9999999999999957
1040
2.3561944901690719
1040
3.9269908169644698
1070
     1
1070
     1
1040
36.409999997514987
1040
23.694877633290169
1040
36.754777949046563
1040
23.704013554575798
1070
     1
1040
36.754777949046563
1040
23.704013554575798
1040
38.397031395625262
1040
24.64271768954632
1070
     3
1040
39.014817109495851
1040
23.465600573790081
1040
-0.9400169925243025
1040
0.9400169925243023
1040
0.999999999999985
1040
0.3020848800913068
1040
0.7981285401736419
1070
     0
1070
     1
1040
39.031740221512891
1040
24.794877633228229
1040
39.682583997540732
1040
24.794877633213229
1070
     3
1040
39.682583997564279
1040
25.794877633213169
1040
-0.7071067811865066
1040
0.7071067811865066
1040
0.9999999999999939
1040
2.3561944901687939
1040
3.5569486165843229
1070
     1
1070
     1
1040
40.614896082023151
1040
25.433222856980599
1040
41.470752163820507
1040
27.639539543654799
1070
     3
1040
41.843676997603957
1040
27.494877633161909
1040
0.2828427124745108
1040
0.2828427124745108
1040
0.9999999999999815
1040
4.2970330173899347
1040
5.497787143781915
1070
     0
1070
     1
1040
41.843676997603879
1040
27.894877633161752
1040
50.99999999756924
1040
27.894877633161752
1070
     1
1040
50.99999999756924
1040
27.894877633161752
1040
60.156322997534623
1040
27.894877633161759
1070
     3
1040
60.156322997534531
1040
27.494877633161909
1040
0.2828427124745081
1040
0.2828427124745081
1040
0.9999999999999889
1040
-0.7853981633972407
1040
0.4153559629947652
1070
     0
1070
     1
1040
60.529247831317988
1040
27.639539543654809
1040
61.385103913115117
1040
25.43322285698061
1070
     3
1040
62.317415997574003
1040
25.79487763321319
1040
0.7071067811865183
1040
0.7071067811865182
1040
0.9999999999999943
1040
2.72623669059527
1040
3.9269908170107768
1070
     1
1070
     1
1040
62.317415997597543
1040
24.794877633213229
1040
62.96825977362537
1040
24.794877633228239
1070
     3
1040
62.985182885642431
1040
23.465600573790091
1040
0.9400169925242954
1040
0.9400169925242957
1040
0.999999999999995
1040
-0.7981285401736478
1040
-0.3020848800913134
1070
     0
1070
     1
1040
63.602968599513012
1040
24.64271768954633
1040
65.245222046091726
1040
23.704013554575809
1070
     1
1040
65.245222046091726
1040
23.704013554575809
1040
65.589999997623295
1040
23.694877633290179
1070
     3
1040
65.589999997614171
1040
24.094877633290061
1040
-0.2828427124745403
1040
0.2828427124745403
1040
0.9999999999999456
1040
2.3561944902151248
1040
3.9269908170105392
1070
     1
1070
     1
1040
65.989999997614049
1040
24.094877633299362
1040
65.989999997534241
1040
27.494877633299449
1070
     3
1040
65.589999997534335
1040
27.494877633290091
1040
-0.2828427124745545
1040
0.2828427124745545
1040
0.9999999999999873
1040
3.9269908170106591
1040
5.4977871438064669
1070
     1
1070
     1
1040
65.5899999975246
1040
27.89487763328999
1040
65.239999997524919
1040
27.894877633281808
1070
     1
1040
65.239999997524919
1040
27.894877633281808
1040
63.858863124107863
1040
27.102876738812949
1070
     1
1040
63.858863124107863
1040
27.102876738812949
1040
63.858863124107863
1040
26.835762210600489
1070
     3
1040
63.648863124107827
1040
26.83576221060034
1040
0.1484924240491914
1040
0.1484924240491914
1040
0.9999999999999866
1040
0.7853981633967107
1040
2.8797932657895049
1070
     0
1070
     1
1040
63.543863124108022
1040
26.653896875805469
1040
63.30368005932597
1040
26.792566632911999
1070
     3
1040
63.213760997544647
1040
27.078773633234292
1040
0.2121318984795998
1040
0.2121318984795998
1040
0.9999999999999996
1040
2.05178444339123
1040
3.5569482766939231
1070
     0
1070
     1
1040
62.934067588235258
1040
26.97027717479433
1040
61.976210782106229
1040
29.439539670442642
1070
     3
1040
61.603285997491952
1040
29.294877633196151
1040
-0.2828427124745454
1040
0.2828427124745456
1040
0.9999999999999895
1040
4.2970333572803749
1040
5.4977871437820971
1070
     1
1070
     1
1040
61.603285997491959
1040
29.69487763319604
1040
50.99999999757425
1040
29.69487763319604
1070
     1
1040
50.99999999757425
1040
29.69487763319604
1040
40.396713997646302
1040
29.69487763319604
1070
     3
1040
40.396713997646494
1040
29.294877633196229
1040
0.2828427124744894
1040
0.2828427124744894
1040
0.9999999999999708
1040
0.7853981633979247
1040
1.9861519498993501
1070
     1
1070
     1
1040
40.023789213032252
1040
29.439539670442642
1040
39.065932406903229
1040
26.97027717479433
1071
        0
1070
     0
1070
     1
1040
5.4977871437821371
1040
10.0
1070
     0
1070
     1
1040
1.5707963267948959
1040
167.45643560050249
1040
890.02975715496939
1040
1.25
1040
0.0000000000000006
1070
     0
1071
        1
1040
914.12802429162036
1040
155.95630091036909
1040
0.0
1002
}
  0
ENDSEC
  0
EOF
