  0
SECTION
  2
HEADER
  9
$ACADVER
  1
AC1009
  9
$INSBASE
 10
62.839751437537643
 20
495.72533747203312
 30
0.0
  9
$EXTMIN
 10
-118.03332944437931
 20
-65.543828313683733
 30
0.0
  9
$EXTMAX
 10
265.76071821576289
 20
165.3798705268041
 30
0.0
  9
$LIMMIN
 10
0.0
 20
0.0
  9
$LIMMAX
 10
790.0
 20
790.0
  9
$ORTHOMODE
 70
     1
  9
$REGENMODE
 70
     1
  9
$FILLMODE
 70
     1
  9
$QTEXTMODE
 70
     0
  9
$MIRRTEXT
 70
     1
  9
$DRAGMODE
 70
     2
  9
$LTSCALE
 40
2.5
  9
$OSMODE
 70
   167
  9
$ATTMODE
 70
     1
  9
$TEXTSIZE
 40
5.0
  9
$TRACEWID
 40
0.05
  9
$TEXTSTYLE
  7
ISO
  9
$CLAYER
  8
0
  9
$CELTYPE
  6
BYLAYER
  9
$CECOLOR
 62
   256
  9
$DIMSCALE
 40
0.0
  9
$DIMASZ
 40
3.0
  9
$DIMEXO
 40
1.5
  9
$DIMDLI
 40
10.0
  9
$DIMRND
 40
0.0
  9
$DIMDLE
 40
0.0
  9
$DIMEXE
 40
1.5
  9
$DIMTP
 40
0.0
  9
$DIMTM
 40
0.0
  9
$DIMTXT
 40
3.0
  9
$DIMCEN
 40
-5.0
  9
$DIMTSZ
 40
0.0
  9
$DIMTOL
 70
     0
  9
$DIMLIM
 70
     0
  9
$DIMTIH
 70
     0
  9
$DIMTOH
 70
     1
  9
$DIMSE1
 70
     0
  9
$DIMSE2
 70
     0
  9
$DIMTAD
 70
     1
  9
$DIMZIN
 70
     8
  9
$DIMBLK
  1

  9
$DIMASO
 70
     1
  9
$DIMSHO
 70
     1
  9
$DIMPOST
  1

  9
$DIMAPOST
  1

  9
$DIMALT
 70
     0
  9
$DIMALTD
 70
     0
  9
$DIMALTF
 40
25.399999999999999
  9
$DIMLFAC
 40
-1.0
  9
$DIMTOFL
 70
     1
  9
$DIMTVP
 40
0.0
  9
$DIMTIX
 70
     0
  9
$DIMSOXD
 70
     0
  9
$DIMSAH
 70
     0
  9
$DIMBLK1
  1

  9
$DIMBLK2
  1

  9
$DIMSTYLE
  2
MASKIN
  9
$DIMCLRD
 70
   256
  9
$DIMCLRE
 70
   256
  9
$DIMCLRT
 70
     2
  9
$DIMTFAC
 40
1.0
  9
$DIMGAP
 40
1.0
  9
$LUNITS
 70
     2
  9
$LUPREC
 70
     4
  9
$SKETCHINC
 40
0.1
  9
$FILLETRAD
 40
0.0
  9
$AUNITS
 70
     0
  9
$AUPREC
 70
     0
  9
$MENU
  1
ACAD
  9
$ELEVATION
 40
0.0
  9
$PELEVATION
 40
0.0
  9
$THICKNESS
 40
0.0
  9
$LIMCHECK
 70
     0
  9
$BLIPMODE
 70
     0
  9
$CHAMFERA
 40
0.0
  9
$CHAMFERB
 40
0.0
  9
$SKPOLY
 70
     0
  9
$TDCREATE
 40
2451169.4686749768
  9
$TDUPDATE
 40
2455058.460059375
  9
$TDINDWG
 40
0.3970541667
  9
$TDUSRTIMER
 40
0.3970541667
  9
$USRTIMER
 70
     1
  9
$ANGBASE
 50
0.0
  9
$ANGDIR
 70
     0
  9
$PDMODE
 70
     0
  9
$PDSIZE
 40
0.0
  9
$PLINEWID
 40
0.0
  9
$COORDS
 70
     1
  9
$SPLFRAME
 70
     0
  9
$SPLINETYPE
 70
     6
  9
$SPLINESEGS
 70
     8
  9
$ATTDIA
 70
     0
  9
$ATTREQ
 70
     1
  9
$HANDLING
 70
     1
  9
$HANDSEED
  5
1E6E
  9
$SURFTAB1
 70
     6
  9
$SURFTAB2
 70
     6
  9
$SURFTYPE
 70
     6
  9
$SURFU
 70
     6
  9
$SURFV
 70
     6
  9
$UCSNAME
  2

  9
$UCSORG
 10
0.0
 20
0.0
 30
0.0
  9
$UCSXDIR
 10
1.0
 20
0.0
 30
0.0
  9
$UCSYDIR
 10
0.0
 20
1.0
 30
0.0
  9
$PUCSNAME
  2

  9
$PUCSORG
 10
0.0
 20
0.0
 30
0.0
  9
$PUCSXDIR
 10
1.0
 20
0.0
 30
0.0
  9
$PUCSYDIR
 10
0.0
 20
1.0
 30
0.0
  9
$USERI1
 70
     0
  9
$USERI2
 70
     0
  9
$USERI3
 70
     0
  9
$USERI4
 70
     0
  9
$USERI5
 70
     0
  9
$USERR1
 40
0.0
  9
$USERR2
 40
0.0
  9
$USERR3
 40
0.0
  9
$USERR4
 40
0.0
  9
$USERR5
 40
0.0
  9
$WORLDVIEW
 70
     1
  9
$SHADEDGE
 70
     3
  9
$SHADEDIF
 70
    70
  9
$TILEMODE
 70
     1
  9
$MAXACTVP
 70
    16
  9
$PLIMCHECK
 70
     0
  9
$PEXTMIN
 10
1.0000000000000000E+020
 20
1.0000000000000000E+020
 30
1.0000000000000000E+020
  9
$PEXTMAX
 10
-1.0000000000000000E+020
 20
-1.0000000000000000E+020
 30
-1.0000000000000000E+020
  9
$PLIMMIN
 10
-4.23333740234375
 20
-4.2333331108093262
  9
$PLIMMAX
 10
292.69265747070312
 20
205.7399945259094
  9
$UNITMODE
 70
     0
  9
$VISRETAIN
 70
     1
  9
$PLINEGEN
 70
     0
  9
$PSLTSCALE
 70
     1
  0
ENDSEC
  0
SECTION
  2
TABLES
  0
TABLE
  2
VPORT
 70
     1
  0
VPORT
  2
*ACTIVE
 70
     0
 10
0.0
 20
0.0
 11
1.0
 21
1.0
 12
154.69597045720349
 22
49.907725238701552
 13
0.0
 23
0.0
 14
1.0
 24
1.0
 15
0.0
 25
0.0
 16
0.0
 26
0.0
 36
1.0
 17
0.0
 27
0.0
 37
0.0
 40
232.8805713185024
 41
2.362776025236593
 42
50.0
 43
0.0
 44
0.0
 50
0.0
 51
0.0
 71
     0
 72
   100
 73
     1
 74
     0
 75
     0
 76
     0
 77
     0
 78
     0
  0
ENDTAB
  0
TABLE
  2
LTYPE
 70
     3
  0
LTYPE
  2
CONTINUOUS
 70
     0
  3
Solid line
 72
    65
 73
     0
 40
0.0
  0
LTYPE
  2
BYGG-014976$0$DASHDOT
 70
     0
  3
__ . __ . __ . __ . __ . __ . __ . __ . __ . __
 72
    65
 73
     4
 40
1.0
 49
0.5
 49
-0.25
 49
0.0
 49
-0.25
  0
LTYPE
  2
NEWDOT
 70
     0
  3
____ . ____ . ____ . ____ . ____ . ____ . ____
 72
    65
 73
     4
 40
2.0
 49
1.0
 49
-0.5
 49
0.0
 49
-0.5
  0
ENDTAB
  0
TABLE
  2
LAYER
 70
    31
  0
LAYER
  2
0
 70
     0
 62
     7
  6
CONTINUOUS
  0
LAYER
  2
SAPA_ANSLUTNING
 70
     0
 62
     6
  6
CONTINUOUS
  0
LAYER
  2
SAPA_ISOLATOR
 70
     0
 62
     4
  6
CONTINUOUS
  0
LAYER
  2
SAPA_PROFIL
 70
     0
 62
     7
  6
CONTINUOUS
  0
ENDTAB
  0
TABLE
  2
STYLE
 70
     6
  0
STYLE
  2
STANDARD
 70
     0
 40
0.0
 41
1.0
 50
0.0
 71
     0
 42
0.2
  3
txt
  4

  0
STYLE
  2
ISO
 70
     0
 40
0.0
 41
1.0
 50
0.0
 71
     0
 42
5.0
  3
isocp3.shx
  4

  0
STYLE
  2
BYGG-021464$0$STANDARD
 70
     0
 40
0.0
 41
1.0
 50
0.0
 71
     0
 42
0.2
  3
txt
  4

  0
STYLE
  2
BYGG-021464$0$ISO
 70
     0
 40
0.0
 41
1.0
 50
0.0
 71
     0
 42
7.0
  3
ISO
  4

  0
STYLE
  2
BYGG-014976$0$STANDARD
 70
     0
 40
0.0
 41
1.0
 50
0.0
 71
     0
 42
0.2
  3
txt
  4

  0
STYLE
  2
BYGG-014976$0$ISO
 70
     0
 40
0.0
 41
1.0
 50
0.0
 71
     0
 42
3.5
  3
txt
  4

  0
ENDTAB
  0
TABLE
  2
VIEW
 70
     0
  0
ENDTAB
  0
TABLE
  2
UCS
 70
     0
  0
ENDTAB
  0
TABLE
  2
APPID
 70
    16
  0
APPID
  2
ACAD
 70
     0
  0
APPID
  2
ACAD_PSEXT
 70
     0
  0
APPID
  2
ACAECLAYERSTANDARD
 70
     0
  0
APPID
  2
ACAD_MLEADERVER
 70
     0
  0
APPID
  2
ACDBDYNAMICBLOCKGUID
 70
     0
  0
APPID
  2
ACDBBLOCKREPETAG
 70
     0
  0
APPID
  2
ACAD_EXEMPT_FROM_CAD_STANDARDS
 70
     0
  0
APPID
  2
ACAD_DSTYLE_DIMTEXT_FILL
 70
     0
  0
APPID
  2
ACAD_DSTYLE_DIMEXT_LENGTH
 70
     0
  0
APPID
  2
ACAD_DSTYLE_DIMEXT_ENABLED
 70
     0
  0
APPID
  2
ACAD_DSTYLE_DIM_LINETYPE
 70
     0
  0
APPID
  2
ACAD_DSTYLE_DIM_EXT1_LINETYPE
 70
     0
  0
APPID
  2
ACAD_DSTYLE_DIM_EXT2_LINETYPE
 70
     0
  0
APPID
  2
ACAD_DSTYLE_DIMJOGGED_JOGA
 70
     0
  0
APPID
  2
ACAD_DSTYLE_DIMARC_LENGTH_
 70
     0
  0
APPID
  2
ACADANNOTATIVE
 70
     0
  0
ENDTAB
  0
TABLE
  2
DIMSTYLE
 70
     3
  0
DIMSTYLE
  2
MASKIN
 70
     0
  3

  4

  5

  6

  7

 40
0.0
 41
3.0
 42
1.5
 43
10.0
 44
1.5
 45
0.0
 46
0.0
 47
0.0
 48
0.0
140
3.0
141
-5.0
142
0.0
143
25.399999999999999
144
-1.0
145
0.0
146
1.0
147
1.0
 71
     0
 72
     0
 73
     0
 74
     1
 75
     0
 76
     0
 77
     1
 78
     8
170
     0
171
     0
172
     1
173
     0
174
     0
175
     0
176
   256
177
   256
178
     2
  0
DIMSTYLE
  2
BYGG-021464$0$MASKIN
 70
     0
  3

  4

  5

  6

  7

 40
1.0
 41
3.0
 42
1.5
 43
10.0
 44
1.5
 45
0.0
 46
0.0
 47
0.0
 48
0.0
140
3.0
141
-5.0
142
0.0
143
25.399999999999999
144
1.0
145
0.0
146
1.0
147
0.09
 71
     0
 72
     0
 73
     0
 74
     0
 75
     0
 76
     0
 77
     1
 78
     8
170
     0
171
     0
172
     0
173
     0
174
     0
175
     0
176
   256
177
   256
178
   256
  0
DIMSTYLE
  2
BYGG-014976$0$MASKIN
 70
     0
  3

  4

  5

  6

  7

 40
0.0
 41
3.0
 42
1.5
 43
10.0
 44
1.5
 45
0.0
 46
0.0
 47
0.0
 48
0.0
140
3.0
141
-5.0
142
0.0
143
25.399999999999999
144
-1.0
145
0.0
146
1.0
147
1.0
 71
     0
 72
     0
 73
     0
 74
     0
 75
     0
 76
     0
 77
     1
 78
     8
170
     0
171
     0
172
     1
173
     0
174
     0
175
     0
176
   256
177
   256
178
   256
  0
ENDTAB
  0
ENDSEC
  0
SECTION
  2
BLOCKS
  0
BLOCK
  8
0
  2
$MODEL_SPACE
 70
     0
 10
0.0
 20
0.0
 30
0.0
  3
$MODEL_SPACE
  1

  0
ENDBLK
  5
D
  8
0
  0
BLOCK
 67
     1
  8
0
  2
$PAPER_SPACE
 70
     0
 10
0.0
 20
0.0
 30
0.0
  3
$PAPER_SPACE
  1

  0
ENDBLK
  5
12
 67
     1
  8
0
  0
BLOCK
  8
0
  2
*X13
 70
     1
 10
0.0
 20
0.0
 30
0.0
  3
*X13
  1

  0
LINE
  5
15A9
  8
0
 62
     0
 10
87.891251730440317
 20
44.567526055329679
 30
0.0
 11
87.45877778577055
 21
44.999999999999453
 31
0.0
  0
LINE
  5
15AA
  8
0
 62
     0
 10
87.497973473415428
 20
42.715740282087289
 30
0.0
 11
85.213713755503264
 21
44.999999999999453
 31
0.0
  0
LINE
  5
15AB
  8
0
 62
     0
 10
87.206791109274661
 20
40.761858615960747
 30
0.0
 11
82.968649725235977
 21
44.999999999999439
 31
0.0
  0
LINE
  5
15AC
  8
0
 62
     0
 10
87.033082035860815
 20
38.690503659107293
 30
0.0
 11
80.723585694968676
 21
44.999999999999439
 31
0.0
  0
LINE
  5
15AD
  8
0
 62
     0
 10
86.99845557016107
 20
36.480066094539779
 30
0.0
 11
78.478521664701404
 21
44.999999999999439
 31
0.0
  0
LINE
  5
15AE
  8
0
 62
     0
 10
87.134832678992765
 20
34.098624955440812
 30
0.0
 11
79.873862825355985
 21
41.359594809077556
 31
0.0
  0
LINE
  5
15AF
  8
0
 62
     0
 10
87.492870520882406
 20
31.49552308328385
 30
0.0
 11
80.640215724625904
 21
38.348177879540373
 31
0.0
  0
LINE
  5
15B0
  8
0
 62
     0
 10
86.743329573898976
 20
29.999999999999979
 30
0.0
 11
80.882263842424322
 21
35.86106573147466
 31
0.0
  0
LINE
  5
15B1
  8
0
 62
     0
 10
84.808104486068061
 20
29.690161057563628
 30
0.0
 11
80.856419316979327
 21
33.641846226652362
 31
0.0
  0
LINE
  5
15B2
  8
0
 62
     0
 10
84.00440131287499
 20
28.248800200489409
 30
0.0
 11
80.632587570843597
 21
31.620613942520809
 31
0.0
  0
LINE
  5
15B3
  8
0
 62
     0
 10
85.999999994418317
 20
26.253201518946081
 30
0.0
 11
84.248800194907574
 21
28.004401318456829
 31
0.0
  0
LINE
  5
15B4
  8
0
 62
     0
 10
85.00813748309713
 20
24.999999999999989
 30
0.0
 11
80.233414584942523
 21
29.7747228981546
 31
0.0
  0
LINE
  5
15B5
  8
0
 62
     0
 10
82.763073452829843
 20
24.999999999999979
 30
0.0
 11
79.656098232498309
 21
28.10697522033152
 31
0.0
  0
LINE
  5
15B6
  8
0
 62
     0
 10
80.518009422562557
 20
24.999999999999979
 30
0.0
 11
78.870098116616049
 21
26.64791130594649
 31
0.0
  0
LINE
  5
15B7
  8
0
 62
     0
 10
78.27294539229527
 20
24.999999999999979
 30
0.0
 11
77.784355701920774
 21
25.488589690374489
 31
0.0
  0
LINE
  5
15B8
  8
0
 62
     0
 10
85.616728817216782
 20
25.0
 30
0.0
 11
85.999999994418317
 21
25.383271177201539
 31
0.0
  0
LINE
  5
15B9
  8
0
 62
     0
 10
83.371664786949495
 20
25.0
 30
0.0
 11
85.999999994418317
 21
27.62833520746883
 31
0.0
  0
LINE
  5
15BA
  8
0
 62
     0
 10
86.126600756682194
 20
29.999999999999989
 30
0.0
 11
87.512780061255086
 21
31.38617930457286
 31
0.0
  0
LINE
  5
15BB
  8
0
 62
     0
 10
81.126600756682194
 20
24.999999999999989
 30
0.0
 11
84.160832941752744
 21
28.034232185070529
 31
0.0
  0
LINE
  5
15BC
  8
0
 62
     0
 10
78.881536726414893
 20
25.0
 30
0.0
 11
87.216956001283165
 21
33.335419274868229
 31
0.0
  0
LINE
  5
15BD
  8
0
 62
     0
 10
79.588040383602959
 20
27.95156768745532
 30
0.0
 11
87.037841032042664
 21
35.401368335895022
 31
0.0
  0
LINE
  5
15BE
  8
0
 62
     0
 10
76.636472696147621
 20
24.999999999999989
 30
0.0
 11
76.652944222595593
 21
25.016471526447958
 31
0.0
  0
LINE
  5
15BF
  8
0
 62
     0
 10
80.552322265262234
 20
31.160913599381889
 30
0.0
 11
86.996713463200521
 21
37.605304797320173
 31
0.0
  0
LINE
  5
15C0
  8
0
 62
     0
 10
80.860805094670795
 20
33.714460459057747
 30
0.0
 11
87.124926694412636
 21
39.978582058799589
 31
0.0
  0
LINE
  5
15C1
  8
0
 62
     0
 10
80.877526755235607
 20
35.976246149889832
 30
0.0
 11
87.472054686741131
 21
42.570774081395363
 31
0.0
  0
LINE
  5
15C2
  8
0
 62
     0
 10
80.68801936738889
 20
38.031802792310401
 30
0.0
 11
87.656216575077934
 21
44.999999999999439
 31
0.0
  0
LINE
  5
15C3
  8
0
 62
     0
 10
80.320844997236748
 20
39.90969245242556
 30
0.0
 11
85.411152544810662
 21
44.999999999999453
 31
0.0
  0
LINE
  5
15C4
  8
0
 62
     0
 10
79.777418707901703
 20
41.61133019335778
 30
0.0
 11
83.166088514543361
 21
44.999999999999439
 31
0.0
  0
LINE
  5
15C5
  8
0
 62
     0
 10
79.033164447096198
 20
43.112139962819583
 30
0.0
 11
80.921024484276074
 21
44.999999999999439
 31
0.0
  0
LINE
  5
15C6
  8
0
 62
     0
 10
78.013218425633696
 20
44.337257971624368
 30
0.0
 11
78.675960454008788
 21
44.999999999999453
 31
0.0
  0
LINE
  5
15C7
  8
0
 62
     0
 10
76.430700640564609
 20
44.999804216822561
 30
0.0
 11
76.430896423741501
 21
44.999999999999439
 31
0.0
  0
ENDBLK
  5
15C9
  8
0
  0
BLOCK
  8
0
  2
*X14
 70
     1
 10
0.0
 20
0.0
 30
0.0
  3
*X14
  1

  0
LINE
  5
15CB
  8
0
 62
     0
 10
79.374988904652213
 20
28.87112830456574
 30
0.0
 11
79.771863904652193
 21
29.558535968819641
 31
0.0
  0
LINE
  5
15CC
  8
0
 62
     0
 10
78.184363904652216
 20
26.80890531180405
 30
0.0
 11
78.58123890465221
 21
27.496312976057951
 31
0.0
  0
LINE
  5
15CD
  8
0
 62
     0
 10
77.243627081364906
 20
25.179501337319479
 30
0.0
 11
77.390613904652213
 21
25.43408998329625
 31
0.0
  0
LINE
  5
15CE
  8
0
 62
     0
 10
80.565614189148306
 20
33.68298179008913
 30
0.0
 11
80.885212789455593
 21
34.236542803849247
 31
0.0
  0
LINE
  5
15CF
  8
0
 62
     0
 10
79.374989189148309
 20
31.62075879732744
 30
0.0
 11
79.771864189148303
 21
32.308166461581337
 31
0.0
  0
LINE
  5
15D0
  8
0
 62
     0
 10
78.184364189148312
 20
29.55853580456575
 30
0.0
 11
78.581239189148306
 21
30.24594346881964
 31
0.0
  0
LINE
  5
15D1
  8
0
 62
     0
 10
76.993739189148314
 20
27.496312811804049
 30
0.0
 11
77.390614189148309
 21
28.18372047605795
 31
0.0
  0
LINE
  5
15D2
  8
0
 62
     0
 10
75.803114189148303
 20
25.434089819042359
 30
0.0
 11
76.199989189148312
 21
26.121497483296249
 31
0.0
  0
LINE
  5
15D3
  8
0
 62
     0
 10
80.565614473644388
 20
36.432612282850798
 30
0.0
 11
80.819750468146466
 21
36.872788737360437
 31
0.0
  0
LINE
  5
15D4
  8
0
 62
     0
 10
79.374989473644391
 20
34.370389290089122
 30
0.0
 11
79.771864473644385
 21
35.057796954343011
 31
0.0
  0
LINE
  5
15D5
  8
0
 62
     0
 10
78.184364473644393
 20
32.308166297327432
 30
0.0
 11
78.581239473644388
 21
32.995573961581321
 31
0.0
  0
LINE
  5
15D6
  8
0
 62
     0
 10
76.993739473644396
 20
30.245943304565738
 30
0.0
 11
77.390614473644391
 21
30.933350968819632
 31
0.0
  0
LINE
  5
15D7
  8
0
 62
     0
 10
75.803114473644399
 20
28.183720311804041
 30
0.0
 11
76.199989473644393
 21
28.871127976057942
 31
0.0
  0
LINE
  5
15D8
  8
0
 62
     0
 10
74.612489473644402
 20
26.121497319042351
 30
0.0
 11
75.009364473644396
 21
26.808904983296241
 31
0.0
  0
LINE
  5
15D9
  8
0
 62
     0
 10
79.374989758140501
 20
37.120019782850797
 30
0.0
 11
79.771864758140495
 21
37.8074274471047
 31
0.0
  0
LINE
  5
15DA
  8
0
 62
     0
 10
78.184364758140504
 20
35.057796790089121
 30
0.0
 11
78.581239758140484
 21
35.745204454343011
 31
0.0
  0
LINE
  5
15DB
  8
0
 62
     0
 10
76.993739758140507
 20
32.995573797327431
 30
0.0
 11
77.390614758140501
 21
33.682981461581321
 31
0.0
  0
LINE
  5
15DC
  8
0
 62
     0
 10
75.803114758140509
 20
30.933350804565741
 30
0.0
 11
76.199989758140504
 21
31.620758468819631
 31
0.0
  0
LINE
  5
15DD
  8
0
 62
     0
 10
74.612489758140512
 20
28.87112781180404
 30
0.0
 11
75.009364758140507
 21
29.558535476057941
 31
0.0
  0
LINE
  5
15DE
  8
0
 62
     0
 10
73.613298348571931
 20
27.140477523944892
 30
0.0
 11
73.818739758140509
 21
27.49631248329624
 31
0.0
  0
LINE
  5
15DF
  8
0
 62
     0
 10
79.374990042636597
 20
39.869650275612493
 30
0.0
 11
79.771865042636591
 21
40.557057939866382
 31
0.0
  0
LINE
  5
15E0
  8
0
 62
     0
 10
78.1843650426366
 20
37.807427282850803
 30
0.0
 11
78.581240042636594
 21
38.4948349471047
 31
0.0
  0
LINE
  5
15E1
  8
0
 62
     0
 10
76.993740042636603
 20
35.74520429008912
 30
0.0
 11
77.390615042636597
 21
36.43261195434301
 31
0.0
  0
LINE
  5
15E2
  8
0
 62
     0
 10
75.803115042636605
 20
33.68298129732743
 30
0.0
 11
76.1999900426366
 21
34.37038896158132
 31
0.0
  0
LINE
  5
15E3
  8
0
 62
     0
 10
74.612490042636594
 20
31.620758304565729
 30
0.0
 11
75.009365042636603
 21
32.30816596881963
 31
0.0
  0
LINE
  5
15E4
  8
0
 62
     0
 10
73.421865042636611
 20
29.558535311804039
 30
0.0
 11
73.818740042636605
 21
30.245942976057929
 31
0.0
  0
LINE
  5
15E5
  8
0
 62
     0
 10
78.184365327132696
 20
40.557057775612492
 30
0.0
 11
78.58124032713269
 21
41.244465439866389
 31
0.0
  0
LINE
  5
15E6
  8
0
 62
     0
 10
76.993740327132699
 20
38.494834782850809
 30
0.0
 11
77.390615327132693
 21
39.182242447104713
 31
0.0
  0
LINE
  5
15E7
  8
0
 62
     0
 10
75.803115327132701
 20
36.432611790089119
 30
0.0
 11
76.199990327132696
 21
37.120019454343023
 31
0.0
  0
LINE
  5
15E8
  8
0
 62
     0
 10
74.612490327132704
 20
34.370388797327429
 30
0.0
 11
75.009365327132699
 21
35.057796461581333
 31
0.0
  0
LINE
  5
15E9
  8
0
 62
     0
 10
73.421865327132707
 20
32.308165804565739
 30
0.0
 11
73.818740327132701
 21
32.995573468819643
 31
0.0
  0
LINE
  5
15EA
  8
0
 62
     0
 10
72.378168997212001
 20
30.500430733469909
 30
0.0
 11
72.628115327132704
 21
30.933350476057949
 31
0.0
  0
LINE
  5
15EB
  8
0
 62
     0
 10
78.184365611628792
 20
43.306688268374181
 30
0.0
 11
78.497720847812573
 21
43.849435458262242
 31
0.0
  0
LINE
  5
15EC
  8
0
 62
     0
 10
76.993740611628795
 20
41.244465275612491
 30
0.0
 11
77.390615611628789
 21
41.931872939866381
 31
0.0
  0
LINE
  5
15ED
  8
0
 62
     0
 10
75.803115611628783
 20
39.182242282850801
 30
0.0
 11
76.199990611628792
 21
39.869649947104698
 31
0.0
  0
LINE
  5
15EE
  8
0
 62
     0
 10
74.6124906116288
 20
37.120019290089111
 30
0.0
 11
75.009365611628795
 21
37.807426954343008
 31
0.0
  0
LINE
  5
15EF
  8
0
 62
     0
 10
73.421865611628803
 20
35.057796297327421
 30
0.0
 11
73.818740611628783
 21
35.745203961581318
 31
0.0
  0
LINE
  5
15F0
  8
0
 62
     0
 10
72.231240611628806
 20
32.995573304565731
 30
0.0
 11
72.6281156116288
 21
33.682980968819628
 31
0.0
  0
LINE
  5
15F1
  8
0
 62
     0
 10
76.993740896124876
 20
43.99409576837418
 30
0.0
 11
77.390615896124871
 21
44.681503432628077
 31
0.0
  0
LINE
  5
15F2
  8
0
 62
     0
 10
75.803115896124879
 20
41.93187277561249
 30
0.0
 11
76.199990896124874
 21
42.61928043986638
 31
0.0
  0
LINE
  5
15F3
  8
0
 62
     0
 10
74.612490896124882
 20
39.8696497828508
 30
0.0
 11
75.009365896124876
 21
40.55705744710469
 31
0.0
  0
LINE
  5
15F4
  8
0
 62
     0
 10
73.421865896124885
 20
37.80742679008911
 30
0.0
 11
73.818740896124865
 21
38.494834454343007
 31
0.0
  0
LINE
  5
15F5
  8
0
 62
     0
 10
72.231240896124888
 20
35.74520379732742
 30
0.0
 11
72.628115896124882
 21
36.432611461581317
 31
0.0
  0
LINE
  5
15F6
  8
0
 62
     0
 10
75.803116180620975
 20
44.681503268374193
 30
0.0
 11
75.958875990762365
 21
44.951287173316359
 31
0.0
  0
LINE
  5
15F7
  8
0
 62
     0
 10
74.612491180620978
 20
42.619280275612503
 30
0.0
 11
75.009366180620972
 21
43.3066879398664
 31
0.0
  0
LINE
  5
15F8
  8
0
 62
     0
 10
73.421866180620981
 20
40.557057282850813
 30
0.0
 11
73.818741180620975
 21
41.24446494710471
 31
0.0
  0
LINE
  5
15F9
  8
0
 62
     0
 10
72.231241180620984
 20
38.49483429008913
 30
0.0
 11
72.628116180620978
 21
39.18224195434302
 31
0.0
  0
LINE
  5
15FA
  8
0
 62
     0
 10
77.390606507753702
 20
44.68148749999996
 30
0.0
 11
77.33095146378615
 21
44.784813067079519
 31
0.0
  0
LINE
  5
15FB
  8
0
 62
     0
 10
78.581231507753685
 20
42.61926450723827
 30
0.0
 11
78.184356507753705
 21
43.306672171492167
 31
0.0
  0
LINE
  5
15FC
  8
0
 62
     0
 10
79.771856507753697
 20
40.557041514476587
 30
0.0
 11
79.374981507753702
 21
41.244449178730477
 31
0.0
  0
LINE
  5
15FD
  8
0
 62
     0
 10
76.199981792249801
 20
43.994079999999947
 30
0.0
 11
75.803106792249807
 21
44.681487664253851
 31
0.0
  0
LINE
  5
15FE
  8
0
 62
     0
 10
77.390606792249798
 20
41.931857007238257
 30
0.0
 11
76.993731792249804
 21
42.619264671492161
 31
0.0
  0
LINE
  5
15FF
  8
0
 62
     0
 10
78.581231792249795
 20
39.869634014476581
 30
0.0
 11
78.184356792249801
 21
40.557041678730471
 31
0.0
  0
LINE
  5
1600
  8
0
 62
     0
 10
79.771856792249793
 20
37.807411021714877
 30
0.0
 11
79.374981792249798
 21
38.494818685968781
 31
0.0
  0
LINE
  5
1601
  8
0
 62
     0
 10
80.881297408071077
 20
35.885803507131918
 30
0.0
 11
80.565606792249795
 21
36.432595693207091
 31
0.0
  0
LINE
  5
1602
  8
0
 62
     0
 10
75.009357076745886
 20
43.306672499999941
 30
0.0
 11
74.612482076745891
 21
43.994080164253837
 31
0.0
  0
LINE
  5
1603
  8
0
 62
     0
 10
76.199982076745883
 20
41.244449507238258
 30
0.0
 11
75.803107076745889
 21
41.931857171492148
 31
0.0
  0
LINE
  5
1604
  8
0
 62
     0
 10
77.39060707674588
 20
39.182226514476568
 30
0.0
 11
76.993732076745886
 21
39.869634178730472
 31
0.0
  0
LINE
  5
1605
  8
0
 62
     0
 10
78.581232076745863
 20
37.120003521714878
 30
0.0
 11
78.184357076745883
 21
37.807411185968782
 31
0.0
  0
LINE
  5
1606
  8
0
 62
     0
 10
79.771857076745874
 20
35.057780528953188
 30
0.0
 11
79.37498207674588
 21
35.745188193207078
 31
0.0
  0
LINE
  5
1607
  8
0
 62
     0
 10
80.826931940650866
 20
33.230337258880951
 30
0.0
 11
80.565607076745877
 21
33.682965200445402
 31
0.0
  0
LINE
  5
1608
  8
0
 62
     0
 10
73.818732361241985
 20
42.619264999999949
 30
0.0
 11
73.649713426216522
 21
42.912014382905262
 31
0.0
  0
LINE
  5
1609
  8
0
 62
     0
 10
75.009357361241996
 20
40.557042007238259
 30
0.0
 11
74.612482361242002
 21
41.244449671492148
 31
0.0
  0
LINE
  5
160A
  8
0
 62
     0
 10
76.199982361241993
 20
38.494819014476569
 30
0.0
 11
75.803107361241999
 21
39.182226678730473
 31
0.0
  0
LINE
  5
160B
  8
0
 62
     0
 10
77.39060736124199
 20
36.432596021714879
 30
0.0
 11
76.993732361241996
 21
37.120003685968783
 31
0.0
  0
LINE
  5
160C
  8
0
 62
     0
 10
78.581232361241987
 20
34.370373028953189
 30
0.0
 11
78.184357361241993
 21
35.057780693207093
 31
0.0
  0
LINE
  5
160D
  8
0
 62
     0
 10
79.771857361241985
 20
32.308150036191499
 30
0.0
 11
79.37498236124199
 21
32.995557700445403
 31
0.0
  0
LINE
  5
160E
  8
0
 62
     0
 10
73.818732645738095
 20
39.86963450723826
 30
0.0
 11
73.4218576457381
 21
40.557042171492149
 31
0.0
  0
LINE
  5
160F
  8
0
 62
     0
 10
75.009357645738092
 20
37.80741151447657
 30
0.0
 11
74.612482645738098
 21
38.494819178730467
 31
0.0
  0
LINE
  5
1610
  8
0
 62
     0
 10
76.199982645738075
 20
35.74518852171488
 30
0.0
 11
75.803107645738095
 21
36.432596185968777
 31
0.0
  0
LINE
  5
1611
  8
0
 62
     0
 10
77.390607645738086
 20
33.68296552895319
 30
0.0
 11
76.993732645738092
 21
34.370373193207087
 31
0.0
  0
LINE
  5
1612
  8
0
 62
     0
 10
78.581232645738083
 20
31.6207425361915
 30
0.0
 11
78.184357645738089
 21
32.308150200445397
 31
0.0
  0
LINE
  5
1613
  8
0
 62
     0
 10
79.771857645738081
 20
29.55851954342981
 30
0.0
 11
79.374982645738086
 21
30.2459272076837
 31
0.0
  0
LINE
  5
1614
  8
0
 62
     0
 10
72.628107930234179
 20
39.182227007238268
 30
0.0
 11
72.399652958983197
 21
39.577922624686671
 31
0.0
  0
LINE
  5
1615
  8
0
 62
     0
 10
73.818732930234177
 20
37.120004014476578
 30
0.0
 11
73.421857930234182
 21
37.807411678730482
 31
0.0
  0
LINE
  5
1616
  8
0
 62
     0
 10
75.009357930234174
 20
35.057781021714888
 30
0.0
 11
74.612482930234179
 21
35.745188685968792
 31
0.0
  0
LINE
  5
1617
  8
0
 62
     0
 10
76.199982930234171
 20
32.995558028953198
 30
0.0
 11
75.803107930234177
 21
33.682965693207102
 31
0.0
  0
LINE
  5
1618
  8
0
 62
     0
 10
77.390607930234154
 20
30.933335036191512
 30
0.0
 11
76.993732930234174
 21
31.620742700445401
 31
0.0
  0
LINE
  5
1619
  8
0
 62
     0
 10
78.581232930234165
 20
28.871112043429811
 30
0.0
 11
78.184357930234171
 21
29.558519707683711
 31
0.0
  0
LINE
  5
161A
  8
0
 62
     0
 10
72.628108214730261
 20
36.432596514476579
 30
0.0
 11
72.231233214730267
 21
37.120004178730483
 31
0.0
  0
LINE
  5
161B
  8
0
 62
     0
 10
73.818733214730258
 20
34.370373521714889
 30
0.0
 11
73.421858214730264
 21
35.057781185968793
 31
0.0
  0
LINE
  5
161C
  8
0
 62
     0
 10
75.009358214730256
 20
32.308150528953199
 30
0.0
 11
74.612483214730261
 21
32.995558193207103
 31
0.0
  0
LINE
  5
161D
  8
0
 62
     0
 10
76.199983214730253
 20
30.245927536191509
 30
0.0
 11
75.803108214730258
 21
30.933335200445409
 31
0.0
  0
LINE
  5
161E
  8
0
 62
     0
 10
77.390608214730236
 20
28.183704543429819
 30
0.0
 11
76.993733214730256
 21
28.871112207683709
 31
0.0
  0
LINE
  5
161F
  8
0
 62
     0
 10
78.534553285205348
 20
26.202333560299
 30
0.0
 11
78.184358214730253
 21
26.808889214922019
 31
0.0
  0
LINE
  5
1620
  8
0
 62
     0
 10
72.628108499226371
 20
33.68296602171489
 30
0.0
 11
72.231233499226363
 21
34.370373685968787
 31
0.0
  0
LINE
  5
1621
  8
0
 62
     0
 10
73.818733499226369
 20
31.6207430289532
 30
0.0
 11
73.421858499226374
 21
32.308150693207097
 31
0.0
  0
LINE
  5
1622
  8
0
 62
     0
 10
75.009358499226366
 20
29.55852003619151
 30
0.0
 11
74.612483499226371
 21
30.245927700445399
 31
0.0
  0
LINE
  5
1623
  8
0
 62
     0
 10
76.199983499226363
 20
27.496297043429809
 30
0.0
 11
75.803108499226369
 21
28.18370470768371
 31
0.0
  0
LINE
  5
1624
  8
0
 62
     0
 10
77.39060849922636
 20
25.434074050668119
 30
0.0
 11
76.993733499226366
 21
26.12148171492202
 31
0.0
  0
LINE
  5
1625
  8
0
 62
     0
 10
72.628108783722453
 20
30.933335528953201
 30
0.0
 11
72.231233783722459
 21
31.62074319320709
 31
0.0
  0
LINE
  5
1626
  8
0
 62
     0
 10
73.81873378372245
 20
28.8711125361915
 30
0.0
 11
73.421858783722456
 21
29.5585202004454
 31
0.0
  0
LINE
  5
1627
  8
0
 62
     0
 10
75.009358783722448
 20
26.80888954342981
 30
0.0
 11
74.612483783722453
 21
27.4962972076837
 31
0.0
  0
LINE
  5
1628
  8
0
 62
     0
 10
76.035267897872245
 20
25.03196283377439
 30
0.0
 11
75.80310878372245
 21
25.43407421492201
 31
0.0
  0
LINE
  5
1629
  8
0
 62
     0
 10
76.200000000000003
 20
26.121485
 30
0.0
 11
76.993750000000006
 21
26.121485
 31
0.0
  0
LINE
  5
162A
  8
0
 62
     0
 10
74.324609670772745
 20
26.121485
 30
0.0
 11
74.612499999999983
 21
26.121485
 31
0.0
  0
LINE
  5
162B
  8
0
 62
     0
 10
78.581249999999997
 20
27.496300000000002
 30
0.0
 11
79.370310870913997
 21
27.496300000000002
 31
0.0
  0
LINE
  5
162C
  8
0
 62
     0
 10
76.199999999999989
 20
27.496300000000002
 30
0.0
 11
76.993749999999991
 21
27.496300000000002
 31
0.0
  0
LINE
  5
162D
  8
0
 62
     0
 10
73.81874999999998
 20
27.496300000000002
 30
0.0
 11
74.612499999999983
 21
27.496300000000002
 31
0.0
  0
LINE
  5
162E
  8
0
 62
     0
 10
78.581249999999997
 20
28.871114999999989
 30
0.0
 11
79.375
 21
28.871114999999989
 31
0.0
  0
LINE
  5
162F
  8
0
 62
     0
 10
76.199999999999989
 20
28.871114999999989
 30
0.0
 11
76.993749999999991
 21
28.871114999999989
 31
0.0
  0
LINE
  5
1630
  8
0
 62
     0
 10
73.81874999999998
 20
28.871114999999989
 30
0.0
 11
74.612499999999983
 21
28.871114999999989
 31
0.0
  0
LINE
  5
1631
  8
0
 62
     0
 10
78.581249999999997
 20
30.245930000000001
 30
0.0
 11
79.375
 21
30.245930000000001
 31
0.0
  0
LINE
  5
1632
  8
0
 62
     0
 10
76.199999999999989
 20
30.245930000000001
 30
0.0
 11
76.993749999999991
 21
30.245930000000001
 31
0.0
  0
LINE
  5
1633
  8
0
 62
     0
 10
73.81874999999998
 20
30.245930000000001
 30
0.0
 11
74.612499999999983
 21
30.245930000000001
 31
0.0
  0
LINE
  5
1634
  8
0
 62
     0
 10
78.581250000000011
 20
31.620744999999999
 30
0.0
 11
79.375000000000014
 21
31.620744999999999
 31
0.0
  0
LINE
  5
1635
  8
0
 62
     0
 10
76.200000000000003
 20
31.620744999999999
 30
0.0
 11
76.993750000000006
 21
31.620744999999999
 31
0.0
  0
LINE
  5
1636
  8
0
 62
     0
 10
73.818749999999994
 20
31.620744999999999
 30
0.0
 11
74.612499999999983
 21
31.620744999999999
 31
0.0
  0
LINE
  5
1637
  8
0
 62
     0
 10
72.162052211305721
 20
31.620744999999999
 30
0.0
 11
72.231249999999989
 21
31.620744999999999
 31
0.0
  0
LINE
  5
1638
  8
0
 62
     0
 10
78.581250000000011
 20
32.995559999999998
 30
0.0
 11
79.375000000000014
 21
32.995559999999998
 31
0.0
  0
LINE
  5
1639
  8
0
 62
     0
 10
76.200000000000003
 20
32.995559999999998
 30
0.0
 11
76.993750000000006
 21
32.995559999999998
 31
0.0
  0
LINE
  5
163A
  8
0
 62
     0
 10
73.818749999999994
 20
32.995559999999998
 30
0.0
 11
74.612499999999983
 21
32.995559999999998
 31
0.0
  0
LINE
  5
163B
  8
0
 62
     0
 10
71.98919060249797
 20
32.995559999999998
 30
0.0
 11
72.231249999999989
 21
32.995559999999998
 31
0.0
  0
LINE
  5
163C
  8
0
 62
     0
 10
78.581250000000011
 20
34.370375000000003
 30
0.0
 11
79.375000000000014
 21
34.370375000000003
 31
0.0
  0
LINE
  5
163D
  8
0
 62
     0
 10
76.200000000000003
 20
34.370375000000003
 30
0.0
 11
76.993750000000006
 21
34.370375000000003
 31
0.0
  0
LINE
  5
163E
  8
0
 62
     0
 10
73.818749999999994
 20
34.370375000000003
 30
0.0
 11
74.612499999999983
 21
34.370375000000003
 31
0.0
  0
LINE
  5
163F
  8
0
 62
     0
 10
71.907326048094561
 20
34.370375000000003
 30
0.0
 11
72.231249999999989
 21
34.370375000000003
 31
0.0
  0
LINE
  5
1640
  8
0
 62
     0
 10
78.581250000000011
 20
35.745190000000001
 30
0.0
 11
79.375000000000014
 21
35.745190000000001
 31
0.0
  0
LINE
  5
1641
  8
0
 62
     0
 10
76.200000000000003
 20
35.745190000000001
 30
0.0
 11
76.993750000000006
 21
35.745190000000001
 31
0.0
  0
LINE
  5
1642
  8
0
 62
     0
 10
73.818749999999994
 20
35.745190000000001
 30
0.0
 11
74.612499999999983
 21
35.745190000000001
 31
0.0
  0
LINE
  5
1643
  8
0
 62
     0
 10
71.911443140444945
 20
35.745190000000001
 30
0.0
 11
72.231249999999989
 21
35.745190000000001
 31
0.0
  0
LINE
  5
1644
  8
0
 62
     0
 10
78.581250000000011
 20
37.120004999999999
 30
0.0
 11
79.375000000000014
 21
37.120004999999999
 31
0.0
  0
LINE
  5
1645
  8
0
 62
     0
 10
76.200000000000003
 20
37.120004999999999
 30
0.0
 11
76.993750000000006
 21
37.120004999999999
 31
0.0
  0
LINE
  5
1646
  8
0
 62
     0
 10
73.818749999999994
 20
37.120004999999999
 30
0.0
 11
74.612499999999983
 21
37.120004999999999
 31
0.0
  0
LINE
  5
1647
  8
0
 62
     0
 10
72.001752053393773
 20
37.120004999999999
 30
0.0
 11
72.231249999999989
 21
37.120004999999999
 31
0.0
  0
LINE
  5
1648
  8
0
 62
     0
 10
78.581250000000011
 20
38.494819999999997
 30
0.0
 11
79.375000000000014
 21
38.494819999999997
 31
0.0
  0
LINE
  5
1649
  8
0
 62
     0
 10
76.200000000000003
 20
38.494819999999997
 30
0.0
 11
76.993750000000006
 21
38.494819999999997
 31
0.0
  0
LINE
  5
164A
  8
0
 62
     0
 10
73.818749999999994
 20
38.494819999999997
 30
0.0
 11
74.612499999999983
 21
38.494819999999997
 31
0.0
  0
LINE
  5
164B
  8
0
 62
     0
 10
72.183754963094344
 20
38.494819999999997
 30
0.0
 11
72.231249999999989
 21
38.494819999999997
 31
0.0
  0
LINE
  5
164C
  8
0
 62
     0
 10
78.581249999999997
 20
39.869635000000002
 30
0.0
 11
79.375
 21
39.869635000000002
 31
0.0
  0
LINE
  5
164D
  8
0
 62
     0
 10
76.199999999999989
 20
39.869635000000002
 30
0.0
 11
76.993749999999991
 21
39.869635000000002
 31
0.0
  0
LINE
  5
164E
  8
0
 62
     0
 10
73.81874999999998
 20
39.869635000000002
 30
0.0
 11
74.612499999999983
 21
39.869635000000002
 31
0.0
  0
LINE
  5
164F
  8
0
 62
     0
 10
78.581249999999997
 20
41.244450000000001
 30
0.0
 11
79.375
 21
41.244450000000001
 31
0.0
  0
LINE
  5
1650
  8
0
 62
     0
 10
76.199999999999989
 20
41.244450000000001
 30
0.0
 11
76.993749999999991
 21
41.244450000000001
 31
0.0
  0
LINE
  5
1651
  8
0
 62
     0
 10
73.81874999999998
 20
41.244450000000001
 30
0.0
 11
74.612499999999983
 21
41.244450000000001
 31
0.0
  0
LINE
  5
1652
  8
0
 62
     0
 10
78.581249999999997
 20
42.619264999999999
 30
0.0
 11
79.316086580965234
 21
42.619264999999999
 31
0.0
  0
LINE
  5
1653
  8
0
 62
     0
 10
76.199999999999989
 20
42.619264999999999
 30
0.0
 11
76.993749999999991
 21
42.619264999999999
 31
0.0
  0
LINE
  5
1654
  8
0
 62
     0
 10
73.81874999999998
 20
42.619264999999999
 30
0.0
 11
74.612499999999983
 21
42.619264999999999
 31
0.0
  0
LINE
  5
1655
  8
0
 62
     0
 10
76.200000000000003
 20
43.994079999999997
 30
0.0
 11
76.993750000000006
 21
43.994079999999997
 31
0.0
  0
LINE
  5
1656
  8
0
 62
     0
 10
74.43513831831514
 20
43.994079999999997
 30
0.0
 11
74.612499999999983
 21
43.994079999999997
 31
0.0
  0
ENDBLK
  5
1658
  8
0
  0
BLOCK
  8
0
  2
*X15
 70
     1
 10
0.0
 20
0.0
 30
0.0
  3
*X15
  1

  0
LINE
  5
165A
  8
0
 62
     0
 10
31.749997155039029
 20
26.121492884187109
 30
0.0
 11
32.000000000718117
 21
26.55451051494008
 31
0.0
  0
LINE
  5
165B
  8
0
 62
     0
 10
31.749997439535129
 20
28.871123376948798
 30
0.0
 11
32.000000000718117
 21
29.30414051494008
 31
0.0
  0
LINE
  5
165C
  8
0
 62
     0
 10
30.559372439535132
 20
26.808900384187108
 30
0.0
 11
30.956247439535129
 21
27.496308048441001
 31
0.0
  0
LINE
  5
165D
  8
0
 62
     0
 10
29.515003315782181
 20
24.99999999999082
 30
0.0
 11
29.765622439535129
 21
25.434085055679311
 31
0.0
  0
LINE
  5
165E
  8
0
 62
     0
 10
31.749997724031221
 20
31.620753869710491
 30
0.0
 11
32.000000000718117
 21
32.053770514940076
 31
0.0
  0
LINE
  5
165F
  8
0
 62
     0
 10
30.559372724031221
 20
29.558530876948801
 30
0.0
 11
30.956247724031229
 21
30.24593854120269
 31
0.0
  0
LINE
  5
1660
  8
0
 62
     0
 10
29.36874772403122
 20
27.496307884187111
 30
0.0
 11
29.765622724031228
 21
28.183715548441
 31
0.0
  0
LINE
  5
1661
  8
0
 62
     0
 10
28.178122724031219
 20
25.43408489142541
 30
0.0
 11
28.574997724031231
 21
26.12149255567931
 31
0.0
  0
LINE
  5
1662
  8
0
 62
     0
 10
31.749998008527331
 20
34.37038436247218
 30
0.0
 11
32.000000000718117
 21
34.803400514940073
 31
0.0
  0
LINE
  5
1663
  8
0
 62
     0
 10
30.559373008527331
 20
32.30816136971049
 30
0.0
 11
30.956248008527322
 21
32.995569033964387
 31
0.0
  0
LINE
  5
1664
  8
0
 62
     0
 10
29.36874800852733
 20
30.2459383769488
 30
0.0
 11
29.765623008527321
 21
30.933346041202689
 31
0.0
  0
LINE
  5
1665
  8
0
 62
     0
 10
28.178123008527319
 20
28.183715384187099
 30
0.0
 11
28.57499800852732
 21
28.871123048441
 31
0.0
  0
LINE
  5
1666
  8
0
 62
     0
 10
26.987498008527322
 20
26.121492391425409
 30
0.0
 11
27.384373008527319
 21
26.80890005567931
 31
0.0
  0
LINE
  5
1667
  8
0
 62
     0
 10
31.74999829302342
 20
37.120014855233869
 30
0.0
 11
32.000000000718117
 21
37.553030514940062
 31
0.0
  0
LINE
  5
1668
  8
0
 62
     0
 10
30.55937329302342
 20
35.057791862472179
 30
0.0
 11
30.956248293023421
 21
35.745199526726083
 31
0.0
  0
LINE
  5
1669
  8
0
 62
     0
 10
29.368748293023419
 20
32.995568869710489
 30
0.0
 11
29.76562329302342
 21
33.682976533964393
 31
0.0
  0
LINE
  5
166A
  8
0
 62
     0
 10
28.178123293023418
 20
30.933345876948799
 30
0.0
 11
28.57499829302342
 21
31.620753541202689
 31
0.0
  0
LINE
  5
166B
  8
0
 62
     0
 10
26.987498293023421
 20
28.871122884187098
 30
0.0
 11
27.384373293023419
 21
29.558530548440999
 31
0.0
  0
LINE
  5
166C
  8
0
 62
     0
 10
25.79687329302342
 20
26.808899891425408
 30
0.0
 11
26.193748293023418
 21
27.496307555679309
 31
0.0
  0
LINE
  5
166D
  8
0
 62
     0
 10
24.752504453766569
 20
24.999999999990809
 30
0.0
 11
25.003123293023421
 21
25.434084562917612
 31
0.0
  0
LINE
  5
166E
  8
0
 62
     0
 10
31.749998577519531
 20
39.869645347995558
 30
0.0
 11
32.000000000718117
 21
40.302660514940051
 31
0.0
  0
LINE
  5
166F
  8
0
 62
     0
 10
30.55937357751953
 20
37.807422355233868
 30
0.0
 11
30.956248577519521
 21
38.494830019487758
 31
0.0
  0
LINE
  5
1670
  8
0
 62
     0
 10
29.368748577519519
 20
35.745199362472178
 30
0.0
 11
29.76562357751952
 21
36.432607026726082
 31
0.0
  0
LINE
  5
1671
  8
0
 62
     0
 10
28.178123577519521
 20
33.682976369710488
 30
0.0
 11
28.574998577519519
 21
34.370384033964392
 31
0.0
  0
LINE
  5
1672
  8
0
 62
     0
 10
26.987498577519521
 20
31.620753376948802
 30
0.0
 11
27.384373577519519
 21
32.308161041202702
 31
0.0
  0
LINE
  5
1673
  8
0
 62
     0
 10
25.79687357751952
 20
29.558530384187112
 30
0.0
 11
26.193748577519521
 21
30.245938048441001
 31
0.0
  0
LINE
  5
1674
  8
0
 62
     0
 10
24.606248577519519
 20
27.496307391425411
 30
0.0
 11
25.003123577519521
 21
28.183715055679311
 31
0.0
  0
LINE
  5
1675
  8
0
 62
     0
 10
23.415623577519519
 20
25.434084398663721
 30
0.0
 11
23.81249857751952
 21
26.121492062917611
 31
0.0
  0
LINE
  5
1676
  8
0
 62
     0
 10
31.749998862015619
 20
42.619275840757233
 30
0.0
 11
32.000000000718117
 21
43.052290514940047
 31
0.0
  0
LINE
  5
1677
  8
0
 62
     0
 10
30.559373862015612
 20
40.55705284799555
 30
0.0
 11
30.95624886201562
 21
41.244460512249447
 31
0.0
  0
LINE
  5
1678
  8
0
 62
     0
 10
29.368748862015611
 20
38.49482985523386
 30
0.0
 11
29.765623862015619
 21
39.182237519487757
 31
0.0
  0
LINE
  5
1679
  8
0
 62
     0
 10
28.17812386201561
 20
36.43260686247217
 30
0.0
 11
28.574998862015619
 21
37.120014526726067
 31
0.0
  0
LINE
  5
167A
  8
0
 62
     0
 10
26.98749886201561
 20
34.37038386971048
 30
0.0
 11
27.384373862015622
 21
35.057791533964377
 31
0.0
  0
LINE
  5
167B
  8
0
 62
     0
 10
25.796873862015609
 20
32.30816087694879
 30
0.0
 11
26.193748862015621
 21
32.995568541202687
 31
0.0
  0
LINE
  5
167C
  8
0
 62
     0
 10
24.606248862015612
 20
30.2459378841871
 30
0.0
 11
25.00312386201561
 21
30.933345548441
 31
0.0
  0
LINE
  5
167D
  8
0
 62
     0
 10
23.415623862015611
 20
28.18371489142541
 30
0.0
 11
23.812498862015609
 21
28.87112255567931
 31
0.0
  0
LINE
  5
167E
  8
0
 62
     0
 10
30.559374146511718
 20
43.306683340757232
 30
0.0
 11
30.95624914651172
 21
43.994091005011128
 31
0.0
  0
LINE
  5
167F
  8
0
 62
     0
 10
29.368749146511721
 20
41.244460347995549
 30
0.0
 11
29.765624146511708
 21
41.931868012249438
 31
0.0
  0
LINE
  5
1680
  8
0
 62
     0
 10
28.17812414651172
 20
39.182237355233859
 30
0.0
 11
28.574999146511711
 21
39.869645019487763
 31
0.0
  0
LINE
  5
1681
  8
0
 62
     0
 10
26.987499146511709
 20
37.120014362472169
 30
0.0
 11
27.384374146511711
 21
37.807422026726073
 31
0.0
  0
LINE
  5
1682
  8
0
 62
     0
 10
25.796874146511708
 20
35.057791369710479
 30
0.0
 11
26.19374914651171
 21
35.745199033964383
 31
0.0
  0
LINE
  5
1683
  8
0
 62
     0
 10
24.606249146511711
 20
32.995568376948789
 30
0.0
 11
25.003124146511709
 21
33.682976041202693
 31
0.0
  0
LINE
  5
1684
  8
0
 62
     0
 10
23.415624146511711
 20
30.933345384187099
 30
0.0
 11
23.812499146511708
 21
31.620753048440999
 31
0.0
  0
LINE
  5
1685
  8
0
 62
     0
 10
29.36874943100781
 20
43.994090840757252
 30
0.0
 11
29.765624431007812
 21
44.681498505011149
 31
0.0
  0
LINE
  5
1686
  8
0
 62
     0
 10
28.178124431007809
 20
41.931867847995562
 30
0.0
 11
28.574999431007811
 21
42.619275512249452
 31
0.0
  0
LINE
  5
1687
  8
0
 62
     0
 10
26.987499431007809
 20
39.869644855233872
 30
0.0
 11
27.38437443100781
 21
40.557052519487769
 31
0.0
  0
LINE
  5
1688
  8
0
 62
     0
 10
25.796874431007812
 20
37.807421862472189
 30
0.0
 11
26.193749431007809
 21
38.494829526726079
 31
0.0
  0
LINE
  5
1689
  8
0
 62
     0
 10
24.606249431007811
 20
35.745198869710492
 30
0.0
 11
25.003124431007809
 21
36.432606533964389
 31
0.0
  0
LINE
  5
168A
  8
0
 62
     0
 10
23.41562443100781
 20
33.682975876948802
 30
0.0
 11
23.812499431007812
 21
34.370383541202699
 31
0.0
  0
LINE
  5
168B
  8
0
 62
     0
 10
28.178124715503909
 20
44.681498340757251
 30
0.0
 11
28.362011734204721
 21
44.999999999999417
 31
0.0
  0
LINE
  5
168C
  8
0
 62
     0
 10
26.987499715503908
 20
42.619275347995561
 30
0.0
 11
27.38437471550391
 21
43.306683012249451
 31
0.0
  0
LINE
  5
168D
  8
0
 62
     0
 10
25.796874715503911
 20
40.557052355233871
 30
0.0
 11
26.193749715503909
 21
41.244460019487761
 31
0.0
  0
LINE
  5
168E
  8
0
 62
     0
 10
24.60624971550391
 20
38.494829362472181
 30
0.0
 11
25.003124715503908
 21
39.182237026726078
 31
0.0
  0
LINE
  5
168F
  8
0
 62
     0
 10
23.41562471550391
 20
36.432606369710491
 30
0.0
 11
23.812499715503911
 21
37.120014033964388
 31
0.0
  0
LINE
  5
1690
  8
0
 62
     0
 10
25.796875000000011
 20
43.306682847995567
 30
0.0
 11
26.193750000000009
 21
43.994090512249471
 31
0.0
  0
LINE
  5
1691
  8
0
 62
     0
 10
24.60625000000001
 20
41.244459855233877
 30
0.0
 11
25.003125000000011
 21
41.931867519487781
 31
0.0
  0
LINE
  5
1692
  8
0
 62
     0
 10
23.415625000000009
 20
39.182236862472202
 30
0.0
 11
23.812500000000011
 21
39.869644526726091
 31
0.0
  0
LINE
  5
1693
  8
0
 62
     0
 10
24.606250284496099
 20
43.994090347995567
 30
0.0
 11
25.0031252844961
 21
44.68149801224947
 31
0.0
  0
LINE
  5
1694
  8
0
 62
     0
 10
23.415625284496102
 20
41.931867355233877
 30
0.0
 11
23.8125002844961
 21
42.61927501948778
 31
0.0
  0
LINE
  5
1695
  8
0
 62
     0
 10
23.415625568992201
 20
44.68149784799558
 30
0.0
 11
23.599512872189091
 21
44.999999999999417
 31
0.0
  0
LINE
  5
1696
  8
0
 62
     0
 10
32.000000000718117
 20
43.561054156552103
 30
0.0
 11
31.749989758140511
 21
43.994084599109136
 31
0.0
  0
LINE
  5
1697
  8
0
 62
     0
 10
29.765615042636611
 20
44.681492427616917
 30
0.0
 11
29.581724609982629
 21
44.999999999999439
 31
0.0
  0
LINE
  5
1698
  8
0
 62
     0
 10
30.956240042636612
 20
42.619269434855227
 30
0.0
 11
30.55936504263661
 21
43.30667709910913
 31
0.0
  0
LINE
  5
1699
  8
0
 62
     0
 10
32.000000000718117
 20
40.811424156552093
 30
0.0
 11
31.749990042636611
 21
41.24445410634744
 31
0.0
  0
LINE
  5
169A
  8
0
 62
     0
 10
28.574990327132699
 20
43.994084927616917
 30
0.0
 11
28.178115327132701
 21
44.681492591870807
 31
0.0
  0
LINE
  5
169B
  8
0
 62
     0
 10
29.7656153271327
 20
41.931861934855228
 30
0.0
 11
29.368740327132699
 21
42.619269599109131
 31
0.0
  0
LINE
  5
169C
  8
0
 62
     0
 10
30.956240327132701
 20
39.869638942093552
 30
0.0
 11
30.559365327132699
 21
40.557046606347441
 31
0.0
  0
LINE
  5
169D
  8
0
 62
     0
 10
32.000000000718117
 20
38.061794156552097
 30
0.0
 11
31.7499903271327
 21
38.494823613585751
 31
0.0
  0
LINE
  5
169E
  8
0
 62
     0
 10
27.384365611628791
 20
43.306677427616911
 30
0.0
 11
26.98749061162879
 21
43.994085091870808
 31
0.0
  0
LINE
  5
169F
  8
0
 62
     0
 10
28.574990611628792
 20
41.244454434855221
 30
0.0
 11
28.17811561162879
 21
41.931862099109111
 31
0.0
  0
LINE
  5
16A0
  8
0
 62
     0
 10
29.765615611628789
 20
39.182231442093531
 30
0.0
 11
29.368740611628791
 21
39.869639106347428
 31
0.0
  0
LINE
  5
16A1
  8
0
 62
     0
 10
30.9562406116288
 20
37.120008449331841
 30
0.0
 11
30.559365611628792
 21
37.807416113585738
 31
0.0
  0
LINE
  5
16A2
  8
0
 62
     0
 10
32.000000000718117
 20
35.312164156552093
 30
0.0
 11
31.749990611628789
 21
35.745193120824048
 31
0.0
  0
LINE
  5
16A3
  8
0
 62
     0
 10
25.0031158961249
 20
44.681492920378602
 30
0.0
 11
24.819225747967021
 21
44.999999999999417
 31
0.0
  0
LINE
  5
16A4
  8
0
 62
     0
 10
26.193740896124901
 20
42.619269927616912
 30
0.0
 11
25.796865896124899
 21
43.306677591870809
 31
0.0
  0
LINE
  5
16A5
  8
0
 62
     0
 10
27.384365896124901
 20
40.557046934855222
 30
0.0
 11
26.9874908961249
 21
41.244454599109112
 31
0.0
  0
LINE
  5
16A6
  8
0
 62
     0
 10
28.574990896124898
 20
38.494823942093532
 30
0.0
 11
28.178115896124901
 21
39.182231606347429
 31
0.0
  0
LINE
  5
16A7
  8
0
 62
     0
 10
29.765615896124899
 20
36.432600949331849
 30
0.0
 11
29.368740896124901
 21
37.120008613585739
 31
0.0
  0
LINE
  5
16A8
  8
0
 62
     0
 10
30.9562408961249
 20
34.370377956570152
 30
0.0
 11
30.559365896124898
 21
35.057785620824049
 31
0.0
  0
LINE
  5
16A9
  8
0
 62
     0
 10
32.000000000718117
 20
32.56253415655209
 30
0.0
 11
31.749990896124899
 21
32.995562628062359
 31
0.0
  0
LINE
  5
16AA
  8
0
 62
     0
 10
23.812491180620992
 20
43.994085420378603
 30
0.0
 11
23.41561618062099
 21
44.681493084632493
 31
0.0
  0
LINE
  5
16AB
  8
0
 62
     0
 10
25.003116180620989
 20
41.931862427616913
 30
0.0
 11
24.606241180620991
 21
42.61927009187081
 31
0.0
  0
LINE
  5
16AC
  8
0
 62
     0
 10
26.193741180620989
 20
39.869639434855223
 30
0.0
 11
25.796866180620992
 21
40.557047099109113
 31
0.0
  0
LINE
  5
16AD
  8
0
 62
     0
 10
27.38436618062099
 20
37.807416442093533
 30
0.0
 11
26.987491180620989
 21
38.49482410634743
 31
0.0
  0
LINE
  5
16AE
  8
0
 62
     0
 10
28.574991180620991
 20
35.74519344933185
 30
0.0
 11
28.178116180620989
 21
36.43260111358574
 31
0.0
  0
LINE
  5
16AF
  8
0
 62
     0
 10
29.765616180620992
 20
33.68297045657016
 30
0.0
 11
29.36874118062099
 21
34.37037812082405
 31
0.0
  0
LINE
  5
16B0
  8
0
 62
     0
 10
30.956241180620999
 20
31.62074746380846
 30
0.0
 11
30.559366180620991
 21
32.30815512806236
 31
0.0
  0
LINE
  5
16B1
  8
0
 62
     0
 10
32.000000000718117
 20
29.81290415655209
 30
0.0
 11
31.749991180620992
 21
30.245932135300659
 31
0.0
  0
LINE
  5
16B2
  8
0
 62
     0
 10
23.812491465117091
 20
41.244454927616907
 30
0.0
 11
23.41561646511709
 21
41.931862591870811
 31
0.0
  0
LINE
  5
16B3
  8
0
 62
     0
 10
25.003116465117088
 20
39.182231934855217
 30
0.0
 11
24.60624146511709
 21
39.869639599109121
 31
0.0
  0
LINE
  5
16B4
  8
0
 62
     0
 10
26.193741465117089
 20
37.120008942093527
 30
0.0
 11
25.796866465117091
 21
37.807416606347431
 31
0.0
  0
LINE
  5
16B5
  8
0
 62
     0
 10
27.3843664651171
 20
35.057785949331851
 30
0.0
 11
26.987491465117088
 21
35.745193613585741
 31
0.0
  0
LINE
  5
16B6
  8
0
 62
     0
 10
28.574991465117101
 20
32.995562956570161
 30
0.0
 11
28.178116465117089
 21
33.682970620824051
 31
0.0
  0
LINE
  5
16B7
  8
0
 62
     0
 10
29.765616465117098
 20
30.933339963808471
 30
0.0
 11
29.36874146511709
 21
31.620747628062361
 31
0.0
  0
LINE
  5
16B8
  8
0
 62
     0
 10
30.956241465117099
 20
28.871116971046771
 30
0.0
 11
30.55936646511709
 21
29.558524635300671
 31
0.0
  0
LINE
  5
16B9
  8
0
 62
     0
 10
32.000000000718131
 20
27.06327415655208
 30
0.0
 11
31.749991465117098
 21
27.49630164253897
 31
0.0
  0
LINE
  5
16BA
  8
0
 62
     0
 10
23.81249174961318
 20
38.494824434855218
 30
0.0
 11
23.415616749613179
 21
39.182232099109108
 31
0.0
  0
LINE
  5
16BB
  8
0
 62
     0
 10
25.003116749613181
 20
36.432601442093528
 30
0.0
 11
24.606241749613179
 21
37.120009106347418
 31
0.0
  0
LINE
  5
16BC
  8
0
 62
     0
 10
26.193741749613181
 20
34.370378449331838
 30
0.0
 11
25.79686674961318
 21
35.057786113585742
 31
0.0
  0
LINE
  5
16BD
  8
0
 62
     0
 10
27.384366749613179
 20
32.308155456570148
 30
0.0
 11
26.987491749613181
 21
32.995563120824052
 31
0.0
  0
LINE
  5
16BE
  8
0
 62
     0
 10
28.574991749613179
 20
30.245932463808462
 30
0.0
 11
28.178116749613181
 21
30.933340128062358
 31
0.0
  0
LINE
  5
16BF
  8
0
 62
     0
 10
29.765616749613191
 20
28.183709471046772
 30
0.0
 11
29.368741749613179
 21
28.871117135300661
 31
0.0
  0
LINE
  5
16C0
  8
0
 62
     0
 10
30.956241749613191
 20
26.121486478285071
 30
0.0
 11
30.559366749613179
 21
26.808894142538971
 31
0.0
  0
LINE
  5
16C1
  8
0
 62
     0
 10
23.81249203410928
 20
35.745193942093543
 30
0.0
 11
23.415617034109282
 21
36.432601606347433
 31
0.0
  0
LINE
  5
16C2
  8
0
 62
     0
 10
25.00311703410928
 20
33.682970949331853
 30
0.0
 11
24.606242034109279
 21
34.370378613585743
 31
0.0
  0
LINE
  5
16C3
  8
0
 62
     0
 10
26.193742034109281
 20
31.620747956570149
 30
0.0
 11
25.79686703410928
 21
32.308155620824053
 31
0.0
  0
LINE
  5
16C4
  8
0
 62
     0
 10
27.384367034109282
 20
29.558524963808459
 30
0.0
 11
26.98749203410928
 21
30.245932628062359
 31
0.0
  0
LINE
  5
16C5
  8
0
 62
     0
 10
28.574992034109279
 20
27.496301971046769
 30
0.0
 11
28.178117034109281
 21
28.183709635300659
 31
0.0
  0
LINE
  5
16C6
  8
0
 62
     0
 10
29.76561703410928
 20
25.434078978285068
 30
0.0
 11
29.368742034109282
 21
26.121486642538969
 31
0.0
  0
LINE
  5
16C7
  8
0
 62
     0
 10
23.812492318605379
 20
32.995563449331847
 30
0.0
 11
23.415617318605381
 21
33.682971113585737
 31
0.0
  0
LINE
  5
16C8
  8
0
 62
     0
 10
25.00311731860538
 20
30.93334045657015
 30
0.0
 11
24.606242318605378
 21
31.62074812082405
 31
0.0
  0
LINE
  5
16C9
  8
0
 62
     0
 10
26.193742318605381
 20
28.87111746380846
 30
0.0
 11
25.796867318605379
 21
29.55852512806236
 31
0.0
  0
LINE
  5
16CA
  8
0
 62
     0
 10
27.384367318605381
 20
26.80889447104677
 30
0.0
 11
26.98749231860538
 21
27.49630213530066
 31
0.0
  0
LINE
  5
16CB
  8
0
 62
     0
 10
28.428733028405158
 20
24.99999999999082
 30
0.0
 11
28.178117318605381
 21
25.43407914253897
 31
0.0
  0
LINE
  5
16CC
  8
0
 62
     0
 10
23.812492603101479
 20
30.245932956570162
 30
0.0
 11
23.415617603101481
 21
30.933340620824051
 31
0.0
  0
LINE
  5
16CD
  8
0
 62
     0
 10
25.003117603101479
 20
28.183709963808461
 30
0.0
 11
24.606242603101482
 21
28.871117628062361
 31
0.0
  0
LINE
  5
16CE
  8
0
 62
     0
 10
26.19374260310148
 20
26.121486971046771
 30
0.0
 11
25.796867603101479
 21
26.808894635300661
 31
0.0
  0
LINE
  5
16CF
  8
0
 62
     0
 10
23.812492887597571
 20
27.496302463808458
 30
0.0
 11
23.41561788759757
 21
28.183710128062359
 31
0.0
  0
LINE
  5
16D0
  8
0
 62
     0
 10
25.003117887597579
 20
25.434079471046768
 30
0.0
 11
24.606242887597581
 21
26.121487135300661
 31
0.0
  0
LINE
  5
16D1
  8
0
 62
     0
 10
23.66623416638955
 20
24.99999999999083
 30
0.0
 11
23.415618172093669
 21
25.43407963530067
 31
0.0
  0
LINE
  5
16D2
  8
0
 62
     0
 10
30.956250000000001
 20
26.121485
 30
0.0
 11
31.749999999999989
 21
26.121485
 31
0.0
  0
LINE
  5
16D3
  8
0
 62
     0
 10
28.574999999999999
 20
26.121485
 30
0.0
 11
29.368749999999999
 21
26.121485
 31
0.0
  0
LINE
  5
16D4
  8
0
 62
     0
 10
26.193750000000001
 20
26.121485
 30
0.0
 11
26.987500000000001
 21
26.121485
 31
0.0
  0
LINE
  5
16D5
  8
0
 62
     0
 10
23.8125
 20
26.121485
 30
0.0
 11
24.606249999999999
 21
26.121485
 31
0.0
  0
LINE
  5
16D6
  8
0
 62
     0
 10
30.956250000000001
 20
27.496300000000002
 30
0.0
 11
31.749999999999989
 21
27.496300000000002
 31
0.0
  0
LINE
  5
16D7
  8
0
 62
     0
 10
28.574999999999999
 20
27.496300000000002
 30
0.0
 11
29.368749999999999
 21
27.496300000000002
 31
0.0
  0
LINE
  5
16D8
  8
0
 62
     0
 10
26.193750000000001
 20
27.496300000000002
 30
0.0
 11
26.987500000000001
 21
27.496300000000002
 31
0.0
  0
LINE
  5
16D9
  8
0
 62
     0
 10
23.8125
 20
27.496300000000002
 30
0.0
 11
24.606249999999999
 21
27.496300000000002
 31
0.0
  0
LINE
  5
16DA
  8
0
 62
     0
 10
30.956250000000001
 20
28.871114999999989
 30
0.0
 11
31.749999999999989
 21
28.871114999999989
 31
0.0
  0
LINE
  5
16DB
  8
0
 62
     0
 10
28.574999999999999
 20
28.871114999999989
 30
0.0
 11
29.368749999999999
 21
28.871114999999989
 31
0.0
  0
LINE
  5
16DC
  8
0
 62
     0
 10
26.193750000000001
 20
28.871114999999989
 30
0.0
 11
26.987500000000001
 21
28.871114999999989
 31
0.0
  0
LINE
  5
16DD
  8
0
 62
     0
 10
23.8125
 20
28.871114999999989
 30
0.0
 11
24.606249999999999
 21
28.871114999999989
 31
0.0
  0
LINE
  5
16DE
  8
0
 62
     0
 10
30.956250000000001
 20
30.245930000000001
 30
0.0
 11
31.749999999999989
 21
30.245930000000001
 31
0.0
  0
LINE
  5
16DF
  8
0
 62
     0
 10
28.574999999999999
 20
30.245930000000001
 30
0.0
 11
29.368749999999999
 21
30.245930000000001
 31
0.0
  0
LINE
  5
16E0
  8
0
 62
     0
 10
26.193750000000001
 20
30.245930000000001
 30
0.0
 11
26.987500000000001
 21
30.245930000000001
 31
0.0
  0
LINE
  5
16E1
  8
0
 62
     0
 10
23.8125
 20
30.245930000000001
 30
0.0
 11
24.606249999999999
 21
30.245930000000001
 31
0.0
  0
LINE
  5
16E2
  8
0
 62
     0
 10
30.956250000000001
 20
31.620744999999999
 30
0.0
 11
31.749999999999989
 21
31.620744999999999
 31
0.0
  0
LINE
  5
16E3
  8
0
 62
     0
 10
28.574999999999999
 20
31.620744999999999
 30
0.0
 11
29.368749999999999
 21
31.620744999999999
 31
0.0
  0
LINE
  5
16E4
  8
0
 62
     0
 10
26.193750000000001
 20
31.620744999999999
 30
0.0
 11
26.987500000000001
 21
31.620744999999999
 31
0.0
  0
LINE
  5
16E5
  8
0
 62
     0
 10
23.8125
 20
31.620744999999999
 30
0.0
 11
24.606249999999999
 21
31.620744999999999
 31
0.0
  0
LINE
  5
16E6
  8
0
 62
     0
 10
30.956250000000001
 20
32.995559999999998
 30
0.0
 11
31.749999999999989
 21
32.995559999999998
 31
0.0
  0
LINE
  5
16E7
  8
0
 62
     0
 10
28.574999999999999
 20
32.995559999999998
 30
0.0
 11
29.368749999999999
 21
32.995559999999998
 31
0.0
  0
LINE
  5
16E8
  8
0
 62
     0
 10
26.193750000000001
 20
32.995559999999998
 30
0.0
 11
26.987500000000001
 21
32.995559999999998
 31
0.0
  0
LINE
  5
16E9
  8
0
 62
     0
 10
23.8125
 20
32.995559999999998
 30
0.0
 11
24.606249999999999
 21
32.995559999999998
 31
0.0
  0
LINE
  5
16EA
  8
0
 62
     0
 10
30.956250000000001
 20
34.370375000000003
 30
0.0
 11
31.749999999999989
 21
34.370375000000003
 31
0.0
  0
LINE
  5
16EB
  8
0
 62
     0
 10
28.574999999999999
 20
34.370375000000003
 30
0.0
 11
29.368749999999999
 21
34.370375000000003
 31
0.0
  0
LINE
  5
16EC
  8
0
 62
     0
 10
26.193750000000001
 20
34.370375000000003
 30
0.0
 11
26.987500000000001
 21
34.370375000000003
 31
0.0
  0
LINE
  5
16ED
  8
0
 62
     0
 10
23.8125
 20
34.370375000000003
 30
0.0
 11
24.606249999999999
 21
34.370375000000003
 31
0.0
  0
LINE
  5
16EE
  8
0
 62
     0
 10
30.956250000000001
 20
35.745190000000001
 30
0.0
 11
31.749999999999989
 21
35.745190000000001
 31
0.0
  0
LINE
  5
16EF
  8
0
 62
     0
 10
28.574999999999999
 20
35.745190000000001
 30
0.0
 11
29.368749999999999
 21
35.745190000000001
 31
0.0
  0
LINE
  5
16F0
  8
0
 62
     0
 10
26.193750000000001
 20
35.745190000000001
 30
0.0
 11
26.987500000000001
 21
35.745190000000001
 31
0.0
  0
LINE
  5
16F1
  8
0
 62
     0
 10
23.8125
 20
35.745190000000001
 30
0.0
 11
24.606249999999999
 21
35.745190000000001
 31
0.0
  0
LINE
  5
16F2
  8
0
 62
     0
 10
30.956250000000001
 20
37.120004999999999
 30
0.0
 11
31.749999999999989
 21
37.120004999999999
 31
0.0
  0
LINE
  5
16F3
  8
0
 62
     0
 10
28.574999999999999
 20
37.120004999999999
 30
0.0
 11
29.368749999999999
 21
37.120004999999999
 31
0.0
  0
LINE
  5
16F4
  8
0
 62
     0
 10
26.193750000000001
 20
37.120004999999999
 30
0.0
 11
26.987500000000001
 21
37.120004999999999
 31
0.0
  0
LINE
  5
16F5
  8
0
 62
     0
 10
23.8125
 20
37.120004999999999
 30
0.0
 11
24.606249999999999
 21
37.120004999999999
 31
0.0
  0
LINE
  5
16F6
  8
0
 62
     0
 10
30.956250000000001
 20
38.494819999999997
 30
0.0
 11
31.749999999999989
 21
38.494819999999997
 31
0.0
  0
LINE
  5
16F7
  8
0
 62
     0
 10
28.574999999999999
 20
38.494819999999997
 30
0.0
 11
29.368749999999999
 21
38.494819999999997
 31
0.0
  0
LINE
  5
16F8
  8
0
 62
     0
 10
26.193750000000001
 20
38.494819999999997
 30
0.0
 11
26.987500000000001
 21
38.494819999999997
 31
0.0
  0
LINE
  5
16F9
  8
0
 62
     0
 10
23.8125
 20
38.494819999999997
 30
0.0
 11
24.606249999999999
 21
38.494819999999997
 31
0.0
  0
LINE
  5
16FA
  8
0
 62
     0
 10
30.956250000000001
 20
39.869635000000002
 30
0.0
 11
31.749999999999989
 21
39.869635000000002
 31
0.0
  0
LINE
  5
16FB
  8
0
 62
     0
 10
28.574999999999999
 20
39.869635000000002
 30
0.0
 11
29.368749999999999
 21
39.869635000000002
 31
0.0
  0
LINE
  5
16FC
  8
0
 62
     0
 10
26.193750000000001
 20
39.869635000000002
 30
0.0
 11
26.987500000000001
 21
39.869635000000002
 31
0.0
  0
LINE
  5
16FD
  8
0
 62
     0
 10
23.8125
 20
39.869635000000002
 30
0.0
 11
24.606249999999999
 21
39.869635000000002
 31
0.0
  0
LINE
  5
16FE
  8
0
 62
     0
 10
30.956250000000001
 20
41.244450000000001
 30
0.0
 11
31.749999999999989
 21
41.244450000000001
 31
0.0
  0
LINE
  5
16FF
  8
0
 62
     0
 10
28.574999999999999
 20
41.244450000000001
 30
0.0
 11
29.368749999999999
 21
41.244450000000001
 31
0.0
  0
LINE
  5
1700
  8
0
 62
     0
 10
26.193750000000001
 20
41.244450000000001
 30
0.0
 11
26.987500000000001
 21
41.244450000000001
 31
0.0
  0
LINE
  5
1701
  8
0
 62
     0
 10
23.8125
 20
41.244450000000001
 30
0.0
 11
24.606249999999999
 21
41.244450000000001
 31
0.0
  0
LINE
  5
1702
  8
0
 62
     0
 10
30.956250000000001
 20
42.619264999999999
 30
0.0
 11
31.749999999999989
 21
42.619264999999999
 31
0.0
  0
LINE
  5
1703
  8
0
 62
     0
 10
28.574999999999999
 20
42.619264999999999
 30
0.0
 11
29.368749999999999
 21
42.619264999999999
 31
0.0
  0
LINE
  5
1704
  8
0
 62
     0
 10
26.193750000000001
 20
42.619264999999999
 30
0.0
 11
26.987500000000001
 21
42.619264999999999
 31
0.0
  0
LINE
  5
1705
  8
0
 62
     0
 10
23.8125
 20
42.619264999999999
 30
0.0
 11
24.606249999999999
 21
42.619264999999999
 31
0.0
  0
LINE
  5
1706
  8
0
 62
     0
 10
30.956250000000001
 20
43.994079999999997
 30
0.0
 11
31.749999999999989
 21
43.994079999999997
 31
0.0
  0
LINE
  5
1707
  8
0
 62
     0
 10
28.574999999999999
 20
43.994079999999997
 30
0.0
 11
29.368749999999999
 21
43.994079999999997
 31
0.0
  0
LINE
  5
1708
  8
0
 62
     0
 10
26.193750000000001
 20
43.994079999999997
 30
0.0
 11
26.987500000000001
 21
43.994079999999997
 31
0.0
  0
LINE
  5
1709
  8
0
 62
     0
 10
23.8125
 20
43.994079999999997
 30
0.0
 11
24.606249999999999
 21
43.994079999999997
 31
0.0
  0
ENDBLK
  5
170B
  8
0
  0
BLOCK
  8
0
  2
*X16
 70
     1
 10
0.0
 20
0.0
 30
0.0
  3
*X16
  1

  0
LINE
  5
170D
  8
0
 62
     0
 10
-15.46536683403798
 20
104.9999999999994
 30
0.0
 11
-8.0333294443794898
 21
112.43203738965791
 31
0.0
  0
LINE
  5
170E
  8
0
 62
     0
 10
-33.14303636370159
 20
104.9999999999994
 30
0.0
 11
-8.0333294443794312
 21
130.1097069193215
 31
0.0
  0
LINE
  5
170F
  8
0
 62
     0
 10
-50.82070589336535
 20
104.9999999999994
 30
0.0
 11
-8.0333294443794312
 21
147.7873764489853
 31
0.0
  0
LINE
  5
1710
  8
0
 62
     0
 10
-68.498375423029017
 20
104.9999999999994
 30
0.0
 11
-18.498375423029021
 21
154.9999999999994
 31
0.0
  0
LINE
  5
1711
  8
0
 62
     0
 10
-86.176044952692763
 20
104.9999999999994
 30
0.0
 11
-36.176044952692742
 21
154.9999999999994
 31
0.0
  0
LINE
  5
1712
  8
0
 62
     0
 10
-103.85371448235639
 20
104.9999999999994
 30
0.0
 11
-53.853714482356388
 21
154.9999999999994
 31
0.0
  0
LINE
  5
1713
  8
0
 62
     0
 10
-108.0333294443794
 20
118.49805456764
 30
0.0
 11
-71.531384012020112
 21
154.9999999999994
 31
0.0
  0
LINE
  5
1714
  8
0
 62
     0
 10
-108.0333294443794
 20
136.17572409730371
 30
0.0
 11
-89.209053541683815
 21
154.9999999999994
 31
0.0
  0
LINE
  5
1715
  8
0
 62
     0
 10
-108.0333294443794
 20
153.8533936269674
 30
0.0
 11
-106.8867230713474
 21
154.9999999999994
 31
0.0
  0
ENDBLK
  5
1717
  8
0
  0
BLOCK
  8
0
  2
*X17
 70
     1
 10
0.0
 20
0.0
 30
0.0
  3
*X17
  1

  0
LINE
  5
1721
  8
0
 62
     0
 10
-22.432358245046881
 20
44.999999999999368
 30
0.0
 11
-8.0333294443794312
 21
59.399028800666819
 31
0.0
  0
LINE
  5
1722
  8
0
 62
     0
 10
-40.110027774710602
 20
44.999999999999403
 30
0.0
 11
-8.0333294443794312
 21
77.076698330330544
 31
0.0
  0
LINE
  5
1723
  8
0
 62
     0
 10
-57.787697304374291
 20
44.999999999999403
 30
0.0
 11
-8.0333294443794312
 21
94.754367859994247
 31
0.0
  0
LINE
  5
1724
  8
0
 62
     0
 10
-75.465366834037994
 20
44.999999999999403
 30
0.0
 11
-25.46536683403798
 21
94.999999999999403
 31
0.0
  0
LINE
  5
1725
  8
0
 62
     0
 10
-93.143036363701597
 20
44.999999999999432
 30
0.0
 11
-43.143036363701583
 21
94.999999999999432
 31
0.0
  0
LINE
  5
1726
  8
0
 62
     0
 10
-108.0333294443794
 20
47.787376448985327
 30
0.0
 11
-60.82070589336535
 21
94.999999999999403
 31
0.0
  0
LINE
  5
1727
  8
0
 62
     0
 10
-108.0333294443794
 20
65.465045978649016
 30
0.0
 11
-78.498375423029046
 21
94.999999999999403
 31
0.0
  0
LINE
  5
1728
  8
0
 62
     0
 10
-108.0333294443795
 20
83.142715508312676
 30
0.0
 11
-96.176044952692763
 21
94.999999999999403
 31
0.0
  0
ENDBLK
  5
172A
  8
0
  0
BLOCK
  8
0
  2
*X18
 70
     1
 10
0.0
 20
0.0
 30
0.0
  3
*X18
  1

  0
LINE
  5
175E
  8
0
 62
     0
 10
160.55027659464611
 20
49.03369259919026
 30
0.0
 11
160.55027659464611
 21
49.03369259919026
 31
0.0
  0
LINE
  5
175F
  8
0
 62
     0
 10
141.45479357126379
 20
66.531478976435864
 30
0.0
 11
141.45479357126379
 21
66.531478976435864
 31
0.0
  0
LINE
  5
1760
  8
0
 62
     0
 10
189.70958506176541
 20
54.038941715806118
 30
0.0
 11
189.70958506176541
 21
54.038941715806118
 31
0.0
  0
LINE
  5
1761
  8
0
 62
     0
 10
170.61410203838321
 20
71.536728093051721
 30
0.0
 11
170.61410203838321
 21
71.536728093051721
 31
0.0
  0
LINE
  5
1762
  8
0
 62
     0
 10
158.63334531521861
 20
82.515068966806226
 30
0.0
 11
158.63334531521861
 21
82.515068966806226
 31
0.0
  0
LINE
  5
1763
  8
0
 62
     0
 10
218.8688935288846
 20
59.044190832422117
 30
0.0
 11
218.8688935288846
 21
59.044190832422117
 31
0.0
  0
LINE
  5
1764
  8
0
 62
     0
 10
199.77341050550231
 20
76.541977209667721
 30
0.0
 11
199.77341050550231
 21
76.541977209667721
 31
0.0
  0
LINE
  5
1765
  8
0
 62
     0
 10
187.79265378233779
 20
87.520318083422225
 30
0.0
 11
187.79265378233779
 21
87.520318083422225
 31
0.0
  0
LINE
  5
1766
  8
0
 62
     0
 10
160.69771165456581
 20
112.3482582132977
 30
0.0
 11
160.69771165456581
 21
112.3482582132977
 31
0.0
  0
LINE
  5
1767
  8
0
 62
     0
 10
141.60222863118361
 20
129.8460445905433
 30
0.0
 11
141.60222863118361
 21
129.8460445905433
 31
0.0
  0
LINE
  5
1768
  8
0
 62
     0
 10
248.0282019960039
 20
64.049439949037975
 30
0.0
 11
248.0282019960039
 21
64.049439949037975
 31
0.0
  0
LINE
  5
1769
  8
0
 62
     0
 10
228.9327189726217
 20
81.547226326283578
 30
0.0
 11
228.9327189726217
 21
81.547226326283578
 31
0.0
  0
LINE
  5
176A
  8
0
 62
     0
 10
216.95196224945721
 20
92.525567200038068
 30
0.0
 11
216.95196224945721
 21
92.525567200038068
 31
0.0
  0
LINE
  5
176B
  8
0
 62
     0
 10
189.85702012168511
 20
117.3535073299136
 30
0.0
 11
189.85702012168511
 21
117.3535073299136
 31
0.0
  0
LINE
  5
176C
  8
0
 62
     0
 10
170.76153709830291
 20
134.85129370715919
 30
0.0
 11
170.76153709830291
 21
134.85129370715919
 31
0.0
  0
LINE
  5
176D
  8
0
 62
     0
 10
158.78078037513839
 20
145.82963458091359
 30
0.0
 11
158.78078037513839
 21
145.82963458091359
 31
0.0
  0
LINE
  5
176E
  8
0
 62
     0
 10
246.11127071657651
 20
97.530816316653954
 30
0.0
 11
246.11127071657651
 21
97.530816316653954
 31
0.0
  0
LINE
  5
176F
  8
0
 62
     0
 10
219.01632858880441
 20
122.3587564465294
 30
0.0
 11
219.01632858880441
 21
122.3587564465294
 31
0.0
  0
LINE
  5
1770
  8
0
 62
     0
 10
199.92084556542221
 20
139.85654282377499
 30
0.0
 11
199.92084556542221
 21
139.85654282377499
 31
0.0
  0
LINE
  5
1771
  8
0
 62
     0
 10
187.94008884225769
 20
150.83488369752951
 30
0.0
 11
187.94008884225769
 21
150.83488369752951
 31
0.0
  0
LINE
  5
1772
  8
0
 62
     0
 10
248.17563705592389
 20
127.3640055631452
 30
0.0
 11
248.17563705592389
 21
127.3640055631452
 31
0.0
  0
LINE
  5
1773
  8
0
 62
     0
 10
229.0801540325416
 20
144.86179194039079
 30
0.0
 11
229.0801540325416
 21
144.86179194039079
 31
0.0
  0
LINE
  5
1774
  8
0
 62
     0
 10
217.09939730937711
 20
155.84013281414531
 30
0.0
 11
217.09939730937711
 21
155.84013281414531
 31
0.0
  0
LINE
  5
1775
  8
0
 62
     0
 10
246.2587057764963
 20
160.84538193076131
 30
0.0
 11
246.2587057764963
 21
160.84538193076131
 31
0.0
  0
LINE
  5
1776
  8
0
 62
     0
 10
159.79875464739669
 20
69.601490303576796
 30
0.0
 11
159.79875464739669
 21
69.601490303576796
 31
0.0
  0
LINE
  5
1777
  8
0
 62
     0
 10
186.48987645601721
 20
68.473746716857789
 30
0.0
 11
186.48987645601721
 21
68.473746716857789
 31
0.0
  0
LINE
  5
1778
  8
0
 62
     0
 10
153.59761006931461
 20
89.428431442383925
 30
0.0
 11
153.59761006931461
 21
89.428431442383925
 31
0.0
  0
LINE
  5
1779
  8
0
 62
     0
 10
143.0552169966536
 20
96.144676546719239
 30
0.0
 11
143.0552169966536
 21
96.144676546719239
 31
0.0
  0
LINE
  5
177A
  8
0
 62
     0
 10
213.18099826463759
 20
67.346003130138854
 30
0.0
 11
213.18099826463759
 21
67.346003130138854
 31
0.0
  0
LINE
  5
177B
  8
0
 62
     0
 10
180.28873187793499
 20
88.300687855665004
 30
0.0
 11
180.28873187793499
 21
88.300687855665004
 31
0.0
  0
LINE
  5
177C
  8
0
 62
     0
 10
169.74633880527401
 20
95.016932960000304
 30
0.0
 11
169.74633880527401
 21
95.016932960000304
 31
0.0
  0
LINE
  5
177D
  8
0
 62
     0
 10
239.87212007325809
 20
66.218259543419933
 30
0.0
 11
239.87212007325809
 21
66.218259543419933
 31
0.0
  0
LINE
  5
177E
  8
0
 62
     0
 10
206.9798536865556
 20
87.172944268946097
 30
0.0
 11
206.9798536865556
 21
87.172944268946097
 31
0.0
  0
LINE
  5
177F
  8
0
 62
     0
 10
196.4374606138945
 20
93.889189373281383
 30
0.0
 11
196.4374606138945
 21
93.889189373281383
 31
0.0
  0
LINE
  5
1780
  8
0
 62
     0
 10
152.79195329307771
 20
121.69444410522949
 30
0.0
 11
152.79195329307771
 21
121.69444410522949
 31
0.0
  0
LINE
  5
1781
  8
0
 62
     0
 10
233.67097549517601
 20
86.045200682227033
 30
0.0
 11
233.67097549517601
 21
86.045200682227033
 31
0.0
  0
LINE
  5
1782
  8
0
 62
     0
 10
223.12858242251491
 20
92.761445786562334
 30
0.0
 11
223.12858242251491
 21
92.761445786562334
 31
0.0
  0
LINE
  5
1783
  8
0
 62
     0
 10
179.48307510169809
 20
120.5667005185105
 30
0.0
 11
179.48307510169809
 21
120.5667005185105
 31
0.0
  0
LINE
  5
1784
  8
0
 62
     0
 10
146.59080871499549
 20
141.52138524403659
 30
0.0
 11
146.59080871499549
 21
141.52138524403659
 31
0.0
  0
LINE
  5
1785
  8
0
 62
     0
 10
136.04841564233439
 20
148.23763034837191
 30
0.0
 11
136.04841564233439
 21
148.23763034837191
 31
0.0
  0
LINE
  5
1786
  8
0
 62
     0
 10
249.81970423113549
 20
91.633702199843285
 30
0.0
 11
249.81970423113549
 21
91.633702199843285
 31
0.0
  0
LINE
  5
1787
  8
0
 62
     0
 10
206.1741969103187
 20
119.4389569317914
 30
0.0
 11
206.1741969103187
 21
119.4389569317914
 31
0.0
  0
LINE
  5
1788
  8
0
 62
     0
 10
173.2819305236161
 20
140.3936416573176
 30
0.0
 11
173.2819305236161
 21
140.3936416573176
 31
0.0
  0
LINE
  5
1789
  8
0
 62
     0
 10
162.73953745095511
 20
147.10988676165289
 30
0.0
 11
162.73953745095511
 21
147.10988676165289
 31
0.0
  0
LINE
  5
178A
  8
0
 62
     0
 10
232.86531871893899
 20
118.3112133450724
 30
0.0
 11
232.86531871893899
 21
118.3112133450724
 31
0.0
  0
LINE
  5
178B
  8
0
 62
     0
 10
199.97305233223639
 20
139.26589807059861
 30
0.0
 11
199.97305233223639
 21
139.26589807059861
 31
0.0
  0
LINE
  5
178C
  8
0
 62
     0
 10
189.43065925957541
 20
145.9821431749339
 30
0.0
 11
189.43065925957541
 21
145.9821431749339
 31
0.0
  0
LINE
  5
178D
  8
0
 62
     0
 10
226.6641741408568
 20
138.13815448387959
 30
0.0
 11
226.6641741408568
 21
138.13815448387959
 31
0.0
  0
LINE
  5
178E
  8
0
 62
     0
 10
216.1217810681957
 20
144.85439958821499
 30
0.0
 11
216.1217810681957
 21
144.85439958821499
 31
0.0
  0
LINE
  5
178F
  8
0
 62
     0
 10
253.35529594947729
 20
137.01041089716071
 30
0.0
 11
253.35529594947729
 21
137.01041089716071
 31
0.0
  0
LINE
  5
1790
  8
0
 62
     0
 10
242.8129028768162
 20
143.726656001496
 30
0.0
 11
242.8129028768162
 21
143.726656001496
 31
0.0
  0
LINE
  5
1791
  8
0
 62
     0
 10
228.89170531057039
 20
48.47679681622828
 30
0.0
 11
228.89170531057039
 21
48.47679681622828
 31
0.0
  0
LINE
  5
1792
  8
0
 62
     0
 10
209.95510845833061
 20
45.983746544825301
 30
0.0
 11
209.95510845833061
 21
45.983746544825301
 31
0.0
  0
LINE
  5
1793
  8
0
 62
     0
 10
242.04518218267779
 20
68.197382410346336
 30
0.0
 11
242.04518218267779
 21
68.197382410346336
 31
0.0
  0
LINE
  5
1794
  8
0
 62
     0
 10
223.10858533043799
 20
65.704332138943357
 30
0.0
 11
223.10858533043799
 21
65.704332138943357
 31
0.0
  0
LINE
  5
1795
  8
0
 62
     0
 10
210.59159395559359
 20
64.056438962165203
 30
0.0
 11
210.59159395559359
 21
64.056438962165203
 31
0.0
  0
LINE
  5
1796
  8
0
 62
     0
 10
179.0140751208377
 20
59.899179739956551
 30
0.0
 11
179.0140751208377
 21
59.899179739956551
 31
0.0
  0
LINE
  5
1797
  8
0
 62
     0
 10
160.07747826859801
 20
57.406129468553573
 30
0.0
 11
160.07747826859801
 21
57.406129468553573
 31
0.0
  0
LINE
  5
1798
  8
0
 62
     0
 10
147.56048689375359
 20
55.758236291775411
 30
0.0
 11
147.56048689375359
 21
55.758236291775411
 31
0.0
  0
LINE
  5
1799
  8
0
 62
     0
 10
236.26206220254539
 20
85.424917733061363
 30
0.0
 11
236.26206220254539
 21
85.424917733061363
 31
0.0
  0
LINE
  5
179A
  8
0
 62
     0
 10
223.74507082770111
 20
83.777024556283209
 30
0.0
 11
223.74507082770111
 21
83.777024556283209
 31
0.0
  0
LINE
  5
179B
  8
0
 62
     0
 10
192.16755199294519
 20
79.619765334074572
 30
0.0
 11
192.16755199294519
 21
79.619765334074572
 31
0.0
  0
LINE
  5
179C
  8
0
 62
     0
 10
173.23095514070539
 20
77.126715062671593
 30
0.0
 11
173.23095514070539
 21
77.126715062671593
 31
0.0
  0
LINE
  5
179D
  8
0
 62
     0
 10
160.713963765861
 20
75.478821885893439
 30
0.0
 11
160.713963765861
 21
75.478821885893439
 31
0.0
  0
LINE
  5
179E
  8
0
 62
     0
 10
249.41553907465291
 20
105.1455033271794
 30
0.0
 11
249.41553907465291
 21
105.1455033271794
 31
0.0
  0
LINE
  5
179F
  8
0
 62
     0
 10
236.89854769980849
 20
103.4976101504012
 30
0.0
 11
236.89854769980849
 21
103.4976101504012
 31
0.0
  0
LINE
  5
17A0
  8
0
 62
     0
 10
205.3210288650526
 20
99.340350928192564
 30
0.0
 11
205.3210288650526
 21
99.340350928192564
 31
0.0
  0
LINE
  5
17A1
  8
0
 62
     0
 10
186.38443201281279
 20
96.847300656789599
 30
0.0
 11
186.38443201281279
 21
96.847300656789599
 31
0.0
  0
LINE
  5
17A2
  8
0
 62
     0
 10
173.86744063796851
 20
95.199407480011445
 30
0.0
 11
173.86744063796851
 21
95.199407480011445
 31
0.0
  0
LINE
  5
17A3
  8
0
 62
     0
 10
142.28992180321259
 20
91.042148257802793
 30
0.0
 11
142.28992180321259
 21
91.042148257802793
 31
0.0
  0
LINE
  5
17A4
  8
0
 62
     0
 10
250.05202457191589
 20
123.21819574451921
 30
0.0
 11
250.05202457191589
 21
123.21819574451921
 31
0.0
  0
LINE
  5
17A5
  8
0
 62
     0
 10
218.47450573716009
 20
119.0609365223106
 30
0.0
 11
218.47450573716009
 21
119.0609365223106
 31
0.0
  0
LINE
  5
17A6
  8
0
 62
     0
 10
199.53790888492031
 20
116.56788625090761
 30
0.0
 11
199.53790888492031
 21
116.56788625090761
 31
0.0
  0
LINE
  5
17A7
  8
0
 62
     0
 10
187.02091751007589
 20
114.91999307412939
 30
0.0
 11
187.02091751007589
 21
114.91999307412939
 31
0.0
  0
LINE
  5
17A8
  8
0
 62
     0
 10
155.44339867532011
 20
110.7627338519208
 30
0.0
 11
155.44339867532011
 21
110.7627338519208
 31
0.0
  0
LINE
  5
17A9
  8
0
 62
     0
 10
136.50680182308031
 20
108.26968358051781
 30
0.0
 11
136.50680182308031
 21
108.26968358051781
 31
0.0
  0
LINE
  5
17AA
  8
0
 62
     0
 10
231.62798260926749
 20
138.78152211642859
 30
0.0
 11
231.62798260926749
 21
138.78152211642859
 31
0.0
  0
LINE
  5
17AB
  8
0
 62
     0
 10
212.69138575702769
 20
136.28847184502561
 30
0.0
 11
212.69138575702769
 21
136.28847184502561
 31
0.0
  0
LINE
  5
17AC
  8
0
 62
     0
 10
200.17439438218341
 20
134.6405786682474
 30
0.0
 11
200.17439438218341
 21
134.6405786682474
 31
0.0
  0
LINE
  5
17AD
  8
0
 62
     0
 10
168.59687554742749
 20
130.48331944603879
 30
0.0
 11
168.59687554742749
 21
130.48331944603879
 31
0.0
  0
LINE
  5
17AE
  8
0
 62
     0
 10
149.66027869518771
 20
127.9902691746358
 30
0.0
 11
149.66027869518771
 21
127.9902691746358
 31
0.0
  0
LINE
  5
17AF
  8
0
 62
     0
 10
137.14328732034329
 20
126.3423759978577
 30
0.0
 11
137.14328732034329
 21
126.3423759978577
 31
0.0
  0
LINE
  5
17B0
  8
0
 62
     0
 10
244.78145948137501
 20
158.5021077105466
 30
0.0
 11
244.78145948137501
 21
158.5021077105466
 31
0.0
  0
LINE
  5
17B1
  8
0
 62
     0
 10
225.84486262913521
 20
156.00905743914359
 30
0.0
 11
225.84486262913521
 21
156.00905743914359
 31
0.0
  0
LINE
  5
17B2
  8
0
 62
     0
 10
213.32787125429081
 20
154.36116426236541
 30
0.0
 11
213.32787125429081
 21
154.36116426236541
 31
0.0
  0
LINE
  5
17B3
  8
0
 62
     0
 10
181.75035241953501
 20
150.2039050401568
 30
0.0
 11
181.75035241953501
 21
150.2039050401568
 31
0.0
  0
LINE
  5
17B4
  8
0
 62
     0
 10
162.8137555672952
 20
147.71085476875379
 30
0.0
 11
162.8137555672952
 21
147.71085476875379
 31
0.0
  0
LINE
  5
17B5
  8
0
 62
     0
 10
150.29676419245081
 20
146.06296159197561
 30
0.0
 11
150.29676419245081
 21
146.06296159197561
 31
0.0
  0
LINE
  5
17B6
  8
0
 62
     0
 10
254.4963841309428
 20
49.480605189725509
 30
0.0
 11
254.4963841309428
 21
49.480605189725509
 31
0.0
  0
LINE
  5
17B7
  8
0
 62
     0
 10
229.24105800331299
 20
46.279675295606829
 30
0.0
 11
229.24105800331299
 21
46.279675295606829
 31
0.0
  0
LINE
  5
17B8
  8
0
 62
     0
 10
229.84905076917761
 20
62.924367987172403
 30
0.0
 11
229.84905076917761
 21
62.924367987172403
 31
0.0
  0
LINE
  5
17B9
  8
0
 62
     0
 10
230.45704353504209
 20
79.569060678737983
 30
0.0
 11
230.45704353504209
 21
79.569060678737983
 31
0.0
  0
LINE
  5
17BA
  8
0
 62
     0
 10
204.17721413789499
 20
59.403838342824109
 30
0.0
 11
204.17721413789499
 21
59.403838342824109
 31
0.0
  0
LINE
  5
17BB
  8
0
 62
     0
 10
231.0650363009066
 20
96.213753370303564
 30
0.0
 11
231.0650363009066
 21
96.213753370303564
 31
0.0
  0
LINE
  5
17BC
  8
0
 62
     0
 10
204.7852069037595
 20
76.048531034389683
 30
0.0
 11
204.7852069037595
 21
76.048531034389683
 31
0.0
  0
LINE
  5
17BD
  8
0
 62
     0
 10
178.2078700040031
 20
55.65502316259753
 30
0.0
 11
178.2078700040031
 21
55.65502316259753
 31
0.0
  0
LINE
  5
17BE
  8
0
 62
     0
 10
231.67302906677139
 20
112.8584460618693
 30
0.0
 11
231.67302906677139
 21
112.8584460618693
 31
0.0
  0
LINE
  5
17BF
  8
0
 62
     0
 10
205.39319966962429
 20
92.69322372595542
 30
0.0
 11
205.39319966962429
 21
92.69322372595542
 31
0.0
  0
LINE
  5
17C0
  8
0
 62
     0
 10
178.81586276986789
 20
72.299715854163281
 30
0.0
 11
178.81586276986789
 21
72.299715854163281
 31
0.0
  0
LINE
  5
17C1
  8
0
 62
     0
 10
152.9525438763736
 20
52.454093268478999
 30
0.0
 11
152.9525438763736
 21
52.454093268478999
 31
0.0
  0
LINE
  5
17C2
  8
0
 62
     0
 10
232.2810218326359
 20
129.50313875343471
 30
0.0
 11
232.2810218326359
 21
129.50313875343471
 31
0.0
  0
LINE
  5
17C3
  8
0
 62
     0
 10
206.00119243548869
 20
109.3379164175208
 30
0.0
 11
206.00119243548869
 21
109.3379164175208
 31
0.0
  0
LINE
  5
17C4
  8
0
 62
     0
 10
179.42385553573229
 20
88.94440854572872
 30
0.0
 11
179.42385553573229
 21
88.94440854572872
 31
0.0
  0
LINE
  5
17C5
  8
0
 62
     0
 10
153.56053664223799
 20
69.098785960044424
 30
0.0
 11
153.56053664223799
 21
69.098785960044424
 31
0.0
  0
LINE
  5
17C6
  8
0
 62
     0
 10
232.8890145985003
 20
146.14783144500041
 30
0.0
 11
232.8890145985003
 21
146.14783144500041
 31
0.0
  0
LINE
  5
17C7
  8
0
 62
     0
 10
206.60918520135311
 20
125.9826091090865
 30
0.0
 11
206.60918520135311
 21
125.9826091090865
 31
0.0
  0
LINE
  5
17C8
  8
0
 62
     0
 10
180.03184830159671
 20
105.5891012372943
 30
0.0
 11
180.03184830159671
 21
105.5891012372943
 31
0.0
  0
LINE
  5
17C9
  8
0
 62
     0
 10
154.1685294081025
 20
85.743478651610076
 30
0.0
 11
154.1685294081025
 21
85.743478651610076
 31
0.0
  0
LINE
  5
17CA
  8
0
 62
     0
 10
233.49700736436489
 20
162.7925241365659
 30
0.0
 11
233.49700736436489
 21
162.7925241365659
 31
0.0
  0
LINE
  5
17CB
  8
0
 62
     0
 10
207.21717796721771
 20
142.62730180065199
 30
0.0
 11
207.21717796721771
 21
142.62730180065199
 31
0.0
  0
LINE
  5
17CC
  8
0
 62
     0
 10
180.6398410674613
 20
122.2337939288599
 30
0.0
 11
180.6398410674613
 21
122.2337939288599
 31
0.0
  0
LINE
  5
17CD
  8
0
 62
     0
 10
154.77652217396701
 20
102.3881713431756
 30
0.0
 11
154.77652217396701
 21
102.3881713431756
 31
0.0
  0
LINE
  5
17CE
  8
0
 62
     0
 10
207.8251707330823
 20
159.27199449221769
 30
0.0
 11
207.8251707330823
 21
159.27199449221769
 31
0.0
  0
LINE
  5
17CF
  8
0
 62
     0
 10
181.2478338333259
 20
138.87848662042549
 30
0.0
 11
181.2478338333259
 21
138.87848662042549
 31
0.0
  0
LINE
  5
17D0
  8
0
 62
     0
 10
155.3845149398316
 20
119.03286403474119
 30
0.0
 11
155.3845149398316
 21
119.03286403474119
 31
0.0
  0
LINE
  5
17D1
  8
0
 62
     0
 10
181.85582659919041
 20
155.52317931199099
 30
0.0
 11
181.85582659919041
 21
155.52317931199099
 31
0.0
  0
LINE
  5
17D2
  8
0
 62
     0
 10
155.9925077056962
 20
135.67755672630679
 30
0.0
 11
155.9925077056962
 21
135.67755672630679
 31
0.0
  0
LINE
  5
17D3
  8
0
 62
     0
 10
156.60050047156079
 20
152.32224941787231
 30
0.0
 11
156.60050047156079
 21
152.32224941787231
 31
0.0
  0
LINE
  5
17D4
  8
0
 62
     0
 10
252.57084232122369
 20
97.748723353842408
 30
0.0
 11
253.58465853105139
 21
100.7701809897825
 31
0.0
  0
LINE
  5
17D5
  8
0
 62
     0
 10
240.40504745337239
 20
61.491230679701111
 30
0.0
 11
241.4188636632
 21
64.512688315641256
 31
0.0
  0
LINE
  5
17D6
  8
0
 62
     0
 10
234.89130062785199
 20
154.13718386662731
 30
0.0
 11
235.90511683767971
 21
157.15864150256741
 31
0.0
  0
LINE
  5
17D7
  8
0
 62
     0
 10
222.7255057600006
 20
117.87969119248601
 30
0.0
 11
223.7393219698283
 21
120.9011488284261
 31
0.0
  0
LINE
  5
17D8
  8
0
 62
     0
 10
210.5597108921493
 20
81.622198518344703
 30
0.0
 11
211.57352710197691
 21
84.643656154284855
 31
0.0
  0
LINE
  5
17D9
  8
0
 62
     0
 10
198.39391602429791
 20
45.364705844203407
 30
0.0
 11
199.40773223412549
 21
48.386163480143559
 31
0.0
  0
LINE
  5
17DA
  8
0
 62
     0
 10
192.88016919877759
 20
138.01065903112971
 30
0.0
 11
193.8939854086052
 21
141.0321166670698
 31
0.0
  0
LINE
  5
17DB
  8
0
 62
     0
 10
180.7143743309262
 20
101.7531663569884
 30
0.0
 11
181.72819054075379
 21
104.7746239929285
 31
0.0
  0
LINE
  5
17DC
  8
0
 62
     0
 10
168.54857946307479
 20
65.495673682847126
 30
0.0
 11
169.5623956729024
 21
68.517131318787264
 31
0.0
  0
LINE
  5
17DD
  8
0
 62
     0
 10
163.0348326375543
 20
158.1416268697734
 30
0.0
 11
164.048648847382
 21
161.1630845057135
 31
0.0
  0
LINE
  5
17DE
  8
0
 62
     0
 10
150.86903776970291
 20
121.8841341956321
 30
0.0
 11
151.88285397953061
 21
124.9055918315722
 31
0.0
  0
LINE
  5
17DF
  8
0
 62
     0
 10
138.70324290185161
 20
85.626641521490825
 30
0.0
 11
139.71705911167919
 21
88.648099157430963
 31
0.0
  0
LINE
  5
17E0
  8
0
 62
     0
 10
195.90632155882761
 20
47.04305349967548
 30
0.0
 11
198.39343427649271
 21
45.365474789263239
 31
0.0
  0
LINE
  5
17E1
  8
0
 62
     0
 10
166.06096894684609
 20
67.17399802462235
 30
0.0
 11
168.54808166451119
 21
65.496419314210115
 31
0.0
  0
LINE
  5
17E2
  8
0
 62
     0
 10
136.21561633486459
 20
87.304942549569205
 30
0.0
 11
138.7027290525298
 21
85.627363839156985
 31
0.0
  0
LINE
  5
17E3
  8
0
 62
     0
 10
237.91744076688821
 20
63.169611227071123
 30
0.0
 11
240.4045534845533
 21
61.492032516658881
 31
0.0
  0
LINE
  5
17E4
  8
0
 62
     0
 10
208.07208815490671
 20
83.300555752017999
 30
0.0
 11
210.55920087257181
 21
81.622977041605765
 31
0.0
  0
LINE
  5
17E5
  8
0
 62
     0
 10
178.22673554292521
 20
103.4315002769648
 30
0.0
 11
180.71384826059031
 21
101.75392156655261
 31
0.0
  0
LINE
  5
17E6
  8
0
 62
     0
 10
148.38138293094369
 20
123.5624448019117
 30
0.0
 11
150.86849564860881
 21
121.8848660914995
 31
0.0
  0
LINE
  5
17E7
  8
0
 62
     0
 10
250.0832073629673
 20
99.427113479413862
 30
0.0
 11
252.5703200806324
 21
97.749534769001627
 31
0.0
  0
LINE
  5
17E8
  8
0
 62
     0
 10
220.2378547509858
 20
119.5580580043607
 30
0.0
 11
222.7249674686509
 21
117.8804792939485
 31
0.0
  0
LINE
  5
17E9
  8
0
 62
     0
 10
190.39250213900419
 20
139.6890025293076
 30
0.0
 11
192.87961485666941
 21
138.01142381889531
 31
0.0
  0
LINE
  5
17EA
  8
0
 62
     0
 10
160.54714952702281
 20
159.81994705425441
 30
0.0
 11
163.03426224468791
 21
158.14236834384221
 31
0.0
  0
LINE
  5
17EB
  8
0
 62
     0
 10
232.4036213470649
 20
155.81556025670329
 30
0.0
 11
234.89073406473011
 21
154.13798154629109
 31
0.0
  0
LINE
  5
17EC
  8
0
 62
     0
 10
237.91744034476039
 20
63.169611357914121
 30
0.0
 11
241.4183669441249
 21
64.513491168708995
 31
0.0
  0
LINE
  5
17ED
  8
0
 62
     0
 10
195.90632115238631
 20
47.04305362837561
 30
0.0
 11
199.40724775175079
 21
48.386933439170491
 31
0.0
  0
LINE
  5
17EE
  8
0
 62
     0
 10
250.08320693121129
 20
99.427113620719453
 30
0.0
 11
253.5841335305758
 21
100.7709934315143
 31
0.0
  0
LINE
  5
17EF
  8
0
 62
     0
 10
208.07208773883721
 20
83.300555891180963
 30
0.0
 11
211.57301433820169
 21
84.644435701975837
 31
0.0
  0
LINE
  5
17F0
  8
0
 62
     0
 10
166.0609685464631
 20
67.173998161642444
 30
0.0
 11
169.56189514582761
 21
68.517877972437333
 31
0.0
  0
LINE
  5
17F1
  8
0
 62
     0
 10
220.2378543252882
 20
119.55805815398639
 30
0.0
 11
223.7387809246527
 21
120.9019379647813
 31
0.0
  0
LINE
  5
17F2
  8
0
 62
     0
 10
178.22673513291409
 20
103.4315004244479
 30
0.0
 11
181.72766173227859
 21
104.77538023524269
 31
0.0
  0
LINE
  5
17F3
  8
0
 62
     0
 10
136.21561594054
 20
87.304942694909386
 30
0.0
 11
139.71654253990451
 21
88.64882250570426
 31
0.0
  0
LINE
  5
17F4
  8
0
 62
     0
 10
232.40362091173941
 20
155.81556041679201
 30
0.0
 11
235.90454751110391
 21
157.1594402275868
 31
0.0
  0
LINE
  5
17F5
  8
0
 62
     0
 10
190.39250171936521
 20
139.68900268725349
 30
0.0
 11
193.8934283187298
 21
141.03288249804831
 31
0.0
  0
LINE
  5
17F6
  8
0
 62
     0
 10
148.38138252699119
 20
123.562444957715
 30
0.0
 11
151.88230912635569
 21
124.9063247685098
 31
0.0
  0
LINE
  5
17F7
  8
0
 62
     0
 10
160.54714911344209
 20
159.81994722052031
 30
0.0
 11
164.04807571280659
 21
161.16382703131521
 31
0.0
  0
LINE
  5
17F8
  8
0
 62
     0
 10
185.7823616196338
 20
53.052639645609922
 30
0.0
 11
190.2291993224834
 21
52.362977087169092
 31
0.0
  0
LINE
  5
17F9
  8
0
 62
     0
 10
134.88717553295669
 20
60.946002658693878
 30
0.0
 11
136.867146888288
 21
60.638927788459171
 31
0.0
  0
LINE
  5
17FA
  8
0
 62
     0
 10
232.51545887631511
 20
101.7585696918762
 30
0.0
 11
236.96229657916481
 21
101.0689071334353
 31
0.0
  0
LINE
  5
17FB
  8
0
 62
     0
 10
179.15340644211969
 20
110.0345203931663
 30
0.0
 11
183.60024414496939
 21
109.3448578347254
 31
0.0
  0
LINE
  5
17FC
  8
0
 62
     0
 10
225.88650369880119
 20
158.74045043943249
 30
0.0
 11
230.33334140165081
 21
158.05078788099161
 31
0.0
  0
LINE
  5
17FD
  8
0
 62
     0
 10
230.33391204304669
 20
158.05003433558241
 30
0.0
 11
229.7815028197256
 21
162.79852483031831
 31
0.0
  0
LINE
  5
17FE
  8
0
 62
     0
 10
236.9628217522438
 20
101.06815674248151
 30
0.0
 11
236.41041252892271
 21
105.8166472372174
 31
0.0
  0
LINE
  5
17FF
  8
0
 62
     0
 10
243.48543498133159
 20
44.999999999999602
 30
0.0
 11
243.03932223811969
 21
48.834769644116562
 31
0.0
  0
LINE
  5
1800
  8
0
 62
     0
 10
183.60077676561141
 20
109.3441407905604
 30
0.0
 11
183.04836754229029
 21
114.09263128529631
 31
0.0
  0
LINE
  5
1801
  8
0
 62
     0
 10
190.2296864748084
 20
52.36226319745959
 30
0.0
 11
189.67727725148731
 21
57.110753692195473
 31
0.0
  0
LINE
  5
1802
  8
0
 62
     0
 10
136.86764148817619
 20
60.638247245538281
 30
0.0
 11
136.3152322648551
 21
65.386737740274171
 31
0.0
  0
LINE
  5
1803
  8
0
 62
     0
 10
239.35868015635759
 20
44.999999999999432
 30
0.0
 11
243.0388388336107
 21
48.835516188041822
 31
0.0
  0
LINE
  5
1804
  8
0
 62
     0
 10
232.5154588894932
 20
101.7585694368791
 30
0.0
 11
236.4098836610537
 21
105.8173969398234
 31
0.0
  0
LINE
  5
1805
  8
0
 62
     0
 10
185.78236163076801
 20
53.05263940154839
 30
0.0
 11
189.6767864023285
 21
57.111466904492623
 31
0.0
  0
LINE
  5
1806
  8
0
 62
     0
 10
225.88650371693609
 20
158.74045018866079
 30
0.0
 11
229.7809284884965
 21
162.799277691605
 31
0.0
  0
LINE
  5
1807
  8
0
 62
     0
 10
179.1534064582109
 20
110.03452015333001
 30
0.0
 11
183.0478312297713
 21
114.0933476562743
 31
0.0
  0
LINE
  5
1808
  8
0
 62
     0
 10
134.88717553295669
 20
63.899594953809007
 30
0.0
 11
136.31473397104611
 21
65.387417620943509
 31
0.0
  0
LINE
  5
1809
  8
0
 62
     0
 10
245.18865965902131
 20
134.43336845061211
 30
0.0
 11
244.61053156648339
 21
137.56750269497829
 31
0.0
  0
LINE
  5
180A
  8
0
 62
     0
 10
252.12619696901791
 20
96.823756436468074
 30
0.0
 11
251.54806887647999
 21
99.957890680834254
 31
0.0
  0
LINE
  5
180B
  8
0
 62
     0
 10
209.32565326332349
 20
137.57100336170831
 30
0.0
 11
208.74752517078559
 21
140.70513760607449
 31
0.0
  0
LINE
  5
180C
  8
0
 62
     0
 10
216.2631905733202
 20
99.961391347564316
 30
0.0
 11
215.68506248078231
 21
103.0955255919304
 31
0.0
  0
LINE
  5
180D
  8
0
 62
     0
 10
223.2007278833168
 20
62.351779333420261
 30
0.0
 11
222.62259979077891
 21
65.485913577786434
 31
0.0
  0
LINE
  5
180E
  8
0
 62
     0
 10
173.46264686762581
 20
140.70863827280459
 30
0.0
 11
172.8845187750878
 21
143.84277251717069
 31
0.0
  0
LINE
  5
180F
  8
0
 62
     0
 10
180.40018417762241
 20
103.0990262586605
 30
0.0
 11
179.82205608508451
 21
106.2331605030267
 31
0.0
  0
LINE
  5
1810
  8
0
 62
     0
 10
187.33772148761901
 20
65.489414244516496
 30
0.0
 11
186.75959339508111
 21
68.623548488882662
 31
0.0
  0
LINE
  5
1811
  8
0
 62
     0
 10
137.59964047192801
 20
143.8462731839011
 30
0.0
 11
137.02151237939009
 21
146.98040742826731
 31
0.0
  0
LINE
  5
1812
  8
0
 62
     0
 10
144.5371777819247
 20
106.236661169757
 30
0.0
 11
143.9590496893868
 21
109.37079541412319
 31
0.0
  0
LINE
  5
1813
  8
0
 62
     0
 10
151.4747150919213
 20
68.627049155613022
 30
0.0
 11
150.8965869993834
 21
71.761183399979188
 31
0.0
  0
LINE
  5
1814
  8
0
 62
     0
 10
220.21164400961339
 20
62.614041260332627
 30
0.0
 11
223.20022810388869
 21
62.352574032089649
 31
0.0
  0
LINE
  5
1815
  8
0
 62
     0
 10
184.34863487831061
 20
65.751647999248334
 30
0.0
 11
187.33721897258579
 21
65.490180771005356
 31
0.0
  0
LINE
  5
1816
  8
0
 62
     0
 10
148.4856257470077
 20
68.889254738164041
 30
0.0
 11
151.47420984128291
 21
68.627787509921063
 31
0.0
  0
LINE
  5
1817
  8
0
 62
     0
 10
249.13708646026629
 20
97.08604120641759
 30
0.0
 11
252.1256705545415
 21
96.824573978174598
 31
0.0
  0
LINE
  5
1818
  8
0
 62
     0
 10
213.27407732896339
 20
100.2236479453333
 30
0.0
 11
216.26266142323871
 21
99.962180717090305
 31
0.0
  0
LINE
  5
1819
  8
0
 62
     0
 10
177.41106819766051
 20
103.361254684249
 30
0.0
 11
180.39965229193581
 21
103.099787456006
 31
0.0
  0
LINE
  5
181A
  8
0
 62
     0
 10
141.54805906635769
 20
106.4988614231647
 30
0.0
 11
144.53664316063291
 21
106.23739419492171
 31
0.0
  0
LINE
  5
181B
  8
0
 62
     0
 10
242.19951977961611
 20
134.69564789141819
 30
0.0
 11
245.18810387389141
 21
134.4341806631752
 31
0.0
  0
LINE
  5
181C
  8
0
 62
     0
 10
206.33651064831329
 20
137.8332546303339
 30
0.0
 11
209.3250947425885
 21
137.57178740209091
 31
0.0
  0
LINE
  5
181D
  8
0
 62
     0
 10
170.47350151701039
 20
140.9708613692496
 30
0.0
 11
173.4620856112856
 21
140.70939414100661
 31
0.0
  0
LINE
  5
181E
  8
0
 62
     0
 10
134.88717553295669
 20
144.08426146939229
 30
0.0
 11
137.59907647998281
 21
143.84700087992229
 31
0.0
  0
LINE
  5
181F
  8
0
 62
     0
 10
249.13708613515431
 20
97.086040963500096
 30
0.0
 11
251.5475396714788
 21
99.958707625196269
 31
0.0
  0
LINE
  5
1820
  8
0
 62
     0
 10
220.21164369926001
 20
62.614041023146079
 30
0.0
 11
222.62209723558459
 21
65.486707684842258
 31
0.0
  0
LINE
  5
1821
  8
0
 62
     0
 10
242.19951944101101
 20
134.69564765298401
 30
0.0
 11
244.6099729773355
 21
137.56831431468021
 31
0.0
  0
LINE
  5
1822
  8
0
 62
     0
 10
213.27407700511671
 20
100.22364771263
 30
0.0
 11
215.68453054144121
 21
103.0963143743262
 31
0.0
  0
LINE
  5
1823
  8
0
 62
     0
 10
184.34863456922241
 20
65.751647772276016
 30
0.0
 11
186.75908810554691
 21
68.624314433972188
 31
0.0
  0
LINE
  5
1824
  8
0
 62
     0
 10
206.3365103109733
 20
137.83325440211371
 30
0.0
 11
208.74696384729779
 21
140.70592106380991
 31
0.0
  0
LINE
  5
1825
  8
0
 62
     0
 10
177.411067875079
 20
103.3612544617596
 30
0.0
 11
179.82152141140349
 21
106.2339211234558
 31
0.0
  0
LINE
  5
1826
  8
0
 62
     0
 10
148.4856254391847
 20
68.889254521405675
 30
0.0
 11
150.8960789755092
 21
71.761921183101848
 31
0.0
  0
LINE
  5
1827
  8
0
 62
     0
 10
170.47350118093561
 20
140.9708611512435
 30
0.0
 11
172.8839547172602
 21
143.84352781293961
 31
0.0
  0
LINE
  5
1828
  8
0
 62
     0
 10
141.5480587450414
 20
106.4988612108895
 30
0.0
 11
143.9585122813659
 21
109.3715278725856
 31
0.0
  0
LINE
  5
1829
  8
0
 62
     0
 10
134.88717553295669
 20
144.43820643412809
 30
0.0
 11
137.0209455872224
 21
146.98113456206929
 31
0.0
  0
ENDBLK
  5
182B
  8
0
  0
BLOCK
  8
0
  2
*U19
 70
     1
 10
0.0
 20
0.0
 30
0.0
  3
*U19
  1

  0
TEXT
  5
197C
  8
0
 10
23.89826713666643
 20
-11.74612390144773
 30
0.0
 40
6.0
  1
52
  7
BYGG-014976$0$ISO
  0
ENDBLK
  5
197E
  8
0
  0
BLOCK
  8
0
  2
*X20
 70
     1
 10
0.0
 20
0.0
 30
0.0
  3
*X20
  1

  0
LINE
  5
1980
  8
0
 62
     0
 10
47.848817111648493
 20
24.70630091036913
 30
0.0
 11
51.937472428186418
 21
24.70630091036913
 31
0.0
  0
LINE
  5
1981
  8
0
 62
     0
 10
26.25906184511371
 20
24.70630091036913
 30
0.0
 11
30.347717161652209
 21
24.70630091036913
 31
0.0
  0
LINE
  5
1982
  8
0
 62
     0
 10
48.20334481450675
 20
25.95630091036913
 30
0.0
 11
51.593779847422532
 21
25.95630091036913
 31
0.0
  0
LINE
  5
1983
  8
0
 62
     0
 10
26.602754425878519
 20
25.95630091036913
 30
0.0
 11
29.993189458793719
 21
25.95630091036913
 31
0.0
  0
LINE
  5
1984
  8
0
 62
     0
 10
48.856989799564872
 20
27.20630091036913
 30
0.0
 11
50.887849998044537
 21
27.20630091036913
 31
0.0
  0
LINE
  5
1985
  8
0
 62
     0
 10
27.308684275256159
 20
27.20630091036913
 30
0.0
 11
29.3395444737356
 21
27.20630091036913
 31
0.0
  0
LINE
  5
1986
  8
0
 62
     0
 10
48.931372811670371
 20
28.45630091036913
 30
0.0
 11
53.364175687805748
 21
28.45630091036913
 31
0.0
  0
LINE
  5
1987
  8
0
 62
     0
 10
24.83235858549369
 20
28.45630091036913
 30
0.0
 11
29.265161461630559
 21
28.45630091036913
 31
0.0
  0
LINE
  5
1988
  8
0
 62
     0
 10
51.056423376949631
 20
29.70630091036913
 30
0.0
 11
53.793144769846997
 21
29.70630091036913
 31
0.0
  0
LINE
  5
1989
  8
0
 62
     0
 10
24.403389503453582
 20
29.70630091036913
 30
0.0
 11
27.140110896349711
 21
29.70630091036913
 31
0.0
  0
LINE
  5
198A
  8
0
 62
     0
 10
51.993144769812709
 20
30.95630091036913
 30
0.0
 11
53.793144769846997
 21
30.95630091036913
 31
0.0
  0
LINE
  5
198B
  8
0
 62
     0
 10
24.403389503453582
 20
30.95630091036913
 30
0.0
 11
26.203389503488211
 21
30.95630091036913
 31
0.0
  0
LINE
  5
198C
  8
0
 62
     0
 10
51.993144769812709
 20
32.20630091036913
 30
0.0
 11
53.793144769846997
 21
32.20630091036913
 31
0.0
  0
LINE
  5
198D
  8
0
 62
     0
 10
24.403389503453582
 20
32.20630091036913
 30
0.0
 11
26.203389503488101
 21
32.20630091036913
 31
0.0
  0
LINE
  5
198E
  8
0
 62
     0
 10
51.993144769812709
 20
33.45630091036913
 30
0.0
 11
53.793144769846997
 21
33.45630091036913
 31
0.0
  0
LINE
  5
198F
  8
0
 62
     0
 10
24.403389503453582
 20
33.45630091036913
 30
0.0
 11
26.20338950348799
 21
33.45630091036913
 31
0.0
  0
LINE
  5
1990
  8
0
 62
     0
 10
51.993144769812709
 20
34.70630091036913
 30
0.0
 11
53.793144769846997
 21
34.70630091036913
 31
0.0
  0
LINE
  5
1991
  8
0
 62
     0
 10
24.403389503453582
 20
34.70630091036913
 30
0.0
 11
26.20338950348787
 21
34.70630091036913
 31
0.0
  0
LINE
  5
1992
  8
0
 62
     0
 10
51.993144769812709
 20
35.95630091036913
 30
0.0
 11
53.793144769846997
 21
35.95630091036913
 31
0.0
  0
LINE
  5
1993
  8
0
 62
     0
 10
24.403389503453582
 20
35.95630091036913
 30
0.0
 11
26.20338950348776
 21
35.95630091036913
 31
0.0
  0
LINE
  5
1994
  8
0
 62
     0
 10
51.993144769812709
 20
37.20630091036913
 30
0.0
 11
53.793144769846997
 21
37.20630091036913
 31
0.0
  0
LINE
  5
1995
  8
0
 62
     0
 10
24.403389503453582
 20
37.20630091036913
 30
0.0
 11
26.203389503487639
 21
37.20630091036913
 31
0.0
  0
LINE
  5
1996
  8
0
 62
     0
 10
51.993144769812709
 20
38.45630091036913
 30
0.0
 11
53.793144769846997
 21
38.45630091036913
 31
0.0
  0
LINE
  5
1997
  8
0
 62
     0
 10
24.403389503453582
 20
38.45630091036913
 30
0.0
 11
26.203389503487529
 21
38.45630091036913
 31
0.0
  0
LINE
  5
1998
  8
0
 62
     0
 10
51.993144769812709
 20
39.70630091036913
 30
0.0
 11
53.793144769846997
 21
39.70630091036913
 31
0.0
  0
LINE
  5
1999
  8
0
 62
     0
 10
24.403389503453582
 20
39.70630091036913
 30
0.0
 11
26.203389503487418
 21
39.70630091036913
 31
0.0
  0
LINE
  5
199A
  8
0
 62
     0
 10
51.993144769812709
 20
40.956300910369123
 30
0.0
 11
53.793144769846997
 21
40.956300910369123
 31
0.0
  0
LINE
  5
199B
  8
0
 62
     0
 10
24.403389503453582
 20
40.956300910369123
 30
0.0
 11
26.203389503487529
 21
40.956300910369123
 31
0.0
  0
LINE
  5
199C
  8
0
 62
     0
 10
51.993144769812709
 20
42.206300910369123
 30
0.0
 11
53.793144769846997
 21
42.206300910369123
 31
0.0
  0
LINE
  5
199D
  8
0
 62
     0
 10
24.403389503453582
 20
42.206300910369123
 30
0.0
 11
26.203389503487639
 21
42.206300910369123
 31
0.0
  0
LINE
  5
199E
  8
0
 62
     0
 10
51.993144769812709
 20
43.456300910369123
 30
0.0
 11
53.793144769846997
 21
43.456300910369123
 31
0.0
  0
LINE
  5
199F
  8
0
 62
     0
 10
24.403389503453582
 20
43.456300910369123
 30
0.0
 11
26.20338950348776
 21
43.456300910369123
 31
0.0
  0
LINE
  5
19A0
  8
0
 62
     0
 10
51.993144769812709
 20
44.706300910369123
 30
0.0
 11
53.793144769846997
 21
44.706300910369123
 31
0.0
  0
LINE
  5
19A1
  8
0
 62
     0
 10
24.403389503453582
 20
44.706300910369123
 30
0.0
 11
26.20338950348799
 21
44.706300910369123
 31
0.0
  0
LINE
  5
19A2
  8
0
 62
     0
 10
51.993144769812709
 20
45.956300910369123
 30
0.0
 11
53.793144769846997
 21
45.956300910369123
 31
0.0
  0
LINE
  5
19A3
  8
0
 62
     0
 10
24.403389503453582
 20
45.956300910369123
 30
0.0
 11
26.203389503488101
 21
45.956300910369123
 31
0.0
  0
LINE
  5
19A4
  8
0
 62
     0
 10
51.993144769812709
 20
47.206300910369123
 30
0.0
 11
53.793144769846997
 21
47.206300910369123
 31
0.0
  0
LINE
  5
19A5
  8
0
 62
     0
 10
24.403389503453582
 20
47.206300910369123
 30
0.0
 11
26.203389503488211
 21
47.206300910369123
 31
0.0
  0
LINE
  5
19A6
  8
0
 62
     0
 10
51.993144769812709
 20
48.45630091036913
 30
0.0
 11
53.793144769846997
 21
48.45630091036913
 31
0.0
  0
LINE
  5
19A7
  8
0
 62
     0
 10
24.403389503453582
 20
48.45630091036913
 30
0.0
 11
26.203389503488332
 21
48.45630091036913
 31
0.0
  0
LINE
  5
19A8
  8
0
 62
     0
 10
49.99208014176611
 20
49.70630091036913
 30
0.0
 11
53.793144769846997
 21
49.70630091036913
 31
0.0
  0
LINE
  5
19A9
  8
0
 62
     0
 10
24.403389503453582
 20
49.70630091036913
 30
0.0
 11
28.204454131535162
 21
49.70630091036913
 31
0.0
  0
LINE
  5
19AA
  8
0
 62
     0
 10
48.893144769867369
 20
50.95630091036913
 30
0.0
 11
52.299833525535973
 21
50.95630091036913
 31
0.0
  0
LINE
  5
19AB
  8
0
 62
     0
 10
25.896700747765522
 20
50.95630091036913
 30
0.0
 11
29.30338950343355
 21
50.95630091036913
 31
0.0
  0
LINE
  5
19AC
  8
0
 62
     0
 10
48.681843588366853
 20
52.20630091036913
 30
0.0
 11
50.73207536743962
 21
52.20630091036913
 31
0.0
  0
LINE
  5
19AD
  8
0
 62
     0
 10
27.464458905860742
 20
52.20630091036913
 30
0.0
 11
29.51469068493418
 21
52.20630091036913
 31
0.0
  0
LINE
  5
19AE
  8
0
 62
     0
 10
47.967349628157642
 20
53.45630091036913
 30
0.0
 11
51.830537239568677
 21
53.45630091036913
 31
0.0
  0
LINE
  5
19AF
  8
0
 62
     0
 10
26.365997033732022
 20
53.45630091036913
 30
0.0
 11
30.229184645143281
 21
53.45630091036913
 31
0.0
  0
ENDBLK
  5
19B1
  8
0
  0
BLOCK
  8
0
  2
*U21
 70
     1
 10
0.0
 20
0.0
 30
0.0
  3
*U21
  1

  0
TEXT
  5
19E3
  8
0
 10
34.898267136650063
 20
90.262788212024788
 30
0.0
 40
6.0
  1
30
  7
BYGG-014976$0$ISO
  0
ENDBLK
  5
19E5
  8
0
  0
BLOCK
  8
0
  2
*U22
 70
     1
 10
0.0
 20
0.0
 30
0.0
  3
*U22
  1

  0
TEXT
  5
1A10
  8
0
 10
68.141259228894654
 20
34.999865307435478
 30
0.0
 40
6.0
  1
74
 50
90.0
  7
BYGG-014976$0$ISO
  0
ENDBLK
  5
1A12
  8
0
  0
BLOCK
  8
0
  2
*U23
 70
     1
 10
0.0
 20
0.0
 30
0.0
  3
*U23
  1

  0
TEXT
  5
1A1B
  8
0
 62
     1
 10
4.2355095310447783
 20
4.4145522861116309
 30
0.0
 40
2.0
  1
Copyright Sapa. Rätt till ändringar förbehålles. We reserve the right to change the drawing.
 50
90.0
  7
BYGG-014976$0$ISO
  0
ENDBLK
  5
1A1D
  8
0
  0
BLOCK
  8
0
  2
*U24
 70
     1
 10
0.0
 20
0.0
 30
0.0
  3
*U24
  1

  0
TEXT
  5
1A1F
  8
0
 62
     1
 10
93.615022693827754
 20
14.333219839725979
 30
0.0
 40
3.5
  1
Vikt:
  7
BYGG-014976$0$ISO
  0
ENDBLK
  5
1A21
  8
0
  0
BLOCK
  8
0
  2
*U25
 70
     1
 10
0.0
 20
0.0
 30
0.0
  3
*U25
  1

  0
TEXT
  5
1A23
  8
0
 62
     1
 10
121.6340039895114
 20
14.333219839725979
 30
0.0
 40
3.5
  1
Perimeter:
  7
BYGG-014976$0$ISO
  0
ENDBLK
  5
1A25
  8
0
  0
BLOCK
  8
0
  2
*U26
 70
     1
 10
0.0
 20
0.0
 30
0.0
  3
*U26
  1

  0
TEXT
  5
1A27
  8
0
 62
     1
 10
93.615022693827754
 20
22.085065834235479
 30
0.0
 40
3.5
  1
Profilnr:
  7
BYGG-014976$0$ISO
  0
ENDBLK
  5
1A29
  8
0
  0
BLOCK
  8
0
  2
*U27
 70
     1
 10
0.0
 20
0.0
 30
0.0
  3
*U27
  1

  0
TEXT
  5
1A2B
  8
0
 62
     1
 10
130.22181596764241
 20
63.719622293387033
 30
0.0
 40
3.5
  1
Del 2:
  7
BYGG-014976$0$ISO
  0
TEXT
  5
1A2C
  8
0
 62
     1
 10
131.09681596764241
 20
52.052955626720362
 30
0.0
 40
3.5
  1
__________
  7
BYGG-014976$0$ISO
  0
ENDBLK
  5
1A2E
  8
0
  0
BLOCK
  8
0
  2
*U28
 70
     1
 10
0.0
 20
0.0
 30
0.0
  3
*U28
  1

  0
TEXT
  5
1A30
  8
0
 62
     1
 10
25.646427730601541
 20
255.3986140738254
 30
0.0
 40
3.5
  1
Del 1:
  7
BYGG-014976$0$ISO
  0
TEXT
  5
1A31
  8
0
 62
     1
 10
26.521427730601541
 20
243.7319474071586
 30
0.0
 40
3.5
  1
__________
  7
BYGG-014976$0$ISO
  0
ENDBLK
  5
1A33
  8
0
  0
BLOCK
  8
0
  2
*U29
 70
     1
 10
0.0
 20
0.0
 30
0.0
  3
*U29
  1

  0
TEXT
  5
1A35
  8
0
 62
     1
 10
93.710566149484947
 20
6.5813738452164934
 30
0.0
 40
3.5
  1
G-ritn. godkänd:
  7
BYGG-014976$0$ISO
  0
ENDBLK
  5
1A37
  8
0
  0
BLOCK
  8
0
  2
*U30
 70
     1
 10
0.0
 20
0.0
 30
0.0
  3
*U30
  1

  0
TEXT
  5
1A39
  8
0
 62
     3
 10
149.7450256396138
 20
22.103092580874758
 30
0.0
 40
5.0
  1
/
  7
BYGG-014976$0$ISO
  0
ENDBLK
  5
1A3B
  8
0
  0
BLOCK
  8
0
  2
*U31
 70
     1
 10
0.0
 20
0.0
 30
0.0
  3
*U31
  1

  0
TEXT
  5
1A3D
  8
0
 10
13.46878405557265
 20
29.354041960743452
 30
0.0
 40
3.5
  1
Mindre synlig yta:
  7
BYGG-014976$0$ISO
  0
ENDBLK
  5
1A3F
  8
0
  0
BLOCK
  8
0
  2
*U32
 70
     1
 10
0.0
 20
0.0
 30
0.0
  3
*U32
  1

  0
TEXT
  5
1A41
  8
0
 10
13.95790920971432
 20
35.46394413326076
 30
0.0
 40
3.5
  1
Synlig yta:
  7
BYGG-014976$0$ISO
  0
ENDBLK
  5
1A43
  8
0
  0
BLOCK
  8
0
  2
*U33
 70
     1
 10
0.0
 20
0.0
 30
0.0
  3
*U33
  1

  0
TEXT
  5
1A45
  8
0
 62
     1
 10
121.7840039895114
 20
1.46186098016108
 30
0.0
 40
2.0
  1
PDF skapad:
  7
BYGG-014976$0$ISO
  0
ENDBLK
  5
1A47
  8
0
  0
BLOCK
  8
0
  2
*U34
 70
     1
 10
0.0
 20
0.0
 30
0.0
  3
*U34
  1

  0
TEXT
  5
1A4F
  8
0
 62
     1
 10
4.2355095310447783
 20
4.4145522861116309
 30
0.0
 40
2.0
  1
Copyright Sapa. Rätt till ändringar förbehålles. We reserve the right to change the drawing.
 50
90.0
  7
BYGG-014976$0$ISO
  0
ENDBLK
  5
1A51
  8
0
  0
BLOCK
  8
0
  2
*U35
 70
     1
 10
0.0
 20
0.0
 30
0.0
  3
*U35
  1

  0
TEXT
  5
1A53
  8
0
 62
     1
 10
130.22181596764241
 20
63.719622293387033
 30
0.0
 40
3.5
  1
Del 2:
  7
BYGG-014976$0$ISO
  0
TEXT
  5
1A54
  8
0
 62
     1
 10
131.09681596764241
 20
52.052955626720362
 30
0.0
 40
3.5
  1
__________
  7
BYGG-014976$0$ISO
  0
ENDBLK
  5
1A56
  8
0
  0
BLOCK
  8
0
  2
*U36
 70
     1
 10
0.0
 20
0.0
 30
0.0
  3
*U36
  1

  0
TEXT
  5
1A58
  8
0
 62
     1
 10
25.646427730601541
 20
255.3986140738254
 30
0.0
 40
3.5
  1
Del 1:
  7
BYGG-014976$0$ISO
  0
TEXT
  5
1A59
  8
0
 62
     1
 10
26.521427730601541
 20
243.7319474071586
 30
0.0
 40
3.5
  1
__________
  7
BYGG-014976$0$ISO
  0
ENDBLK
  5
1A5B
  8
0
  0
BLOCK
  8
0
  2
*U37
 70
     1
 10
0.0
 20
0.0
 30
0.0
  3
*U37
  1

  0
TEXT
  5
1A5D
  8
0
 10
13.46878405557265
 20
29.354041960743452
 30
0.0
 40
3.5
  1
Mindre synlig yta:
  7
BYGG-014976$0$ISO
  0
ENDBLK
  5
1A5F
  8
0
  0
BLOCK
  8
0
  2
*U38
 70
     1
 10
0.0
 20
0.0
 30
0.0
  3
*U38
  1

  0
TEXT
  5
1A61
  8
0
 10
13.95790920971432
 20
35.46394413326076
 30
0.0
 40
3.5
  1
Synlig yta:
  7
BYGG-014976$0$ISO
  0
ENDBLK
  5
1A63
  8
0
  0
BLOCK
  8
0
  2
*U39
 70
     1
 10
0.0
 20
0.0
 30
0.0
  3
*U39
  1

  0
TEXT
  5
1A65
  8
0
 62
     1
 10
93.615022693827754
 20
14.333219839725979
 30
0.0
 40
3.5
  1
Vikt:
  7
BYGG-014976$0$ISO
  0
ENDBLK
  5
1A67
  8
0
  0
BLOCK
  8
0
  2
*U40
 70
     1
 10
0.0
 20
0.0
 30
0.0
  3
*U40
  1

  0
TEXT
  5
1A69
  8
0
 62
     1
 10
121.6340039895114
 20
14.333219839725979
 30
0.0
 40
3.5
  1
Perimeter:
  7
BYGG-014976$0$ISO
  0
ENDBLK
  5
1A6B
  8
0
  0
BLOCK
  8
0
  2
*U41
 70
     1
 10
0.0
 20
0.0
 30
0.0
  3
*U41
  1

  0
TEXT
  5
1A6D
  8
0
 62
     1
 10
93.615022693827754
 20
22.085065834235479
 30
0.0
 40
3.5
  1
Profilnr:
  7
BYGG-014976$0$ISO
  0
ENDBLK
  5
1A6F
  8
0
  0
BLOCK
  8
0
  2
*U42
 70
     1
 10
0.0
 20
0.0
 30
0.0
  3
*U42
  1

  0
TEXT
  5
1A71
  8
0
 62
     1
 10
93.710566149484947
 20
6.5813738452164934
 30
0.0
 40
3.5
  1
G-ritn. godkänd:
  7
BYGG-014976$0$ISO
  0
ENDBLK
  5
1A73
  8
0
  0
BLOCK
  8
0
  2
*U43
 70
     1
 10
0.0
 20
0.0
 30
0.0
  3
*U43
  1

  0
TEXT
  5
1A75
  8
0
 62
     3
 10
149.7450256396138
 20
22.103092580874758
 30
0.0
 40
5.0
  1
/
  7
BYGG-014976$0$ISO
  0
ENDBLK
  5
1A77
  8
0
  0
BLOCK
  8
0
  2
*U44
 70
     1
 10
0.0
 20
0.0
 30
0.0
  3
*U44
  1

  0
TEXT
  5
1A79
  8
0
 62
     1
 10
121.7840039895114
 20
1.46186098016108
 30
0.0
 40
2.0
  1
PDF skapad:
  7
BYGG-014976$0$ISO
  0
ENDBLK
  5
1A7B
  8
0
  0
BLOCK
  8
0
  2
*U45
 70
     1
 10
0.0
 20
0.0
 30
0.0
  3
*U45
  1

  0
TEXT
  5
1A7D
  8
0
 10
-4.2465797624952764
 20
-0.1999999999845429
 30
0.0
 40
6.0
  1
52
 50
90.000000000000028
  7
BYGG-014976$0$ISO
  0
ENDBLK
  5
1A7F
  8
0
  0
BLOCK
  8
0
  2
*U46
 70
     1
 10
0.0
 20
0.0
 30
0.0
  3
*U46
  1

  0
TEXT
  5
1A81
  8
0
 10
97.762922902158351
 20
10.799999999999111
 30
0.0
 40
6.0
  1
30
 50
90.000000000000028
  7
BYGG-014976$0$ISO
  0
ENDBLK
  5
1A83
  8
0
  0
BLOCK
  8
0
  2
*U47
 70
     1
 10
0.0
 20
0.0
 30
0.0
  3
*U47
  1

  0
TEXT
  5
1A85
  8
0
 10
55.499999997569013
 20
44.042992092243679
 30
0.0
 40
6.0
  1
74
 50
180.0
  7
BYGG-014976$0$ISO
  0
ENDBLK
  5
1A87
  8
0
  0
BLOCK
  8
0
  2
*X48
 70
     1
 10
0.0
 20
0.0
 30
0.0
  3
*X48
  1

  0
LINE
  5
1D87
  8
0
 62
     0
 10
64.956435600502431
 20
23.869082491506902
 30
0.0
 11
64.956435600502431
 21
27.7322701029176
 31
0.0
  0
LINE
  5
1D88
  8
0
 62
     0
 10
64.956435600502431
 20
2.2677298970812672
 30
0.0
 11
64.956435600502431
 21
6.1309175084921881
 31
0.0
  0
LINE
  5
1D89
  8
0
 62
     0
 10
63.706435600502431
 20
24.583576451715999
 30
0.0
 11
63.706435600502431
 21
26.633808230788649
 31
0.0
  0
LINE
  5
1D8A
  8
0
 62
     0
 10
63.706435600502431
 20
3.3661917692099901
 30
0.0
 11
63.706435600502431
 21
5.4164235482829781
 31
0.0
  0
LINE
  5
1D8B
  8
0
 62
     0
 10
62.456435600502431
 20
24.794877633216402
 30
0.0
 11
62.456435600502431
 21
28.201566388885681
 31
0.0
  0
LINE
  5
1D8C
  8
0
 62
     0
 10
62.456435600502431
 20
1.7984336111138639
 30
0.0
 11
62.456435600502431
 21
5.2051223667825752
 31
0.0
  0
LINE
  5
1D8D
  8
0
 62
     0
 10
61.206435600502431
 20
25.89381300511571
 30
0.0
 11
61.206435600502431
 21
29.694877633196029
 31
0.0
  0
LINE
  5
1D8E
  8
0
 62
     0
 10
61.206435600502431
 20
0.3051223668026068
 30
0.0
 11
61.206435600502431
 21
4.106186994883501
 31
0.0
  0
LINE
  5
1D8F
  8
0
 62
     0
 10
59.956435600502431
 20
27.894877633161741
 30
0.0
 11
59.956435600502431
 21
29.694877633196029
 31
0.0
  0
LINE
  5
1D90
  8
0
 62
     0
 10
59.956435600502431
 20
0.3051223668026068
 30
0.0
 11
59.956435600502431
 21
2.1051223668373491
 31
0.0
  0
LINE
  5
1D91
  8
0
 62
     0
 10
58.706435600502431
 20
27.894877633161741
 30
0.0
 11
58.706435600502431
 21
29.694877633196029
 31
0.0
  0
LINE
  5
1D92
  8
0
 62
     0
 10
58.706435600502431
 20
0.3051223668026068
 30
0.0
 11
58.706435600502431
 21
2.105122366837235
 31
0.0
  0
LINE
  5
1D93
  8
0
 62
     0
 10
57.456435600502431
 20
27.894877633161741
 30
0.0
 11
57.456435600502431
 21
29.694877633196029
 31
0.0
  0
LINE
  5
1D94
  8
0
 62
     0
 10
57.456435600502431
 20
0.3051223668026068
 30
0.0
 11
57.456435600502431
 21
2.1051223668371222
 31
0.0
  0
LINE
  5
1D95
  8
0
 62
     0
 10
56.206435600502431
 20
27.894877633161741
 30
0.0
 11
56.206435600502431
 21
29.694877633196029
 31
0.0
  0
LINE
  5
1D96
  8
0
 62
     0
 10
56.206435600502431
 20
0.3051223668026068
 30
0.0
 11
56.206435600502431
 21
2.105122366837008
 31
0.0
  0
LINE
  5
1D97
  8
0
 62
     0
 10
54.956435600502431
 20
27.894877633161741
 30
0.0
 11
54.956435600502431
 21
29.694877633196029
 31
0.0
  0
LINE
  5
1D98
  8
0
 62
     0
 10
54.956435600502431
 20
0.3051223668026068
 30
0.0
 11
54.956435600502431
 21
2.1051223668368939
 31
0.0
  0
LINE
  5
1D99
  8
0
 62
     0
 10
53.706435600502431
 20
27.894877633161741
 30
0.0
 11
53.706435600502431
 21
29.694877633196029
 31
0.0
  0
LINE
  5
1D9A
  8
0
 62
     0
 10
53.706435600502431
 20
0.3051223668026068
 30
0.0
 11
53.706435600502431
 21
2.105122366836667
 31
0.0
  0
LINE
  5
1D9B
  8
0
 62
     0
 10
52.456435600502431
 20
27.894877633161741
 30
0.0
 11
52.456435600502431
 21
29.694877633196029
 31
0.0
  0
LINE
  5
1D9C
  8
0
 62
     0
 10
52.456435600502431
 20
0.3051223668026068
 30
0.0
 11
52.456435600502431
 21
2.1051223668365528
 31
0.0
  0
LINE
  5
1D9D
  8
0
 62
     0
 10
51.206435600502431
 20
27.894877633161741
 30
0.0
 11
51.206435600502431
 21
29.694877633196029
 31
0.0
  0
LINE
  5
1D9E
  8
0
 62
     0
 10
51.206435600502431
 20
0.3051223668026068
 30
0.0
 11
51.206435600502431
 21
2.1051223668364401
 31
0.0
  0
LINE
  5
1D9F
  8
0
 62
     0
 10
49.956435600502431
 20
27.894877633161741
 30
0.0
 11
49.956435600502431
 21
29.694877633196029
 31
0.0
  0
LINE
  5
1DA0
  8
0
 62
     0
 10
49.956435600502431
 20
0.3051223668026068
 30
0.0
 11
49.956435600502431
 21
2.1051223668365528
 31
0.0
  0
LINE
  5
1DA1
  8
0
 62
     0
 10
48.706435600502431
 20
27.894877633161741
 30
0.0
 11
48.706435600502431
 21
29.694877633196029
 31
0.0
  0
LINE
  5
1DA2
  8
0
 62
     0
 10
48.706435600502431
 20
0.3051223668026068
 30
0.0
 11
48.706435600502431
 21
2.105122366836667
 31
0.0
  0
LINE
  5
1DA3
  8
0
 62
     0
 10
47.456435600502431
 20
27.894877633161741
 30
0.0
 11
47.456435600502431
 21
29.694877633196029
 31
0.0
  0
LINE
  5
1DA4
  8
0
 62
     0
 10
47.456435600502417
 20
0.3051223668026068
 30
0.0
 11
47.456435600502417
 21
2.1051223668367811
 31
0.0
  0
LINE
  5
1DA5
  8
0
 62
     0
 10
46.206435600502431
 20
27.894877633161741
 30
0.0
 11
46.206435600502431
 21
29.694877633196029
 31
0.0
  0
LINE
  5
1DA6
  8
0
 62
     0
 10
46.206435600502417
 20
0.3051223668026068
 30
0.0
 11
46.206435600502417
 21
2.1051223668368939
 31
0.0
  0
LINE
  5
1DA7
  8
0
 62
     0
 10
44.956435600502431
 20
27.894877633161741
 30
0.0
 11
44.956435600502431
 21
29.694877633196029
 31
0.0
  0
LINE
  5
1DA8
  8
0
 62
     0
 10
44.956435600502417
 20
0.3051223668026068
 30
0.0
 11
44.956435600502417
 21
2.105122366837008
 31
0.0
  0
LINE
  5
1DA9
  8
0
 62
     0
 10
43.706435600502431
 20
27.894877633161741
 30
0.0
 11
43.706435600502431
 21
29.694877633196029
 31
0.0
  0
LINE
  5
1DAA
  8
0
 62
     0
 10
43.706435600502417
 20
0.3051223668026068
 30
0.0
 11
43.706435600502417
 21
2.1051223668371222
 31
0.0
  0
LINE
  5
1DAB
  8
0
 62
     0
 10
42.456435600502431
 20
27.894877633161741
 30
0.0
 11
42.456435600502431
 21
29.694877633196029
 31
0.0
  0
LINE
  5
1DAC
  8
0
 62
     0
 10
42.456435600502417
 20
0.3051223668026068
 30
0.0
 11
42.456435600502417
 21
2.1051223668373491
 31
0.0
  0
LINE
  5
1DAD
  8
0
 62
     0
 10
41.206435600502431
 20
26.958156240298081
 30
0.0
 11
41.206435600502431
 21
29.694877633196029
 31
0.0
  0
LINE
  5
1DAE
  8
0
 62
     0
 10
41.206435600502417
 20
0.3051223668026068
 30
0.0
 11
41.206435600502417
 21
3.0418437596994181
 31
0.0
  0
LINE
  5
1DAF
  8
0
 62
     0
 10
39.956435600502438
 20
24.8331056750194
 30
0.0
 11
39.956435600502438
 21
29.265908551154102
 31
0.0
  0
LINE
  5
1DB0
  8
0
 62
     0
 10
39.956435600502431
 20
0.7340914488434011
 30
0.0
 11
39.956435600502431
 21
5.166894324979693
 31
0.0
  0
LINE
  5
1DB1
  8
0
 62
     0
 10
38.706435600502438
 20
24.75872266291379
 30
0.0
 11
38.706435600502438
 21
26.789582861393569
 31
0.0
  0
LINE
  5
1DB2
  8
0
 62
     0
 10
38.706435600502431
 20
3.2104171386051799
 30
0.0
 11
38.706435600502431
 21
5.2412773370846253
 31
0.0
  0
LINE
  5
1DB3
  8
0
 62
     0
 10
37.456435600502438
 20
24.105077677855661
 30
0.0
 11
37.456435600502438
 21
27.49551271077166
 31
0.0
  0
LINE
  5
1DB4
  8
0
 62
     0
 10
37.456435600502431
 20
2.5044872892273129
 30
0.0
 11
37.456435600502431
 21
5.894922322142861
 31
0.0
  0
LINE
  5
1DB5
  8
0
 62
     0
 10
36.206435600502438
 20
23.750549974997629
 30
0.0
 11
36.206435600502438
 21
27.839205291535219
 31
0.0
  0
LINE
  5
1DB6
  8
0
 62
     0
 10
36.206435600502431
 20
2.160794708462844
 30
0.0
 11
36.206435600502431
 21
6.2494500250011242
 31
0.0
  0
ENDBLK
  5
1DB8
  8
0
  0
BLOCK
  8
0
  2
*X49
 70
     1
 10
0.0
 20
0.0
 30
0.0
  3
*X49
  1

  0
LINE
  5
1DBA
  8
0
 62
     0
 10
64.956435600502431
 20
23.869082491506902
 30
0.0
 11
64.956435600502431
 21
27.7322701029176
 31
0.0
  0
LINE
  5
1DBB
  8
0
 62
     0
 10
64.956435600502431
 20
2.2677298970812672
 30
0.0
 11
64.956435600502431
 21
6.1309175084921881
 31
0.0
  0
LINE
  5
1DBC
  8
0
 62
     0
 10
63.706435600502431
 20
24.583576451715999
 30
0.0
 11
63.706435600502431
 21
26.633808230788649
 31
0.0
  0
LINE
  5
1DBD
  8
0
 62
     0
 10
63.706435600502431
 20
3.3661917692099901
 30
0.0
 11
63.706435600502431
 21
5.4164235482829781
 31
0.0
  0
LINE
  5
1DBE
  8
0
 62
     0
 10
62.456435600502431
 20
24.794877633216402
 30
0.0
 11
62.456435600502431
 21
28.201566388885681
 31
0.0
  0
LINE
  5
1DBF
  8
0
 62
     0
 10
62.456435600502431
 20
1.7984336111138639
 30
0.0
 11
62.456435600502431
 21
5.2051223667825752
 31
0.0
  0
LINE
  5
1DC0
  8
0
 62
     0
 10
61.206435600502431
 20
25.89381300511571
 30
0.0
 11
61.206435600502431
 21
29.694877633196029
 31
0.0
  0
LINE
  5
1DC1
  8
0
 62
     0
 10
61.206435600502431
 20
0.3051223668026068
 30
0.0
 11
61.206435600502431
 21
4.106186994883501
 31
0.0
  0
LINE
  5
1DC2
  8
0
 62
     0
 10
59.956435600502431
 20
27.894877633161741
 30
0.0
 11
59.956435600502431
 21
29.694877633196029
 31
0.0
  0
LINE
  5
1DC3
  8
0
 62
     0
 10
59.956435600502431
 20
0.3051223668026068
 30
0.0
 11
59.956435600502431
 21
2.1051223668373491
 31
0.0
  0
LINE
  5
1DC4
  8
0
 62
     0
 10
58.706435600502431
 20
27.894877633161741
 30
0.0
 11
58.706435600502431
 21
29.694877633196029
 31
0.0
  0
LINE
  5
1DC5
  8
0
 62
     0
 10
58.706435600502431
 20
0.3051223668026068
 30
0.0
 11
58.706435600502431
 21
2.105122366837235
 31
0.0
  0
LINE
  5
1DC6
  8
0
 62
     0
 10
57.456435600502431
 20
27.894877633161741
 30
0.0
 11
57.456435600502431
 21
29.694877633196029
 31
0.0
  0
LINE
  5
1DC7
  8
0
 62
     0
 10
57.456435600502431
 20
0.3051223668026068
 30
0.0
 11
57.456435600502431
 21
2.1051223668371222
 31
0.0
  0
LINE
  5
1DC8
  8
0
 62
     0
 10
56.206435600502431
 20
27.894877633161741
 30
0.0
 11
56.206435600502431
 21
29.694877633196029
 31
0.0
  0
LINE
  5
1DC9
  8
0
 62
     0
 10
56.206435600502431
 20
0.3051223668026068
 30
0.0
 11
56.206435600502431
 21
2.105122366837008
 31
0.0
  0
LINE
  5
1DCA
  8
0
 62
     0
 10
54.956435600502431
 20
27.894877633161741
 30
0.0
 11
54.956435600502431
 21
29.694877633196029
 31
0.0
  0
LINE
  5
1DCB
  8
0
 62
     0
 10
54.956435600502431
 20
0.3051223668026068
 30
0.0
 11
54.956435600502431
 21
2.1051223668368939
 31
0.0
  0
LINE
  5
1DCC
  8
0
 62
     0
 10
53.706435600502431
 20
27.894877633161741
 30
0.0
 11
53.706435600502431
 21
29.694877633196029
 31
0.0
  0
LINE
  5
1DCD
  8
0
 62
     0
 10
53.706435600502431
 20
0.3051223668026068
 30
0.0
 11
53.706435600502431
 21
2.105122366836667
 31
0.0
  0
LINE
  5
1DCE
  8
0
 62
     0
 10
52.456435600502431
 20
27.894877633161741
 30
0.0
 11
52.456435600502431
 21
29.694877633196029
 31
0.0
  0
LINE
  5
1DCF
  8
0
 62
     0
 10
52.456435600502431
 20
0.3051223668026068
 30
0.0
 11
52.456435600502431
 21
2.1051223668365528
 31
0.0
  0
LINE
  5
1DD0
  8
0
 62
     0
 10
51.206435600502431
 20
27.894877633161741
 30
0.0
 11
51.206435600502431
 21
29.694877633196029
 31
0.0
  0
LINE
  5
1DD1
  8
0
 62
     0
 10
51.206435600502431
 20
0.3051223668026068
 30
0.0
 11
51.206435600502431
 21
2.1051223668364401
 31
0.0
  0
LINE
  5
1DD2
  8
0
 62
     0
 10
49.956435600502431
 20
27.894877633161741
 30
0.0
 11
49.956435600502431
 21
29.694877633196029
 31
0.0
  0
LINE
  5
1DD3
  8
0
 62
     0
 10
49.956435600502431
 20
0.3051223668026068
 30
0.0
 11
49.956435600502431
 21
2.1051223668365528
 31
0.0
  0
LINE
  5
1DD4
  8
0
 62
     0
 10
48.706435600502431
 20
27.894877633161741
 30
0.0
 11
48.706435600502431
 21
29.694877633196029
 31
0.0
  0
LINE
  5
1DD5
  8
0
 62
     0
 10
48.706435600502431
 20
0.3051223668026068
 30
0.0
 11
48.706435600502431
 21
2.105122366836667
 31
0.0
  0
LINE
  5
1DD6
  8
0
 62
     0
 10
47.456435600502431
 20
27.894877633161741
 30
0.0
 11
47.456435600502431
 21
29.694877633196029
 31
0.0
  0
LINE
  5
1DD7
  8
0
 62
     0
 10
47.456435600502417
 20
0.3051223668026068
 30
0.0
 11
47.456435600502417
 21
2.1051223668367811
 31
0.0
  0
LINE
  5
1DD8
  8
0
 62
     0
 10
46.206435600502431
 20
27.894877633161741
 30
0.0
 11
46.206435600502431
 21
29.694877633196029
 31
0.0
  0
LINE
  5
1DD9
  8
0
 62
     0
 10
46.206435600502417
 20
0.3051223668026068
 30
0.0
 11
46.206435600502417
 21
2.1051223668368939
 31
0.0
  0
LINE
  5
1DDA
  8
0
 62
     0
 10
44.956435600502431
 20
27.894877633161741
 30
0.0
 11
44.956435600502431
 21
29.694877633196029
 31
0.0
  0
LINE
  5
1DDB
  8
0
 62
     0
 10
44.956435600502417
 20
0.3051223668026068
 30
0.0
 11
44.956435600502417
 21
2.105122366837008
 31
0.0
  0
LINE
  5
1DDC
  8
0
 62
     0
 10
43.706435600502431
 20
27.894877633161741
 30
0.0
 11
43.706435600502431
 21
29.694877633196029
 31
0.0
  0
LINE
  5
1DDD
  8
0
 62
     0
 10
43.706435600502417
 20
0.3051223668026068
 30
0.0
 11
43.706435600502417
 21
2.1051223668371222
 31
0.0
  0
LINE
  5
1DDE
  8
0
 62
     0
 10
42.456435600502431
 20
27.894877633161741
 30
0.0
 11
42.456435600502431
 21
29.694877633196029
 31
0.0
  0
LINE
  5
1DDF
  8
0
 62
     0
 10
42.456435600502417
 20
0.3051223668026068
 30
0.0
 11
42.456435600502417
 21
2.1051223668373491
 31
0.0
  0
LINE
  5
1DE0
  8
0
 62
     0
 10
41.206435600502431
 20
26.958156240298081
 30
0.0
 11
41.206435600502431
 21
29.694877633196029
 31
0.0
  0
LINE
  5
1DE1
  8
0
 62
     0
 10
41.206435600502417
 20
0.3051223668026068
 30
0.0
 11
41.206435600502417
 21
3.0418437596994181
 31
0.0
  0
LINE
  5
1DE2
  8
0
 62
     0
 10
39.956435600502438
 20
24.8331056750194
 30
0.0
 11
39.956435600502438
 21
29.265908551154102
 31
0.0
  0
LINE
  5
1DE3
  8
0
 62
     0
 10
39.956435600502431
 20
0.7340914488434011
 30
0.0
 11
39.956435600502431
 21
5.166894324979693
 31
0.0
  0
LINE
  5
1DE4
  8
0
 62
     0
 10
38.706435600502438
 20
24.75872266291379
 30
0.0
 11
38.706435600502438
 21
26.789582861393569
 31
0.0
  0
LINE
  5
1DE5
  8
0
 62
     0
 10
38.706435600502431
 20
3.2104171386051799
 30
0.0
 11
38.706435600502431
 21
5.2412773370846253
 31
0.0
  0
LINE
  5
1DE6
  8
0
 62
     0
 10
37.456435600502438
 20
24.105077677855661
 30
0.0
 11
37.456435600502438
 21
27.49551271077166
 31
0.0
  0
LINE
  5
1DE7
  8
0
 62
     0
 10
37.456435600502431
 20
2.5044872892273129
 30
0.0
 11
37.456435600502431
 21
5.894922322142861
 31
0.0
  0
LINE
  5
1DE8
  8
0
 62
     0
 10
36.206435600502438
 20
23.750549974997629
 30
0.0
 11
36.206435600502438
 21
27.839205291535219
 31
0.0
  0
LINE
  5
1DE9
  8
0
 62
     0
 10
36.206435600502431
 20
2.160794708462844
 30
0.0
 11
36.206435600502431
 21
6.2494500250011242
 31
0.0
  0
ENDBLK
  5
1DEB
  8
0
  0
ENDSEC
  0
SECTION
  2
ENTITIES
  0
ARC
  5
358
  8
SAPA_ANSLUTNING
 10
118.5364321870348
 20
37.091514237473113
 30
0.0
 40
31.543903339916149
 50
165.480256263683
 51
192.99194681445661
  0
POLYLINE
  5
6E7
  8
SAPA_ANSLUTNING
 66
     1
 10
0.0
 20
0.0
 30
0.0
 70
     1
1001
ACAD
1000
ASC_BOUNDS
1002
{
1070
    19
1005
A50
1002
}
  0
VERTEX
  5
158C
  8
SAPA_ANSLUTNING
 10
32.000000000718117
 20
24.99999999999082
 30
0.0
  0
VERTEX
  5
158D
  8
SAPA_ANSLUTNING
 10
32.000000000718117
 20
44.999999999999417
 30
0.0
  0
VERTEX
  5
158E
  8
SAPA_ANSLUTNING
 10
23.243323029157711
 20
44.999999999999417
 30
0.0
  0
VERTEX
  5
158F
  8
SAPA_ANSLUTNING
 10
23.243323029157711
 20
24.99999999999082
 30
0.0
  0
SEQEND
  5
1590
  8
SAPA_ANSLUTNING
  0
POLYLINE
  5
6FA
  8
SAPA_ANSLUTNING
 66
     1
 10
0.0
 20
0.0
 30
0.0
  0
VERTEX
  5
1591
  8
SAPA_ANSLUTNING
 10
32.000000000718117
 20
29.93798115725853
 30
0.0
 42
0.5283966080225092
  0
VERTEX
  5
1592
  8
SAPA_ANSLUTNING
 10
34.729990294679148
 20
31.799999999999571
 30
0.0
  0
VERTEX
  5
1593
  8
SAPA_ANSLUTNING
 10
34.731584345125462
 20
43.000000000000441
 30
0.0
 42
-0.9999989466455052
  0
VERTEX
  5
1594
  8
SAPA_ANSLUTNING
 10
38.731584345121142
 20
43.000004213420638
 30
0.0
  0
VERTEX
  5
1595
  8
SAPA_ANSLUTNING
 10
38.731584345121163
 20
31.81117359299213
 30
0.0
 42
0.9999999999999998
  0
VERTEX
  5
1596
  8
SAPA_ANSLUTNING
 10
42.731584345121149
 20
31.81117359299213
 30
0.0
  0
VERTEX
  5
1597
  8
SAPA_ANSLUTNING
 10
42.731584345121142
 20
43.000000000005777
 30
0.0
 42
-1.0000000000000011
  0
VERTEX
  5
1598
  8
SAPA_ANSLUTNING
 10
46.731584345108409
 20
43.000000000005777
 30
0.0
  0
VERTEX
  5
1599
  8
SAPA_ANSLUTNING
 10
46.731584345108423
 20
31.799999999999599
 30
0.0
 42
0.9999999999999998
  0
VERTEX
  5
159A
  8
SAPA_ANSLUTNING
 10
50.731584345108423
 20
31.799999999999599
 30
0.0
  0
VERTEX
  5
159B
  8
SAPA_ANSLUTNING
 10
50.733178395554731
 20
43.000000000000469
 30
0.0
 42
-0.9999989466455052
  0
VERTEX
  5
159C
  8
SAPA_ANSLUTNING
 10
54.733178395550418
 20
43.000004213420667
 30
0.0
  0
VERTEX
  5
159D
  8
SAPA_ANSLUTNING
 10
54.731584345103869
 20
31.799999999999599
 30
0.0
 42
0.9999999999999998
  0
VERTEX
  5
159E
  8
SAPA_ANSLUTNING
 10
58.731584345103862
 20
31.799999999999599
 30
0.0
  0
VERTEX
  5
159F
  8
SAPA_ANSLUTNING
 10
58.733178395550297
 20
42.988830620449349
 30
0.0
 42
-0.9999974985601646
  0
VERTEX
  5
15A0
  8
SAPA_ANSLUTNING
 10
62.733178395537692
 20
42.988830620449349
 30
0.0
  0
VERTEX
  5
15A1
  8
SAPA_ANSLUTNING
 10
62.73158434509125
 20
31.799999999999599
 30
0.0
 42
0.9999999999999998
  0
VERTEX
  5
15A2
  8
SAPA_ANSLUTNING
 10
66.73158434509125
 20
31.799999999999599
 30
0.0
  0
VERTEX
  5
15A3
  8
SAPA_ANSLUTNING
 10
66.73158434509125
 20
42.991342536791102
 30
0.0
 42
-0.9999989466455052
  0
VERTEX
  5
15A4
  8
SAPA_ANSLUTNING
 10
70.731584345086929
 20
42.991338323371131
 30
0.0
  0
VERTEX
  5
15A5
  8
SAPA_ANSLUTNING
 10
70.731584345086688
 20
26.9999999999994
 30
0.0
 42
0.7675133829436435
  0
VERTEX
  5
15A6
  8
SAPA_ANSLUTNING
 10
74.464104194776752
 20
26.000812845143241
 30
0.0
  0
SEQEND
  5
15A7
  8
SAPA_ANSLUTNING
  0
POLYLINE
  5
78D
  8
SAPA_ANSLUTNING
 10
76.393774343720636
 20
24.999999999999421
 30
0.0
 66
     1
 70
     8
  0
VERTEX
  8
SAPA_ANSLUTNING
  5
1DEC
 10
76.3938
 20
25.0000
 30
0.000000
  70
    32
  0
VERTEX
  8
SAPA_ANSLUTNING
  5
1DED
 10
76.6146
 20
25.0119
 30
0.000000
  70
    32
  0
VERTEX
  8
SAPA_ANSLUTNING
  5
1DEE
 10
76.8349
 20
25.0479
 30
0.000000
  70
    32
  0
VERTEX
  8
SAPA_ANSLUTNING
  5
1DEF
 10
77.0541
 20
25.1079
 30
0.000000
  70
    32
  0
VERTEX
  8
SAPA_ANSLUTNING
  5
1DF0
 10
77.2718
 20
25.1917
 30
0.000000
  70
    32
  0
VERTEX
  8
SAPA_ANSLUTNING
  5
1DF1
 10
77.4873
 20
25.2992
 30
0.000000
  70
    32
  0
VERTEX
  8
SAPA_ANSLUTNING
  5
1DF2
 10
77.7003
 20
25.4300
 30
0.000000
  70
    32
  0
VERTEX
  8
SAPA_ANSLUTNING
  5
1DF3
 10
77.9101
 20
25.5838
 30
0.000000
  70
    32
  0
VERTEX
  8
SAPA_ANSLUTNING
  5
1DF4
 10
78.1162
 20
25.7604
 30
0.000000
  70
    32
  0
VERTEX
  8
SAPA_ANSLUTNING
  5
1DF5
 10
78.3182
 20
25.9592
 30
0.000000
  70
    32
  0
VERTEX
  8
SAPA_ANSLUTNING
  5
1DF6
 10
78.5156
 20
26.1798
 30
0.000000
  70
    32
  0
VERTEX
  8
SAPA_ANSLUTNING
  5
1DF7
 10
78.7079
 20
26.4216
 30
0.000000
  70
    32
  0
VERTEX
  8
SAPA_ANSLUTNING
  5
1DF8
 10
78.8947
 20
26.6841
 30
0.000000
  70
    32
  0
VERTEX
  8
SAPA_ANSLUTNING
  5
1DF9
 10
79.0754
 20
26.9666
 30
0.000000
  70
    32
  0
VERTEX
  8
SAPA_ANSLUTNING
  5
1DFA
 10
79.2496
 20
27.2685
 30
0.000000
  70
    32
  0
VERTEX
  8
SAPA_ANSLUTNING
  5
1DFB
 10
79.4171
 20
27.5890
 30
0.000000
  70
    32
  0
VERTEX
  8
SAPA_ANSLUTNING
  5
1DFC
 10
79.5772
 20
27.9274
 30
0.000000
  70
    32
  0
VERTEX
  8
SAPA_ANSLUTNING
  5
1DFD
 10
79.7297
 20
28.2828
 30
0.000000
  70
    32
  0
VERTEX
  8
SAPA_ANSLUTNING
  5
1DFE
 10
79.8741
 20
28.6544
 30
0.000000
  70
    32
  0
VERTEX
  8
SAPA_ANSLUTNING
  5
1DFF
 10
80.0102
 20
29.0412
 30
0.000000
  70
    32
  0
VERTEX
  8
SAPA_ANSLUTNING
  5
1E00
 10
80.1376
 20
29.4425
 30
0.000000
  70
    32
  0
VERTEX
  8
SAPA_ANSLUTNING
  5
1E01
 10
80.2559
 20
29.8571
 30
0.000000
  70
    32
  0
VERTEX
  8
SAPA_ANSLUTNING
  5
1E02
 10
80.3650
 20
30.2841
 30
0.000000
  70
    32
  0
VERTEX
  8
SAPA_ANSLUTNING
  5
1E03
 10
80.4645
 20
30.7225
 30
0.000000
  70
    32
  0
VERTEX
  8
SAPA_ANSLUTNING
  5
1E04
 10
80.5542
 20
31.1711
 30
0.000000
  70
    32
  0
VERTEX
  8
SAPA_ANSLUTNING
  5
1E05
 10
80.6340
 20
31.6290
 30
0.000000
  70
    32
  0
VERTEX
  8
SAPA_ANSLUTNING
  5
1E06
 10
80.7035
 20
32.0951
 30
0.000000
  70
    32
  0
VERTEX
  8
SAPA_ANSLUTNING
  5
1E07
 10
80.7626
 20
32.5681
 30
0.000000
  70
    32
  0
VERTEX
  8
SAPA_ANSLUTNING
  5
1E08
 10
80.8112
 20
33.0469
 30
0.000000
  70
    32
  0
VERTEX
  8
SAPA_ANSLUTNING
  5
1E09
 10
80.8492
 20
33.5305
 30
0.000000
  70
    32
  0
VERTEX
  8
SAPA_ANSLUTNING
  5
1E0A
 10
80.8765
 20
34.0176
 30
0.000000
  70
    32
  0
VERTEX
  8
SAPA_ANSLUTNING
  5
1E0B
 10
80.8930
 20
34.5071
 30
0.000000
  70
    32
  0
VERTEX
  8
SAPA_ANSLUTNING
  5
1E0C
 10
80.8986
 20
34.9978
 30
0.000000
  70
    32
  0
VERTEX
  8
SAPA_ANSLUTNING
  5
1E0D
 10
80.8935
 20
35.4885
 30
0.000000
  70
    32
  0
VERTEX
  8
SAPA_ANSLUTNING
  5
1E0E
 10
80.8775
 20
35.9780
 30
0.000000
  70
    32
  0
VERTEX
  8
SAPA_ANSLUTNING
  5
1E0F
 10
80.8507
 20
36.4651
 30
0.000000
  70
    32
  0
VERTEX
  8
SAPA_ANSLUTNING
  5
1E10
 10
80.8131
 20
36.9488
 30
0.000000
  70
    32
  0
VERTEX
  8
SAPA_ANSLUTNING
  5
1E11
 10
80.7650
 20
37.4277
 30
0.000000
  70
    32
  0
VERTEX
  8
SAPA_ANSLUTNING
  5
1E12
 10
80.7063
 20
37.9008
 30
0.000000
  70
    32
  0
VERTEX
  8
SAPA_ANSLUTNING
  5
1E13
 10
80.6372
 20
38.3668
 30
0.000000
  70
    32
  0
VERTEX
  8
SAPA_ANSLUTNING
  5
1E14
 10
80.5580
 20
38.8248
 30
0.000000
  70
    32
  0
VERTEX
  8
SAPA_ANSLUTNING
  5
1E15
 10
80.4687
 20
39.2736
 30
0.000000
  70
    32
  0
VERTEX
  8
SAPA_ANSLUTNING
  5
1E16
 10
80.3696
 20
39.7120
 30
0.000000
  70
    32
  0
VERTEX
  8
SAPA_ANSLUTNING
  5
1E17
 10
80.2609
 20
40.1391
 30
0.000000
  70
    32
  0
VERTEX
  8
SAPA_ANSLUTNING
  5
1E18
 10
80.1430
 20
40.5539
 30
0.000000
  70
    32
  0
VERTEX
  8
SAPA_ANSLUTNING
  5
1E19
 10
80.0160
 20
40.9552
 30
0.000000
  70
    32
  0
VERTEX
  8
SAPA_ANSLUTNING
  5
1E1A
 10
79.8803
 20
41.3422
 30
0.000000
  70
    32
  0
VERTEX
  8
SAPA_ANSLUTNING
  5
1E1B
 10
79.7362
 20
41.7140
 30
0.000000
  70
    32
  0
VERTEX
  8
SAPA_ANSLUTNING
  5
1E1C
 10
79.5841
 20
42.0695
 30
0.000000
  70
    32
  0
VERTEX
  8
SAPA_ANSLUTNING
  5
1E1D
 10
79.4243
 20
42.4080
 30
0.000000
  70
    32
  0
VERTEX
  8
SAPA_ANSLUTNING
  5
1E1E
 10
79.2572
 20
42.7287
 30
0.000000
  70
    32
  0
VERTEX
  8
SAPA_ANSLUTNING
  5
1E1F
 10
79.0832
 20
43.0308
 30
0.000000
  70
    32
  0
VERTEX
  8
SAPA_ANSLUTNING
  5
1E20
 10
78.9028
 20
43.3135
 30
0.000000
  70
    32
  0
VERTEX
  8
SAPA_ANSLUTNING
  5
1E21
 10
78.7163
 20
43.5762
 30
0.000000
  70
    32
  0
VERTEX
  8
SAPA_ANSLUTNING
  5
1E22
 10
78.5242
 20
43.8182
 30
0.000000
  70
    32
  0
VERTEX
  8
SAPA_ANSLUTNING
  5
1E23
 10
78.3270
 20
44.0390
 30
0.000000
  70
    32
  0
VERTEX
  8
SAPA_ANSLUTNING
  5
1E24
 10
78.1252
 20
44.2380
 30
0.000000
  70
    32
  0
VERTEX
  8
SAPA_ANSLUTNING
  5
1E25
 10
77.9192
 20
44.4147
 30
0.000000
  70
    32
  0
VERTEX
  8
SAPA_ANSLUTNING
  5
1E26
 10
77.7096
 20
44.5688
 30
0.000000
  70
    32
  0
VERTEX
  8
SAPA_ANSLUTNING
  5
1E27
 10
77.4968
 20
44.6998
 30
0.000000
  70
    32
  0
VERTEX
  8
SAPA_ANSLUTNING
  5
1E28
 10
77.2813
 20
44.8074
 30
0.000000
  70
    32
  0
VERTEX
  8
SAPA_ANSLUTNING
  5
1E29
 10
77.0637
 20
44.8914
 30
0.000000
  70
    32
  0
VERTEX
  8
SAPA_ANSLUTNING
  5
1E2A
 10
76.8446
 20
44.9516
 30
0.000000
  70
    32
  0
VERTEX
  8
SAPA_ANSLUTNING
  5
1E2B
 10
76.6243
 20
44.9878
 30
0.000000
  70
    32
  0
VERTEX
  8
SAPA_ANSLUTNING
  5
1E2C
 10
76.4035
 20
45.0000
 30
0.000000
  70
    32
  0
VERTEX
  8
SAPA_ANSLUTNING
  5
1E2D
 10
76.1827
 20
44.9881
 30
0.000000
  70
    32
  0
VERTEX
  8
SAPA_ANSLUTNING
  5
1E2E
 10
75.9624
 20
44.9521
 30
0.000000
  70
    32
  0
VERTEX
  8
SAPA_ANSLUTNING
  5
1E2F
 10
75.7432
 20
44.8921
 30
0.000000
  70
    32
  0
VERTEX
  8
SAPA_ANSLUTNING
  5
1E30
 10
75.5255
 20
44.8083
 30
0.000000
  70
    32
  0
VERTEX
  8
SAPA_ANSLUTNING
  5
1E31
 10
75.3100
 20
44.7008
 30
0.000000
  70
    32
  0
VERTEX
  8
SAPA_ANSLUTNING
  5
1E32
 10
75.0970
 20
44.5700
 30
0.000000
  70
    32
  0
VERTEX
  8
SAPA_ANSLUTNING
  5
1E33
 10
74.8872
 20
44.4162
 30
0.000000
  70
    32
  0
VERTEX
  8
SAPA_ANSLUTNING
  5
1E34
 10
74.6811
 20
44.2396
 30
0.000000
  70
    32
  0
VERTEX
  8
SAPA_ANSLUTNING
  5
1E35
 10
74.4790
 20
44.0408
 30
0.000000
  70
    32
  0
VERTEX
  8
SAPA_ANSLUTNING
  5
1E36
 10
74.2817
 20
43.8202
 30
0.000000
  70
    32
  0
VERTEX
  8
SAPA_ANSLUTNING
  5
1E37
 10
74.0894
 20
43.5784
 30
0.000000
  70
    32
  0
VERTEX
  8
SAPA_ANSLUTNING
  5
1E38
 10
73.9026
 20
43.3159
 30
0.000000
  70
    32
  0
VERTEX
  8
SAPA_ANSLUTNING
  5
1E39
 10
73.7219
 20
43.0334
 30
0.000000
  70
    32
  0
VERTEX
  8
SAPA_ANSLUTNING
  5
1E3A
 10
73.5476
 20
42.7315
 30
0.000000
  70
    32
  0
VERTEX
  8
SAPA_ANSLUTNING
  5
1E3B
 10
73.3802
 20
42.4110
 30
0.000000
  70
    32
  0
VERTEX
  8
SAPA_ANSLUTNING
  5
1E3C
 10
73.2201
 20
42.0726
 30
0.000000
  70
    32
  0
VERTEX
  8
SAPA_ANSLUTNING
  5
1E3D
 10
73.0676
 20
41.7172
 30
0.000000
  70
    32
  0
VERTEX
  8
SAPA_ANSLUTNING
  5
1E3E
 10
72.9232
 20
41.3456
 30
0.000000
  70
    32
  0
VERTEX
  8
SAPA_ANSLUTNING
  5
1E3F
 10
72.7871
 20
40.9588
 30
0.000000
  70
    32
  0
VERTEX
  8
SAPA_ANSLUTNING
  5
1E40
 10
72.6597
 20
40.5575
 30
0.000000
  70
    32
  0
VERTEX
  8
SAPA_ANSLUTNING
  5
1E41
 10
72.5414
 20
40.1429
 30
0.000000
  70
    32
  0
VERTEX
  8
SAPA_ANSLUTNING
  5
1E42
 10
72.4323
 20
39.7159
 30
0.000000
  70
    32
  0
VERTEX
  8
SAPA_ANSLUTNING
  5
1E43
 10
72.3328
 20
39.2775
 30
0.000000
  70
    32
  0
VERTEX
  8
SAPA_ANSLUTNING
  5
1E44
 10
72.2430
 20
38.8289
 30
0.000000
  70
    32
  0
VERTEX
  8
SAPA_ANSLUTNING
  5
1E45
 10
72.1633
 20
38.3710
 30
0.000000
  70
    32
  0
VERTEX
  8
SAPA_ANSLUTNING
  5
1E46
 10
72.0938
 20
37.9049
 30
0.000000
  70
    32
  0
VERTEX
  8
SAPA_ANSLUTNING
  5
1E47
 10
72.0347
 20
37.4319
 30
0.000000
  70
    32
  0
VERTEX
  8
SAPA_ANSLUTNING
  5
1E48
 10
71.9861
 20
36.9531
 30
0.000000
  70
    32
  0
VERTEX
  8
SAPA_ANSLUTNING
  5
1E49
 10
71.9481
 20
36.4695
 30
0.000000
  70
    32
  0
VERTEX
  8
SAPA_ANSLUTNING
  5
1E4A
 10
71.9208
 20
35.9824
 30
0.000000
  70
    32
  0
VERTEX
  8
SAPA_ANSLUTNING
  5
1E4B
 10
71.9043
 20
35.4929
 30
0.000000
  70
    32
  0
VERTEX
  8
SAPA_ANSLUTNING
  5
1E4C
 10
71.8986
 20
35.0022
 30
0.000000
  70
    32
  0
VERTEX
  8
SAPA_ANSLUTNING
  5
1E4D
 10
71.9038
 20
34.5115
 30
0.000000
  70
    32
  0
VERTEX
  8
SAPA_ANSLUTNING
  5
1E4E
 10
71.9198
 20
34.0220
 30
0.000000
  70
    32
  0
VERTEX
  8
SAPA_ANSLUTNING
  5
1E4F
 10
71.9466
 20
33.5349
 30
0.000000
  70
    32
  0
VERTEX
  8
SAPA_ANSLUTNING
  5
1E50
 10
71.9842
 20
33.0512
 30
0.000000
  70
    32
  0
VERTEX
  8
SAPA_ANSLUTNING
  5
1E51
 10
72.0323
 20
32.5723
 30
0.000000
  70
    32
  0
VERTEX
  8
SAPA_ANSLUTNING
  5
1E52
 10
72.0910
 20
32.0992
 30
0.000000
  70
    32
  0
VERTEX
  8
SAPA_ANSLUTNING
  5
1E53
 10
72.1601
 20
31.6332
 30
0.000000
  70
    32
  0
VERTEX
  8
SAPA_ANSLUTNING
  5
1E54
 10
72.2393
 20
31.1752
 30
0.000000
  70
    32
  0
VERTEX
  8
SAPA_ANSLUTNING
  5
1E55
 10
72.3286
 20
30.7264
 30
0.000000
  70
    32
  0
VERTEX
  8
SAPA_ANSLUTNING
  5
1E56
 10
72.4277
 20
30.2880
 30
0.000000
  70
    32
  0
VERTEX
  8
SAPA_ANSLUTNING
  5
1E57
 10
72.5364
 20
29.8609
 30
0.000000
  70
    32
  0
VERTEX
  8
SAPA_ANSLUTNING
  5
1E58
 10
72.6543
 20
29.4461
 30
0.000000
  70
    32
  0
VERTEX
  8
SAPA_ANSLUTNING
  5
1E59
 10
72.7813
 20
29.0448
 30
0.000000
  70
    32
  0
VERTEX
  8
SAPA_ANSLUTNING
  5
1E5A
 10
72.9170
 20
28.6578
 30
0.000000
  70
    32
  0
VERTEX
  8
SAPA_ANSLUTNING
  5
1E5B
 10
73.0611
 20
28.2860
 30
0.000000
  70
    32
  0
VERTEX
  8
SAPA_ANSLUTNING
  5
1E5C
 10
73.2132
 20
27.9305
 30
0.000000
  70
    32
  0
VERTEX
  8
SAPA_ANSLUTNING
  5
1E5D
 10
73.3730
 20
27.5920
 30
0.000000
  70
    32
  0
VERTEX
  8
SAPA_ANSLUTNING
  5
1E5E
 10
73.5401
 20
27.2713
 30
0.000000
  70
    32
  0
VERTEX
  8
SAPA_ANSLUTNING
  5
1E5F
 10
73.7141
 20
26.9692
 30
0.000000
  70
    32
  0
VERTEX
  8
SAPA_ANSLUTNING
  5
1E60
 10
73.8945
 20
26.6865
 30
0.000000
  70
    32
  0
VERTEX
  8
SAPA_ANSLUTNING
  5
1E61
 10
74.0810
 20
26.4238
 30
0.000000
  70
    32
  0
VERTEX
  8
SAPA_ANSLUTNING
  5
1E62
 10
74.2731
 20
26.1818
 30
0.000000
  70
    32
  0
VERTEX
  8
SAPA_ANSLUTNING
  5
1E63
 10
74.4702
 20
25.9610
 30
0.000000
  70
    32
  0
VERTEX
  8
SAPA_ANSLUTNING
  5
1E64
 10
74.6721
 20
25.7620
 30
0.000000
  70
    32
  0
VERTEX
  8
SAPA_ANSLUTNING
  5
1E65
 10
74.8781
 20
25.5853
 30
0.000000
  70
    32
  0
VERTEX
  8
SAPA_ANSLUTNING
  5
1E66
 10
75.0877
 20
25.4312
 30
0.000000
  70
    32
  0
VERTEX
  8
SAPA_ANSLUTNING
  5
1E67
 10
75.3005
 20
25.3002
 30
0.000000
  70
    32
  0
VERTEX
  8
SAPA_ANSLUTNING
  5
1E68
 10
75.5160
 20
25.1926
 30
0.000000
  70
    32
  0
VERTEX
  8
SAPA_ANSLUTNING
  5
1E69
 10
75.7335
 20
25.1086
 30
0.000000
  70
    32
  0
VERTEX
  8
SAPA_ANSLUTNING
  5
1E6A
 10
75.9527
 20
25.0484
 30
0.000000
  70
    32
  0
VERTEX
  8
SAPA_ANSLUTNING
  5
1E6B
 10
76.1730
 20
25.0122
 30
0.000000
  70
    32
  0
VERTEX
  8
SAPA_ANSLUTNING
  5
1E6C
 10
76.3938
 20
25.0000
 30
0.000000
  70
    32
  0
SEQEND
  8
SAPA_ANSLUTNING
  5
1E6D
  0
INSERT
  5
7F1
  8
SAPA_ANSLUTNING
  6
CONTINUOUS
  2
*X13
 10
0.0
 20
0.0
 30
0.0
1001
ACAD
1000
HATCH
1002
{
1070
    19
1000
ANSI37
1040
0.5
1040
0.0
1000
R14_HATCH_DATA
1000
7F1
1011
1.0
1021
0.0
1031
0.0
1021
0.0
1031
0.0
1011
0.0
1021
0.0
1031
0.0
1021
1.0
1031
0.0
1011
0.0
1021
0.0
1031
0.0
1021
0.0
1031
1.0
1040
0.0
1010
0.0
1020
0.0
1030
1.0
1000
ANSI37
1070
     0
1070
     0
1071
        1
1071
        5
1071
       12
1070
     1
1040
87.999999997568239
1040
44.999999999999439
1040
76.403510522025982
1040
44.999999999999439
1070
     3
1040
76.398642432859901
1040
34.999999999999453
1040
-0.004868089139265
1040
-10.00000000000003
1040
0.4499999466788522
1040
3.1415926535957608
1040
6.2827471789631941
1070
     0
1070
     1
1040
76.39574592086494
1040
24.999999999999979
1040
85.699999994418377
1040
24.999999999999989
1070
     2
1040
85.699999994418263
1040
25.300000000000061
1040
0.3000000000000682
1040
4.712388980385068
1040
6.2831853071799646
1070
     1
1070
     1
1040
85.999999994418317
1040
25.300000000000171
1040
85.999999994418317
1040
27.700000000000259
1070
     2
1040
85.699999994418491
1040
27.700000000000149
1040
0.2999999999998408
1040
0.000000000000379
1040
1.5707963267952749
1070
     1
1070
     1
1040
85.699999994418377
1040
27.999999999999989
1040
84.299999994418286
1040
27.999999999999989
1070
     2
1040
84.299999994418314
1040
28.300000000000161
1040
0.3000000000001686
1040
1.570796326795038
1040
3.696111167335602
1070
     0
1070
     1
1040
84.044953777108176
1040
28.457960207128039
1040
84.941352754350319
1040
29.90530680475193
1070
     2
1040
85.111383565890222
1040
29.800000000000079
1040
0.1999999999999044
1040
3.696111167335804
1040
4.7123889803855423
1070
     0
1070
     1
1040
85.111383565890392
1040
29.999999999999989
1040
87.799999997568094
1040
29.999999999999989
1070
     2
1040
118.5364321870348
1040
37.091514237473177
1040
31.543903339916149
1040
2.9148404054335511
1040
3.3950099883343459
1070
     0
1071
        0
1070
     0
1070
     1
1040
0.0
1040
0.5
1070
     0
1070
     2
1040
0.7853981633974483
1040
0.0
1040
0.0
1040
-1.1225320151336431
1040
1.122532015133644
1070
     0
1040
2.3561944901923439
1040
0.0
1040
0.0
1040
-1.122532015133644
1040
-1.1225320151336431
1070
     0
1040
0.057882035285277
1071
        1
1040
84.116595225523554
1040
37.399851660857479
1040
0.0
1002
}
  0
INSERT
  5
951
  8
SAPA_ANSLUTNING
  6
CONTINUOUS
  2
*X14
 10
0.0
 20
0.0
 30
0.0
1001
ACAD
1000
HATCH
1002
{
1070
    19
1000
HEX
1040
0.25
1040
0.0
1000
R14_HATCH_DATA
1000
951
1011
1.0
1021
0.0
1031
0.0
1021
0.0
1031
0.0
1011
0.0
1021
0.0
1031
0.0
1021
1.0
1031
0.0
1011
0.0
1021
0.0
1031
0.0
1021
0.0
1031
1.0
1040
0.0
1010
0.0
1020
0.0
1030
1.0
1000
HEX
1070
     0
1070
     0
1071
        1
1071
        5
1071
        4
1070
     3
1040
76.398642432859901
1040
34.999999999999453
1040
-0.004868089139265
1040
-10.00000000000003
1040
0.4499999466788522
1040
0.000438128216392
1040
3.1415926535838241
1070
     1
1070
     1
1040
76.403510522025996
1040
44.999999999999439
1040
76.401538945965498
1040
44.999999999999439
1070
     3
1040
76.398642432859901
1040
34.999999999999453
1040
-0.004868089139265
1040
-10.00000000000003
1040
0.4499999466788522
1040
3.1420307815593711
1040
6.2831853069268027
1070
     1
1070
     1
1040
76.393774342583114
1040
24.999999999999979
1040
76.395745920864911
1040
24.999999999999979
1071
        0
1070
     0
1070
     1
1040
0.0
1040
0.25
1070
     0
1070
     3
1040
0.0
1040
0.0
1040
0.0
1040
0.0
1040
1.374814999999999
1070
     2
1040
0.79375
1040
-1.587499999999999
1040
2.0943951023931948
1040
0.0
1040
0.0
1040
-1.190624715503902
1040
-0.6874074999999996
1070
     2
1040
0.7937499999999998
1040
-1.587499999999999
1040
1.047197551196597
1040
0.79375
1040
0.0
1040
-1.190624715503902
1040
0.6874075000000001
1070
     2
1040
0.79375
1040
-1.587499999999999
1040
0.057882035285277
1071
        1
1040
76.76159473045584
1040
36.24221093346182
1040
0.0
1002
}
  0
INSERT
  5
A50
  8
SAPA_ANSLUTNING
  6
CONTINUOUS
  2
*X15
 10
0.0
 20
0.0
 30
0.0
1001
ACAD
1000
HATCH
1002
{
1070
    19
1000
HEX
1040
0.25
1040
0.0
1000
ASC_BOUNDS
1070
     1
1070
     1
1070
     1
1005
6E7
1000
ASC_SEEDPOINT
1011
27.86941211791321
1021
0.0
1031
0.0
1021
35.778520239113561
1031
0.0
1000
R14_HATCH_DATA
1000
A50
1011
1.0
1021
0.0
1031
0.0
1021
0.0
1031
0.0
1011
0.0
1021
0.0
1031
0.0
1021
1.0
1031
0.0
1011
0.0
1021
0.0
1031
0.0
1021
0.0
1031
1.0
1040
0.0
1010
0.0
1020
0.0
1030
1.0
1000
HEX
1070
     0
1070
     1
1071
        1
1071
        7
1070
     0
1070
     1
1071
        4
1040
32.000000000718117
1040
44.999999999999432
1040
23.243323029157711
1040
44.999999999999432
1040
23.243323029157711
1040
24.99999999999082
1040
32.000000000718117
1040
24.99999999999082
1071
        1
1005
6E7
1070
     0
1070
     1
1040
0.0
1040
0.25
1070
     0
1070
     3
1040
0.0
1040
0.0
1040
0.0
1040
0.0
1040
1.374814999999999
1070
     2
1040
0.79375
1040
-1.587499999999999
1040
2.0943951023931948
1040
0.0
1040
0.0
1040
-1.190624715503902
1040
-0.6874074999999996
1070
     2
1040
0.7937499999999998
1040
-1.587499999999999
1040
1.047197551196597
1040
0.79375
1040
0.0
1040
-1.190624715503902
1040
0.6874075000000001
1070
     2
1040
0.79375
1040
-1.587499999999999
1040
0.1038756628916797
1071
        1
1040
27.86941211791321
1040
35.778520239113561
1040
0.0
1002
}
  0
LINE
  5
1009
  8
SAPA_ANSLUTNING
  6
NEWDOT
 10
-117.99999999928249
 20
-65.543828313683704
 30
0.0
 11
265.76071821576289
 21
-65.543828313683733
 31
0.0
  0
INSERT
  5
1363
  8
SAPA_ANSLUTNING
  6
CONTINUOUS
  2
*X16
 10
0.0
 20
0.0
 30
0.0
1001
ACAD
1000
HATCH
1002
{
1070
    19
1000
ANSI31
1040
100.0
1040
0.0
1000
R14_HATCH_DATA
1000
1363
1011
1.0
1021
0.0
1031
0.0
1021
0.0
1031
0.0
1011
0.0
1021
0.0
1031
0.0
1021
1.0
1031
0.0
1011
0.0
1021
0.0
1031
0.0
1021
0.0
1031
1.0
1040
0.0
1010
0.0
1020
0.0
1030
1.0
1000
ANSI31
1070
     0
1070
     0
1071
        1
1071
        7
1070
     0
1070
     1
1071
        4
1040
-8.0333294443794312
1040
154.9999999999994
1040
-108.0333294443794
1040
154.9999999999994
1040
-108.0333294443794
1040
104.9999999999994
1040
-8.0333294443794312
1040
104.9999999999994
1071
        0
1070
     0
1070
     1
1040
0.0
1040
100.0
1070
     0
1070
     1
1040
0.7853981633974483
1040
-349.91481895107842
1040
-123.3834349390588
1040
-8.8388347648318426
1040
8.8388347648318444
1070
     0
1040
1.537758508788327
1071
        1
1040
-55.13469429957194
1040
132.72638234834571
1040
0.0
1002
}
  0
POLYLINE
  5
1364
  8
SAPA_ANSLUTNING
 66
     1
 10
0.0
 20
0.0
 30
0.0
 70
     1
  0
VERTEX
  5
1718
  8
SAPA_ANSLUTNING
 10
-108.0333294443794
 20
154.9999999999994
 30
0.0
  0
VERTEX
  5
1719
  8
SAPA_ANSLUTNING
 10
-108.0333294443794
 20
104.9999999999994
 30
0.0
  0
VERTEX
  5
171A
  8
SAPA_ANSLUTNING
 10
-8.0333294443794312
 20
104.9999999999994
 30
0.0
  0
VERTEX
  5
171B
  8
SAPA_ANSLUTNING
 10
-8.0333294443794312
 20
154.9999999999994
 30
0.0
  0
SEQEND
  5
171C
  8
SAPA_ANSLUTNING
  0
POLYLINE
  5
1365
  8
SAPA_ANSLUTNING
  6
NEWDOT
 66
     1
 10
0.0
 20
0.0
 30
0.0
  0
VERTEX
  5
171D
  8
SAPA_ANSLUTNING
  6
NEWDOT
 10
-118.03332944437931
 20
165.3798705268041
 30
0.0
  0
VERTEX
  5
171E
  8
SAPA_ANSLUTNING
  6
NEWDOT
 10
265.76071821576289
 20
165.37987052680401
 30
0.0
  0
SEQEND
  5
171F
  8
SAPA_ANSLUTNING
  6
NEWDOT
  0
INSERT
  5
136C
  8
SAPA_ANSLUTNING
  6
CONTINUOUS
  2
*X17
 10
0.0
 20
0.0
 30
0.0
1001
ACAD
1000
HATCH
1002
{
1070
    19
1000
ANSI31
1040
100.0
1040
0.0
1000
R14_HATCH_DATA
1000
136C
1011
1.0
1021
0.0
1031
0.0
1021
0.0
1031
0.0
1011
0.0
1021
0.0
1031
0.0
1021
1.0
1031
0.0
1011
0.0
1021
0.0
1031
0.0
1021
0.0
1031
1.0
1040
0.0
1010
0.0
1020
0.0
1030
1.0
1000
ANSI31
1070
     0
1070
     0
1071
        1
1071
        7
1070
     0
1070
     1
1071
        4
1040
-8.0333294443794312
1040
94.999999999999432
1040
-108.0333294443794
1040
94.999999999999432
1040
-108.0333294443794
1040
44.999999999999432
1040
-8.0333294443794312
1040
44.999999999999432
1071
        0
1070
     0
1070
     1
1040
0.0
1040
100.0
1070
     0
1070
     1
1040
0.7853981633974483
1040
-349.91481895107842
1040
-123.3834349390588
1040
-8.8388347648318426
1040
8.8388347648318444
1070
     0
1040
1.537758508788327
1071
        1
1040
-56.673501667007251
1040
63.527249866523441
1040
0.0
1002
}
  0
POLYLINE
  5
136D
  8
SAPA_ANSLUTNING
 66
     1
 10
0.0
 20
0.0
 30
0.0
 70
     1
  0
VERTEX
  5
172B
  8
SAPA_ANSLUTNING
 10
-108.0333294443794
 20
94.999999999999432
 30
0.0
  0
VERTEX
  5
172C
  8
SAPA_ANSLUTNING
 10
-108.0333294443794
 20
44.999999999999432
 30
0.0
  0
VERTEX
  5
172D
  8
SAPA_ANSLUTNING
 10
-8.0333294443794312
 20
44.999999999999432
 30
0.0
  0
VERTEX
  5
172E
  8
SAPA_ANSLUTNING
 10
-8.0333294443794312
 20
94.999999999999432
 30
0.0
  0
SEQEND
  5
172F
  8
SAPA_ANSLUTNING
  0
POLYLINE
  5
136F
  8
SAPA_ANSLUTNING
 66
     1
 10
0.0
 20
0.0
 30
0.0
  0
VERTEX
  5
1730
  8
SAPA_ANSLUTNING
 10
-103.0333294443794
 20
94.999999999999432
 30
0.0
  0
VERTEX
  5
1731
  8
SAPA_ANSLUTNING
 10
-103.0333294443794
 20
104.9999999999994
 30
0.0
  0
SEQEND
  5
1732
  8
SAPA_ANSLUTNING
  0
POLYLINE
  5
1370
  8
SAPA_ANSLUTNING
 66
     1
 10
0.0
 20
0.0
 30
0.0
  0
VERTEX
  5
1733
  8
SAPA_ANSLUTNING
 10
-103.0333294443794
 20
154.9999999999994
 30
0.0
  0
VERTEX
  5
1734
  8
SAPA_ANSLUTNING
 10
-103.0333294443794
 20
164.9999999999994
 30
0.0
  0
SEQEND
  5
1735
  8
SAPA_ANSLUTNING
  0
POLYLINE
  5
13B3
  8
SAPA_ANSLUTNING
 66
     1
 10
0.0
 20
0.0
 30
0.0
  0
VERTEX
  5
1736
  8
SAPA_ANSLUTNING
 10
-8.0333294443794312
 20
94.754367859994204
 30
0.0
  0
VERTEX
  5
1737
  8
SAPA_ANSLUTNING
 10
-8.0333294443794312
 20
104.9999999999994
 30
0.0
  0
SEQEND
  5
1738
  8
SAPA_ANSLUTNING
  0
POLYLINE
  5
13B4
  8
SAPA_ANSLUTNING
 66
     1
 10
0.0
 20
0.0
 30
0.0
  0
VERTEX
  5
1739
  8
SAPA_ANSLUTNING
 10
-8.0333294443794312
 20
154.9999999999994
 30
0.0
  0
VERTEX
  5
173A
  8
SAPA_ANSLUTNING
 10
-8.0333294443794312
 20
164.9999999999994
 30
0.0
  0
SEQEND
  5
173B
  8
SAPA_ANSLUTNING
  0
POLYLINE
  5
13BC
  8
SAPA_ANSLUTNING
 66
     1
 10
0.0
 20
0.0
 30
0.0
  0
VERTEX
  5
173C
  8
SAPA_ANSLUTNING
 10
-8.0333294443794312
 20
34.258972253928391
 30
0.0
  0
VERTEX
  5
173D
  8
SAPA_ANSLUTNING
 10
-8.0333294443794312
 20
34.999999999999432
 30
0.0
  0
VERTEX
  5
173E
  8
SAPA_ANSLUTNING
 10
-108.0333294443794
 20
34.999999999999432
 30
0.0
  0
VERTEX
  5
173F
  8
SAPA_ANSLUTNING
 10
-108.0333294443794
 20
-15.00000000000057
 30
0.0
  0
VERTEX
  5
1740
  8
SAPA_ANSLUTNING
 10
-19.477254451161571
 20
-15.00000000000057
 30
0.0
  0
SEQEND
  5
1741
  8
SAPA_ANSLUTNING
  0
POLYLINE
  5
13BD
  8
SAPA_ANSLUTNING
 66
     1
 10
0.0
 20
0.0
 30
0.0
  0
VERTEX
  5
1742
  8
SAPA_ANSLUTNING
 10
-103.0333294443794
 20
34.999999999999432
 30
0.0
  0
VERTEX
  5
1743
  8
SAPA_ANSLUTNING
 10
-103.0333294443794
 20
44.999999999999432
 30
0.0
  0
SEQEND
  5
1744
  8
SAPA_ANSLUTNING
  0
POLYLINE
  5
13BE
  8
SAPA_ANSLUTNING
 66
     1
 10
0.0
 20
0.0
 30
0.0
  0
VERTEX
  5
1745
  8
SAPA_ANSLUTNING
 10
-8.0333294443794312
 20
34.754367859994197
 30
0.0
  0
VERTEX
  5
1746
  8
SAPA_ANSLUTNING
 10
-8.0333294443794312
 20
44.999999999999432
 30
0.0
  0
SEQEND
  5
1747
  8
SAPA_ANSLUTNING
  0
POLYLINE
  5
13BF
  8
SAPA_ANSLUTNING
 66
     1
 10
0.0
 20
0.0
 30
0.0
  0
VERTEX
  5
1748
  8
SAPA_ANSLUTNING
 10
-103.0333294443794
 20
-25.000000000000568
 30
0.0
  0
VERTEX
  5
1749
  8
SAPA_ANSLUTNING
 10
-103.0333294443794
 20
-15.00000000000057
 30
0.0
  0
SEQEND
  5
174A
  8
SAPA_ANSLUTNING
  0
POLYLINE
  5
13C0
  8
SAPA_ANSLUTNING
 66
     1
 10
0.0
 20
0.0
 30
0.0
  0
VERTEX
  5
174B
  8
SAPA_ANSLUTNING
 10
-19.477254451161571
 20
-25.000000000000568
 30
0.0
  0
VERTEX
  5
174C
  8
SAPA_ANSLUTNING
 10
-108.0333294443794
 20
-25.000000000000568
 30
0.0
  0
VERTEX
  5
174D
  8
SAPA_ANSLUTNING
 10
-108.0333294443794
 20
-65.543828313683704
 30
0.0
  0
SEQEND
  5
174E
  8
SAPA_ANSLUTNING
  0
LINE
  5
13C7
  8
SAPA_ANSLUTNING
 10
254.00000000071739
 20
25.999999999999648
 30
0.0
 11
254.00000000071739
 21
-65.543828313683733
 31
0.0
  0
LINE
  5
13CA
  8
SAPA_ANSLUTNING
 10
14.00000000071736
 20
89.999999999999432
 30
0.0
 11
14.00000000071736
 21
164.9999999999994
 31
0.0
  0
POLYLINE
  5
13CC
  8
SAPA_ANSLUTNING
 66
     1
 10
0.0
 20
0.0
 30
0.0
  0
VERTEX
  5
174F
  8
SAPA_ANSLUTNING
 10
128.63094579235499
 20
89.999999999999659
 30
0.0
 42
0.7343016746134183
  0
VERTEX
  5
1750
  8
SAPA_ANSLUTNING
 10
122.918021693504
 20
108.2074660060678
 30
0.0
  0
VERTEX
  5
1751
  8
SAPA_ANSLUTNING
 10
25.62079679405111
 20
108.2074660060678
 30
0.0
 42
-0.9999999999999998
  0
VERTEX
  5
1752
  8
SAPA_ANSLUTNING
 10
25.62079679405111
 20
128.20746600606779
 30
0.0
  0
VERTEX
  5
1753
  8
SAPA_ANSLUTNING
 10
122.918021693504
 20
128.20746600606779
 30
0.0
 42
0.9999999999999998
  0
VERTEX
  5
1754
  8
SAPA_ANSLUTNING
 10
122.918021693504
 20
148.20746600606779
 30
0.0
  0
VERTEX
  5
1755
  8
SAPA_ANSLUTNING
 10
25.62079679405111
 20
148.20746600606779
 30
0.0
 42
-0.6734115168029874
  0
VERTEX
  5
1756
  8
SAPA_ANSLUTNING
 10
18.65253923631667
 20
165.3798705268041
 30
0.0
 42
-0.6734115168029874
  0
SEQEND
  5
1757
  8
SAPA_ANSLUTNING
  0
POLYLINE
  5
13CD
  8
SAPA_ANSLUTNING
 66
     1
 10
0.0
 20
0.0
 30
0.0
 70
     1
  0
VERTEX
  5
1758
  8
SAPA_ANSLUTNING
 10
14.00000000071736
 20
89.999999999999432
 30
0.0
  0
VERTEX
  5
1759
  8
SAPA_ANSLUTNING
 10
134.00000000071731
 20
89.999999999999432
 30
0.0
  0
VERTEX
  5
175A
  8
SAPA_ANSLUTNING
 10
134.00000000071731
 20
44.999999999999432
 30
0.0
  0
VERTEX
  5
175B
  8
SAPA_ANSLUTNING
 10
14.00000000071736
 20
44.999999999999432
 30
0.0
  0
SEQEND
  5
175C
  8
SAPA_ANSLUTNING
  0
LINE
  5
13CE
  8
SAPA_ANSLUTNING
 10
14.00000000071736
 20
89.999999999999432
 30
0.0
 11
134.00000000071731
 21
44.999999999999432
 31
0.0
  0
LINE
  5
13CF
  8
SAPA_ANSLUTNING
 10
14.00000000071736
 20
44.999999999999432
 30
0.0
 11
134.00000000071731
 21
89.999999999999432
 31
0.0
  0
LINE
  5
13D0
  8
SAPA_ANSLUTNING
 10
134.00000000071731
 20
165.37987052680401
 30
0.0
 11
134.00000000071731
 21
44.999999999999432
 31
0.0
  0
INSERT
  5
13D1
  8
SAPA_ANSLUTNING
  6
CONTINUOUS
  2
*X18
 10
0.0
 20
0.0
 30
0.0
1001
ACAD
1000
HATCH
1002
{
1070
    19
1000
AR-CONC
1040
5.0
1040
0.0
1000
R14_HATCH_DATA
1000
13D1
1011
1.0
1021
0.0
1031
0.0
1021
0.0
1031
0.0
1011
0.0
1021
0.0
1031
0.0
1021
1.0
1031
0.0
1011
0.0
1021
0.0
1031
0.0
1021
0.0
1031
1.0
1040
0.0
1010
0.0
1020
0.0
1030
1.0
1000
AR-CONC
1070
     0
1070
     0
1071
        1
1071
        7
1070
     0
1070
     1
1071
        4
1040
254.88717553295669
1040
44.999999999999311
1040
254.88717553295669
1040
164.99999999999949
1040
134.88717553295669
1040
164.99999999999949
1040
134.88717553295669
1040
44.999999999999311
1071
        0
1070
     0
1070
     1
1040
0.0
1040
5.0
1070
     0
1070
    13
1040
0.8726646259971645
1040
-788.65331457907746
1040
-589.17467679437675
1040
35.863009130037682
1040
-3.137606749129755
1070
     2
1040
3.75
1040
-41.25
1040
6.195918844579869
1040
-788.65331457907746
1040
-589.17467679437675
1040
-6.9375666806499998
1040
37.6096066850006
1070
     2
1040
3.0
1040
-33.0
1040
1.753207668237831
1040
-785.66473057907751
1040
-589.4361437943769
1040
28.925469085701081
1040
34.471977103047678
1070
     2
1040
3.1870094999999958
1040
-35.057105599999943
1040
0.8060663523995651
1040
-788.65331457907746
1040
-579.17467679437675
1040
53.362052431282223
1040
-8.2759507164509039
1070
     2
1040
5.625
1040
-61.875
1040
1.686609394640231
1040
-784.20647732907742
1040
-579.86434214437679
1040
46.73313527743516
1040
48.705893545022079
1070
     2
1040
4.7805143999999906
1040
-52.58564999999993
1040
6.1293205709822702
1040
-788.65331457907746
1040
-579.17467679437675
1040
46.733097256681347
1040
48.705930046266232
1070
     2
1040
4.5
1040
-49.5
1040
0.3665191429188092
1040
-783.65331457907746
1040
-581.67467679437675
1040
29.845352605923079
1040
-20.130944533266941
1070
     2
1040
3.75
1040
-41.25
1040
5.6897733615015138
1040
-783.65331457907746
1040
-581.67467679437675
1040
12.165766596079081
1040
36.257502252342647
1070
     2
1040
3.0
1040
-33.0
1040
1.2470621851594761
1040
-781.16620292907749
1040
-583.35225709437691
1040
42.011131429074489
1040
16.126524835497619
1070
     2
1040
3.1870094999999998
1040
-35.0571056
1040
0.6544984694978737
1040
-788.65331457907746
1040
-589.17467679437675
1040
0.6079927658645336
1040
16.64469269156557
1070
     6
1040
0.0
1040
-32.600000000000001
1040
0.0
1040
-33.5
1040
0.0
1040
-33.125
1040
0.1308996938995747
1040
-788.65331457907746
1040
-589.17467679437675
1040
13.153476872107429
1040
19.72058559411801
1070
     6
1040
0.0
1040
-19.100000000000001
1040
0.0
1040
-31.850000000000001
1040
0.0
1040
-12.625
1040
5.715953300281428
1040
-799.80331457907744
1040
-589.17467679437675
1040
26.691121808620451
1040
-1.1277435867189891
1070
     6
1040
0.0
1040
-12.5
1040
0.0
1040
-39.0
1040
0.0
1040
-51.75
1040
5.5414203750819961
1040
-804.80331457907755
1040
-589.17467679437675
1040
29.15930846711931
1040
5.0052491166158823
1070
     6
1040
0.0
1040
-16.25
1040
0.0
1040
-25.899999999999999
1040
0.0
1040
-36.75
1040
1.628993168355489
1071
        1
1040
197.27807394324799
1040
96.940318560295054
1040
0.0
1002
}
  0
POLYLINE
  5
13D2
  8
SAPA_ANSLUTNING
 66
     1
 10
0.0
 20
0.0
 30
0.0
 70
     1
  0
VERTEX
  5
182C
  8
SAPA_ANSLUTNING
 10
259.00000000071742
 20
25.999999999999648
 30
0.0
  0
VERTEX
  5
182D
  8
SAPA_ANSLUTNING
 10
87.999999965109282
 20
25.999999999999758
 30
0.0
  0
VERTEX
  5
182E
  8
SAPA_ANSLUTNING
 10
87.999999965109282
 20
43.999999999999758
 30
0.0
  0
VERTEX
  5
182F
  8
SAPA_ANSLUTNING
 10
259.00000000071742
 20
43.999999999999652
 30
0.0
  0
SEQEND
  5
1830
  8
SAPA_ANSLUTNING
  0
LINE
  5
13D3
  8
SAPA_ANSLUTNING
 10
254.00000000071739
 20
43.999999999999652
 30
0.0
 11
254.00000000071739
 21
165.37987052680401
 31
0.0
  0
POLYLINE
  5
13DE
  8
SAPA_ANSLUTNING
  6
CONTINUOUS
 66
     1
 10
0.0
 20
0.0
 30
0.0
  0
VERTEX
  5
1831
  8
SAPA_ANSLUTNING
  6
CONTINUOUS
 10
13.00000000071736
 20
39.894835892879769
 30
0.0
  0
VERTEX
  5
1832
  8
SAPA_ANSLUTNING
  6
CONTINUOUS
 10
-26.378214005742851
 20
29.343475250468941
 30
0.0
  0
VERTEX
  5
1833
  8
SAPA_ANSLUTNING
  6
CONTINUOUS
 10
-26.378214005742851
 20
20.025989626778141
 30
0.0
  0
VERTEX
  5
1834
  8
SAPA_ANSLUTNING
  6
CONTINUOUS
 10
-26.378214005742851
 20
3.2586626387991369
 30
0.0
  0
VERTEX
  5
1835
  8
SAPA_ANSLUTNING
  6
CONTINUOUS
 10
-22.378214005742851
 20
3.2586626387991369
 30
0.0
  0
VERTEX
  5
1836
  8
SAPA_ANSLUTNING
  6
CONTINUOUS
 10
-22.378214005742851
 20
7.2586626387991373
 30
0.0
  0
VERTEX
  5
1837
  8
SAPA_ANSLUTNING
  6
CONTINUOUS
 10
-23.378214005742851
 20
7.2586626387991373
 30
0.0
  0
VERTEX
  5
1838
  8
SAPA_ANSLUTNING
  6
CONTINUOUS
 10
-23.378214005742851
 20
4.2586626387991373
 30
0.0
  0
VERTEX
  5
1839
  8
SAPA_ANSLUTNING
  6
CONTINUOUS
 10
-25.378214005742851
 20
4.2586626387991373
 30
0.0
  0
VERTEX
  5
183A
  8
SAPA_ANSLUTNING
  6
CONTINUOUS
 10
-25.378214005742851
 20
19.258662638799141
 30
0.0
  0
VERTEX
  5
183B
  8
SAPA_ANSLUTNING
  6
CONTINUOUS
 10
14.00000000071736
 20
29.810023281210078
 30
0.0
  0
VERTEX
  5
183C
  8
SAPA_ANSLUTNING
  6
CONTINUOUS
 10
14.00000000071736
 20
79.620129473199881
 30
0.0
  0
VERTEX
  5
183D
  8
SAPA_ANSLUTNING
  6
CONTINUOUS
 10
13.00000000071736
 20
79.620129473199881
 30
0.0
  0
VERTEX
  5
183E
  8
SAPA_ANSLUTNING
  6
CONTINUOUS
 10
13.00000000071736
 20
30.577350269188969
 30
0.0
  0
VERTEX
  5
183F
  8
SAPA_ANSLUTNING
  6
CONTINUOUS
 10
-26.378214005742851
 20
20.025989626778141
 30
0.0
  0
SEQEND
  5
1840
  8
SAPA_ANSLUTNING
  6
CONTINUOUS
  0
LINE
  5
13DF
  8
SAPA_ANSLUTNING
 10
-19.477254451161571
 20
20.84875058391572
 30
0.0
 11
-19.47725445116151
 21
-65.543828313683704
 31
0.0
  0
LINE
  5
13E0
  8
SAPA_ANSLUTNING
 10
-14.477254451161571
 20
22.188496546071409
 30
0.0
 11
-14.477254451161571
 21
-65.543828313683704
 31
0.0
  0
LINE
  5
1410
  8
SAPA_ANSLUTNING
 10
134.27854957869349
 20
44.999999999999417
 30
0.0
 11
78.149906208227662
 21
44.999999999999417
 31
0.0
  0
LINE
  5
1411
  8
SAPA_ANSLUTNING
 10
87.099255473031334
 20
44.499999999997151
 30
0.0
 11
85.278549578693514
 21
44.49999999999703
 31
0.0
  0
LINE
  5
1413
  8
SAPA_ANSLUTNING
 10
135.00000000071771
 20
94.908801998170475
 30
0.0
 11
135.00000000071719
 21
43.999999999999652
 31
0.0
  0
LINE
  5
1414
  8
SAPA_ANSLUTNING
 10
134.00000000071711
 20
44.999999999999432
 30
0.0
 11
134.00000000071771
 21
94.908801998170475
 31
0.0
  0
LINE
  5
1415
  8
SAPA_ANSLUTNING
 10
134.5000000007168
 20
54.908801998170588
 30
0.0
 11
134.50000000071719
 21
44.999999999999417
 31
0.0
  0
LINE
  5
1416
  8
SAPA_ANSLUTNING
 10
115.2785495786935
 20
44.49999999999897
 30
0.0
 11
105.2785495786935
 21
44.499999999998742
 31
0.0
  0
LINE
  5
1417
  8
SAPA_ANSLUTNING
 10
95.278549578693514
 20
44.49999999999828
 30
0.0
 11
85.278549578693514
 21
44.49999999999806
 31
0.0
  0
LINE
  5
1418
  8
SAPA_ANSLUTNING
 10
85.278549578693514
 20
44.99999999999806
 30
0.0
 11
85.278549578693514
 21
43.999999999998053
 31
0.0
  0
LINE
  5
1419
  8
SAPA_ANSLUTNING
 10
95.278549578693514
 20
44.999999999998508
 30
0.0
 11
95.278549578693514
 21
43.99999999999828
 31
0.0
  0
LINE
  5
141A
  8
SAPA_ANSLUTNING
 10
105.2785495786935
 20
44.999999999998508
 30
0.0
 11
105.2785495786935
 21
43.999999999998742
 31
0.0
  0
LINE
  5
141B
  8
SAPA_ANSLUTNING
 10
115.2785495786935
 20
44.999999999998963
 30
0.0
 11
115.2785495786935
 21
43.99999999999897
 31
0.0
  0
LINE
  5
141C
  8
SAPA_ANSLUTNING
 10
135.00000000071719
 20
44.499999999999652
 30
0.0
 11
125.00000000071719
 21
44.499999999999417
 31
0.0
  0
LINE
  5
141D
  8
SAPA_ANSLUTNING
 10
125.00000000071719
 20
44.999999999999417
 30
0.0
 11
125.00000000071719
 21
43.999999999999417
 31
0.0
  0
LINE
  5
141E
  8
SAPA_ANSLUTNING
 10
135.00000000071719
 20
44.999999999999652
 30
0.0
 11
135.00000000071719
 21
43.999999999999652
 31
0.0
  0
LINE
  5
141F
  8
SAPA_ANSLUTNING
 10
134.27854957869349
 20
44.999999999999417
 30
0.0
 11
135.00000000071719
 21
44.999999999999417
 31
0.0
  0
LINE
  5
1420
  8
SAPA_ANSLUTNING
 10
134.50000000071759
 20
74.908801998170475
 30
0.0
 11
134.50000000071779
 21
64.908801998170475
 31
0.0
  0
LINE
  5
1421
  8
SAPA_ANSLUTNING
 10
134.0000000007168
 20
54.908801998170361
 30
0.0
 11
135.0000000007168
 21
54.908801998170361
 31
0.0
  0
LINE
  5
1422
  8
SAPA_ANSLUTNING
 10
134.2785495786928
 20
64.908801998170361
 30
0.0
 11
135.2785495786928
 21
64.908801998170588
 31
0.0
  0
LINE
  5
1423
  8
SAPA_ANSLUTNING
 10
134.00000000071759
 20
74.908801998170475
 30
0.0
 11
135.00000000071759
 21
74.908801998170702
 31
0.0
  0
LINE
  5
1424
  8
SAPA_ANSLUTNING
 10
134.00000000071759
 20
94.908801998170475
 30
0.0
 11
135.00000000071759
 21
94.908801998170475
 31
0.0
  0
LINE
  5
1425
  8
SAPA_ANSLUTNING
 10
134.00000000071779
 20
84.908801998170475
 30
0.0
 11
135.00000000071779
 21
84.908801998170475
 31
0.0
  0
LINE
  5
1426
  8
SAPA_ANSLUTNING
 10
134.50000000071759
 20
94.908801998170475
 30
0.0
 11
134.50000000071779
 21
84.908801998170475
 31
0.0
  0
LINE
  5
1427
  8
SAPA_ANSLUTNING
 10
87.999999965109282
 20
43.999999999997151
 30
0.0
 11
78.149906208227776
 21
43.99999999999681
 31
0.0
  0
LINE
  5
142B
  8
SAPA_ANSLUTNING
 10
78.149906208227776
 20
44.999999999997833
 30
0.0
 11
78.149906208227776
 21
43.999999999997833
 31
0.0
  0
POLYLINE
  5
156E
  8
SAPA_PROFIL
 62
     4
 66
     1
 10
0.0
 20
0.0
 30
0.0
 70
     1
  0
VERTEX
  5
1C07
  8
SAPA_PROFIL
 62
     4
 10
40.023789213031812
 20
0.5604603295560154
 30
0.0
 42
0.3095427405277249
  0
VERTEX
  5
1C08
  8
SAPA_PROFIL
 62
     4
 10
40.396713997646081
 20
0.3051223668026139
 30
0.0
  0
VERTEX
  5
1C09
  8
SAPA_PROFIL
 62
     4
 10
50.999999997563798
 20
0.3051223668026139
 30
0.0
  0
VERTEX
  5
1C0A
  8
SAPA_PROFIL
 62
     4
 10
61.603285997491518
 20
0.3051223668026175
 30
0.0
 42
0.3095427405277116
  0
VERTEX
  5
1C0B
  8
SAPA_PROFIL
 62
     4
 10
61.976210782105788
 20
0.5604603295560189
 30
0.0
  0
VERTEX
  5
1C0C
  8
SAPA_PROFIL
 62
     4
 10
62.934067588235038
 20
3.0297228252043271
 30
0.0
 42
-0.3951183166278546
  0
VERTEX
  5
1C0D
  8
SAPA_PROFIL
 62
     4
 10
63.303680059325522
 20
3.207433367086661
 30
0.0
  0
VERTEX
  5
1C0E
  8
SAPA_PROFIL
 62
     4
 10
63.543863124107808
 20
3.346103124193188
 30
0.0
 42
-0.5773502691891896
  0
VERTEX
  5
1C0F
  8
SAPA_PROFIL
 62
     4
 10
63.858863124107643
 20
3.1642377893981681
 30
0.0
  0
VERTEX
  5
1C10
  8
SAPA_PROFIL
 62
     4
 10
63.858863124107643
 20
2.8971232611857078
 30
0.0
  0
VERTEX
  5
1C11
  8
SAPA_PROFIL
 62
     4
 10
65.239999997524464
 20
2.105122366717306
 30
0.0
  0
VERTEX
  5
1C12
  8
SAPA_PROFIL
 62
     4
 10
65.589999997524146
 20
2.1051223667082111
 30
0.0
 42
0.4142135623733655
  0
VERTEX
  5
1C13
  8
SAPA_PROFIL
 62
     4
 10
65.989999997534014
 20
2.5051223666992071
 30
0.0
  0
VERTEX
  5
1C14
  8
SAPA_PROFIL
 62
     4
 10
65.989999997613836
 20
5.905122366699298
 30
0.0
 42
0.4142135623732407
  0
VERTEX
  5
1C15
  8
SAPA_PROFIL
 62
     4
 10
65.589999997623053
 20
6.3051223667084839
 30
0.0
  0
VERTEX
  5
1C16
  8
SAPA_PROFIL
 62
     4
 10
65.245222046091953
 20
6.2959864454233063
 30
0.0
  0
VERTEX
  5
1C17
  8
SAPA_PROFIL
 62
     4
 10
63.602968599513922
 20
5.3572823104532388
 30
0.0
 42
-0.1246505592471785
  0
VERTEX
  5
1C18
  8
SAPA_PROFIL
 62
     4
 10
62.968259773624929
 20
5.2051223667704214
 30
0.0
  0
VERTEX
  5
1C19
  8
SAPA_PROFIL
 62
     4
 10
62.317415997597081
 20
5.2051223667858819
 30
0.0
 42
0.3095428336485235
  0
VERTEX
  5
1C1A
  8
SAPA_PROFIL
 62
     4
 10
61.385103913114897
 20
4.5667771430180544
 30
0.0
  0
VERTEX
  5
1C1B
  8
SAPA_PROFIL
 62
     4
 10
60.529247831317768
 20
2.360460456343854
 30
0.0
 42
-0.3095428336421182
  0
VERTEX
  5
1C1C
  8
SAPA_PROFIL
 62
     4
 10
60.156322997534389
 20
2.1051223668373602
 30
0.0
  0
VERTEX
  5
1C1D
  8
SAPA_PROFIL
 62
     4
 10
50.9999999975688
 20
2.1051223668364472
 30
0.0
  0
VERTEX
  5
1C1E
  8
SAPA_PROFIL
 62
     4
 10
41.843676997603417
 20
2.1051223668373562
 30
0.0
 42
-0.3095428336421894
  0
VERTEX
  5
1C1F
  8
SAPA_PROFIL
 62
     4
 10
41.470752163819832
 20
2.3604604563438509
 30
0.0
  0
VERTEX
  5
1C20
  8
SAPA_PROFIL
 62
     4
 10
41.470752490118556
 20
2.3604596151826689
 30
0.0
  0
VERTEX
  5
1C21
  8
SAPA_PROFIL
 62
     4
 10
41.470752172262898
 20
2.3604604345787328
 30
0.0
  0
VERTEX
  5
1C22
  8
SAPA_PROFIL
 62
     4
 10
40.614896082022923
 20
4.5667771430180499
 30
0.0
 42
0.3095428336485546
  0
VERTEX
  5
1C23
  8
SAPA_PROFIL
 62
     4
 10
39.682583997540512
 20
5.2051223667858793
 30
0.0
  0
VERTEX
  5
1C24
  8
SAPA_PROFIL
 62
     4
 10
39.031740221512671
 20
5.205122366770417
 30
0.0
 42
-0.1246505592471561
  0
VERTEX
  5
1C25
  8
SAPA_PROFIL
 62
     4
 10
38.397031395623678
 20
5.3572823104527814
 30
0.0
  0
VERTEX
  5
1C26
  8
SAPA_PROFIL
 62
     4
 10
36.754777949045881
 20
6.2959864454233019
 30
0.0
  0
VERTEX
  5
1C27
  8
SAPA_PROFIL
 62
     4
 10
36.409999997514767
 20
6.3051223667084813
 30
0.0
 42
0.4142135623732407
  0
VERTEX
  5
1C28
  8
SAPA_PROFIL
 62
     4
 10
36.009999997523998
 20
5.9051223666992954
 30
0.0
  0
VERTEX
  5
1C29
  8
SAPA_PROFIL
 62
     4
 10
36.009999997603813
 20
2.505122366699204
 30
0.0
 42
0.4142135623733655
  0
VERTEX
  5
1C2A
  8
SAPA_PROFIL
 62
     4
 10
36.409999997613447
 20
2.105122366708208
 30
0.0
  0
VERTEX
  5
1C2B
  8
SAPA_PROFIL
 62
     4
 10
36.759999997613129
 20
2.1051223667173029
 30
0.0
  0
VERTEX
  5
1C2C
  8
SAPA_PROFIL
 62
     4
 10
38.141136871030191
 20
2.8971232611857038
 30
0.0
  0
VERTEX
  5
1C2D
  8
SAPA_PROFIL
 62
     4
 10
38.141136871030191
 20
3.1642377893981641
 30
0.0
 42
-0.5773502691891445
  0
VERTEX
  5
1C2E
  8
SAPA_PROFIL
 62
     4
 10
38.456136871029791
 20
3.346103124193184
 30
0.0
  0
VERTEX
  5
1C2F
  8
SAPA_PROFIL
 62
     4
 10
38.696319935812078
 20
3.2074333670866571
 30
0.0
 42
-0.3951183166278546
  0
VERTEX
  5
1C30
  8
SAPA_PROFIL
 62
     4
 10
39.065932406902782
 20
3.029722825204324
 30
0.0
  0
SEQEND
  5
1C31
  8
SAPA_PROFIL
 62
     4
  0
POLYLINE
  5
156F
  8
SAPA_PROFIL
 62
     4
 66
     1
 10
0.0
 20
0.0
 30
0.0
 70
     1
  0
VERTEX
  5
1C32
  8
SAPA_PROFIL
 62
     4
 10
40.023789213032252
 20
29.439539670442642
 30
0.0
  0
VERTEX
  5
1C33
  8
SAPA_PROFIL
 62
     4
 10
39.065932406903229
 20
26.97027717479433
 30
0.0
 42
-0.3951183166278715
  0
VERTEX
  5
1C34
  8
SAPA_PROFIL
 62
     4
 10
38.696319935812532
 20
26.792566632911988
 30
0.0
  0
VERTEX
  5
1C35
  8
SAPA_PROFIL
 62
     4
 10
38.456136871030239
 20
26.653896875805462
 30
0.0
 42
-0.5773502691893923
  0
VERTEX
  5
1C36
  8
SAPA_PROFIL
 62
     4
 10
38.141136871030412
 20
26.835762210600489
 30
0.0
  0
VERTEX
  5
1C37
  8
SAPA_PROFIL
 62
     4
 10
38.141136871030412
 20
27.102876738812949
 30
0.0
  0
VERTEX
  5
1C38
  8
SAPA_PROFIL
 62
     4
 10
36.759999997613583
 20
27.894877633281801
 30
0.0
  0
VERTEX
  5
1C39
  8
SAPA_PROFIL
 62
     4
 10
36.409999997613888
 20
27.89487763328999
 30
0.0
 42
0.4142135623733657
  0
VERTEX
  5
1C3A
  8
SAPA_PROFIL
 62
     4
 10
36.009999997604027
 20
27.494877633299449
 30
0.0
  0
VERTEX
  5
1C3B
  8
SAPA_PROFIL
 62
     4
 10
36.009999997524218
 20
24.094877633299362
 30
0.0
 42
0.4142135623732407
  0
VERTEX
  5
1C3C
  8
SAPA_PROFIL
 62
     4
 10
36.409999997514987
 20
23.694877633290169
 30
0.0
  0
VERTEX
  5
1C3D
  8
SAPA_PROFIL
 62
     4
 10
36.754777949046563
 20
23.704013554575798
 30
0.0
  0
VERTEX
  5
1C3E
  8
SAPA_PROFIL
 62
     4
 10
38.397031395625262
 20
24.64271768954632
 30
0.0
 42
-0.1246505592468612
  0
VERTEX
  5
1C3F
  8
SAPA_PROFIL
 62
     4
 10
39.031740221512891
 20
24.794877633228229
 30
0.0
  0
VERTEX
  5
1C40
  8
SAPA_PROFIL
 62
     4
 10
39.682583997540732
 20
24.794877633213229
 30
0.0
 42
0.3095428336485416
  0
VERTEX
  5
1C41
  8
SAPA_PROFIL
 62
     4
 10
40.614896082023151
 20
25.433222856980599
 30
0.0
  0
VERTEX
  5
1C42
  8
SAPA_PROFIL
 62
     4
 10
41.470752163820507
 20
27.639539543654799
 30
0.0
 42
-0.3095428336420965
  0
VERTEX
  5
1C43
  8
SAPA_PROFIL
 62
     4
 10
41.843676997603879
 20
27.894877633161752
 30
0.0
  0
VERTEX
  5
1C44
  8
SAPA_PROFIL
 62
     4
 10
50.99999999756924
 20
27.894877633161752
 30
0.0
  0
VERTEX
  5
1C45
  8
SAPA_PROFIL
 62
     4
 10
60.156322997534623
 20
27.894877633161759
 30
0.0
 42
-0.3095428336420966
  0
VERTEX
  5
1C46
  8
SAPA_PROFIL
 62
     4
 10
60.529247831317988
 20
27.639539543654809
 30
0.0
  0
VERTEX
  5
1C47
  8
SAPA_PROFIL
 62
     4
 10
61.385103913115117
 20
25.43322285698061
 30
0.0
 42
0.309542833648536
  0
VERTEX
  5
1C48
  8
SAPA_PROFIL
 62
     4
 10
62.317415997597543
 20
24.794877633213229
 30
0.0
  0
VERTEX
  5
1C49
  8
SAPA_PROFIL
 62
     4
 10
62.96825977362537
 20
24.794877633228239
 30
0.0
 42
-0.1246505592468612
  0
VERTEX
  5
1C4A
  8
SAPA_PROFIL
 62
     4
 10
63.602968599513012
 20
24.64271768954633
 30
0.0
  0
VERTEX
  5
1C4B
  8
SAPA_PROFIL
 62
     4
 10
65.245222046091726
 20
23.704013554575809
 30
0.0
  0
VERTEX
  5
1C4C
  8
SAPA_PROFIL
 62
     4
 10
65.589999997623295
 20
23.694877633290179
 30
0.0
 42
0.4142135623732407
  0
VERTEX
  5
1C4D
  8
SAPA_PROFIL
 62
     4
 10
65.989999997614049
 20
24.094877633299362
 30
0.0
  0
VERTEX
  5
1C4E
  8
SAPA_PROFIL
 62
     4
 10
65.989999997534241
 20
27.494877633299449
 30
0.0
 42
0.4142135623733657
  0
VERTEX
  5
1C4F
  8
SAPA_PROFIL
 62
     4
 10
65.5899999975246
 20
27.89487763328999
 30
0.0
  0
VERTEX
  5
1C50
  8
SAPA_PROFIL
 62
     4
 10
65.239999997524919
 20
27.894877633281808
 30
0.0
  0
VERTEX
  5
1C51
  8
SAPA_PROFIL
 62
     4
 10
63.858863124107863
 20
27.102876738812949
 30
0.0
  0
VERTEX
  5
1C52
  8
SAPA_PROFIL
 62
     4
 10
63.858863124107863
 20
26.835762210600489
 30
0.0
 42
-0.5773502691895012
  0
VERTEX
  5
1C53
  8
SAPA_PROFIL
 62
     4
 10
63.543863124108022
 20
26.653896875805469
 30
0.0
  0
VERTEX
  5
1C54
  8
SAPA_PROFIL
 62
     4
 10
63.30368005932597
 20
26.792566632911999
 30
0.0
 42
-0.3951183166278822
  0
VERTEX
  5
1C55
  8
SAPA_PROFIL
 62
     4
 10
62.934067588235258
 20
26.97027717479433
 30
0.0
  0
VERTEX
  5
1C56
  8
SAPA_PROFIL
 62
     4
 10
61.976210782106229
 20
29.439539670442642
 30
0.0
 42
0.309542740527736
  0
VERTEX
  5
1C57
  8
SAPA_PROFIL
 62
     4
 10
61.603285997491959
 20
29.69487763319604
 30
0.0
  0
VERTEX
  5
1C58
  8
SAPA_PROFIL
 62
     4
 10
50.99999999757425
 20
29.69487763319604
 30
0.0
  0
VERTEX
  5
1C59
  8
SAPA_PROFIL
 62
     4
 10
40.396713997646302
 20
29.69487763319604
 30
0.0
 42
0.3095427405276612
  0
SEQEND
  5
1C5A
  8
SAPA_PROFIL
 62
     4
  0
POLYLINE
  5
1570
  8
SAPA_PROFIL
 66
     1
 10
0.0
 20
0.0
 30
0.0
 70
     1
  0
VERTEX
  5
1C5B
  8
SAPA_PROFIL
 10
14.00000000071906
 20
-0.0000000000009095
 30
0.0
  0
VERTEX
  5
1C5C
  8
SAPA_PROFIL
 10
14.00000000070224
 20
-21.499999999967709
 30
0.0
 42
0.4142135623565294
  0
VERTEX
  5
1C5D
  8
SAPA_PROFIL
 10
14.500000000673589
 20
-21.999999999968171
 30
0.0
  0
VERTEX
  5
1C5E
  8
SAPA_PROFIL
 10
18.200000000685229
 20
-22.00000000018008
 30
0.0
 42
0.4142135623897996
  0
VERTEX
  5
1C5F
  8
SAPA_PROFIL
 10
18.50000000070224
 20
-21.700000000179902
 30
0.0
  0
VERTEX
  5
1C60
  8
SAPA_PROFIL
 10
18.50000000070224
 20
-20.932455532153199
 30
0.0
 42
0.2896898632853548
  0
VERTEX
  5
1C61
  8
SAPA_PROFIL
 10
17.928571429331779
 20
-20.028947629275532
 30
0.0
 42
0.5507604245882519
  0
VERTEX
  5
1C62
  8
SAPA_PROFIL
 10
17.50000000074294
 20
-20.300000000121148
 30
0.0
  0
VERTEX
  5
1C63
  8
SAPA_PROFIL
 10
17.500000000731351
 20
-20.5000000001437
 30
0.0
 42
-0.4142135623677535
  0
VERTEX
  5
1C64
  8
SAPA_PROFIL
 10
17.200000000719569
 20
-20.800000000126602
 30
0.0
  0
VERTEX
  5
1C65
  8
SAPA_PROFIL
 10
15.69999999953995
 20
-20.800000000066571
 30
0.0
 42
-0.4142135623614654
  0
VERTEX
  5
1C66
  8
SAPA_PROFIL
 10
15.199999999549281
 20
-20.300000000056571
 30
0.0
  0
VERTEX
  5
1C67
  8
SAPA_PROFIL
 10
15.19999999954927
 20
-17.000000000065938
 30
0.0
 42
-0.4142135623847744
  0
VERTEX
  5
1C68
  8
SAPA_PROFIL
 10
15.699999999569281
 20
-16.500000000065938
 30
0.0
  0
VERTEX
  5
1C69
  8
SAPA_PROFIL
 10
17.20000000095877
 20
-16.50000000012551
 30
0.0
 42
-0.4142135623787421
  0
VERTEX
  5
1C6A
  8
SAPA_PROFIL
 10
17.50000000094667
 20
-16.800000000142969
 30
0.0
  0
VERTEX
  5
1C6B
  8
SAPA_PROFIL
 10
17.50000000093485
 20
-17.000000000120512
 30
0.0
 42
0.5507604245845086
  0
VERTEX
  5
1C6C
  8
SAPA_PROFIL
 10
17.928571429489121
 20
-17.27105237101841
 30
0.0
 42
0.289689863320267
  0
VERTEX
  5
1C6D
  8
SAPA_PROFIL
 10
18.500000000976002
 20
-16.367544468085271
 30
0.0
  0
VERTEX
  5
1C6E
  8
SAPA_PROFIL
 10
18.500000000976002
 20
-15.370072656020049
 30
0.0
 42
0.0436609429084833
  0
VERTEX
  5
1C6F
  8
SAPA_PROFIL
 10
18.492403877482161
 20
-15.283248567187
 30
0.0
  0
VERTEX
  5
1C70
  8
SAPA_PROFIL
 10
18.2155577065597
 20
-13.71317591120305
 30
0.0
 42
0.8390996311773337
  0
VERTEX
  5
1C71
  8
SAPA_PROFIL
 10
17.230749953547381
 20
-13.71317591120305
 30
0.0
  0
VERTEX
  5
1C72
  8
SAPA_PROFIL
 10
17.023804113965411
 20
-14.886824088870069
 30
0.0
 42
-0.3639702342662515
  0
VERTEX
  5
1C73
  8
SAPA_PROFIL
 10
16.531400237459248
 20
-15.30000000003656
 30
0.0
  0
VERTEX
  5
1C74
  8
SAPA_PROFIL
 10
15.69999999954927
 20
-15.30000000003656
 30
0.0
 42
-0.437328258627285
  0
VERTEX
  5
1C75
  8
SAPA_PROFIL
 10
15.20153071924539
 20
-14.76090554271422
 30
0.0
  0
VERTEX
  5
1C76
  8
SAPA_PROFIL
 10
15.78832948226829
 20
-0.2878467213240583
 30
0.0
 42
-0.4023941304320373
  0
VERTEX
  5
1C77
  8
SAPA_PROFIL
 10
16.088083210881098
 20
-0.0000000000009095
 30
0.0
  0
VERTEX
  5
1C78
  8
SAPA_PROFIL
 10
16.888616429246319
 20
-0.0000000000009095
 30
0.0
 42
0.2596812337301571
  0
VERTEX
  5
1C79
  8
SAPA_PROFIL
 10
17.058647240786389
 20
0.0946931952476007
 30
0.0
  0
VERTEX
  5
1C7A
  8
SAPA_PROFIL
 10
17.955046218028759
 20
1.5420397928714911
 30
0.0
 42
0.5877032589248628
  0
VERTEX
  5
1C7B
  8
SAPA_PROFIL
 10
17.700000000718649
 20
1.9999999999990901
 30
0.0
  0
VERTEX
  5
1C7C
  8
SAPA_PROFIL
 10
16.300000000718558
 20
1.9999999999990901
 30
0.0
 42
-0.4142135623730951
  0
VERTEX
  5
1C7D
  8
SAPA_PROFIL
 10
16.000000000718611
 20
2.299999999999272
 30
0.0
  0
VERTEX
  5
1C7E
  8
SAPA_PROFIL
 10
16.000000000718611
 20
4.6999999999993634
 30
0.0
 42
-0.4142135623730397
  0
VERTEX
  5
1C7F
  8
SAPA_PROFIL
 10
16.300000000718558
 20
4.9999999999990896
 30
0.0
  0
VERTEX
  5
1C80
  8
SAPA_PROFIL
 10
25.900000000718471
 20
4.9999999999990941
 30
0.0
 42
-0.4142135623731437
  0
VERTEX
  5
1C81
  8
SAPA_PROFIL
 10
26.200000000718649
 20
4.699999999999366
 30
0.0
  0
VERTEX
  5
1C82
  8
SAPA_PROFIL
 10
26.200000000718649
 20
0.2999999999992759
 30
0.0
 42
0.4142135623730119
  0
VERTEX
  5
1C83
  8
SAPA_PROFIL
 10
26.500000000718611
 20
-0.0000000000009059
 30
0.0
  0
VERTEX
  5
1C84
  8
SAPA_PROFIL
 10
27.98408806607187
 20
-0.0000000000009059
 30
0.0
 42
0.2596812337301531
  0
VERTEX
  5
1C85
  8
SAPA_PROFIL
 10
28.154118877611939
 20
0.0946931952476042
 30
0.0
  0
VERTEX
  5
1C86
  8
SAPA_PROFIL
 10
28.555046222163689
 20
0.7420397928717684
 30
0.0
 42
0.5877032589250223
  0
VERTEX
  5
1C87
  8
SAPA_PROFIL
 10
28.30000000485358
 20
1.199999999999366
 30
0.0
  0
VERTEX
  5
1C88
  8
SAPA_PROFIL
 10
27.900000000718471
 20
1.199999999999366
 30
0.0
 42
-0.4142135623731229
  0
VERTEX
  5
1C89
  8
SAPA_PROFIL
 10
27.60000000071852
 20
1.4999999999990941
 30
0.0
  0
VERTEX
  5
1C8A
  8
SAPA_PROFIL
 10
27.60000000071852
 20
4.699999999999366
 30
0.0
 42
-0.4142135623730744
  0
VERTEX
  5
1C8B
  8
SAPA_PROFIL
 10
27.900000000718698
 20
4.9999999999990941
 30
0.0
  0
VERTEX
  5
1C8C
  8
SAPA_PROFIL
 10
33.73417878710859
 20
4.9999999999990941
 30
0.0
 42
-0.4683749459848296
  0
VERTEX
  5
1C8D
  8
SAPA_PROFIL
 10
34.000000000718607
 20
4.699999999999366
 30
0.0
  0
VERTEX
  5
1C8E
  8
SAPA_PROFIL
 10
34.000000000718607
 20
2.2999999999992751
 30
0.0
 42
-0.4683749459842226
  0
VERTEX
  5
1C8F
  8
SAPA_PROFIL
 10
33.734178787109038
 20
1.9999999999990941
 30
0.0
  0
VERTEX
  5
1C90
  8
SAPA_PROFIL
 10
32.300000000718562
 20
1.9999999999990941
 30
0.0
 42
0.5877032589248341
  0
VERTEX
  5
1C91
  8
SAPA_PROFIL
 10
32.04495378340868
 20
1.5420397928714951
 30
0.0
  0
VERTEX
  5
1C92
  8
SAPA_PROFIL
 10
32.817484852478053
 20
0.2946931952474223
 30
0.0
 42
0.2596812337301256
  0
VERTEX
  5
1C93
  8
SAPA_PROFIL
 10
32.987515664018133
 20
0.1999999999993669
 30
0.0
  0
VERTEX
  5
1C94
  8
SAPA_PROFIL
 10
35.999999997526508
 20
0.1999999999993704
 30
0.0
  0
VERTEX
  5
1C95
  8
SAPA_PROFIL
 10
37.282085913055759
 20
0.6947262543667492
 30
0.0
 42
-0.4580511809929225
  0
VERTEX
  5
1C96
  8
SAPA_PROFIL
 10
37.697466295604613
 20
0.5106585387138765
 30
0.0
  0
VERTEX
  5
1C97
  8
SAPA_PROFIL
 10
37.711984704851943
 20
0.4628127887153895
 30
0.0
  0
VERTEX
  5
1C98
  8
SAPA_PROFIL
 10
39.21634251966281
 20
0.4627291109277465
 30
0.0
 42
0.4757248385987927
  0
VERTEX
  5
1C99
  8
SAPA_PROFIL
 10
39.517338610120412
 20
0.8343860557779478
 30
0.0
  0
VERTEX
  5
1C9A
  8
SAPA_PROFIL
 10
39.135892013992702
 20
2.6476165264357472
 30
0.0
 42
0.2350054070139662
  0
VERTEX
  5
1C9B
  8
SAPA_PROFIL
 10
38.693911221270461
 20
3.206665443318804
 30
0.0
 42
-0.0011882050612086
  0
VERTEX
  5
1C9C
  8
SAPA_PROFIL
 10
38.695268898953252
 20
3.2071010348595399
 30
0.0
  0
VERTEX
  5
1C9D
  8
SAPA_PROFIL
 10
38.445400825606271
 20
3.34063026902141
 30
0.0
 42
0.5773502691894064
  0
VERTEX
  5
1C9E
  8
SAPA_PROFIL
 10
38.151244525351892
 20
3.1576765289110038
 30
0.0
  0
VERTEX
  5
1C9F
  8
SAPA_PROFIL
 10
38.161805891578403
 20
2.8359188006929861
 30
0.0
  0
VERTEX
  5
1CA0
  8
SAPA_PROFIL
 10
36.275962199717348
 20
1.7513543537215881
 30
0.0
  0
VERTEX
  5
1CA1
  8
SAPA_PROFIL
 10
36.104408153093452
 20
1.6992976536594211
 30
0.0
 42
-0.8292414158586378
  0
VERTEX
  5
1CA2
  8
SAPA_PROFIL
 10
35.908274864562017
 20
2.0312932866786531
 30
0.0
 42
0.2036002236713389
  0
VERTEX
  5
1CA3
  8
SAPA_PROFIL
 10
35.999999997526281
 20
2.247213595499495
 30
0.0
  0
VERTEX
  5
1CA4
  8
SAPA_PROFIL
 10
35.999999997526281
 20
6.0999999999990058
 30
0.0
 42
-0.41421356237306
  0
VERTEX
  5
1CA5
  8
SAPA_PROFIL
 10
36.299999997526228
 20
6.3999999999991877
 30
0.0
  0
VERTEX
  5
1CA6
  8
SAPA_PROFIL
 10
36.599999997526417
 20
6.3999999999991877
 30
0.0
  0
VERTEX
  5
1CA7
  8
SAPA_PROFIL
 10
38.199999997526326
 20
5.4762395692960188
 30
0.0
 42
0.5773502691895401
  0
VERTEX
  5
1CA8
  8
SAPA_PROFIL
 10
38.499999997526281
 20
5.6494446500528346
 30
0.0
  0
VERTEX
  5
1CA9
  8
SAPA_PROFIL
 10
38.499999997526281
 20
7.0350852961078161
 30
0.0
 42
0.2679491924311281
  0
VERTEX
  5
1CAA
  8
SAPA_PROFIL
 10
37.999999997526281
 20
7.9011106998923486
 30
0.0
  0
VERTEX
  5
1CAB
  8
SAPA_PROFIL
 10
36.249999997526047
 20
8.9114736709743791
 30
0.0
 42
-0.26794919243099
  0
VERTEX
  5
1CAC
  8
SAPA_PROFIL
 10
35.999999997526508
 20
9.3444863728664203
 30
0.0
  0
VERTEX
  5
1CAD
  8
SAPA_PROFIL
 10
35.999999997526501
 20
20.655513627131771
 30
0.0
 42
-0.2679491924310374
  0
VERTEX
  5
1CAE
  8
SAPA_PROFIL
 10
36.249999997526281
 20
21.088526329023811
 30
0.0
  0
VERTEX
  5
1CAF
  8
SAPA_PROFIL
 10
37.999999997526729
 20
22.0988893001063
 30
0.0
 42
0.267949192431151
  0
VERTEX
  5
1CB0
  8
SAPA_PROFIL
 10
38.499999997526729
 20
22.96491470389083
 30
0.0
  0
VERTEX
  5
1CB1
  8
SAPA_PROFIL
 10
38.499999997526501
 20
24.350555349946269
 30
0.0
 42
0.5773502691897736
  0
VERTEX
  5
1CB2
  8
SAPA_PROFIL
 10
38.199999997526547
 20
24.523760430703089
 30
0.0
  0
VERTEX
  5
1CB3
  8
SAPA_PROFIL
 10
36.599999997526638
 20
23.599999999999461
 30
0.0
  0
VERTEX
  5
1CB4
  8
SAPA_PROFIL
 10
36.299999997526683
 20
23.599999999999461
 30
0.0
 42
-0.4142135623731708
  0
VERTEX
  5
1CB5
  8
SAPA_PROFIL
 10
35.999999997526501
 20
23.89999999999965
 30
0.0
  0
VERTEX
  5
1CB6
  8
SAPA_PROFIL
 10
35.999999997526501
 20
27.752786404499609
 30
0.0
 42
0.2036002236725054
  0
VERTEX
  5
1CB7
  8
SAPA_PROFIL
 10
35.908274864561562
 20
27.968706713320898
 30
0.0
 42
-0.8292414158560874
  0
VERTEX
  5
1CB8
  8
SAPA_PROFIL
 10
36.104408153094361
 20
28.300702346339229
 30
0.0
  0
VERTEX
  5
1CB9
  8
SAPA_PROFIL
 10
36.275962199717803
 20
28.24864564627752
 30
0.0
  0
VERTEX
  5
1CBA
  8
SAPA_PROFIL
 10
38.161805891578851
 20
27.164081199305659
 30
0.0
  0
VERTEX
  5
1CBB
  8
SAPA_PROFIL
 10
38.151244525352112
 20
26.842323471087649
 30
0.0
 42
0.5773502691895062
  0
VERTEX
  5
1CBC
  8
SAPA_PROFIL
 10
38.445400825606711
 20
26.659369730977239
 30
0.0
  0
VERTEX
  5
1CBD
  8
SAPA_PROFIL
 10
38.730083108838109
 20
26.811503642085889
 30
0.0
 42
0.2216946626431207
  0
VERTEX
  5
1CBE
  8
SAPA_PROFIL
 10
39.135892013993143
 20
27.352383473562899
 30
0.0
  0
VERTEX
  5
1CBF
  8
SAPA_PROFIL
 10
39.517338610120859
 20
29.16561394422116
 30
0.0
 42
0.4757248385934992
  0
VERTEX
  5
1CC0
  8
SAPA_PROFIL
 10
39.216342519668487
 20
29.5372708890709
 30
0.0
  0
VERTEX
  5
1CC1
  8
SAPA_PROFIL
 10
37.711984704852377
 20
29.537187211283261
 30
0.0
  0
VERTEX
  5
1CC2
  8
SAPA_PROFIL
 10
37.697466295605047
 20
29.489341461284781
 30
0.0
 42
-0.4580511809929313
  0
VERTEX
  5
1CC3
  8
SAPA_PROFIL
 10
37.28208591305598
 20
29.305273745631901
 30
0.0
  0
VERTEX
  5
1CC4
  8
SAPA_PROFIL
 10
35.999999997527183
 20
29.79999999999928
 30
0.0
  0
VERTEX
  5
1CC5
  8
SAPA_PROFIL
 10
32.987515664018353
 20
29.79999999999928
 30
0.0
 42
0.2596812337301257
  0
VERTEX
  5
1CC6
  8
SAPA_PROFIL
 10
32.81748485247828
 20
29.705306804750769
 30
0.0
  0
VERTEX
  5
1CC7
  8
SAPA_PROFIL
 10
32.0449537834089
 20
28.457960207127151
 30
0.0
 42
0.5877032589249777
  0
VERTEX
  5
1CC8
  8
SAPA_PROFIL
 10
32.30000000071901
 20
27.999999999999101
 30
0.0
  0
VERTEX
  5
1CC9
  8
SAPA_PROFIL
 10
33.734178787109258
 20
27.999999999999101
 30
0.0
 42
-0.4683749459842228
  0
VERTEX
  5
1CCA
  8
SAPA_PROFIL
 10
34.000000000718828
 20
27.69999999999937
 30
0.0
  0
VERTEX
  5
1CCB
  8
SAPA_PROFIL
 10
34.000000000718828
 20
25.29999999999928
 30
0.0
 42
-0.4683749459847173
  0
VERTEX
  5
1CCC
  8
SAPA_PROFIL
 10
33.734178787109258
 20
24.999999999999101
 30
0.0
  0
VERTEX
  5
1CCD
  8
SAPA_PROFIL
 10
27.900000000718919
 20
24.999999999999101
 30
0.0
  0
VERTEX
  5
1CCE
  8
SAPA_PROFIL
 10
25.900000000718929
 20
24.999999999999091
 30
0.0
  0
VERTEX
  5
1CCF
  8
SAPA_PROFIL
 10
16.300000000718779
 20
24.999999999999091
 30
0.0
 42
-0.4142135623730951
  0
VERTEX
  5
1CD0
  8
SAPA_PROFIL
 10
16.000000000718831
 20
25.299999999999269
 30
0.0
  0
VERTEX
  5
1CD1
  8
SAPA_PROFIL
 10
16.000000000718831
 20
27.69999999999936
 30
0.0
 42
-0.4142135623730951
  0
VERTEX
  5
1CD2
  8
SAPA_PROFIL
 10
16.300000000718779
 20
27.999999999999091
 30
0.0
  0
VERTEX
  5
1CD3
  8
SAPA_PROFIL
 10
17.70000000071888
 20
27.999999999999091
 30
0.0
 42
0.5877032589248341
  0
VERTEX
  5
1CD4
  8
SAPA_PROFIL
 10
17.955046218028979
 20
28.457960207127151
 30
0.0
  0
VERTEX
  5
1CD5
  8
SAPA_PROFIL
 10
17.05864724078684
 20
29.905306804751032
 30
0.0
 42
0.2596812337300371
  0
VERTEX
  5
1CD6
  8
SAPA_PROFIL
 10
16.88861642924677
 20
29.999999999999091
 30
0.0
  0
VERTEX
  5
1CD7
  8
SAPA_PROFIL
 10
14.199999997569069
 20
29.999999999999091
 30
0.0
 42
0.414213562404161
  0
VERTEX
  5
1CD8
  8
SAPA_PROFIL
 10
13.99999999756902
 20
29.79999999997835
 30
0.0
  0
SEQEND
  5
1CD9
  8
SAPA_PROFIL
  0
POLYLINE
  5
1571
  8
SAPA_PROFIL
 66
     1
 10
0.0
 20
0.0
 30
0.0
 70
     1
  0
VERTEX
  5
1CDA
  8
SAPA_PROFIL
 10
15.999999997526279
 20
6.6999999999993634
 30
0.0
 42
-0.4142135624878015
  0
VERTEX
  5
1CDB
  8
SAPA_PROFIL
 10
15.69999999752633
 20
7.0000000001168701
 30
0.0
  0
VERTEX
  5
1CDC
  8
SAPA_PROFIL
 10
15.69999999815297
 20
8.6000000000776708
 30
0.0
 42
-0.4142135622584246
  0
VERTEX
  5
1CDD
  8
SAPA_PROFIL
 10
15.89999999815301
 20
8.7999999999992724
 30
0.0
  0
VERTEX
  5
1CDE
  8
SAPA_PROFIL
 10
16.09999999831404
 20
8.7999999999992724
 30
0.0
 42
0.4142135622517338
  0
VERTEX
  5
1CDF
  8
SAPA_PROFIL
 10
16.299999998314082
 20
8.9999999999163265
 30
0.0
  0
VERTEX
  5
1CE0
  8
SAPA_PROFIL
 10
16.299999998977331
 20
10.59999999991623
 30
0.0
 42
0.4142135624945394
  0
VERTEX
  5
1CE1
  8
SAPA_PROFIL
 10
16.099999998977289
 20
10.799999999999271
 30
0.0
  0
VERTEX
  5
1CE2
  8
SAPA_PROFIL
 10
15.899999997402
 20
10.799999999999271
 30
0.0
 42
-0.4142135623731784
  0
VERTEX
  5
1CE3
  8
SAPA_PROFIL
 10
15.69999999740195
 20
10.999999999999091
 30
0.0
  0
VERTEX
  5
1CE4
  8
SAPA_PROFIL
 10
15.69999999740218
 20
18.999999999999091
 30
0.0
 42
-0.4142135623730119
  0
VERTEX
  5
1CE5
  8
SAPA_PROFIL
 10
15.89999999740199
 20
19.19999999999936
 30
0.0
  0
VERTEX
  5
1CE6
  8
SAPA_PROFIL
 10
16.099999998977509
 20
19.19999999999936
 30
0.0
 42
0.4142135624945394
  0
VERTEX
  5
1CE7
  8
SAPA_PROFIL
 10
16.299999998977562
 20
19.4000000000824
 30
0.0
  0
VERTEX
  5
1CE8
  8
SAPA_PROFIL
 10
16.299999998314309
 20
21.000000000082309
 30
0.0
 42
0.4142135622515674
  0
VERTEX
  5
1CE9
  8
SAPA_PROFIL
 10
16.09999999831426
 20
21.19999999999937
 30
0.0
  0
VERTEX
  5
1CEA
  8
SAPA_PROFIL
 10
15.89999999815301
 20
21.19999999999937
 30
0.0
 42
-0.4142135622584246
  0
VERTEX
  5
1CEB
  8
SAPA_PROFIL
 10
15.699999998152959
 20
21.399999999920968
 30
0.0
  0
VERTEX
  5
1CEC
  8
SAPA_PROFIL
 10
15.69999999752655
 20
22.999999999881769
 30
0.0
 42
-0.4142135624878013
  0
VERTEX
  5
1CED
  8
SAPA_PROFIL
 10
15.999999997526499
 20
23.299999999999269
 30
0.0
  0
VERTEX
  5
1CEE
  8
SAPA_PROFIL
 10
33.999999997526501
 20
23.29999999999928
 30
0.0
 42
-0.4142135623730765
  0
VERTEX
  5
1CEF
  8
SAPA_PROFIL
 10
34.299999997526463
 20
22.999999999999549
 30
0.0
  0
VERTEX
  5
1CF0
  8
SAPA_PROFIL
 10
34.299999997526463
 20
21.39999999999965
 30
0.0
 42
-0.4142135623731161
  0
VERTEX
  5
1CF1
  8
SAPA_PROFIL
 10
34.09999999752641
 20
21.19999999999937
 30
0.0
  0
VERTEX
  5
1CF2
  8
SAPA_PROFIL
 10
33.899999997526372
 20
21.19999999999937
 30
0.0
 42
0.414213562373012
  0
VERTEX
  5
1CF3
  8
SAPA_PROFIL
 10
33.699999997526547
 20
20.999999999999101
 30
0.0
  0
VERTEX
  5
1CF4
  8
SAPA_PROFIL
 10
33.699999997526547
 20
19.399999999999189
 30
0.0
 42
0.4142135623729909
  0
VERTEX
  5
1CF5
  8
SAPA_PROFIL
 10
33.899999997526372
 20
19.19999999999937
 30
0.0
  0
VERTEX
  5
1CF6
  8
SAPA_PROFIL
 10
34.099999997526638
 20
19.19999999999937
 30
0.0
 42
-0.4142135623730743
  0
VERTEX
  5
1CF7
  8
SAPA_PROFIL
 10
34.299999997526463
 20
18.999999999999091
 30
0.0
  0
VERTEX
  5
1CF8
  8
SAPA_PROFIL
 10
34.299999997526463
 20
10.999999999999091
 30
0.0
 42
-0.4142135623730743
  0
VERTEX
  5
1CF9
  8
SAPA_PROFIL
 10
34.099999997526652
 20
10.79999999999928
 30
0.0
  0
VERTEX
  5
1CFA
  8
SAPA_PROFIL
 10
33.899999997526372
 20
10.79999999999928
 30
0.0
 42
0.4142135623731574
  0
VERTEX
  5
1CFB
  8
SAPA_PROFIL
 10
33.699999997526326
 20
10.59999999999946
 30
0.0
  0
VERTEX
  5
1CFC
  8
SAPA_PROFIL
 10
33.699999997526326
 20
8.9999999999990976
 30
0.0
 42
0.4142135623731784
  0
VERTEX
  5
1CFD
  8
SAPA_PROFIL
 10
33.899999997526372
 20
8.7999999999992795
 30
0.0
  0
VERTEX
  5
1CFE
  8
SAPA_PROFIL
 10
34.099999997526417
 20
8.7999999999992795
 30
0.0
 42
-0.4142135623731159
  0
VERTEX
  5
1CFF
  8
SAPA_PROFIL
 10
34.299999997526463
 20
8.5999999999994614
 30
0.0
  0
VERTEX
  5
1D00
  8
SAPA_PROFIL
 10
34.299999997526243
 20
6.9999999999990941
 30
0.0
 42
-0.4142135623730764
  0
VERTEX
  5
1D01
  8
SAPA_PROFIL
 10
33.999999997526281
 20
6.699999999999366
 30
0.0
  0
SEQEND
  5
1D02
  8
SAPA_PROFIL
  0
POLYLINE
  5
1572
  8
SAPA_PROFIL
 66
     1
 10
0.0
 20
0.0
 30
0.0
 70
     1
  0
VERTEX
  5
1D03
  8
SAPA_PROFIL
 10
86.299999997735867
 20
10.999999999999099
 30
0.0
 42
-0.4142135623731784
  0
VERTEX
  5
1D04
  8
SAPA_PROFIL
 10
86.099999997735836
 20
10.79999999999929
 30
0.0
  0
VERTEX
  5
1D05
  8
SAPA_PROFIL
 10
85.899999996160517
 20
10.79999999999929
 30
0.0
 42
0.4142135624945394
  0
VERTEX
  5
1D06
  8
SAPA_PROFIL
 10
85.699999996160486
 20
10.59999999991625
 30
0.0
  0
VERTEX
  5
1D07
  8
SAPA_PROFIL
 10
85.699999996823735
 20
8.9999999999163407
 30
0.0
 42
0.4142135622517339
  0
VERTEX
  5
1D08
  8
SAPA_PROFIL
 10
85.89999999682378
 20
8.7999999999992866
 30
0.0
  0
VERTEX
  5
1D09
  8
SAPA_PROFIL
 10
86.099999996985034
 20
8.7999999999992866
 30
0.0
 42
-0.4142135622584246
  0
VERTEX
  5
1D0A
  8
SAPA_PROFIL
 10
86.299999996985079
 20
8.6000000000776851
 30
0.0
  0
VERTEX
  5
1D0B
  8
SAPA_PROFIL
 10
86.299999997611508
 20
7.0000000001168869
 30
0.0
 42
-0.4142135624878013
  0
VERTEX
  5
1D0C
  8
SAPA_PROFIL
 10
85.999999997611553
 20
6.6999999999993811
 30
0.0
  0
VERTEX
  5
1D0D
  8
SAPA_PROFIL
 10
67.999999997611553
 20
6.6999999999993767
 30
0.0
 42
-0.4142135623730765
  0
VERTEX
  5
1D0E
  8
SAPA_PROFIL
 10
67.699999997611599
 20
6.9999999999991038
 30
0.0
  0
VERTEX
  5
1D0F
  8
SAPA_PROFIL
 10
67.699999997611599
 20
8.5999999999994685
 30
0.0
 42
-0.4142135623731161
  0
VERTEX
  5
1D10
  8
SAPA_PROFIL
 10
67.899999997611644
 20
8.7999999999992866
 30
0.0
  0
VERTEX
  5
1D11
  8
SAPA_PROFIL
 10
68.099999997611462
 20
8.7999999999992866
 30
0.0
 42
0.4142135623731784
  0
VERTEX
  5
1D12
  8
SAPA_PROFIL
 10
68.299999997611508
 20
8.9999999999991047
 30
0.0
  0
VERTEX
  5
1D13
  8
SAPA_PROFIL
 10
68.299999997611508
 20
10.59999999999947
 30
0.0
 42
0.4142135623731574
  0
VERTEX
  5
1D14
  8
SAPA_PROFIL
 10
68.099999997611462
 20
10.79999999999929
 30
0.0
  0
VERTEX
  5
1D15
  8
SAPA_PROFIL
 10
67.899999997611417
 20
10.79999999999929
 30
0.0
 42
-0.4142135623729078
  0
VERTEX
  5
1D16
  8
SAPA_PROFIL
 10
67.699999997611599
 20
10.999999999999099
 30
0.0
  0
VERTEX
  5
1D17
  8
SAPA_PROFIL
 10
67.699999997611599
 20
18.999999999999101
 30
0.0
 42
-0.4142135623730743
  0
VERTEX
  5
1D18
  8
SAPA_PROFIL
 10
67.899999997611417
 20
19.19999999999937
 30
0.0
  0
VERTEX
  5
1D19
  8
SAPA_PROFIL
 10
68.09999999761169
 20
19.19999999999937
 30
0.0
 42
0.4142135623729909
  0
VERTEX
  5
1D1A
  8
SAPA_PROFIL
 10
68.299999997611735
 20
19.399999999999189
 30
0.0
  0
VERTEX
  5
1D1B
  8
SAPA_PROFIL
 10
68.299999997611735
 20
20.999999999999101
 30
0.0
 42
0.4142135623730119
  0
VERTEX
  5
1D1C
  8
SAPA_PROFIL
 10
68.09999999761169
 20
21.199999999999381
 30
0.0
  0
VERTEX
  5
1D1D
  8
SAPA_PROFIL
 10
67.899999997611644
 20
21.199999999999381
 30
0.0
 42
-0.4142135623731159
  0
VERTEX
  5
1D1E
  8
SAPA_PROFIL
 10
67.699999997611599
 20
21.39999999999965
 30
0.0
  0
VERTEX
  5
1D1F
  8
SAPA_PROFIL
 10
67.699999997611826
 20
22.999999999999559
 30
0.0
 42
-0.4142135623730764
  0
VERTEX
  5
1D20
  8
SAPA_PROFIL
 10
67.999999997611781
 20
23.29999999999929
 30
0.0
  0
VERTEX
  5
1D21
  8
SAPA_PROFIL
 10
85.999999997611766
 20
23.29999999999929
 30
0.0
 42
-0.4142135624878015
  0
VERTEX
  5
1D22
  8
SAPA_PROFIL
 10
86.299999997611735
 20
22.99999999988178
 30
0.0
  0
VERTEX
  5
1D23
  8
SAPA_PROFIL
 10
86.299999996985079
 20
21.399999999920979
 30
0.0
 42
-0.4142135622584246
  0
VERTEX
  5
1D24
  8
SAPA_PROFIL
 10
86.099999996985034
 20
21.199999999999381
 30
0.0
  0
VERTEX
  5
1D25
  8
SAPA_PROFIL
 10
85.89999999682378
 20
21.199999999999381
 30
0.0
 42
0.4142135622515673
  0
VERTEX
  5
1D26
  8
SAPA_PROFIL
 10
85.699999996823962
 20
21.000000000082331
 30
0.0
  0
VERTEX
  5
1D27
  8
SAPA_PROFIL
 10
85.699999996160699
 20
19.400000000082411
 30
0.0
 42
0.4142135624945394
  0
VERTEX
  5
1D28
  8
SAPA_PROFIL
 10
85.899999996160744
 20
19.19999999999937
 30
0.0
  0
VERTEX
  5
1D29
  8
SAPA_PROFIL
 10
86.099999997736035
 20
19.19999999999937
 30
0.0
 42
-0.4142135623728455
  0
VERTEX
  5
1D2A
  8
SAPA_PROFIL
 10
86.299999997735867
 20
18.999999999999101
 30
0.0
  0
SEQEND
  5
1D2B
  8
SAPA_PROFIL
  0
POLYLINE
  5
1573
  8
SAPA_PROFIL
 66
     1
 10
0.0
 20
0.0
 30
0.0
 70
     1
  0
VERTEX
  5
1D2C
  8
SAPA_PROFIL
 10
65.999999997611781
 20
9.3444863728664274
 30
0.0
 42
-0.267949192431007
  0
VERTEX
  5
1D2D
  8
SAPA_PROFIL
 10
65.749999997611781
 20
8.911473670974388
 30
0.0
  0
VERTEX
  5
1D2E
  8
SAPA_PROFIL
 10
63.999999997611312
 20
7.901110699892353
 30
0.0
 42
0.2679491924311281
  0
VERTEX
  5
1D2F
  8
SAPA_PROFIL
 10
63.499999997611319
 20
7.0350852961078187
 30
0.0
  0
VERTEX
  5
1D30
  8
SAPA_PROFIL
 10
63.499999997611553
 20
5.649444650052839
 30
0.0
 42
0.57735026918954
  0
VERTEX
  5
1D31
  8
SAPA_PROFIL
 10
63.799999997611501
 20
5.4762395692960233
 30
0.0
  0
VERTEX
  5
1D32
  8
SAPA_PROFIL
 10
65.399999997611189
 20
6.3999999999991921
 30
0.0
  0
VERTEX
  5
1D33
  8
SAPA_PROFIL
 10
65.699999997611371
 20
6.3999999999991921
 30
0.0
 42
-0.41421356237306
  0
VERTEX
  5
1D34
  8
SAPA_PROFIL
 10
65.999999997611553
 20
6.0999999999990102
 30
0.0
  0
VERTEX
  5
1D35
  8
SAPA_PROFIL
 10
65.999999997611553
 20
2.2472135954994981
 30
0.0
 42
0.2036002236709541
  0
VERTEX
  5
1D36
  8
SAPA_PROFIL
 10
66.091725130575355
 20
2.0312932866791118
 30
0.0
 42
-0.8292414158604859
  0
VERTEX
  5
1D37
  8
SAPA_PROFIL
 10
65.895591842043927
 20
1.699297653659424
 30
0.0
  0
VERTEX
  5
1D38
  8
SAPA_PROFIL
 10
65.724037795420031
 20
1.751354353721136
 30
0.0
  0
VERTEX
  5
1D39
  8
SAPA_PROFIL
 10
63.838194103559189
 20
2.8359188006929901
 30
0.0
  0
VERTEX
  5
1D3A
  8
SAPA_PROFIL
 10
63.848755469785942
 20
3.1576765289110069
 30
0.0
 42
0.5773502691894565
  0
VERTEX
  5
1D3B
  8
SAPA_PROFIL
 10
63.554599169531329
 20
3.340630269021414
 30
0.0
  0
VERTEX
  5
1D3C
  8
SAPA_PROFIL
 10
63.269916886300159
 20
3.1884963579132188
 30
0.0
 42
0.2216946626431577
  0
VERTEX
  5
1D3D
  8
SAPA_PROFIL
 10
62.864107981144898
 20
2.6476165264357512
 30
0.0
  0
VERTEX
  5
1D3E
  8
SAPA_PROFIL
 10
62.482661385017188
 20
0.8343860557779514
 30
0.0
 42
0.4757248385987928
  0
VERTEX
  5
1D3F
  8
SAPA_PROFIL
 10
62.783657475475017
 20
0.4627291109277501
 30
0.0
  0
VERTEX
  5
1D40
  8
SAPA_PROFIL
 10
64.288015290285671
 20
0.462812788715393
 30
0.0
  0
VERTEX
  5
1D41
  8
SAPA_PROFIL
 10
64.302533699533001
 20
0.51065853871388
 30
0.0
 42
-0.4580511809928869
  0
VERTEX
  5
1D42
  8
SAPA_PROFIL
 10
64.717914082082075
 20
0.6947262543667528
 30
0.0
  0
VERTEX
  5
1D43
  8
SAPA_PROFIL
 10
65.999999997611326
 20
0.199999999999374
 30
0.0
  0
VERTEX
  5
1D44
  8
SAPA_PROFIL
 10
69.012484331119708
 20
0.1999999999993776
 30
0.0
 42
0.2596812337301257
  0
VERTEX
  5
1D45
  8
SAPA_PROFIL
 10
69.182515142659781
 20
0.294693195247433
 30
0.0
  0
VERTEX
  5
1D46
  8
SAPA_PROFIL
 10
69.955046211729382
 20
1.5420397928715059
 30
0.0
 42
0.5877032589249617
  0
VERTEX
  5
1D47
  8
SAPA_PROFIL
 10
69.699999994419272
 20
1.9999999999991041
 30
0.0
  0
VERTEX
  5
1D48
  8
SAPA_PROFIL
 10
68.265821208028797
 20
1.9999999999991041
 30
0.0
 42
-0.4683749459842228
  0
VERTEX
  5
1D49
  8
SAPA_PROFIL
 10
67.999999994419227
 20
2.2999999999992862
 30
0.0
  0
VERTEX
  5
1D4A
  8
SAPA_PROFIL
 10
67.999999994419454
 20
4.6999999999989219
 30
0.0
 42
-0.4683749459847173
  0
VERTEX
  5
1D4B
  8
SAPA_PROFIL
 10
68.265821208029024
 20
4.9999999999991038
 30
0.0
  0
VERTEX
  5
1D4C
  8
SAPA_PROFIL
 10
74.099999994419363
 20
4.9999999999991038
 30
0.0
  0
VERTEX
  5
1D4D
  8
SAPA_PROFIL
 10
76.099999994419363
 20
4.9999999999991038
 30
0.0
  0
VERTEX
  5
1D4E
  8
SAPA_PROFIL
 10
85.699999994419272
 20
4.9999999999991083
 30
0.0
 42
-0.4142135623730951
  0
VERTEX
  5
1D4F
  8
SAPA_PROFIL
 10
85.999999994419227
 20
4.6999999999993811
 30
0.0
  0
VERTEX
  5
1D50
  8
SAPA_PROFIL
 10
85.999999994419227
 20
2.2999999999992902
 30
0.0
 42
-0.4142135623730951
  0
VERTEX
  5
1D51
  8
SAPA_PROFIL
 10
85.699999994419272
 20
1.999999999999108
 30
0.0
  0
VERTEX
  5
1D52
  8
SAPA_PROFIL
 10
84.299999994419181
 20
1.999999999999108
 30
0.0
 42
0.5877032589248625
  0
VERTEX
  5
1D53
  8
SAPA_PROFIL
 10
84.044953777109285
 20
1.5420397928715091
 30
0.0
  0
VERTEX
  5
1D54
  8
SAPA_PROFIL
 10
84.941352754351442
 20
0.0946931952476185
 30
0.0
 42
0.2596812337300832
  0
VERTEX
  5
1D55
  8
SAPA_PROFIL
 10
85.111383565891515
 20
-0.0000000000008917
 30
0.0
  0
VERTEX
  5
1D56
  8
SAPA_PROFIL
 10
87.799999997568989
 20
-0.0000000000008917
 30
0.0
 42
0.4142135623731107
  0
VERTEX
  5
1D57
  8
SAPA_PROFIL
 10
87.999999997569034
 20
0.1999999999993811
 30
0.0
  0
VERTEX
  5
1D58
  8
SAPA_PROFIL
 10
87.99999999756902
 20
29.79999999999929
 30
0.0
 42
0.4142135623730273
  0
VERTEX
  5
1D59
  8
SAPA_PROFIL
 10
87.799999997568975
 20
29.999999999999108
 30
0.0
  0
VERTEX
  5
1D5A
  8
SAPA_PROFIL
 10
85.111383565891259
 20
29.999999999999108
 30
0.0
 42
0.2596812337302099
  0
VERTEX
  5
1D5B
  8
SAPA_PROFIL
 10
84.9413527543512
 20
29.905306804751049
 30
0.0
  0
VERTEX
  5
1D5C
  8
SAPA_PROFIL
 10
84.044953777109058
 20
28.457960207127162
 30
0.0
 42
0.5877032589250762
  0
VERTEX
  5
1D5D
  8
SAPA_PROFIL
 10
84.299999994419153
 20
27.999999999999108
 30
0.0
  0
VERTEX
  5
1D5E
  8
SAPA_PROFIL
 10
85.699999994419244
 20
27.999999999999108
 30
0.0
 42
-0.4142135623730951
  0
VERTEX
  5
1D5F
  8
SAPA_PROFIL
 10
85.999999994419213
 20
27.699999999999381
 30
0.0
  0
VERTEX
  5
1D60
  8
SAPA_PROFIL
 10
85.999999994419213
 20
25.29999999999929
 30
0.0
 42
-0.4142135623730951
  0
VERTEX
  5
1D61
  8
SAPA_PROFIL
 10
85.699999994419244
 20
24.999999999999108
 30
0.0
  0
VERTEX
  5
1D62
  8
SAPA_PROFIL
 10
76.099999994419122
 20
24.999999999999108
 30
0.0
  0
VERTEX
  5
1D63
  8
SAPA_PROFIL
 10
74.099999994419122
 20
24.999999999999108
 30
0.0
  0
VERTEX
  5
1D64
  8
SAPA_PROFIL
 10
68.265821208029465
 20
24.999999999999108
 30
0.0
 42
-0.4683749459843959
  0
VERTEX
  5
1D65
  8
SAPA_PROFIL
 10
67.999999994419213
 20
25.299999999998828
 30
0.0
  0
VERTEX
  5
1D66
  8
SAPA_PROFIL
 10
67.999999994419213
 20
27.699999999999381
 30
0.0
 42
-0.4683749459842226
  0
VERTEX
  5
1D67
  8
SAPA_PROFIL
 10
68.265821208028783
 20
27.999999999999108
 30
0.0
  0
VERTEX
  5
1D68
  8
SAPA_PROFIL
 10
69.699999994419031
 20
27.999999999999108
 30
0.0
 42
0.5877032589249771
  0
VERTEX
  5
1D69
  8
SAPA_PROFIL
 10
69.95504621172914
 20
28.457960207127162
 30
0.0
  0
VERTEX
  5
1D6A
  8
SAPA_PROFIL
 10
69.182515142659767
 20
29.70530680475078
 30
0.0
 42
0.2596812337301256
  0
VERTEX
  5
1D6B
  8
SAPA_PROFIL
 10
69.012484331119694
 20
29.79999999999929
 30
0.0
  0
VERTEX
  5
1D6C
  8
SAPA_PROFIL
 10
65.999999997611312
 20
29.79999999999929
 30
0.0
  0
VERTEX
  5
1D6D
  8
SAPA_PROFIL
 10
64.717914082082288
 20
29.305273745631911
 30
0.0
 42
-0.4580511809929225
  0
VERTEX
  5
1D6E
  8
SAPA_PROFIL
 10
64.302533699533441
 20
29.489341461284781
 30
0.0
  0
VERTEX
  5
1D6F
  8
SAPA_PROFIL
 10
64.288015290285884
 20
29.537187211283271
 30
0.0
  0
VERTEX
  5
1D70
  8
SAPA_PROFIL
 10
62.783657475469781
 20
29.537270889070911
 30
0.0
 42
0.4757248385933691
  0
VERTEX
  5
1D71
  8
SAPA_PROFIL
 10
62.482661385017629
 20
29.16561394422116
 30
0.0
  0
VERTEX
  5
1D72
  8
SAPA_PROFIL
 10
62.864107981145132
 20
27.352383473562909
 30
0.0
 42
0.2350054070140314
  0
VERTEX
  5
1D73
  8
SAPA_PROFIL
 10
63.306088773867579
 20
26.793334556679849
 30
0.0
 42
-0.0011882050611145
  0
VERTEX
  5
1D74
  8
SAPA_PROFIL
 10
63.304731096185023
 20
26.79289896513912
 30
0.0
  0
VERTEX
  5
1D75
  8
SAPA_PROFIL
 10
63.554599169531549
 20
26.65936973097725
 30
0.0
 42
0.5773502691894562
  0
VERTEX
  5
1D76
  8
SAPA_PROFIL
 10
63.848755469786163
 20
26.842323471087202
 30
0.0
  0
VERTEX
  5
1D77
  8
SAPA_PROFIL
 10
63.838194103559417
 20
27.16408119930567
 30
0.0
  0
VERTEX
  5
1D78
  8
SAPA_PROFIL
 10
65.724037795420699
 20
28.24864564627752
 30
0.0
  0
VERTEX
  5
1D79
  8
SAPA_PROFIL
 10
65.895591842044141
 20
28.300702346339239
 30
0.0
 42
-0.8292414158590609
  0
VERTEX
  5
1D7A
  8
SAPA_PROFIL
 10
66.091725130576023
 20
27.968706713320461
 30
0.0
 42
0.2036002236714843
  0
VERTEX
  5
1D7B
  8
SAPA_PROFIL
 10
65.999999997611766
 20
27.75278640449962
 30
0.0
  0
VERTEX
  5
1D7C
  8
SAPA_PROFIL
 10
65.999999997611781
 20
23.89999999999965
 30
0.0
 42
-0.4142135623731708
  0
VERTEX
  5
1D7D
  8
SAPA_PROFIL
 10
65.699999997611599
 20
23.599999999999469
 30
0.0
  0
VERTEX
  5
1D7E
  8
SAPA_PROFIL
 10
65.399999997611417
 20
23.599999999999469
 30
0.0
  0
VERTEX
  5
1D7F
  8
SAPA_PROFIL
 10
63.799999997611948
 20
24.523760430703089
 30
0.0
 42
0.5773502691897499
  0
VERTEX
  5
1D80
  8
SAPA_PROFIL
 10
63.499999997611773
 20
24.35055534994628
 30
0.0
  0
VERTEX
  5
1D81
  8
SAPA_PROFIL
 10
63.499999997611553
 20
22.964914703890841
 30
0.0
 42
0.2679491924311548
  0
VERTEX
  5
1D82
  8
SAPA_PROFIL
 10
63.999999997611539
 20
22.098889300106311
 30
0.0
  0
VERTEX
  5
1D83
  8
SAPA_PROFIL
 10
65.749999997611781
 20
21.088526329024269
 30
0.0
 42
-0.2679491924310984
  0
VERTEX
  5
1D84
  8
SAPA_PROFIL
 10
65.999999997611781
 20
20.655513627131779
 30
0.0
  0
SEQEND
  5
1D85
  8
SAPA_PROFIL
  0
INSERT
  5
1579
  8
SAPA_ISOLATOR
  6
CONTINUOUS
  2
*X49
 10
0.0
 20
0.0
 30
0.0
1001
ACAD
1000
HATCH
1002
{
1070
    19
1000
ANSI31
1040
10.0
1040
5.4977871437821371
1000
R14_HATCH_DATA
1000
1579
1011
1.0
1021
0.0
1031
0.0
1021
0.0
1031
0.0
1011
0.0
1021
0.0
1031
0.0
1021
1.0
1031
0.0
1011
0.0
1021
0.0
1031
0.0
1021
0.0
1031
1.0
1040
0.0
1010
0.0
1020
0.0
1030
1.0
1000
ANSI31
1070
     0
1070
     0
1071
        2
1071
        1
1071
       42
1070
     3
1040
40.396713997646103
1040
0.7051223668025202
1040
0.2828427124745531
1040
0.2828427124745531
1040
0.9999999999999925
1040
2.7262370304854988
1040
3.9269908169871912
1070
     1
1070
     1
1040
40.396713997646081
1040
0.3051223668026139
1040
50.999999997563798
1040
0.3051223668026139
1070
     1
1040
50.999999997563798
1040
0.3051223668026139
1040
61.603285997491518
1040
0.3051223668026175
1070
     3
1040
61.60328599749149
1040
0.705122366802538
1040
-0.282842712474562
1040
0.282842712474562
1040
0.9999999999999962
1040
2.3561944901924141
1040
3.5569482766940581
1070
     1
1070
     1
1040
61.976210782105788
1040
0.5604603295560189
1040
62.934067588235038
1040
3.0297228252043271
1070
     3
1040
63.21376099754432
1040
2.921226366764472
1040
-0.2121318984795039
1040
0.2121318984795039
1040
0.9999999999999989
1040
5.8678296840752644
1040
7.3729935173778669
1070
     0
1070
     1
1040
63.303680059325522
1040
3.207433367086661
1040
63.543863124107808
1040
3.346103124193188
1070
     3
1040
63.648863124107557
1040
3.1642377893982241
1040
-0.1484924240492271
1040
0.1484924240492271
1040
0.9999999999999985
1040
0.2617993878007391
1040
2.356194490192614
1070
     0
1070
     1
1040
63.858863124107643
1040
3.1642377893981681
1040
63.858863124107643
1040
2.8971232611857078
1070
     1
1040
63.858863124107643
1040
2.8971232611857078
1040
65.239999997524464
1040
2.105122366717306
1070
     1
1040
65.239999997524464
1040
2.105122366717306
1040
65.589999997524146
1040
2.1051223667082111
1070
     3
1040
65.589999997533766
1040
2.5051223667084588
1040
0.2828427124748035
1040
0.2828427124748035
1040
0.9999999999999676
1040
3.926990816963241
1040
5.4977871437589929
1070
     1
1070
     1
1040
65.989999997534014
1040
2.5051223666992071
1040
65.989999997613836
1040
5.905122366699298
1070
     3
1040
65.589999997613944
1040
5.905122366708607
1040
0.2828427124745385
1040
0.2828427124745385
1040
0.9999999999999935
1040
5.4977871437588641
1040
7.0685834705542288
1070
     1
1070
     1
1040
65.589999997623053
1040
6.3051223667084839
1040
65.245222046091953
1040
6.2959864454233063
1070
     1
1040
65.245222046091953
1040
6.2959864454233063
1040
63.602968599513922
1040
5.3572823104532388
1070
     3
1040
62.985182885641649
1040
6.5343994262084273
1040
-0.9400169925241968
1040
0.9400169925241968
1040
0.999999999999988
1040
3.443677533679609
1040
3.939721193763194
1070
     0
1070
     1
1040
62.968259773624929
1040
5.2051223667704214
1040
62.317415997597081
1040
5.2051223667858819
1070
     3
1040
62.317415997574017
1040
4.2051223667858286
1040
-0.707106781186586
1040
0.707106781186586
1040
0.999999999999993
1040
-0.7853981633974519
1040
0.4153559629949449
1070
     1
1070
     1
1040
61.385103913114897
1040
4.5667771430180544
1040
60.529247831317768
1040
2.360460456343854
1070
     3
1040
60.156322997534659
1040
2.5051223668369502
1040
-0.2828427124743292
1040
0.2828427124743292
1040
0.9999999999999994
1040
2.726236690595818
1040
3.9269908169878982
1070
     0
1070
     1
1040
60.156322997534389
1040
2.1051223668373602
1040
50.9999999975688
1040
2.1051223668364472
1070
     1
1040
50.9999999975688
1040
2.1051223668364472
1040
41.843676997603417
1040
2.1051223668373562
1070
     3
1040
41.843676997602998
1040
2.505122366837039
1040
0.2828427124743951
1040
0.2828427124743951
1040
0.9999999999999952
1040
2.3561944901912759
1040
3.5569486165836111
1070
     0
1070
     1
1040
41.470752163819832
1040
2.3604604563438509
1040
41.470752490118556
1040
2.3604596151826689
1070
     1
1040
41.470752490118556
1040
2.3604596151826689
1040
41.470752172262898
1040
2.3604604345787328
1070
     1
1040
41.470752172262898
1040
2.3604604345787328
1040
40.614896082022923
1040
4.5667771430180499
1070
     3
1040
39.682583997563754
1040
4.2051223667857442
1040
-0.7071067811866442
1040
0.7071067811866443
1040
0.9999999999999966
1040
4.2970330173898041
1040
5.49778714380537
1070
     1
1070
     1
1040
39.682583997540512
1040
5.2051223667858793
1040
39.031740221512671
1040
5.205122366770417
1070
     3
1040
39.014817109495112
1040
6.5343994262084273
1040
0.9400169925242042
1040
0.9400169925242042
1040
0.9999999999999882
1040
2.343464113415755
1040
2.839507773499252
1070
     0
1070
     1
1040
38.397031395623678
1040
5.3572823104527814
1040
36.754777949045881
1040
6.2959864454233019
1070
     1
1040
36.754777949045881
1040
6.2959864454233019
1040
36.409999997514767
1040
6.3051223667084813
1070
     3
1040
36.409999997523883
1040
5.9051223667086026
1040
-0.2828427124745349
1040
0.2828427124745349
1040
0.9999999999999834
1040
-0.7853981633746838
1040
0.7853981634207266
1070
     1
1070
     1
1040
36.009999997523998
1040
5.9051223666992954
1040
36.009999997603813
1040
2.505122366699204
1070
     3
1040
36.40999999760394
1040
2.5051223667083411
1040
-0.2828427124747162
1040
0.2828427124747162
1040
0.9999999999999815
1040
0.7853981634203016
1040
2.3561944902161032
1070
     1
1070
     1
1040
36.409999997613447
1040
2.105122366708208
1040
36.759999997613129
1040
2.1051223667173029
1070
     1
1040
36.759999997613129
1040
2.1051223667173029
1040
38.141136871030191
1040
2.8971232611857038
1070
     1
1040
38.141136871030191
1040
2.8971232611857038
1040
38.141136871030191
1040
3.1642377893981641
1070
     3
1040
38.351136871030157
1040
3.1642377893982712
1040
-0.1484924240491553
1040
0.1484924240491553
1040
0.9999999999999687
1040
5.4977871437816139
1040
7.5921822461733512
1070
     0
1070
     1
1040
38.456136871029791
1040
3.346103124193184
1040
38.696319935812078
1040
3.2074333670866571
1070
     3
1040
38.786238997593401
1040
2.9212263667643472
1040
0.2121318984796102
1040
0.2121318984796103
1040
0.9999999999999925
1040
-1.089808210198524
1040
0.4153556231040856
1070
     0
1070
     1
1040
39.065932406902782
1040
3.029722825204324
1040
40.023789213031812
1040
0.5604603295560154
1071
        0
1071
        1
1071
       40
1070
     3
1040
38.786238997593848
1040
27.078773633234292
1040
-0.2121318984796031
1040
0.2121318984796031
1040
0.9999999999999985
1040
2.7262370304856849
1040
4.2314008637883482
1070
     0
1070
     1
1040
38.696319935812532
1040
26.792566632911988
1040
38.456136871030239
1040
26.653896875805462
1070
     3
1040
38.351136871030462
1040
26.835762210600361
1040
-0.1484924240492027
1040
0.1484924240492027
1040
0.9999999999999968
1040
3.4033920413902332
1040
5.4977871437827108
1070
     0
1070
     1
1040
38.141136871030412
1040
26.835762210600489
1040
38.141136871030412
1040
27.102876738812949
1070
     1
1040
38.141136871030412
1040
27.102876738812949
1040
36.759999997613583
1040
27.894877633281801
1070
     1
1040
36.759999997613583
1040
27.894877633281801
1040
36.409999997613888
1040
27.89487763328999
1070
     3
1040
36.409999997604046
1040
27.49487763328997
1040
0.2828427124746335
1040
0.2828427124746335
1040
0.9999999999999969
1040
0.7853981633974497
1040
2.356194490168646
1070
     1
1070
     1
1040
36.009999997604027
1040
27.494877633299449
1040
36.009999997524218
1040
24.094877633299362
1070
     3
1040
36.409999997524103
1040
24.09487763329005
1040
0.2828427124745333
1040
0.2828427124745332
1040
0.9999999999999957
1040
2.3561944901690719
1040
3.9269908169644698
1070
     1
1070
     1
1040
36.409999997514987
1040
23.694877633290169
1040
36.754777949046563
1040
23.704013554575798
1070
     1
1040
36.754777949046563
1040
23.704013554575798
1040
38.397031395625262
1040
24.64271768954632
1070
     3
1040
39.014817109495851
1040
23.465600573790081
1040
-0.9400169925243025
1040
0.9400169925243023
1040
0.999999999999985
1040
0.3020848800913068
1040
0.7981285401736419
1070
     0
1070
     1
1040
39.031740221512891
1040
24.794877633228229
1040
39.682583997540732
1040
24.794877633213229
1070
     3
1040
39.682583997564279
1040
25.794877633213169
1040
-0.7071067811865066
1040
0.7071067811865066
1040
0.9999999999999939
1040
2.3561944901687939
1040
3.5569486165843229
1070
     1
1070
     1
1040
40.614896082023151
1040
25.433222856980599
1040
41.470752163820507
1040
27.639539543654799
1070
     3
1040
41.843676997603957
1040
27.494877633161909
1040
0.2828427124745108
1040
0.2828427124745108
1040
0.9999999999999815
1040
4.2970330173899347
1040
5.497787143781915
1070
     0
1070
     1
1040
41.843676997603879
1040
27.894877633161752
1040
50.99999999756924
1040
27.894877633161752
1070
     1
1040
50.99999999756924
1040
27.894877633161752
1040
60.156322997534623
1040
27.894877633161759
1070
     3
1040
60.156322997534531
1040
27.494877633161909
1040
0.2828427124745081
1040
0.2828427124745081
1040
0.9999999999999889
1040
-0.7853981633972407
1040
0.4153559629947652
1070
     0
1070
     1
1040
60.529247831317988
1040
27.639539543654809
1040
61.385103913115117
1040
25.43322285698061
1070
     3
1040
62.317415997574003
1040
25.79487763321319
1040
0.7071067811865183
1040
0.7071067811865182
1040
0.9999999999999943
1040
2.72623669059527
1040
3.9269908170107768
1070
     1
1070
     1
1040
62.317415997597543
1040
24.794877633213229
1040
62.96825977362537
1040
24.794877633228239
1070
     3
1040
62.985182885642431
1040
23.465600573790091
1040
0.9400169925242954
1040
0.9400169925242957
1040
0.999999999999995
1040
-0.7981285401736478
1040
-0.3020848800913134
1070
     0
1070
     1
1040
63.602968599513012
1040
24.64271768954633
1040
65.245222046091726
1040
23.704013554575809
1070
     1
1040
65.245222046091726
1040
23.704013554575809
1040
65.589999997623295
1040
23.694877633290179
1070
     3
1040
65.589999997614171
1040
24.094877633290061
1040
-0.2828427124745403
1040
0.2828427124745403
1040
0.9999999999999456
1040
2.3561944902151248
1040
3.9269908170105392
1070
     1
1070
     1
1040
65.989999997614049
1040
24.094877633299362
1040
65.989999997534241
1040
27.494877633299449
1070
     3
1040
65.589999997534335
1040
27.494877633290091
1040
-0.2828427124745545
1040
0.2828427124745545
1040
0.9999999999999873
1040
3.9269908170106591
1040
5.4977871438064669
1070
     1
1070
     1
1040
65.5899999975246
1040
27.89487763328999
1040
65.239999997524919
1040
27.894877633281808
1070
     1
1040
65.239999997524919
1040
27.894877633281808
1040
63.858863124107863
1040
27.102876738812949
1070
     1
1040
63.858863124107863
1040
27.102876738812949
1040
63.858863124107863
1040
26.835762210600489
1070
     3
1040
63.648863124107827
1040
26.83576221060034
1040
0.1484924240491914
1040
0.1484924240491914
1040
0.9999999999999866
1040
0.7853981633967107
1040
2.8797932657895049
1070
     0
1070
     1
1040
63.543863124108022
1040
26.653896875805469
1040
63.30368005932597
1040
26.792566632911999
1070
     3
1040
63.213760997544647
1040
27.078773633234292
1040
0.2121318984795998
1040
0.2121318984795998
1040
0.9999999999999996
1040
2.05178444339123
1040
3.5569482766939231
1070
     0
1070
     1
1040
62.934067588235258
1040
26.97027717479433
1040
61.976210782106229
1040
29.439539670442642
1070
     3
1040
61.603285997491952
1040
29.294877633196151
1040
-0.2828427124745454
1040
0.2828427124745456
1040
0.9999999999999895
1040
4.2970333572803749
1040
5.4977871437820971
1070
     1
1070
     1
1040
61.603285997491959
1040
29.69487763319604
1040
50.99999999757425
1040
29.69487763319604
1070
     1
1040
50.99999999757425
1040
29.69487763319604
1040
40.396713997646302
1040
29.69487763319604
1070
     3
1040
40.396713997646494
1040
29.294877633196229
1040
0.2828427124744894
1040
0.2828427124744894
1040
0.9999999999999708
1040
0.7853981633979247
1040
1.9861519498993501
1070
     1
1070
     1
1040
40.023789213032252
1040
29.439539670442642
1040
39.065932406903229
1040
26.97027717479433
1071
        0
1070
     0
1070
     1
1040
5.4977871437821371
1040
10.0
1070
     0
1070
     1
1040
1.5707963267948959
1040
167.45643560050249
1040
890.02975715496939
1040
1.25
1040
0.0000000000000006
1070
     0
1071
        1
1040
914.12802429162036
1040
155.95630091036909
1040
0.0
1002
}
  0
ENDSEC
  0
EOF
