  0
SECTION
  2
HEADER
  9
$ACADVER
  1
AC1009
  9
$INSBASE
 10
62.839751437537643
 20
495.72533747203312
 30
0.0
  9
$EXTMIN
 10
-131.7452310560445
 20
-65.543828313683704
 30
0.0
  9
$EXTMAX
 10
221.0410663237833
 20
165.3798705268043
 30
0.0
  9
$LIMMIN
 10
0.0
 20
0.0
  9
$LIMMAX
 10
790.0
 20
790.0
  9
$ORTHOMODE
 70
     1
  9
$REGENMODE
 70
     1
  9
$FILLMODE
 70
     1
  9
$QTEXTMODE
 70
     0
  9
$MIRRTEXT
 70
     1
  9
$DRAGMODE
 70
     2
  9
$LTSCALE
 40
2.5
  9
$OSMODE
 70
   167
  9
$ATTMODE
 70
     1
  9
$TEXTSIZE
 40
5.0
  9
$TRACEWID
 40
0.05
  9
$TEXTSTYLE
  7
ISO
  9
$CLAYER
  8
0
  9
$CELTYPE
  6
BYLAYER
  9
$CECOLOR
 62
   256
  9
$DIMSCALE
 40
0.0
  9
$DIMASZ
 40
3.0
  9
$DIMEXO
 40
1.5
  9
$DIMDLI
 40
10.0
  9
$DIMRND
 40
0.0
  9
$DIMDLE
 40
0.0
  9
$DIMEXE
 40
1.5
  9
$DIMTP
 40
0.0
  9
$DIMTM
 40
0.0
  9
$DIMTXT
 40
3.0
  9
$DIMCEN
 40
-5.0
  9
$DIMTSZ
 40
0.0
  9
$DIMTOL
 70
     0
  9
$DIMLIM
 70
     0
  9
$DIMTIH
 70
     0
  9
$DIMTOH
 70
     1
  9
$DIMSE1
 70
     0
  9
$DIMSE2
 70
     0
  9
$DIMTAD
 70
     1
  9
$DIMZIN
 70
     8
  9
$DIMBLK
  1

  9
$DIMASO
 70
     1
  9
$DIMSHO
 70
     1
  9
$DIMPOST
  1

  9
$DIMAPOST
  1

  9
$DIMALT
 70
     0
  9
$DIMALTD
 70
     0
  9
$DIMALTF
 40
25.399999999999999
  9
$DIMLFAC
 40
-1.0
  9
$DIMTOFL
 70
     1
  9
$DIMTVP
 40
0.0
  9
$DIMTIX
 70
     0
  9
$DIMSOXD
 70
     0
  9
$DIMSAH
 70
     0
  9
$DIMBLK1
  1

  9
$DIMBLK2
  1

  9
$DIMSTYLE
  2
MASKIN
  9
$DIMCLRD
 70
   256
  9
$DIMCLRE
 70
   256
  9
$DIMCLRT
 70
     2
  9
$DIMTFAC
 40
1.0
  9
$DIMGAP
 40
1.0
  9
$LUNITS
 70
     2
  9
$LUPREC
 70
     4
  9
$SKETCHINC
 40
0.1
  9
$FILLETRAD
 40
0.0
  9
$AUNITS
 70
     0
  9
$AUPREC
 70
     0
  9
$MENU
  1
ACAD
  9
$ELEVATION
 40
0.0
  9
$PELEVATION
 40
0.0
  9
$THICKNESS
 40
0.0
  9
$LIMCHECK
 70
     0
  9
$BLIPMODE
 70
     0
  9
$CHAMFERA
 40
0.0
  9
$CHAMFERB
 40
0.0
  9
$SKPOLY
 70
     0
  9
$TDCREATE
 40
2451169.4686749768
  9
$TDUPDATE
 40
2455000.616597489
  9
$TDINDWG
 40
0.3913935185
  9
$TDUSRTIMER
 40
0.3913935185
  9
$USRTIMER
 70
     1
  9
$ANGBASE
 50
0.0
  9
$ANGDIR
 70
     0
  9
$PDMODE
 70
     0
  9
$PDSIZE
 40
0.0
  9
$PLINEWID
 40
0.0
  9
$COORDS
 70
     1
  9
$SPLFRAME
 70
     0
  9
$SPLINETYPE
 70
     6
  9
$SPLINESEGS
 70
     8
  9
$ATTDIA
 70
     0
  9
$ATTREQ
 70
     1
  9
$HANDLING
 70
     1
  9
$HANDSEED
  5
1A7C
  9
$SURFTAB1
 70
     6
  9
$SURFTAB2
 70
     6
  9
$SURFTYPE
 70
     6
  9
$SURFU
 70
     6
  9
$SURFV
 70
     6
  9
$UCSNAME
  2

  9
$UCSORG
 10
0.0
 20
0.0
 30
0.0
  9
$UCSXDIR
 10
1.0
 20
0.0
 30
0.0
  9
$UCSYDIR
 10
0.0
 20
1.0
 30
0.0
  9
$PUCSNAME
  2

  9
$PUCSORG
 10
0.0
 20
0.0
 30
0.0
  9
$PUCSXDIR
 10
1.0
 20
0.0
 30
0.0
  9
$PUCSYDIR
 10
0.0
 20
1.0
 30
0.0
  9
$USERI1
 70
     0
  9
$USERI2
 70
     0
  9
$USERI3
 70
     0
  9
$USERI4
 70
     0
  9
$USERI5
 70
     0
  9
$USERR1
 40
0.0
  9
$USERR2
 40
0.0
  9
$USERR3
 40
0.0
  9
$USERR4
 40
0.0
  9
$USERR5
 40
0.0
  9
$WORLDVIEW
 70
     1
  9
$SHADEDGE
 70
     3
  9
$SHADEDIF
 70
    70
  9
$TILEMODE
 70
     1
  9
$MAXACTVP
 70
    16
  9
$PLIMCHECK
 70
     0
  9
$PEXTMIN
 10
1.0000000000000000E+020
 20
1.0000000000000000E+020
 30
1.0000000000000000E+020
  9
$PEXTMAX
 10
-1.0000000000000000E+020
 20
-1.0000000000000000E+020
 30
-1.0000000000000000E+020
  9
$PLIMMIN
 10
-4.23333740234375
 20
-4.2333331108093262
  9
$PLIMMAX
 10
292.69265747070312
 20
205.7399945259094
  9
$UNITMODE
 70
     0
  9
$VISRETAIN
 70
     1
  9
$PLINEGEN
 70
     0
  9
$PSLTSCALE
 70
     1
  0
ENDSEC
  0
SECTION
  2
TABLES
  0
TABLE
  2
VPORT
 70
     1
  0
VPORT
  2
*ACTIVE
 70
     0
 10
0.0
 20
0.0
 11
1.0
 21
1.0
 12
125.4889939084954
 22
49.912264689865523
 13
0.0
 23
0.0
 14
1.0
 24
1.0
 15
0.0
 25
0.0
 16
0.0
 26
0.0
 36
1.0
 17
0.0
 27
0.0
 37
0.0
 40
232.8236065694814
 41
2.362776025236593
 42
50.0
 43
0.0
 44
0.0
 50
0.0
 51
0.0
 71
     0
 72
   100
 73
     1
 74
     0
 75
     0
 76
     0
 77
     0
 78
     0
  0
ENDTAB
  0
TABLE
  2
LTYPE
 70
     3
  0
LTYPE
  2
CONTINUOUS
 70
     0
  3
Solid line
 72
    65
 73
     0
 40
0.0
  0
LTYPE
  2
BYGG-014976$0$DASHDOT
 70
     0
  3
__ . __ . __ . __ . __ . __ . __ . __ . __ . __
 72
    65
 73
     4
 40
1.0
 49
0.5
 49
-0.25
 49
0.0
 49
-0.25
  0
LTYPE
  2
NEWDOT
 70
     0
  3
____ . ____ . ____ . ____ . ____ . ____ . ____
 72
    65
 73
     4
 40
2.0
 49
1.0
 49
-0.5
 49
0.0
 49
-0.5
  0
ENDTAB
  0
TABLE
  2
LAYER
 70
    31
  0
LAYER
  2
0
 70
     0
 62
     7
  6
CONTINUOUS
  0
LAYER
  2
SAPA_ANSLUTNING
 70
     0
 62
     6
  6
CONTINUOUS
  0
LAYER
  2
SAPA_ISOLATOR
 70
     0
 62
     4
  6
CONTINUOUS
  0
LAYER
  2
SAPA_PROFIL
 70
     0
 62
     7
  6
CONTINUOUS
  0
ENDTAB
  0
TABLE
  2
STYLE
 70
     6
  0
STYLE
  2
STANDARD
 70
     0
 40
0.0
 41
1.0
 50
0.0
 71
     0
 42
0.2
  3
txt
  4

  0
STYLE
  2
ISO
 70
     0
 40
0.0
 41
1.0
 50
0.0
 71
     0
 42
5.0
  3
isocp3.shx
  4

  0
STYLE
  2
BYGG-021464$0$STANDARD
 70
     0
 40
0.0
 41
1.0
 50
0.0
 71
     0
 42
0.2
  3
txt
  4

  0
STYLE
  2
BYGG-021464$0$ISO
 70
     0
 40
0.0
 41
1.0
 50
0.0
 71
     0
 42
7.0
  3
ISO
  4

  0
STYLE
  2
BYGG-014976$0$STANDARD
 70
     0
 40
0.0
 41
1.0
 50
0.0
 71
     0
 42
0.2
  3
txt
  4

  0
STYLE
  2
BYGG-014976$0$ISO
 70
     0
 40
0.0
 41
1.0
 50
0.0
 71
     0
 42
3.5
  3
txt
  4

  0
ENDTAB
  0
TABLE
  2
VIEW
 70
     0
  0
ENDTAB
  0
TABLE
  2
UCS
 70
     0
  0
ENDTAB
  0
TABLE
  2
APPID
 70
    16
  0
APPID
  2
ACAD
 70
     0
  0
APPID
  2
ACAD_PSEXT
 70
     0
  0
APPID
  2
ACAECLAYERSTANDARD
 70
     0
  0
APPID
  2
ACAD_MLEADERVER
 70
     0
  0
APPID
  2
ACDBDYNAMICBLOCKGUID
 70
     0
  0
APPID
  2
ACDBBLOCKREPETAG
 70
     0
  0
APPID
  2
ACAD_EXEMPT_FROM_CAD_STANDARDS
 70
     0
  0
APPID
  2
ACAD_DSTYLE_DIMTEXT_FILL
 70
     0
  0
APPID
  2
ACAD_DSTYLE_DIMEXT_LENGTH
 70
     0
  0
APPID
  2
ACAD_DSTYLE_DIMEXT_ENABLED
 70
     0
  0
APPID
  2
ACAD_DSTYLE_DIM_LINETYPE
 70
     0
  0
APPID
  2
ACAD_DSTYLE_DIM_EXT1_LINETYPE
 70
     0
  0
APPID
  2
ACAD_DSTYLE_DIM_EXT2_LINETYPE
 70
     0
  0
APPID
  2
ACAD_DSTYLE_DIMJOGGED_JOGA
 70
     0
  0
APPID
  2
ACAD_DSTYLE_DIMARC_LENGTH_
 70
     0
  0
APPID
  2
ACADANNOTATIVE
 70
     0
  0
ENDTAB
  0
TABLE
  2
DIMSTYLE
 70
     3
  0
DIMSTYLE
  2
MASKIN
 70
     0
  3

  4

  5

  6

  7

 40
0.0
 41
3.0
 42
1.5
 43
10.0
 44
1.5
 45
0.0
 46
0.0
 47
0.0
 48
0.0
140
3.0
141
-5.0
142
0.0
143
25.399999999999999
144
-1.0
145
0.0
146
1.0
147
1.0
 71
     0
 72
     0
 73
     0
 74
     1
 75
     0
 76
     0
 77
     1
 78
     8
170
     0
171
     0
172
     1
173
     0
174
     0
175
     0
176
   256
177
   256
178
     2
  0
DIMSTYLE
  2
BYGG-021464$0$MASKIN
 70
     0
  3

  4

  5

  6

  7

 40
1.0
 41
3.0
 42
1.5
 43
10.0
 44
1.5
 45
0.0
 46
0.0
 47
0.0
 48
0.0
140
3.0
141
-5.0
142
0.0
143
25.399999999999999
144
1.0
145
0.0
146
1.0
147
0.09
 71
     0
 72
     0
 73
     0
 74
     0
 75
     0
 76
     0
 77
     1
 78
     8
170
     0
171
     0
172
     0
173
     0
174
     0
175
     0
176
   256
177
   256
178
   256
  0
DIMSTYLE
  2
BYGG-014976$0$MASKIN
 70
     0
  3

  4

  5

  6

  7

 40
0.0
 41
3.0
 42
1.5
 43
10.0
 44
1.5
 45
0.0
 46
0.0
 47
0.0
 48
0.0
140
3.0
141
-5.0
142
0.0
143
25.399999999999999
144
-1.0
145
0.0
146
1.0
147
1.0
 71
     0
 72
     0
 73
     0
 74
     0
 75
     0
 76
     0
 77
     1
 78
     8
170
     0
171
     0
172
     1
173
     0
174
     0
175
     0
176
   256
177
   256
178
   256
  0
ENDTAB
  0
ENDSEC
  0
SECTION
  2
BLOCKS
  0
BLOCK
  8
0
  2
$MODEL_SPACE
 70
     0
 10
0.0
 20
0.0
 30
0.0
  3
$MODEL_SPACE
  1

  0
ENDBLK
  5
D
  8
0
  0
BLOCK
 67
     1
  8
0
  2
$PAPER_SPACE
 70
     0
 10
0.0
 20
0.0
 30
0.0
  3
$PAPER_SPACE
  1

  0
ENDBLK
  5
12
 67
     1
  8
0
  0
BLOCK
  8
0
  2
*X13
 70
     1
 10
0.0
 20
0.0
 30
0.0
  3
*X13
  1

  0
LINE
  5
127B
  8
0
 62
     0
 10
87.891251730440317
 20
44.567526055329679
 30
0.0
 11
87.45877778577055
 21
44.999999999999453
 31
0.0
  0
LINE
  5
127C
  8
0
 62
     0
 10
87.497973473415428
 20
42.715740282087289
 30
0.0
 11
85.213713755503264
 21
44.999999999999453
 31
0.0
  0
LINE
  5
127D
  8
0
 62
     0
 10
87.206791109274661
 20
40.761858615960747
 30
0.0
 11
82.968649725235977
 21
44.999999999999439
 31
0.0
  0
LINE
  5
127E
  8
0
 62
     0
 10
87.033082035860815
 20
38.690503659107293
 30
0.0
 11
80.723585694968676
 21
44.999999999999439
 31
0.0
  0
LINE
  5
127F
  8
0
 62
     0
 10
86.99845557016107
 20
36.480066094539779
 30
0.0
 11
78.478521664701404
 21
44.999999999999439
 31
0.0
  0
LINE
  5
1280
  8
0
 62
     0
 10
87.134832678992765
 20
34.098624955440812
 30
0.0
 11
79.873862825355985
 21
41.359594809077556
 31
0.0
  0
LINE
  5
1281
  8
0
 62
     0
 10
87.492870520882406
 20
31.49552308328385
 30
0.0
 11
80.640215724625904
 21
38.348177879540373
 31
0.0
  0
LINE
  5
1282
  8
0
 62
     0
 10
86.743329573898976
 20
29.999999999999979
 30
0.0
 11
80.882263842424322
 21
35.861065731474667
 31
0.0
  0
LINE
  5
1283
  8
0
 62
     0
 10
84.808104486068061
 20
29.690161057563628
 30
0.0
 11
80.856419316979327
 21
33.641846226652362
 31
0.0
  0
LINE
  5
1284
  8
0
 62
     0
 10
84.00440131287499
 20
28.248800200489409
 30
0.0
 11
80.632587570843597
 21
31.620613942520809
 31
0.0
  0
LINE
  5
1285
  8
0
 62
     0
 10
85.999999994418317
 20
26.253201518946081
 30
0.0
 11
84.248800194907574
 21
28.004401318456829
 31
0.0
  0
LINE
  5
1286
  8
0
 62
     0
 10
85.00813748309713
 20
24.999999999999989
 30
0.0
 11
80.233414584942523
 21
29.774722898154611
 31
0.0
  0
LINE
  5
1287
  8
0
 62
     0
 10
82.763073452829843
 20
24.999999999999979
 30
0.0
 11
79.656098232498309
 21
28.10697522033152
 31
0.0
  0
LINE
  5
1288
  8
0
 62
     0
 10
80.518009422562557
 20
24.999999999999979
 30
0.0
 11
78.870098116616049
 21
26.64791130594649
 31
0.0
  0
LINE
  5
1289
  8
0
 62
     0
 10
78.27294539229527
 20
24.999999999999979
 30
0.0
 11
77.784355701920774
 21
25.488589690374489
 31
0.0
  0
LINE
  5
128A
  8
0
 62
     0
 10
85.616728817216782
 20
25.0
 30
0.0
 11
85.999999994418317
 21
25.383271177201539
 31
0.0
  0
LINE
  5
128B
  8
0
 62
     0
 10
83.371664786949495
 20
25.0
 30
0.0
 11
85.999999994418317
 21
27.62833520746883
 31
0.0
  0
LINE
  5
128C
  8
0
 62
     0
 10
86.126600756682194
 20
29.999999999999989
 30
0.0
 11
87.512780061255086
 21
31.38617930457286
 31
0.0
  0
LINE
  5
128D
  8
0
 62
     0
 10
81.126600756682194
 20
24.999999999999989
 30
0.0
 11
84.160832941752744
 21
28.034232185070529
 31
0.0
  0
LINE
  5
128E
  8
0
 62
     0
 10
78.881536726414893
 20
25.0
 30
0.0
 11
87.216956001283165
 21
33.335419274868229
 31
0.0
  0
LINE
  5
128F
  8
0
 62
     0
 10
79.588040383602959
 20
27.95156768745532
 30
0.0
 11
87.037841032042664
 21
35.401368335895022
 31
0.0
  0
LINE
  5
1290
  8
0
 62
     0
 10
76.636472696147621
 20
24.999999999999989
 30
0.0
 11
76.652944222595593
 21
25.016471526447958
 31
0.0
  0
LINE
  5
1291
  8
0
 62
     0
 10
80.552322265262234
 20
31.160913599381882
 30
0.0
 11
86.996713463200521
 21
37.605304797320173
 31
0.0
  0
LINE
  5
1292
  8
0
 62
     0
 10
80.860805094670795
 20
33.714460459057747
 30
0.0
 11
87.124926694412636
 21
39.978582058799589
 31
0.0
  0
LINE
  5
1293
  8
0
 62
     0
 10
80.877526755235607
 20
35.976246149889832
 30
0.0
 11
87.472054686741131
 21
42.570774081395363
 31
0.0
  0
LINE
  5
1294
  8
0
 62
     0
 10
80.688019367388875
 20
38.031802792310387
 30
0.0
 11
87.656216575077934
 21
44.999999999999439
 31
0.0
  0
LINE
  5
1295
  8
0
 62
     0
 10
80.320844997236748
 20
39.90969245242556
 30
0.0
 11
85.411152544810662
 21
44.999999999999453
 31
0.0
  0
LINE
  5
1296
  8
0
 62
     0
 10
79.777418707901703
 20
41.61133019335778
 30
0.0
 11
83.166088514543361
 21
44.999999999999439
 31
0.0
  0
LINE
  5
1297
  8
0
 62
     0
 10
79.033164447096198
 20
43.112139962819583
 30
0.0
 11
80.921024484276074
 21
44.999999999999439
 31
0.0
  0
LINE
  5
1298
  8
0
 62
     0
 10
78.013218425633696
 20
44.337257971624368
 30
0.0
 11
78.675960454008788
 21
44.999999999999453
 31
0.0
  0
LINE
  5
1299
  8
0
 62
     0
 10
76.430700640564609
 20
44.999804216822561
 30
0.0
 11
76.430896423741501
 21
44.999999999999439
 31
0.0
  0
ENDBLK
  5
129B
  8
0
  0
BLOCK
  8
0
  2
*X14
 70
     1
 10
0.0
 20
0.0
 30
0.0
  3
*X14
  1

  0
LINE
  5
129D
  8
0
 62
     0
 10
79.374988904652213
 20
28.87112830456574
 30
0.0
 11
79.771863904652193
 21
29.558535968819641
 31
0.0
  0
LINE
  5
129E
  8
0
 62
     0
 10
78.184363904652216
 20
26.80890531180404
 30
0.0
 11
78.58123890465221
 21
27.49631297605794
 31
0.0
  0
LINE
  5
129F
  8
0
 62
     0
 10
77.24362708136492
 20
25.1795013373195
 30
0.0
 11
77.390613904652213
 21
25.43408998329625
 31
0.0
  0
LINE
  5
12A0
  8
0
 62
     0
 10
80.565614189148306
 20
33.682981790089123
 30
0.0
 11
80.885212789455608
 21
34.236542803849261
 31
0.0
  0
LINE
  5
12A1
  8
0
 62
     0
 10
79.374989189148309
 20
31.620758797327429
 30
0.0
 11
79.771864189148303
 21
32.308166461581322
 31
0.0
  0
LINE
  5
12A2
  8
0
 62
     0
 10
78.184364189148312
 20
29.558535804565729
 30
0.0
 11
78.581239189148306
 21
30.245943468819629
 31
0.0
  0
LINE
  5
12A3
  8
0
 62
     0
 10
76.993739189148314
 20
27.496312811804039
 30
0.0
 11
77.390614189148309
 21
28.183720476057939
 31
0.0
  0
LINE
  5
12A4
  8
0
 62
     0
 10
75.803114189148303
 20
25.434089819042349
 30
0.0
 11
76.199989189148312
 21
26.121497483296238
 31
0.0
  0
LINE
  5
12A5
  8
0
 62
     0
 10
80.565614473644388
 20
36.432612282850812
 30
0.0
 11
80.819750468146466
 21
36.872788737360437
 31
0.0
  0
LINE
  5
12A6
  8
0
 62
     0
 10
79.374989473644391
 20
34.370389290089122
 30
0.0
 11
79.771864473644385
 21
35.057796954343019
 31
0.0
  0
LINE
  5
12A7
  8
0
 62
     0
 10
78.184364473644393
 20
32.308166297327432
 30
0.0
 11
78.581239473644388
 21
32.995573961581329
 31
0.0
  0
LINE
  5
12A8
  8
0
 62
     0
 10
76.993739473644396
 20
30.245943304565738
 30
0.0
 11
77.390614473644391
 21
30.933350968819632
 31
0.0
  0
LINE
  5
12A9
  8
0
 62
     0
 10
75.803114473644399
 20
28.183720311804048
 30
0.0
 11
76.199989473644393
 21
28.871127976057942
 31
0.0
  0
LINE
  5
12AA
  8
0
 62
     0
 10
74.612489473644402
 20
26.121497319042351
 30
0.0
 11
75.009364473644396
 21
26.808904983296252
 31
0.0
  0
LINE
  5
12AB
  8
0
 62
     0
 10
79.374989758140501
 20
37.120019782850797
 30
0.0
 11
79.771864758140495
 21
37.8074274471047
 31
0.0
  0
LINE
  5
12AC
  8
0
 62
     0
 10
78.184364758140504
 20
35.057796790089121
 30
0.0
 11
78.581239758140484
 21
35.745204454343011
 31
0.0
  0
LINE
  5
12AD
  8
0
 62
     0
 10
76.993739758140507
 20
32.995573797327431
 30
0.0
 11
77.390614758140501
 21
33.682981461581321
 31
0.0
  0
LINE
  5
12AE
  8
0
 62
     0
 10
75.803114758140509
 20
30.933350804565741
 30
0.0
 11
76.199989758140504
 21
31.620758468819631
 31
0.0
  0
LINE
  5
12AF
  8
0
 62
     0
 10
74.612489758140512
 20
28.87112781180404
 30
0.0
 11
75.009364758140507
 21
29.558535476057941
 31
0.0
  0
LINE
  5
12B0
  8
0
 62
     0
 10
73.613298348571931
 20
27.140477523944909
 30
0.0
 11
73.818739758140509
 21
27.49631248329624
 31
0.0
  0
LINE
  5
12B1
  8
0
 62
     0
 10
79.374990042636597
 20
39.869650275612493
 30
0.0
 11
79.771865042636591
 21
40.557057939866382
 31
0.0
  0
LINE
  5
12B2
  8
0
 62
     0
 10
78.1843650426366
 20
37.807427282850803
 30
0.0
 11
78.581240042636594
 21
38.4948349471047
 31
0.0
  0
LINE
  5
12B3
  8
0
 62
     0
 10
76.993740042636603
 20
35.74520429008912
 30
0.0
 11
77.390615042636597
 21
36.43261195434301
 31
0.0
  0
LINE
  5
12B4
  8
0
 62
     0
 10
75.803115042636605
 20
33.68298129732743
 30
0.0
 11
76.1999900426366
 21
34.37038896158132
 31
0.0
  0
LINE
  5
12B5
  8
0
 62
     0
 10
74.612490042636594
 20
31.620758304565729
 30
0.0
 11
75.009365042636603
 21
32.30816596881963
 31
0.0
  0
LINE
  5
12B6
  8
0
 62
     0
 10
73.421865042636611
 20
29.558535311804039
 30
0.0
 11
73.818740042636605
 21
30.24594297605794
 31
0.0
  0
LINE
  5
12B7
  8
0
 62
     0
 10
78.184365327132682
 20
40.557057775612492
 30
0.0
 11
78.581240327132676
 21
41.244465439866381
 31
0.0
  0
LINE
  5
12B8
  8
0
 62
     0
 10
76.993740327132684
 20
38.494834782850802
 30
0.0
 11
77.390615327132679
 21
39.182242447104699
 31
0.0
  0
LINE
  5
12B9
  8
0
 62
     0
 10
75.803115327132687
 20
36.432611790089112
 30
0.0
 11
76.199990327132682
 21
37.120019454343009
 31
0.0
  0
LINE
  5
12BA
  8
0
 62
     0
 10
74.61249032713269
 20
34.370388797327422
 30
0.0
 11
75.009365327132684
 21
35.057796461581319
 31
0.0
  0
LINE
  5
12BB
  8
0
 62
     0
 10
73.421865327132693
 20
32.308165804565732
 30
0.0
 11
73.818740327132687
 21
32.995573468819629
 31
0.0
  0
LINE
  5
12BC
  8
0
 62
     0
 10
72.378168997212001
 20
30.500430733469919
 30
0.0
 11
72.62811532713269
 21
30.933350476057939
 31
0.0
  0
LINE
  5
12BD
  8
0
 62
     0
 10
78.184365611628778
 20
43.306688268374188
 30
0.0
 11
78.497720847812573
 21
43.849435458262263
 31
0.0
  0
LINE
  5
12BE
  8
0
 62
     0
 10
76.99374061162878
 20
41.244465275612491
 30
0.0
 11
77.390615611628775
 21
41.931872939866388
 31
0.0
  0
LINE
  5
12BF
  8
0
 62
     0
 10
75.803115611628783
 20
39.182242282850808
 30
0.0
 11
76.199990611628778
 21
39.869649947104712
 31
0.0
  0
LINE
  5
12C0
  8
0
 62
     0
 10
74.612490611628786
 20
37.120019290089118
 30
0.0
 11
75.00936561162878
 21
37.807426954343022
 31
0.0
  0
LINE
  5
12C1
  8
0
 62
     0
 10
73.421865611628789
 20
35.057796297327428
 30
0.0
 11
73.818740611628783
 21
35.745203961581332
 31
0.0
  0
LINE
  5
12C2
  8
0
 62
     0
 10
72.231240611628792
 20
32.995573304565738
 30
0.0
 11
72.628115611628786
 21
33.682980968819642
 31
0.0
  0
LINE
  5
12C3
  8
0
 62
     0
 10
76.993740896124891
 20
43.994095768374187
 30
0.0
 11
77.390615896124885
 21
44.681503432628077
 31
0.0
  0
LINE
  5
12C4
  8
0
 62
     0
 10
75.803115896124893
 20
41.931872775612497
 30
0.0
 11
76.199990896124874
 21
42.619280439866401
 31
0.0
  0
LINE
  5
12C5
  8
0
 62
     0
 10
74.612490896124896
 20
39.869649782850821
 30
0.0
 11
75.009365896124891
 21
40.557057447104711
 31
0.0
  0
LINE
  5
12C6
  8
0
 62
     0
 10
73.421865896124899
 20
37.807426790089131
 30
0.0
 11
73.818740896124893
 21
38.494834454343021
 31
0.0
  0
LINE
  5
12C7
  8
0
 62
     0
 10
72.231240896124902
 20
35.745203797327441
 30
0.0
 11
72.628115896124896
 21
36.432611461581331
 31
0.0
  0
LINE
  5
12C8
  8
0
 62
     0
 10
75.803116180620975
 20
44.681503268374172
 30
0.0
 11
75.958875990762365
 21
44.951287173316338
 31
0.0
  0
LINE
  5
12C9
  8
0
 62
     0
 10
74.612491180620978
 20
42.619280275612482
 30
0.0
 11
75.009366180620972
 21
43.306687939866379
 31
0.0
  0
LINE
  5
12CA
  8
0
 62
     0
 10
73.421866180620981
 20
40.557057282850792
 30
0.0
 11
73.818741180620975
 21
41.244464947104682
 31
0.0
  0
LINE
  5
12CB
  8
0
 62
     0
 10
72.231241180620984
 20
38.494834290089102
 30
0.0
 11
72.628116180620978
 21
39.182241954342999
 31
0.0
  0
LINE
  5
12CC
  8
0
 62
     0
 10
77.390606507753674
 20
44.68148749999996
 30
0.0
 11
77.330951463786135
 21
44.784813067079511
 31
0.0
  0
LINE
  5
12CD
  8
0
 62
     0
 10
78.581231507753685
 20
42.61926450723827
 30
0.0
 11
78.184356507753691
 21
43.30667217149216
 31
0.0
  0
LINE
  5
12CE
  8
0
 62
     0
 10
79.771856507753682
 20
40.55704151447658
 30
0.0
 11
79.374981507753674
 21
41.244449178730477
 31
0.0
  0
LINE
  5
12CF
  8
0
 62
     0
 10
76.199981792249801
 20
43.994079999999947
 30
0.0
 11
75.803106792249807
 21
44.681487664253851
 31
0.0
  0
LINE
  5
12D0
  8
0
 62
     0
 10
77.390606792249798
 20
41.931857007238257
 30
0.0
 11
76.993731792249804
 21
42.619264671492161
 31
0.0
  0
LINE
  5
12D1
  8
0
 62
     0
 10
78.581231792249795
 20
39.869634014476581
 30
0.0
 11
78.184356792249801
 21
40.557041678730471
 31
0.0
  0
LINE
  5
12D2
  8
0
 62
     0
 10
79.771856792249793
 20
37.807411021714877
 30
0.0
 11
79.374981792249798
 21
38.494818685968781
 31
0.0
  0
LINE
  5
12D3
  8
0
 62
     0
 10
80.881297408071077
 20
35.885803507131918
 30
0.0
 11
80.565606792249795
 21
36.432595693207091
 31
0.0
  0
LINE
  5
12D4
  8
0
 62
     0
 10
75.009357076745886
 20
43.306672499999941
 30
0.0
 11
74.612482076745891
 21
43.994080164253837
 31
0.0
  0
LINE
  5
12D5
  8
0
 62
     0
 10
76.199982076745883
 20
41.244449507238258
 30
0.0
 11
75.803107076745889
 21
41.931857171492148
 31
0.0
  0
LINE
  5
12D6
  8
0
 62
     0
 10
77.39060707674588
 20
39.182226514476568
 30
0.0
 11
76.993732076745886
 21
39.869634178730472
 31
0.0
  0
LINE
  5
12D7
  8
0
 62
     0
 10
78.581232076745863
 20
37.120003521714878
 30
0.0
 11
78.184357076745883
 21
37.807411185968782
 31
0.0
  0
LINE
  5
12D8
  8
0
 62
     0
 10
79.771857076745874
 20
35.057780528953188
 30
0.0
 11
79.37498207674588
 21
35.745188193207078
 31
0.0
  0
LINE
  5
12D9
  8
0
 62
     0
 10
80.826931940650866
 20
33.230337258880951
 30
0.0
 11
80.565607076745877
 21
33.682965200445402
 31
0.0
  0
LINE
  5
12DA
  8
0
 62
     0
 10
73.818732361241985
 20
42.619264999999949
 30
0.0
 11
73.649713426216522
 21
42.912014382905262
 31
0.0
  0
LINE
  5
12DB
  8
0
 62
     0
 10
75.009357361241996
 20
40.557042007238259
 30
0.0
 11
74.612482361242002
 21
41.244449671492148
 31
0.0
  0
LINE
  5
12DC
  8
0
 62
     0
 10
76.199982361241993
 20
38.494819014476569
 30
0.0
 11
75.803107361241999
 21
39.182226678730473
 31
0.0
  0
LINE
  5
12DD
  8
0
 62
     0
 10
77.39060736124199
 20
36.432596021714879
 30
0.0
 11
76.993732361241996
 21
37.120003685968783
 31
0.0
  0
LINE
  5
12DE
  8
0
 62
     0
 10
78.581232361241987
 20
34.370373028953189
 30
0.0
 11
78.184357361241993
 21
35.057780693207093
 31
0.0
  0
LINE
  5
12DF
  8
0
 62
     0
 10
79.771857361241985
 20
32.308150036191499
 30
0.0
 11
79.37498236124199
 21
32.995557700445403
 31
0.0
  0
LINE
  5
12E0
  8
0
 62
     0
 10
73.818732645738095
 20
39.86963450723826
 30
0.0
 11
73.4218576457381
 21
40.557042171492149
 31
0.0
  0
LINE
  5
12E1
  8
0
 62
     0
 10
75.009357645738092
 20
37.80741151447657
 30
0.0
 11
74.612482645738098
 21
38.494819178730467
 31
0.0
  0
LINE
  5
12E2
  8
0
 62
     0
 10
76.199982645738075
 20
35.74518852171488
 30
0.0
 11
75.803107645738095
 21
36.432596185968777
 31
0.0
  0
LINE
  5
12E3
  8
0
 62
     0
 10
77.390607645738086
 20
33.68296552895319
 30
0.0
 11
76.993732645738092
 21
34.370373193207087
 31
0.0
  0
LINE
  5
12E4
  8
0
 62
     0
 10
78.581232645738083
 20
31.6207425361915
 30
0.0
 11
78.184357645738089
 21
32.308150200445397
 31
0.0
  0
LINE
  5
12E5
  8
0
 62
     0
 10
79.771857645738081
 20
29.55851954342981
 30
0.0
 11
79.374982645738086
 21
30.2459272076837
 31
0.0
  0
LINE
  5
12E6
  8
0
 62
     0
 10
72.628107930234179
 20
39.182227007238268
 30
0.0
 11
72.399652958983197
 21
39.577922624686671
 31
0.0
  0
LINE
  5
12E7
  8
0
 62
     0
 10
73.818732930234177
 20
37.120004014476578
 30
0.0
 11
73.421857930234182
 21
37.807411678730482
 31
0.0
  0
LINE
  5
12E8
  8
0
 62
     0
 10
75.009357930234174
 20
35.057781021714888
 30
0.0
 11
74.612482930234179
 21
35.745188685968792
 31
0.0
  0
LINE
  5
12E9
  8
0
 62
     0
 10
76.199982930234171
 20
32.995558028953198
 30
0.0
 11
75.803107930234177
 21
33.682965693207102
 31
0.0
  0
LINE
  5
12EA
  8
0
 62
     0
 10
77.390607930234154
 20
30.933335036191512
 30
0.0
 11
76.993732930234174
 21
31.620742700445408
 31
0.0
  0
LINE
  5
12EB
  8
0
 62
     0
 10
78.581232930234165
 20
28.871112043429822
 30
0.0
 11
78.184357930234171
 21
29.558519707683711
 31
0.0
  0
LINE
  5
12EC
  8
0
 62
     0
 10
72.628108214730261
 20
36.432596514476579
 30
0.0
 11
72.231233214730267
 21
37.120004178730483
 31
0.0
  0
LINE
  5
12ED
  8
0
 62
     0
 10
73.818733214730258
 20
34.370373521714889
 30
0.0
 11
73.421858214730264
 21
35.057781185968793
 31
0.0
  0
LINE
  5
12EE
  8
0
 62
     0
 10
75.009358214730256
 20
32.308150528953199
 30
0.0
 11
74.612483214730261
 21
32.995558193207103
 31
0.0
  0
LINE
  5
12EF
  8
0
 62
     0
 10
76.199983214730253
 20
30.245927536191509
 30
0.0
 11
75.803108214730258
 21
30.933335200445409
 31
0.0
  0
LINE
  5
12F0
  8
0
 62
     0
 10
77.390608214730236
 20
28.183704543429819
 30
0.0
 11
76.993733214730256
 21
28.871112207683709
 31
0.0
  0
LINE
  5
12F1
  8
0
 62
     0
 10
78.534553285205348
 20
26.202333560299
 30
0.0
 11
78.184358214730253
 21
26.808889214922019
 31
0.0
  0
LINE
  5
12F2
  8
0
 62
     0
 10
72.628108499226371
 20
33.68296602171489
 30
0.0
 11
72.231233499226363
 21
34.370373685968787
 31
0.0
  0
LINE
  5
12F3
  8
0
 62
     0
 10
73.818733499226369
 20
31.6207430289532
 30
0.0
 11
73.421858499226374
 21
32.308150693207097
 31
0.0
  0
LINE
  5
12F4
  8
0
 62
     0
 10
75.009358499226366
 20
29.55852003619151
 30
0.0
 11
74.612483499226371
 21
30.245927700445399
 31
0.0
  0
LINE
  5
12F5
  8
0
 62
     0
 10
76.199983499226363
 20
27.496297043429809
 30
0.0
 11
75.803108499226369
 21
28.18370470768371
 31
0.0
  0
LINE
  5
12F6
  8
0
 62
     0
 10
77.39060849922636
 20
25.434074050668119
 30
0.0
 11
76.993733499226366
 21
26.12148171492202
 31
0.0
  0
LINE
  5
12F7
  8
0
 62
     0
 10
72.628108783722453
 20
30.933335528953201
 30
0.0
 11
72.231233783722459
 21
31.62074319320709
 31
0.0
  0
LINE
  5
12F8
  8
0
 62
     0
 10
73.81873378372245
 20
28.871112536191511
 30
0.0
 11
73.421858783722456
 21
29.5585202004454
 31
0.0
  0
LINE
  5
12F9
  8
0
 62
     0
 10
75.009358783722448
 20
26.80888954342981
 30
0.0
 11
74.612483783722453
 21
27.49629720768371
 31
0.0
  0
LINE
  5
12FA
  8
0
 62
     0
 10
76.035267897872245
 20
25.031962833774401
 30
0.0
 11
75.80310878372245
 21
25.43407421492201
 31
0.0
  0
LINE
  5
12FB
  8
0
 62
     0
 10
76.200000000000003
 20
26.121485
 30
0.0
 11
76.993750000000006
 21
26.121485
 31
0.0
  0
LINE
  5
12FC
  8
0
 62
     0
 10
74.324609670772745
 20
26.121485
 30
0.0
 11
74.612499999999983
 21
26.121485
 31
0.0
  0
LINE
  5
12FD
  8
0
 62
     0
 10
78.581249999999997
 20
27.496300000000002
 30
0.0
 11
79.370310870913997
 21
27.496300000000002
 31
0.0
  0
LINE
  5
12FE
  8
0
 62
     0
 10
76.199999999999989
 20
27.496300000000002
 30
0.0
 11
76.993749999999991
 21
27.496300000000002
 31
0.0
  0
LINE
  5
12FF
  8
0
 62
     0
 10
73.81874999999998
 20
27.496300000000002
 30
0.0
 11
74.612499999999983
 21
27.496300000000002
 31
0.0
  0
LINE
  5
1300
  8
0
 62
     0
 10
78.581249999999997
 20
28.871114999999989
 30
0.0
 11
79.375
 21
28.871114999999989
 31
0.0
  0
LINE
  5
1301
  8
0
 62
     0
 10
76.199999999999989
 20
28.871114999999989
 30
0.0
 11
76.993749999999991
 21
28.871114999999989
 31
0.0
  0
LINE
  5
1302
  8
0
 62
     0
 10
73.81874999999998
 20
28.871114999999989
 30
0.0
 11
74.612499999999983
 21
28.871114999999989
 31
0.0
  0
LINE
  5
1303
  8
0
 62
     0
 10
78.581249999999997
 20
30.245930000000001
 30
0.0
 11
79.375
 21
30.245930000000001
 31
0.0
  0
LINE
  5
1304
  8
0
 62
     0
 10
76.199999999999989
 20
30.245930000000001
 30
0.0
 11
76.993749999999991
 21
30.245930000000001
 31
0.0
  0
LINE
  5
1305
  8
0
 62
     0
 10
73.81874999999998
 20
30.245930000000001
 30
0.0
 11
74.612499999999983
 21
30.245930000000001
 31
0.0
  0
LINE
  5
1306
  8
0
 62
     0
 10
78.581250000000011
 20
31.620744999999999
 30
0.0
 11
79.375000000000014
 21
31.620744999999999
 31
0.0
  0
LINE
  5
1307
  8
0
 62
     0
 10
76.200000000000003
 20
31.620744999999999
 30
0.0
 11
76.993750000000006
 21
31.620744999999999
 31
0.0
  0
LINE
  5
1308
  8
0
 62
     0
 10
73.818749999999994
 20
31.620744999999999
 30
0.0
 11
74.612499999999983
 21
31.620744999999999
 31
0.0
  0
LINE
  5
1309
  8
0
 62
     0
 10
72.162052211305721
 20
31.620744999999999
 30
0.0
 11
72.231249999999989
 21
31.620744999999999
 31
0.0
  0
LINE
  5
130A
  8
0
 62
     0
 10
78.581250000000011
 20
32.995559999999998
 30
0.0
 11
79.375000000000014
 21
32.995559999999998
 31
0.0
  0
LINE
  5
130B
  8
0
 62
     0
 10
76.200000000000003
 20
32.995559999999998
 30
0.0
 11
76.993750000000006
 21
32.995559999999998
 31
0.0
  0
LINE
  5
130C
  8
0
 62
     0
 10
73.818749999999994
 20
32.995559999999998
 30
0.0
 11
74.612499999999983
 21
32.995559999999998
 31
0.0
  0
LINE
  5
130D
  8
0
 62
     0
 10
71.98919060249797
 20
32.995559999999998
 30
0.0
 11
72.231249999999989
 21
32.995559999999998
 31
0.0
  0
LINE
  5
130E
  8
0
 62
     0
 10
78.581250000000011
 20
34.370375000000003
 30
0.0
 11
79.375000000000014
 21
34.370375000000003
 31
0.0
  0
LINE
  5
130F
  8
0
 62
     0
 10
76.200000000000003
 20
34.370375000000003
 30
0.0
 11
76.993750000000006
 21
34.370375000000003
 31
0.0
  0
LINE
  5
1310
  8
0
 62
     0
 10
73.818749999999994
 20
34.370375000000003
 30
0.0
 11
74.612499999999983
 21
34.370375000000003
 31
0.0
  0
LINE
  5
1311
  8
0
 62
     0
 10
71.907326048094561
 20
34.370375000000003
 30
0.0
 11
72.231249999999989
 21
34.370375000000003
 31
0.0
  0
LINE
  5
1312
  8
0
 62
     0
 10
78.581250000000011
 20
35.745190000000001
 30
0.0
 11
79.375000000000014
 21
35.745190000000001
 31
0.0
  0
LINE
  5
1313
  8
0
 62
     0
 10
76.200000000000003
 20
35.745190000000001
 30
0.0
 11
76.993750000000006
 21
35.745190000000001
 31
0.0
  0
LINE
  5
1314
  8
0
 62
     0
 10
73.818749999999994
 20
35.745190000000001
 30
0.0
 11
74.612499999999983
 21
35.745190000000001
 31
0.0
  0
LINE
  5
1315
  8
0
 62
     0
 10
71.911443140444945
 20
35.745190000000001
 30
0.0
 11
72.231249999999989
 21
35.745190000000001
 31
0.0
  0
LINE
  5
1316
  8
0
 62
     0
 10
78.581250000000011
 20
37.120004999999999
 30
0.0
 11
79.375000000000014
 21
37.120004999999999
 31
0.0
  0
LINE
  5
1317
  8
0
 62
     0
 10
76.200000000000003
 20
37.120004999999999
 30
0.0
 11
76.993750000000006
 21
37.120004999999999
 31
0.0
  0
LINE
  5
1318
  8
0
 62
     0
 10
73.818749999999994
 20
37.120004999999999
 30
0.0
 11
74.612499999999983
 21
37.120004999999999
 31
0.0
  0
LINE
  5
1319
  8
0
 62
     0
 10
72.001752053393773
 20
37.120004999999999
 30
0.0
 11
72.231249999999989
 21
37.120004999999999
 31
0.0
  0
LINE
  5
131A
  8
0
 62
     0
 10
78.581250000000011
 20
38.494819999999997
 30
0.0
 11
79.375000000000014
 21
38.494819999999997
 31
0.0
  0
LINE
  5
131B
  8
0
 62
     0
 10
76.200000000000003
 20
38.494819999999997
 30
0.0
 11
76.993750000000006
 21
38.494819999999997
 31
0.0
  0
LINE
  5
131C
  8
0
 62
     0
 10
73.818749999999994
 20
38.494819999999997
 30
0.0
 11
74.612499999999983
 21
38.494819999999997
 31
0.0
  0
LINE
  5
131D
  8
0
 62
     0
 10
72.183754963094344
 20
38.494819999999997
 30
0.0
 11
72.231249999999989
 21
38.494819999999997
 31
0.0
  0
LINE
  5
131E
  8
0
 62
     0
 10
78.581249999999997
 20
39.869635000000002
 30
0.0
 11
79.375
 21
39.869635000000002
 31
0.0
  0
LINE
  5
131F
  8
0
 62
     0
 10
76.199999999999989
 20
39.869635000000002
 30
0.0
 11
76.993749999999991
 21
39.869635000000002
 31
0.0
  0
LINE
  5
1320
  8
0
 62
     0
 10
73.81874999999998
 20
39.869635000000002
 30
0.0
 11
74.612499999999983
 21
39.869635000000002
 31
0.0
  0
LINE
  5
1321
  8
0
 62
     0
 10
78.581249999999997
 20
41.244450000000001
 30
0.0
 11
79.375
 21
41.244450000000001
 31
0.0
  0
LINE
  5
1322
  8
0
 62
     0
 10
76.199999999999989
 20
41.244450000000001
 30
0.0
 11
76.993749999999991
 21
41.244450000000001
 31
0.0
  0
LINE
  5
1323
  8
0
 62
     0
 10
73.81874999999998
 20
41.244450000000001
 30
0.0
 11
74.612499999999983
 21
41.244450000000001
 31
0.0
  0
LINE
  5
1324
  8
0
 62
     0
 10
78.581249999999997
 20
42.619264999999999
 30
0.0
 11
79.316086580965234
 21
42.619264999999999
 31
0.0
  0
LINE
  5
1325
  8
0
 62
     0
 10
76.199999999999989
 20
42.619264999999999
 30
0.0
 11
76.993749999999991
 21
42.619264999999999
 31
0.0
  0
LINE
  5
1326
  8
0
 62
     0
 10
73.81874999999998
 20
42.619264999999999
 30
0.0
 11
74.612499999999983
 21
42.619264999999999
 31
0.0
  0
LINE
  5
1327
  8
0
 62
     0
 10
76.200000000000003
 20
43.994079999999997
 30
0.0
 11
76.993750000000006
 21
43.994079999999997
 31
0.0
  0
LINE
  5
1328
  8
0
 62
     0
 10
74.43513831831514
 20
43.994079999999997
 30
0.0
 11
74.612499999999983
 21
43.994079999999997
 31
0.0
  0
ENDBLK
  5
132A
  8
0
  0
BLOCK
  8
0
  2
*X15
 70
     1
 10
0.0
 20
0.0
 30
0.0
  3
*X15
  1

  0
LINE
  5
132C
  8
0
 62
     0
 10
31.749997155039029
 20
26.121492884187109
 30
0.0
 11
32.000000000718117
 21
26.55451051494008
 31
0.0
  0
LINE
  5
132D
  8
0
 62
     0
 10
31.749997439535129
 20
28.871123376948798
 30
0.0
 11
32.000000000718117
 21
29.30414051494008
 31
0.0
  0
LINE
  5
132E
  8
0
 62
     0
 10
30.559372439535132
 20
26.808900384187108
 30
0.0
 11
30.956247439535129
 21
27.496308048441001
 31
0.0
  0
LINE
  5
132F
  8
0
 62
     0
 10
29.515003315782181
 20
24.99999999999082
 30
0.0
 11
29.765622439535129
 21
25.434085055679311
 31
0.0
  0
LINE
  5
1330
  8
0
 62
     0
 10
31.749997724031221
 20
31.620753869710491
 30
0.0
 11
32.000000000718117
 21
32.053770514940076
 31
0.0
  0
LINE
  5
1331
  8
0
 62
     0
 10
30.559372724031221
 20
29.558530876948801
 30
0.0
 11
30.956247724031229
 21
30.24593854120269
 31
0.0
  0
LINE
  5
1332
  8
0
 62
     0
 10
29.36874772403122
 20
27.496307884187111
 30
0.0
 11
29.765622724031228
 21
28.183715548441
 31
0.0
  0
LINE
  5
1333
  8
0
 62
     0
 10
28.178122724031219
 20
25.43408489142541
 30
0.0
 11
28.574997724031231
 21
26.12149255567931
 31
0.0
  0
LINE
  5
1334
  8
0
 62
     0
 10
31.749998008527331
 20
34.37038436247218
 30
0.0
 11
32.000000000718117
 21
34.803400514940073
 31
0.0
  0
LINE
  5
1335
  8
0
 62
     0
 10
30.559373008527331
 20
32.30816136971049
 30
0.0
 11
30.956248008527322
 21
32.995569033964387
 31
0.0
  0
LINE
  5
1336
  8
0
 62
     0
 10
29.36874800852733
 20
30.2459383769488
 30
0.0
 11
29.765623008527321
 21
30.933346041202689
 31
0.0
  0
LINE
  5
1337
  8
0
 62
     0
 10
28.178123008527319
 20
28.183715384187099
 30
0.0
 11
28.57499800852732
 21
28.871123048441
 31
0.0
  0
LINE
  5
1338
  8
0
 62
     0
 10
26.987498008527322
 20
26.121492391425409
 30
0.0
 11
27.384373008527319
 21
26.80890005567931
 31
0.0
  0
LINE
  5
1339
  8
0
 62
     0
 10
31.74999829302342
 20
37.120014855233869
 30
0.0
 11
32.000000000718117
 21
37.553030514940062
 31
0.0
  0
LINE
  5
133A
  8
0
 62
     0
 10
30.55937329302342
 20
35.057791862472179
 30
0.0
 11
30.956248293023421
 21
35.745199526726083
 31
0.0
  0
LINE
  5
133B
  8
0
 62
     0
 10
29.368748293023419
 20
32.995568869710489
 30
0.0
 11
29.76562329302342
 21
33.682976533964393
 31
0.0
  0
LINE
  5
133C
  8
0
 62
     0
 10
28.178123293023418
 20
30.933345876948799
 30
0.0
 11
28.57499829302342
 21
31.620753541202689
 31
0.0
  0
LINE
  5
133D
  8
0
 62
     0
 10
26.987498293023421
 20
28.871122884187098
 30
0.0
 11
27.384373293023419
 21
29.558530548440999
 31
0.0
  0
LINE
  5
133E
  8
0
 62
     0
 10
25.79687329302342
 20
26.808899891425408
 30
0.0
 11
26.193748293023418
 21
27.496307555679309
 31
0.0
  0
LINE
  5
133F
  8
0
 62
     0
 10
24.752504453766569
 20
24.999999999990809
 30
0.0
 11
25.003123293023421
 21
25.434084562917612
 31
0.0
  0
LINE
  5
1340
  8
0
 62
     0
 10
31.749998577519531
 20
39.869645347995558
 30
0.0
 11
32.000000000718117
 21
40.302660514940051
 31
0.0
  0
LINE
  5
1341
  8
0
 62
     0
 10
30.55937357751953
 20
37.807422355233868
 30
0.0
 11
30.956248577519521
 21
38.494830019487758
 31
0.0
  0
LINE
  5
1342
  8
0
 62
     0
 10
29.368748577519519
 20
35.745199362472178
 30
0.0
 11
29.76562357751952
 21
36.432607026726082
 31
0.0
  0
LINE
  5
1343
  8
0
 62
     0
 10
28.178123577519521
 20
33.682976369710488
 30
0.0
 11
28.574998577519519
 21
34.370384033964392
 31
0.0
  0
LINE
  5
1344
  8
0
 62
     0
 10
26.987498577519521
 20
31.620753376948802
 30
0.0
 11
27.384373577519519
 21
32.308161041202702
 31
0.0
  0
LINE
  5
1345
  8
0
 62
     0
 10
25.79687357751952
 20
29.558530384187112
 30
0.0
 11
26.193748577519521
 21
30.245938048441001
 31
0.0
  0
LINE
  5
1346
  8
0
 62
     0
 10
24.606248577519519
 20
27.496307391425411
 30
0.0
 11
25.003123577519521
 21
28.183715055679311
 31
0.0
  0
LINE
  5
1347
  8
0
 62
     0
 10
23.415623577519519
 20
25.434084398663721
 30
0.0
 11
23.81249857751952
 21
26.121492062917611
 31
0.0
  0
LINE
  5
1348
  8
0
 62
     0
 10
31.749998862015619
 20
42.619275840757233
 30
0.0
 11
32.000000000718117
 21
43.052290514940047
 31
0.0
  0
LINE
  5
1349
  8
0
 62
     0
 10
30.559373862015612
 20
40.55705284799555
 30
0.0
 11
30.95624886201562
 21
41.244460512249447
 31
0.0
  0
LINE
  5
134A
  8
0
 62
     0
 10
29.368748862015611
 20
38.49482985523386
 30
0.0
 11
29.765623862015619
 21
39.182237519487757
 31
0.0
  0
LINE
  5
134B
  8
0
 62
     0
 10
28.17812386201561
 20
36.43260686247217
 30
0.0
 11
28.574998862015619
 21
37.120014526726067
 31
0.0
  0
LINE
  5
134C
  8
0
 62
     0
 10
26.98749886201561
 20
34.37038386971048
 30
0.0
 11
27.384373862015622
 21
35.057791533964377
 31
0.0
  0
LINE
  5
134D
  8
0
 62
     0
 10
25.796873862015609
 20
32.30816087694879
 30
0.0
 11
26.193748862015621
 21
32.995568541202687
 31
0.0
  0
LINE
  5
134E
  8
0
 62
     0
 10
24.606248862015612
 20
30.2459378841871
 30
0.0
 11
25.00312386201561
 21
30.933345548441
 31
0.0
  0
LINE
  5
134F
  8
0
 62
     0
 10
23.415623862015611
 20
28.18371489142541
 30
0.0
 11
23.812498862015609
 21
28.87112255567931
 31
0.0
  0
LINE
  5
1350
  8
0
 62
     0
 10
30.559374146511718
 20
43.306683340757232
 30
0.0
 11
30.95624914651172
 21
43.994091005011128
 31
0.0
  0
LINE
  5
1351
  8
0
 62
     0
 10
29.368749146511721
 20
41.244460347995549
 30
0.0
 11
29.765624146511708
 21
41.931868012249438
 31
0.0
  0
LINE
  5
1352
  8
0
 62
     0
 10
28.17812414651172
 20
39.182237355233859
 30
0.0
 11
28.574999146511711
 21
39.869645019487763
 31
0.0
  0
LINE
  5
1353
  8
0
 62
     0
 10
26.987499146511709
 20
37.120014362472169
 30
0.0
 11
27.384374146511711
 21
37.807422026726073
 31
0.0
  0
LINE
  5
1354
  8
0
 62
     0
 10
25.796874146511708
 20
35.057791369710479
 30
0.0
 11
26.19374914651171
 21
35.745199033964383
 31
0.0
  0
LINE
  5
1355
  8
0
 62
     0
 10
24.606249146511711
 20
32.995568376948789
 30
0.0
 11
25.003124146511709
 21
33.682976041202693
 31
0.0
  0
LINE
  5
1356
  8
0
 62
     0
 10
23.415624146511711
 20
30.933345384187099
 30
0.0
 11
23.812499146511708
 21
31.620753048440999
 31
0.0
  0
LINE
  5
1357
  8
0
 62
     0
 10
29.36874943100781
 20
43.994090840757252
 30
0.0
 11
29.765624431007812
 21
44.681498505011149
 31
0.0
  0
LINE
  5
1358
  8
0
 62
     0
 10
28.178124431007809
 20
41.931867847995562
 30
0.0
 11
28.574999431007811
 21
42.619275512249452
 31
0.0
  0
LINE
  5
1359
  8
0
 62
     0
 10
26.987499431007809
 20
39.869644855233872
 30
0.0
 11
27.38437443100781
 21
40.557052519487769
 31
0.0
  0
LINE
  5
135A
  8
0
 62
     0
 10
25.796874431007812
 20
37.807421862472189
 30
0.0
 11
26.193749431007809
 21
38.494829526726079
 31
0.0
  0
LINE
  5
135B
  8
0
 62
     0
 10
24.606249431007811
 20
35.745198869710492
 30
0.0
 11
25.003124431007809
 21
36.432606533964389
 31
0.0
  0
LINE
  5
135C
  8
0
 62
     0
 10
23.41562443100781
 20
33.682975876948802
 30
0.0
 11
23.812499431007812
 21
34.370383541202699
 31
0.0
  0
LINE
  5
135D
  8
0
 62
     0
 10
28.178124715503909
 20
44.681498340757251
 30
0.0
 11
28.362011734204721
 21
44.999999999999417
 31
0.0
  0
LINE
  5
135E
  8
0
 62
     0
 10
26.987499715503908
 20
42.619275347995561
 30
0.0
 11
27.38437471550391
 21
43.306683012249451
 31
0.0
  0
LINE
  5
135F
  8
0
 62
     0
 10
25.796874715503911
 20
40.557052355233871
 30
0.0
 11
26.193749715503909
 21
41.244460019487761
 31
0.0
  0
LINE
  5
1360
  8
0
 62
     0
 10
24.60624971550391
 20
38.494829362472181
 30
0.0
 11
25.003124715503908
 21
39.182237026726078
 31
0.0
  0
LINE
  5
1361
  8
0
 62
     0
 10
23.41562471550391
 20
36.432606369710491
 30
0.0
 11
23.812499715503911
 21
37.120014033964388
 31
0.0
  0
LINE
  5
1362
  8
0
 62
     0
 10
25.796875000000011
 20
43.306682847995567
 30
0.0
 11
26.193750000000009
 21
43.994090512249471
 31
0.0
  0
LINE
  5
1363
  8
0
 62
     0
 10
24.60625000000001
 20
41.244459855233877
 30
0.0
 11
25.003125000000011
 21
41.931867519487781
 31
0.0
  0
LINE
  5
1364
  8
0
 62
     0
 10
23.415625000000009
 20
39.182236862472202
 30
0.0
 11
23.812500000000011
 21
39.869644526726091
 31
0.0
  0
LINE
  5
1365
  8
0
 62
     0
 10
24.606250284496099
 20
43.994090347995567
 30
0.0
 11
25.0031252844961
 21
44.68149801224947
 31
0.0
  0
LINE
  5
1366
  8
0
 62
     0
 10
23.415625284496102
 20
41.931867355233877
 30
0.0
 11
23.8125002844961
 21
42.61927501948778
 31
0.0
  0
LINE
  5
1367
  8
0
 62
     0
 10
23.415625568992201
 20
44.68149784799558
 30
0.0
 11
23.599512872189091
 21
44.999999999999417
 31
0.0
  0
LINE
  5
1368
  8
0
 62
     0
 10
32.000000000718117
 20
43.561054156552103
 30
0.0
 11
31.749989758140511
 21
43.994084599109136
 31
0.0
  0
LINE
  5
1369
  8
0
 62
     0
 10
29.765615042636611
 20
44.681492427616917
 30
0.0
 11
29.581724609982629
 21
44.999999999999439
 31
0.0
  0
LINE
  5
136A
  8
0
 62
     0
 10
30.956240042636612
 20
42.619269434855227
 30
0.0
 11
30.55936504263661
 21
43.30667709910913
 31
0.0
  0
LINE
  5
136B
  8
0
 62
     0
 10
32.000000000718117
 20
40.811424156552093
 30
0.0
 11
31.749990042636611
 21
41.24445410634744
 31
0.0
  0
LINE
  5
136C
  8
0
 62
     0
 10
28.574990327132699
 20
43.994084927616917
 30
0.0
 11
28.178115327132701
 21
44.681492591870807
 31
0.0
  0
LINE
  5
136D
  8
0
 62
     0
 10
29.7656153271327
 20
41.931861934855228
 30
0.0
 11
29.368740327132699
 21
42.619269599109131
 31
0.0
  0
LINE
  5
136E
  8
0
 62
     0
 10
30.956240327132701
 20
39.869638942093552
 30
0.0
 11
30.559365327132699
 21
40.557046606347441
 31
0.0
  0
LINE
  5
136F
  8
0
 62
     0
 10
32.000000000718117
 20
38.061794156552097
 30
0.0
 11
31.7499903271327
 21
38.494823613585751
 31
0.0
  0
LINE
  5
1370
  8
0
 62
     0
 10
27.384365611628791
 20
43.306677427616911
 30
0.0
 11
26.98749061162879
 21
43.994085091870808
 31
0.0
  0
LINE
  5
1371
  8
0
 62
     0
 10
28.574990611628792
 20
41.244454434855221
 30
0.0
 11
28.17811561162879
 21
41.931862099109111
 31
0.0
  0
LINE
  5
1372
  8
0
 62
     0
 10
29.765615611628789
 20
39.182231442093531
 30
0.0
 11
29.368740611628791
 21
39.869639106347428
 31
0.0
  0
LINE
  5
1373
  8
0
 62
     0
 10
30.9562406116288
 20
37.120008449331841
 30
0.0
 11
30.559365611628792
 21
37.807416113585738
 31
0.0
  0
LINE
  5
1374
  8
0
 62
     0
 10
32.000000000718117
 20
35.312164156552093
 30
0.0
 11
31.749990611628789
 21
35.745193120824048
 31
0.0
  0
LINE
  5
1375
  8
0
 62
     0
 10
25.0031158961249
 20
44.681492920378602
 30
0.0
 11
24.819225747967021
 21
44.999999999999417
 31
0.0
  0
LINE
  5
1376
  8
0
 62
     0
 10
26.193740896124901
 20
42.619269927616912
 30
0.0
 11
25.796865896124899
 21
43.306677591870809
 31
0.0
  0
LINE
  5
1377
  8
0
 62
     0
 10
27.384365896124901
 20
40.557046934855222
 30
0.0
 11
26.9874908961249
 21
41.244454599109112
 31
0.0
  0
LINE
  5
1378
  8
0
 62
     0
 10
28.574990896124898
 20
38.494823942093532
 30
0.0
 11
28.178115896124901
 21
39.182231606347429
 31
0.0
  0
LINE
  5
1379
  8
0
 62
     0
 10
29.765615896124899
 20
36.432600949331849
 30
0.0
 11
29.368740896124901
 21
37.120008613585739
 31
0.0
  0
LINE
  5
137A
  8
0
 62
     0
 10
30.9562408961249
 20
34.370377956570152
 30
0.0
 11
30.559365896124898
 21
35.057785620824049
 31
0.0
  0
LINE
  5
137B
  8
0
 62
     0
 10
32.000000000718117
 20
32.56253415655209
 30
0.0
 11
31.749990896124899
 21
32.995562628062359
 31
0.0
  0
LINE
  5
137C
  8
0
 62
     0
 10
23.812491180620992
 20
43.994085420378603
 30
0.0
 11
23.41561618062099
 21
44.681493084632493
 31
0.0
  0
LINE
  5
137D
  8
0
 62
     0
 10
25.003116180620989
 20
41.931862427616913
 30
0.0
 11
24.606241180620991
 21
42.61927009187081
 31
0.0
  0
LINE
  5
137E
  8
0
 62
     0
 10
26.193741180620989
 20
39.869639434855223
 30
0.0
 11
25.796866180620992
 21
40.557047099109113
 31
0.0
  0
LINE
  5
137F
  8
0
 62
     0
 10
27.38436618062099
 20
37.807416442093533
 30
0.0
 11
26.987491180620989
 21
38.49482410634743
 31
0.0
  0
LINE
  5
1380
  8
0
 62
     0
 10
28.574991180620991
 20
35.74519344933185
 30
0.0
 11
28.178116180620989
 21
36.43260111358574
 31
0.0
  0
LINE
  5
1381
  8
0
 62
     0
 10
29.765616180620992
 20
33.68297045657016
 30
0.0
 11
29.36874118062099
 21
34.37037812082405
 31
0.0
  0
LINE
  5
1382
  8
0
 62
     0
 10
30.956241180620999
 20
31.62074746380846
 30
0.0
 11
30.559366180620991
 21
32.30815512806236
 31
0.0
  0
LINE
  5
1383
  8
0
 62
     0
 10
32.000000000718117
 20
29.81290415655209
 30
0.0
 11
31.749991180620992
 21
30.245932135300659
 31
0.0
  0
LINE
  5
1384
  8
0
 62
     0
 10
23.812491465117091
 20
41.244454927616907
 30
0.0
 11
23.41561646511709
 21
41.931862591870811
 31
0.0
  0
LINE
  5
1385
  8
0
 62
     0
 10
25.003116465117088
 20
39.182231934855217
 30
0.0
 11
24.60624146511709
 21
39.869639599109121
 31
0.0
  0
LINE
  5
1386
  8
0
 62
     0
 10
26.193741465117089
 20
37.120008942093527
 30
0.0
 11
25.796866465117091
 21
37.807416606347431
 31
0.0
  0
LINE
  5
1387
  8
0
 62
     0
 10
27.3843664651171
 20
35.057785949331851
 30
0.0
 11
26.987491465117088
 21
35.745193613585741
 31
0.0
  0
LINE
  5
1388
  8
0
 62
     0
 10
28.574991465117101
 20
32.995562956570161
 30
0.0
 11
28.178116465117089
 21
33.682970620824051
 31
0.0
  0
LINE
  5
1389
  8
0
 62
     0
 10
29.765616465117098
 20
30.933339963808471
 30
0.0
 11
29.36874146511709
 21
31.620747628062361
 31
0.0
  0
LINE
  5
138A
  8
0
 62
     0
 10
30.956241465117099
 20
28.871116971046771
 30
0.0
 11
30.55936646511709
 21
29.558524635300671
 31
0.0
  0
LINE
  5
138B
  8
0
 62
     0
 10
32.000000000718131
 20
27.06327415655208
 30
0.0
 11
31.749991465117098
 21
27.49630164253897
 31
0.0
  0
LINE
  5
138C
  8
0
 62
     0
 10
23.81249174961318
 20
38.494824434855218
 30
0.0
 11
23.415616749613179
 21
39.182232099109108
 31
0.0
  0
LINE
  5
138D
  8
0
 62
     0
 10
25.003116749613181
 20
36.432601442093528
 30
0.0
 11
24.606241749613179
 21
37.120009106347418
 31
0.0
  0
LINE
  5
138E
  8
0
 62
     0
 10
26.193741749613181
 20
34.370378449331838
 30
0.0
 11
25.79686674961318
 21
35.057786113585742
 31
0.0
  0
LINE
  5
138F
  8
0
 62
     0
 10
27.384366749613179
 20
32.308155456570148
 30
0.0
 11
26.987491749613181
 21
32.995563120824052
 31
0.0
  0
LINE
  5
1390
  8
0
 62
     0
 10
28.574991749613179
 20
30.245932463808462
 30
0.0
 11
28.178116749613181
 21
30.933340128062358
 31
0.0
  0
LINE
  5
1391
  8
0
 62
     0
 10
29.765616749613191
 20
28.183709471046772
 30
0.0
 11
29.368741749613179
 21
28.871117135300661
 31
0.0
  0
LINE
  5
1392
  8
0
 62
     0
 10
30.956241749613191
 20
26.121486478285071
 30
0.0
 11
30.559366749613179
 21
26.808894142538971
 31
0.0
  0
LINE
  5
1393
  8
0
 62
     0
 10
23.81249203410928
 20
35.745193942093543
 30
0.0
 11
23.415617034109282
 21
36.432601606347433
 31
0.0
  0
LINE
  5
1394
  8
0
 62
     0
 10
25.00311703410928
 20
33.682970949331853
 30
0.0
 11
24.606242034109279
 21
34.370378613585743
 31
0.0
  0
LINE
  5
1395
  8
0
 62
     0
 10
26.193742034109281
 20
31.620747956570149
 30
0.0
 11
25.79686703410928
 21
32.308155620824053
 31
0.0
  0
LINE
  5
1396
  8
0
 62
     0
 10
27.384367034109282
 20
29.558524963808459
 30
0.0
 11
26.98749203410928
 21
30.245932628062359
 31
0.0
  0
LINE
  5
1397
  8
0
 62
     0
 10
28.574992034109279
 20
27.496301971046769
 30
0.0
 11
28.178117034109281
 21
28.183709635300659
 31
0.0
  0
LINE
  5
1398
  8
0
 62
     0
 10
29.76561703410928
 20
25.434078978285068
 30
0.0
 11
29.368742034109282
 21
26.121486642538969
 31
0.0
  0
LINE
  5
1399
  8
0
 62
     0
 10
23.812492318605379
 20
32.995563449331847
 30
0.0
 11
23.415617318605381
 21
33.682971113585737
 31
0.0
  0
LINE
  5
139A
  8
0
 62
     0
 10
25.00311731860538
 20
30.93334045657015
 30
0.0
 11
24.606242318605378
 21
31.62074812082405
 31
0.0
  0
LINE
  5
139B
  8
0
 62
     0
 10
26.193742318605381
 20
28.87111746380846
 30
0.0
 11
25.796867318605379
 21
29.55852512806236
 31
0.0
  0
LINE
  5
139C
  8
0
 62
     0
 10
27.384367318605381
 20
26.80889447104677
 30
0.0
 11
26.98749231860538
 21
27.49630213530066
 31
0.0
  0
LINE
  5
139D
  8
0
 62
     0
 10
28.428733028405158
 20
24.99999999999082
 30
0.0
 11
28.178117318605381
 21
25.43407914253897
 31
0.0
  0
LINE
  5
139E
  8
0
 62
     0
 10
23.812492603101479
 20
30.245932956570162
 30
0.0
 11
23.415617603101481
 21
30.933340620824051
 31
0.0
  0
LINE
  5
139F
  8
0
 62
     0
 10
25.003117603101479
 20
28.183709963808461
 30
0.0
 11
24.606242603101482
 21
28.871117628062361
 31
0.0
  0
LINE
  5
13A0
  8
0
 62
     0
 10
26.19374260310148
 20
26.121486971046771
 30
0.0
 11
25.796867603101479
 21
26.808894635300661
 31
0.0
  0
LINE
  5
13A1
  8
0
 62
     0
 10
23.812492887597571
 20
27.496302463808458
 30
0.0
 11
23.41561788759757
 21
28.183710128062359
 31
0.0
  0
LINE
  5
13A2
  8
0
 62
     0
 10
25.003117887597579
 20
25.434079471046768
 30
0.0
 11
24.606242887597581
 21
26.121487135300661
 31
0.0
  0
LINE
  5
13A3
  8
0
 62
     0
 10
23.66623416638955
 20
24.99999999999083
 30
0.0
 11
23.415618172093669
 21
25.43407963530067
 31
0.0
  0
LINE
  5
13A4
  8
0
 62
     0
 10
30.956250000000001
 20
26.121485
 30
0.0
 11
31.749999999999989
 21
26.121485
 31
0.0
  0
LINE
  5
13A5
  8
0
 62
     0
 10
28.574999999999999
 20
26.121485
 30
0.0
 11
29.368749999999999
 21
26.121485
 31
0.0
  0
LINE
  5
13A6
  8
0
 62
     0
 10
26.193750000000001
 20
26.121485
 30
0.0
 11
26.987500000000001
 21
26.121485
 31
0.0
  0
LINE
  5
13A7
  8
0
 62
     0
 10
23.8125
 20
26.121485
 30
0.0
 11
24.606249999999999
 21
26.121485
 31
0.0
  0
LINE
  5
13A8
  8
0
 62
     0
 10
30.956250000000001
 20
27.496300000000002
 30
0.0
 11
31.749999999999989
 21
27.496300000000002
 31
0.0
  0
LINE
  5
13A9
  8
0
 62
     0
 10
28.574999999999999
 20
27.496300000000002
 30
0.0
 11
29.368749999999999
 21
27.496300000000002
 31
0.0
  0
LINE
  5
13AA
  8
0
 62
     0
 10
26.193750000000001
 20
27.496300000000002
 30
0.0
 11
26.987500000000001
 21
27.496300000000002
 31
0.0
  0
LINE
  5
13AB
  8
0
 62
     0
 10
23.8125
 20
27.496300000000002
 30
0.0
 11
24.606249999999999
 21
27.496300000000002
 31
0.0
  0
LINE
  5
13AC
  8
0
 62
     0
 10
30.956250000000001
 20
28.871114999999989
 30
0.0
 11
31.749999999999989
 21
28.871114999999989
 31
0.0
  0
LINE
  5
13AD
  8
0
 62
     0
 10
28.574999999999999
 20
28.871114999999989
 30
0.0
 11
29.368749999999999
 21
28.871114999999989
 31
0.0
  0
LINE
  5
13AE
  8
0
 62
     0
 10
26.193750000000001
 20
28.871114999999989
 30
0.0
 11
26.987500000000001
 21
28.871114999999989
 31
0.0
  0
LINE
  5
13AF
  8
0
 62
     0
 10
23.8125
 20
28.871114999999989
 30
0.0
 11
24.606249999999999
 21
28.871114999999989
 31
0.0
  0
LINE
  5
13B0
  8
0
 62
     0
 10
30.956250000000001
 20
30.245930000000001
 30
0.0
 11
31.749999999999989
 21
30.245930000000001
 31
0.0
  0
LINE
  5
13B1
  8
0
 62
     0
 10
28.574999999999999
 20
30.245930000000001
 30
0.0
 11
29.368749999999999
 21
30.245930000000001
 31
0.0
  0
LINE
  5
13B2
  8
0
 62
     0
 10
26.193750000000001
 20
30.245930000000001
 30
0.0
 11
26.987500000000001
 21
30.245930000000001
 31
0.0
  0
LINE
  5
13B3
  8
0
 62
     0
 10
23.8125
 20
30.245930000000001
 30
0.0
 11
24.606249999999999
 21
30.245930000000001
 31
0.0
  0
LINE
  5
13B4
  8
0
 62
     0
 10
30.956250000000001
 20
31.620744999999999
 30
0.0
 11
31.749999999999989
 21
31.620744999999999
 31
0.0
  0
LINE
  5
13B5
  8
0
 62
     0
 10
28.574999999999999
 20
31.620744999999999
 30
0.0
 11
29.368749999999999
 21
31.620744999999999
 31
0.0
  0
LINE
  5
13B6
  8
0
 62
     0
 10
26.193750000000001
 20
31.620744999999999
 30
0.0
 11
26.987500000000001
 21
31.620744999999999
 31
0.0
  0
LINE
  5
13B7
  8
0
 62
     0
 10
23.8125
 20
31.620744999999999
 30
0.0
 11
24.606249999999999
 21
31.620744999999999
 31
0.0
  0
LINE
  5
13B8
  8
0
 62
     0
 10
30.956250000000001
 20
32.995559999999998
 30
0.0
 11
31.749999999999989
 21
32.995559999999998
 31
0.0
  0
LINE
  5
13B9
  8
0
 62
     0
 10
28.574999999999999
 20
32.995559999999998
 30
0.0
 11
29.368749999999999
 21
32.995559999999998
 31
0.0
  0
LINE
  5
13BA
  8
0
 62
     0
 10
26.193750000000001
 20
32.995559999999998
 30
0.0
 11
26.987500000000001
 21
32.995559999999998
 31
0.0
  0
LINE
  5
13BB
  8
0
 62
     0
 10
23.8125
 20
32.995559999999998
 30
0.0
 11
24.606249999999999
 21
32.995559999999998
 31
0.0
  0
LINE
  5
13BC
  8
0
 62
     0
 10
30.956250000000001
 20
34.370375000000003
 30
0.0
 11
31.749999999999989
 21
34.370375000000003
 31
0.0
  0
LINE
  5
13BD
  8
0
 62
     0
 10
28.574999999999999
 20
34.370375000000003
 30
0.0
 11
29.368749999999999
 21
34.370375000000003
 31
0.0
  0
LINE
  5
13BE
  8
0
 62
     0
 10
26.193750000000001
 20
34.370375000000003
 30
0.0
 11
26.987500000000001
 21
34.370375000000003
 31
0.0
  0
LINE
  5
13BF
  8
0
 62
     0
 10
23.8125
 20
34.370375000000003
 30
0.0
 11
24.606249999999999
 21
34.370375000000003
 31
0.0
  0
LINE
  5
13C0
  8
0
 62
     0
 10
30.956250000000001
 20
35.745190000000001
 30
0.0
 11
31.749999999999989
 21
35.745190000000001
 31
0.0
  0
LINE
  5
13C1
  8
0
 62
     0
 10
28.574999999999999
 20
35.745190000000001
 30
0.0
 11
29.368749999999999
 21
35.745190000000001
 31
0.0
  0
LINE
  5
13C2
  8
0
 62
     0
 10
26.193750000000001
 20
35.745190000000001
 30
0.0
 11
26.987500000000001
 21
35.745190000000001
 31
0.0
  0
LINE
  5
13C3
  8
0
 62
     0
 10
23.8125
 20
35.745190000000001
 30
0.0
 11
24.606249999999999
 21
35.745190000000001
 31
0.0
  0
LINE
  5
13C4
  8
0
 62
     0
 10
30.956250000000001
 20
37.120004999999999
 30
0.0
 11
31.749999999999989
 21
37.120004999999999
 31
0.0
  0
LINE
  5
13C5
  8
0
 62
     0
 10
28.574999999999999
 20
37.120004999999999
 30
0.0
 11
29.368749999999999
 21
37.120004999999999
 31
0.0
  0
LINE
  5
13C6
  8
0
 62
     0
 10
26.193750000000001
 20
37.120004999999999
 30
0.0
 11
26.987500000000001
 21
37.120004999999999
 31
0.0
  0
LINE
  5
13C7
  8
0
 62
     0
 10
23.8125
 20
37.120004999999999
 30
0.0
 11
24.606249999999999
 21
37.120004999999999
 31
0.0
  0
LINE
  5
13C8
  8
0
 62
     0
 10
30.956250000000001
 20
38.494819999999997
 30
0.0
 11
31.749999999999989
 21
38.494819999999997
 31
0.0
  0
LINE
  5
13C9
  8
0
 62
     0
 10
28.574999999999999
 20
38.494819999999997
 30
0.0
 11
29.368749999999999
 21
38.494819999999997
 31
0.0
  0
LINE
  5
13CA
  8
0
 62
     0
 10
26.193750000000001
 20
38.494819999999997
 30
0.0
 11
26.987500000000001
 21
38.494819999999997
 31
0.0
  0
LINE
  5
13CB
  8
0
 62
     0
 10
23.8125
 20
38.494819999999997
 30
0.0
 11
24.606249999999999
 21
38.494819999999997
 31
0.0
  0
LINE
  5
13CC
  8
0
 62
     0
 10
30.956250000000001
 20
39.869635000000002
 30
0.0
 11
31.749999999999989
 21
39.869635000000002
 31
0.0
  0
LINE
  5
13CD
  8
0
 62
     0
 10
28.574999999999999
 20
39.869635000000002
 30
0.0
 11
29.368749999999999
 21
39.869635000000002
 31
0.0
  0
LINE
  5
13CE
  8
0
 62
     0
 10
26.193750000000001
 20
39.869635000000002
 30
0.0
 11
26.987500000000001
 21
39.869635000000002
 31
0.0
  0
LINE
  5
13CF
  8
0
 62
     0
 10
23.8125
 20
39.869635000000002
 30
0.0
 11
24.606249999999999
 21
39.869635000000002
 31
0.0
  0
LINE
  5
13D0
  8
0
 62
     0
 10
30.956250000000001
 20
41.244450000000001
 30
0.0
 11
31.749999999999989
 21
41.244450000000001
 31
0.0
  0
LINE
  5
13D1
  8
0
 62
     0
 10
28.574999999999999
 20
41.244450000000001
 30
0.0
 11
29.368749999999999
 21
41.244450000000001
 31
0.0
  0
LINE
  5
13D2
  8
0
 62
     0
 10
26.193750000000001
 20
41.244450000000001
 30
0.0
 11
26.987500000000001
 21
41.244450000000001
 31
0.0
  0
LINE
  5
13D3
  8
0
 62
     0
 10
23.8125
 20
41.244450000000001
 30
0.0
 11
24.606249999999999
 21
41.244450000000001
 31
0.0
  0
LINE
  5
13D4
  8
0
 62
     0
 10
30.956250000000001
 20
42.619264999999999
 30
0.0
 11
31.749999999999989
 21
42.619264999999999
 31
0.0
  0
LINE
  5
13D5
  8
0
 62
     0
 10
28.574999999999999
 20
42.619264999999999
 30
0.0
 11
29.368749999999999
 21
42.619264999999999
 31
0.0
  0
LINE
  5
13D6
  8
0
 62
     0
 10
26.193750000000001
 20
42.619264999999999
 30
0.0
 11
26.987500000000001
 21
42.619264999999999
 31
0.0
  0
LINE
  5
13D7
  8
0
 62
     0
 10
23.8125
 20
42.619264999999999
 30
0.0
 11
24.606249999999999
 21
42.619264999999999
 31
0.0
  0
LINE
  5
13D8
  8
0
 62
     0
 10
30.956250000000001
 20
43.994079999999997
 30
0.0
 11
31.749999999999989
 21
43.994079999999997
 31
0.0
  0
LINE
  5
13D9
  8
0
 62
     0
 10
28.574999999999999
 20
43.994079999999997
 30
0.0
 11
29.368749999999999
 21
43.994079999999997
 31
0.0
  0
LINE
  5
13DA
  8
0
 62
     0
 10
26.193750000000001
 20
43.994079999999997
 30
0.0
 11
26.987500000000001
 21
43.994079999999997
 31
0.0
  0
LINE
  5
13DB
  8
0
 62
     0
 10
23.8125
 20
43.994079999999997
 30
0.0
 11
24.606249999999999
 21
43.994079999999997
 31
0.0
  0
ENDBLK
  5
13DD
  8
0
  0
BLOCK
  8
0
  2
*X16
 70
     1
 10
0.0
 20
0.0
 30
0.0
  3
*X16
  1

  0
LINE
  5
13DF
  8
0
 62
     0
 10
-15.432037388941181
 20
104.9999999999994
 30
0.0
 11
-7.999999999282692
 21
112.43203738965791
 31
0.0
  0
LINE
  5
13E0
  8
0
 62
     0
 10
-33.109706918604793
 20
104.9999999999994
 30
0.0
 11
-7.9999999992826361
 21
130.1097069193215
 31
0.0
  0
LINE
  5
13E1
  8
0
 62
     0
 10
-50.787376448268503
 20
104.9999999999994
 30
0.0
 11
-7.9999999992826361
 21
147.7873764489853
 31
0.0
  0
LINE
  5
13E2
  8
0
 62
     0
 10
-68.46504597793222
 20
104.9999999999994
 30
0.0
 11
-18.46504597793216
 21
154.99999999999949
 31
0.0
  0
LINE
  5
13E3
  8
0
 62
     0
 10
-86.142715507595909
 20
104.9999999999994
 30
0.0
 11
-36.142715507595938
 21
154.9999999999994
 31
0.0
  0
LINE
  5
13E4
  8
0
 62
     0
 10
-103.8203850372596
 20
104.9999999999994
 30
0.0
 11
-53.820385037259541
 21
154.99999999999949
 31
0.0
  0
LINE
  5
13E5
  8
0
 62
     0
 10
-107.99999999928259
 20
118.49805456764
 30
0.0
 11
-71.498054566923258
 21
154.9999999999994
 31
0.0
  0
LINE
  5
13E6
  8
0
 62
     0
 10
-107.99999999928259
 20
136.17572409730371
 30
0.0
 11
-89.175724096586919
 21
154.99999999999949
 31
0.0
  0
LINE
  5
13E7
  8
0
 62
     0
 10
-107.99999999928259
 20
153.8533936269674
 30
0.0
 11
-106.85339362625059
 21
154.9999999999994
 31
0.0
  0
ENDBLK
  5
13E9
  8
0
  0
BLOCK
  8
0
  2
*X17
 70
     1
 10
0.0
 20
0.0
 30
0.0
  3
*X17
  1

  0
LINE
  5
13F3
  8
0
 62
     0
 10
-22.399028799950059
 20
44.999999999999432
 30
0.0
 11
-7.9999999992826361
 21
59.399028800666819
 31
0.0
  0
LINE
  5
13F4
  8
0
 62
     0
 10
-40.076698329613777
 20
44.999999999999432
 30
0.0
 11
-7.9999999992826361
 21
77.076698330330544
 31
0.0
  0
LINE
  5
13F5
  8
0
 62
     0
 10
-57.754367859277458
 20
44.999999999999453
 30
0.0
 11
-7.9999999992826361
 21
94.754367859994247
 31
0.0
  0
LINE
  5
13F6
  8
0
 62
     0
 10
-75.432037388941183
 20
44.999999999999432
 30
0.0
 11
-25.432037388941179
 21
94.99999999999946
 31
0.0
  0
LINE
  5
13F7
  8
0
 62
     0
 10
-93.109706918604815
 20
44.999999999999432
 30
0.0
 11
-43.109706918604779
 21
94.999999999999432
 31
0.0
  0
LINE
  5
13F8
  8
0
 62
     0
 10
-107.99999999928259
 20
47.787376448985292
 30
0.0
 11
-60.787376448268503
 21
94.999999999999432
 31
0.0
  0
LINE
  5
13F9
  8
0
 62
     0
 10
-107.99999999928259
 20
65.465045978649016
 30
0.0
 11
-78.465045977932192
 21
94.999999999999474
 31
0.0
  0
LINE
  5
13FA
  8
0
 62
     0
 10
-107.99999999928269
 20
83.142715508312676
 30
0.0
 11
-96.142715507595909
 21
94.999999999999432
 31
0.0
  0
ENDBLK
  5
13FC
  8
0
  0
BLOCK
  8
0
  2
*U18
 70
     1
 10
0.0
 20
0.0
 30
0.0
  3
*U18
  1

  0
TEXT
  5
158A
  8
0
 10
23.89826713666643
 20
-11.74612390144773
 30
0.0
 40
6.0
  1
52
  7
BYGG-014976$0$ISO
  0
ENDBLK
  5
158C
  8
0
  0
BLOCK
  8
0
  2
*X19
 70
     1
 10
0.0
 20
0.0
 30
0.0
  3
*X19
  1

  0
LINE
  5
158E
  8
0
 62
     0
 10
47.848817111648493
 20
24.70630091036913
 30
0.0
 11
51.937472428186418
 21
24.70630091036913
 31
0.0
  0
LINE
  5
158F
  8
0
 62
     0
 10
26.25906184511371
 20
24.70630091036913
 30
0.0
 11
30.347717161652209
 21
24.70630091036913
 31
0.0
  0
LINE
  5
1590
  8
0
 62
     0
 10
48.20334481450675
 20
25.95630091036913
 30
0.0
 11
51.593779847422532
 21
25.95630091036913
 31
0.0
  0
LINE
  5
1591
  8
0
 62
     0
 10
26.602754425878519
 20
25.95630091036913
 30
0.0
 11
29.993189458793719
 21
25.95630091036913
 31
0.0
  0
LINE
  5
1592
  8
0
 62
     0
 10
48.856989799564872
 20
27.20630091036913
 30
0.0
 11
50.887849998044537
 21
27.20630091036913
 31
0.0
  0
LINE
  5
1593
  8
0
 62
     0
 10
27.308684275256159
 20
27.20630091036913
 30
0.0
 11
29.3395444737356
 21
27.20630091036913
 31
0.0
  0
LINE
  5
1594
  8
0
 62
     0
 10
48.931372811670371
 20
28.45630091036913
 30
0.0
 11
53.364175687805748
 21
28.45630091036913
 31
0.0
  0
LINE
  5
1595
  8
0
 62
     0
 10
24.83235858549369
 20
28.45630091036913
 30
0.0
 11
29.265161461630559
 21
28.45630091036913
 31
0.0
  0
LINE
  5
1596
  8
0
 62
     0
 10
51.056423376949631
 20
29.70630091036913
 30
0.0
 11
53.793144769846997
 21
29.70630091036913
 31
0.0
  0
LINE
  5
1597
  8
0
 62
     0
 10
24.403389503453582
 20
29.70630091036913
 30
0.0
 11
27.140110896349711
 21
29.70630091036913
 31
0.0
  0
LINE
  5
1598
  8
0
 62
     0
 10
51.993144769812709
 20
30.95630091036913
 30
0.0
 11
53.793144769846997
 21
30.95630091036913
 31
0.0
  0
LINE
  5
1599
  8
0
 62
     0
 10
24.403389503453582
 20
30.95630091036913
 30
0.0
 11
26.203389503488211
 21
30.95630091036913
 31
0.0
  0
LINE
  5
159A
  8
0
 62
     0
 10
51.993144769812709
 20
32.20630091036913
 30
0.0
 11
53.793144769846997
 21
32.20630091036913
 31
0.0
  0
LINE
  5
159B
  8
0
 62
     0
 10
24.403389503453582
 20
32.20630091036913
 30
0.0
 11
26.203389503488101
 21
32.20630091036913
 31
0.0
  0
LINE
  5
159C
  8
0
 62
     0
 10
51.993144769812709
 20
33.45630091036913
 30
0.0
 11
53.793144769846997
 21
33.45630091036913
 31
0.0
  0
LINE
  5
159D
  8
0
 62
     0
 10
24.403389503453582
 20
33.45630091036913
 30
0.0
 11
26.20338950348799
 21
33.45630091036913
 31
0.0
  0
LINE
  5
159E
  8
0
 62
     0
 10
51.993144769812709
 20
34.70630091036913
 30
0.0
 11
53.793144769846997
 21
34.70630091036913
 31
0.0
  0
LINE
  5
159F
  8
0
 62
     0
 10
24.403389503453582
 20
34.70630091036913
 30
0.0
 11
26.20338950348787
 21
34.70630091036913
 31
0.0
  0
LINE
  5
15A0
  8
0
 62
     0
 10
51.993144769812709
 20
35.95630091036913
 30
0.0
 11
53.793144769846997
 21
35.95630091036913
 31
0.0
  0
LINE
  5
15A1
  8
0
 62
     0
 10
24.403389503453582
 20
35.95630091036913
 30
0.0
 11
26.20338950348776
 21
35.95630091036913
 31
0.0
  0
LINE
  5
15A2
  8
0
 62
     0
 10
51.993144769812709
 20
37.20630091036913
 30
0.0
 11
53.793144769846997
 21
37.20630091036913
 31
0.0
  0
LINE
  5
15A3
  8
0
 62
     0
 10
24.403389503453582
 20
37.20630091036913
 30
0.0
 11
26.203389503487639
 21
37.20630091036913
 31
0.0
  0
LINE
  5
15A4
  8
0
 62
     0
 10
51.993144769812709
 20
38.45630091036913
 30
0.0
 11
53.793144769846997
 21
38.45630091036913
 31
0.0
  0
LINE
  5
15A5
  8
0
 62
     0
 10
24.403389503453582
 20
38.45630091036913
 30
0.0
 11
26.203389503487529
 21
38.45630091036913
 31
0.0
  0
LINE
  5
15A6
  8
0
 62
     0
 10
51.993144769812709
 20
39.70630091036913
 30
0.0
 11
53.793144769846997
 21
39.70630091036913
 31
0.0
  0
LINE
  5
15A7
  8
0
 62
     0
 10
24.403389503453582
 20
39.70630091036913
 30
0.0
 11
26.203389503487418
 21
39.70630091036913
 31
0.0
  0
LINE
  5
15A8
  8
0
 62
     0
 10
51.993144769812709
 20
40.956300910369123
 30
0.0
 11
53.793144769846997
 21
40.956300910369123
 31
0.0
  0
LINE
  5
15A9
  8
0
 62
     0
 10
24.403389503453582
 20
40.956300910369123
 30
0.0
 11
26.203389503487529
 21
40.956300910369123
 31
0.0
  0
LINE
  5
15AA
  8
0
 62
     0
 10
51.993144769812709
 20
42.206300910369123
 30
0.0
 11
53.793144769846997
 21
42.206300910369123
 31
0.0
  0
LINE
  5
15AB
  8
0
 62
     0
 10
24.403389503453582
 20
42.206300910369123
 30
0.0
 11
26.203389503487639
 21
42.206300910369123
 31
0.0
  0
LINE
  5
15AC
  8
0
 62
     0
 10
51.993144769812709
 20
43.456300910369123
 30
0.0
 11
53.793144769846997
 21
43.456300910369123
 31
0.0
  0
LINE
  5
15AD
  8
0
 62
     0
 10
24.403389503453582
 20
43.456300910369123
 30
0.0
 11
26.20338950348776
 21
43.456300910369123
 31
0.0
  0
LINE
  5
15AE
  8
0
 62
     0
 10
51.993144769812709
 20
44.706300910369123
 30
0.0
 11
53.793144769846997
 21
44.706300910369123
 31
0.0
  0
LINE
  5
15AF
  8
0
 62
     0
 10
24.403389503453582
 20
44.706300910369123
 30
0.0
 11
26.20338950348799
 21
44.706300910369123
 31
0.0
  0
LINE
  5
15B0
  8
0
 62
     0
 10
51.993144769812709
 20
45.956300910369123
 30
0.0
 11
53.793144769846997
 21
45.956300910369123
 31
0.0
  0
LINE
  5
15B1
  8
0
 62
     0
 10
24.403389503453582
 20
45.956300910369123
 30
0.0
 11
26.203389503488101
 21
45.956300910369123
 31
0.0
  0
LINE
  5
15B2
  8
0
 62
     0
 10
51.993144769812709
 20
47.206300910369123
 30
0.0
 11
53.793144769846997
 21
47.206300910369123
 31
0.0
  0
LINE
  5
15B3
  8
0
 62
     0
 10
24.403389503453582
 20
47.206300910369123
 30
0.0
 11
26.203389503488211
 21
47.206300910369123
 31
0.0
  0
LINE
  5
15B4
  8
0
 62
     0
 10
51.993144769812709
 20
48.45630091036913
 30
0.0
 11
53.793144769846997
 21
48.45630091036913
 31
0.0
  0
LINE
  5
15B5
  8
0
 62
     0
 10
24.403389503453582
 20
48.45630091036913
 30
0.0
 11
26.203389503488332
 21
48.45630091036913
 31
0.0
  0
LINE
  5
15B6
  8
0
 62
     0
 10
49.99208014176611
 20
49.70630091036913
 30
0.0
 11
53.793144769846997
 21
49.70630091036913
 31
0.0
  0
LINE
  5
15B7
  8
0
 62
     0
 10
24.403389503453582
 20
49.70630091036913
 30
0.0
 11
28.204454131535162
 21
49.70630091036913
 31
0.0
  0
LINE
  5
15B8
  8
0
 62
     0
 10
48.893144769867369
 20
50.95630091036913
 30
0.0
 11
52.299833525535973
 21
50.95630091036913
 31
0.0
  0
LINE
  5
15B9
  8
0
 62
     0
 10
25.896700747765522
 20
50.95630091036913
 30
0.0
 11
29.30338950343355
 21
50.95630091036913
 31
0.0
  0
LINE
  5
15BA
  8
0
 62
     0
 10
48.681843588366853
 20
52.20630091036913
 30
0.0
 11
50.73207536743962
 21
52.20630091036913
 31
0.0
  0
LINE
  5
15BB
  8
0
 62
     0
 10
27.464458905860742
 20
52.20630091036913
 30
0.0
 11
29.51469068493418
 21
52.20630091036913
 31
0.0
  0
LINE
  5
15BC
  8
0
 62
     0
 10
47.967349628157642
 20
53.45630091036913
 30
0.0
 11
51.830537239568677
 21
53.45630091036913
 31
0.0
  0
LINE
  5
15BD
  8
0
 62
     0
 10
26.365997033732022
 20
53.45630091036913
 30
0.0
 11
30.229184645143281
 21
53.45630091036913
 31
0.0
  0
ENDBLK
  5
15BF
  8
0
  0
BLOCK
  8
0
  2
*U20
 70
     1
 10
0.0
 20
0.0
 30
0.0
  3
*U20
  1

  0
TEXT
  5
15F1
  8
0
 10
34.898267136650063
 20
90.262788212024788
 30
0.0
 40
6.0
  1
30
  7
BYGG-014976$0$ISO
  0
ENDBLK
  5
15F3
  8
0
  0
BLOCK
  8
0
  2
*U21
 70
     1
 10
0.0
 20
0.0
 30
0.0
  3
*U21
  1

  0
TEXT
  5
161E
  8
0
 10
68.141259228894654
 20
34.999865307435478
 30
0.0
 40
6.0
  1
74
 50
90.0
  7
BYGG-014976$0$ISO
  0
ENDBLK
  5
1620
  8
0
  0
BLOCK
  8
0
  2
*U22
 70
     1
 10
0.0
 20
0.0
 30
0.0
  3
*U22
  1

  0
TEXT
  5
1629
  8
0
 62
     1
 10
4.2355095310447783
 20
4.4145522861116309
 30
0.0
 40
2.0
  1
Copyright Sapa. Rätt till ändringar förbehålles. We reserve the right to change the drawing.
 50
90.0
  7
BYGG-014976$0$ISO
  0
ENDBLK
  5
162B
  8
0
  0
BLOCK
  8
0
  2
*U23
 70
     1
 10
0.0
 20
0.0
 30
0.0
  3
*U23
  1

  0
TEXT
  5
162D
  8
0
 62
     1
 10
93.615022693827754
 20
14.333219839725979
 30
0.0
 40
3.5
  1
Vikt:
  7
BYGG-014976$0$ISO
  0
ENDBLK
  5
162F
  8
0
  0
BLOCK
  8
0
  2
*U24
 70
     1
 10
0.0
 20
0.0
 30
0.0
  3
*U24
  1

  0
TEXT
  5
1631
  8
0
 62
     1
 10
121.6340039895114
 20
14.333219839725979
 30
0.0
 40
3.5
  1
Perimeter:
  7
BYGG-014976$0$ISO
  0
ENDBLK
  5
1633
  8
0
  0
BLOCK
  8
0
  2
*U25
 70
     1
 10
0.0
 20
0.0
 30
0.0
  3
*U25
  1

  0
TEXT
  5
1635
  8
0
 62
     1
 10
93.615022693827754
 20
22.085065834235479
 30
0.0
 40
3.5
  1
Profilnr:
  7
BYGG-014976$0$ISO
  0
ENDBLK
  5
1637
  8
0
  0
BLOCK
  8
0
  2
*U26
 70
     1
 10
0.0
 20
0.0
 30
0.0
  3
*U26
  1

  0
TEXT
  5
1639
  8
0
 62
     1
 10
130.22181596764241
 20
63.719622293387033
 30
0.0
 40
3.5
  1
Del 2:
  7
BYGG-014976$0$ISO
  0
TEXT
  5
163A
  8
0
 62
     1
 10
131.09681596764241
 20
52.052955626720362
 30
0.0
 40
3.5
  1
__________
  7
BYGG-014976$0$ISO
  0
ENDBLK
  5
163C
  8
0
  0
BLOCK
  8
0
  2
*U27
 70
     1
 10
0.0
 20
0.0
 30
0.0
  3
*U27
  1

  0
TEXT
  5
163E
  8
0
 62
     1
 10
25.646427730601541
 20
255.3986140738254
 30
0.0
 40
3.5
  1
Del 1:
  7
BYGG-014976$0$ISO
  0
TEXT
  5
163F
  8
0
 62
     1
 10
26.521427730601541
 20
243.7319474071586
 30
0.0
 40
3.5
  1
__________
  7
BYGG-014976$0$ISO
  0
ENDBLK
  5
1641
  8
0
  0
BLOCK
  8
0
  2
*U28
 70
     1
 10
0.0
 20
0.0
 30
0.0
  3
*U28
  1

  0
TEXT
  5
1643
  8
0
 62
     1
 10
93.710566149484947
 20
6.5813738452164934
 30
0.0
 40
3.5
  1
G-ritn. godkänd:
  7
BYGG-014976$0$ISO
  0
ENDBLK
  5
1645
  8
0
  0
BLOCK
  8
0
  2
*U29
 70
     1
 10
0.0
 20
0.0
 30
0.0
  3
*U29
  1

  0
TEXT
  5
1647
  8
0
 62
     3
 10
149.7450256396138
 20
22.103092580874758
 30
0.0
 40
5.0
  1
/
  7
BYGG-014976$0$ISO
  0
ENDBLK
  5
1649
  8
0
  0
BLOCK
  8
0
  2
*U30
 70
     1
 10
0.0
 20
0.0
 30
0.0
  3
*U30
  1

  0
TEXT
  5
164B
  8
0
 10
13.46878405557265
 20
29.354041960743452
 30
0.0
 40
3.5
  1
Mindre synlig yta:
  7
BYGG-014976$0$ISO
  0
ENDBLK
  5
164D
  8
0
  0
BLOCK
  8
0
  2
*U31
 70
     1
 10
0.0
 20
0.0
 30
0.0
  3
*U31
  1

  0
TEXT
  5
164F
  8
0
 10
13.95790920971432
 20
35.46394413326076
 30
0.0
 40
3.5
  1
Synlig yta:
  7
BYGG-014976$0$ISO
  0
ENDBLK
  5
1651
  8
0
  0
BLOCK
  8
0
  2
*U32
 70
     1
 10
0.0
 20
0.0
 30
0.0
  3
*U32
  1

  0
TEXT
  5
1653
  8
0
 62
     1
 10
121.7840039895114
 20
1.46186098016108
 30
0.0
 40
2.0
  1
PDF skapad:
  7
BYGG-014976$0$ISO
  0
ENDBLK
  5
1655
  8
0
  0
BLOCK
  8
0
  2
*U33
 70
     1
 10
0.0
 20
0.0
 30
0.0
  3
*U33
  1

  0
TEXT
  5
165D
  8
0
 62
     1
 10
4.2355095310447783
 20
4.4145522861116309
 30
0.0
 40
2.0
  1
Copyright Sapa. Rätt till ändringar förbehålles. We reserve the right to change the drawing.
 50
90.0
  7
BYGG-014976$0$ISO
  0
ENDBLK
  5
165F
  8
0
  0
BLOCK
  8
0
  2
*U34
 70
     1
 10
0.0
 20
0.0
 30
0.0
  3
*U34
  1

  0
TEXT
  5
1661
  8
0
 62
     1
 10
130.22181596764241
 20
63.719622293387033
 30
0.0
 40
3.5
  1
Del 2:
  7
BYGG-014976$0$ISO
  0
TEXT
  5
1662
  8
0
 62
     1
 10
131.09681596764241
 20
52.052955626720362
 30
0.0
 40
3.5
  1
__________
  7
BYGG-014976$0$ISO
  0
ENDBLK
  5
1664
  8
0
  0
BLOCK
  8
0
  2
*U35
 70
     1
 10
0.0
 20
0.0
 30
0.0
  3
*U35
  1

  0
TEXT
  5
1666
  8
0
 62
     1
 10
25.646427730601541
 20
255.3986140738254
 30
0.0
 40
3.5
  1
Del 1:
  7
BYGG-014976$0$ISO
  0
TEXT
  5
1667
  8
0
 62
     1
 10
26.521427730601541
 20
243.7319474071586
 30
0.0
 40
3.5
  1
__________
  7
BYGG-014976$0$ISO
  0
ENDBLK
  5
1669
  8
0
  0
BLOCK
  8
0
  2
*U36
 70
     1
 10
0.0
 20
0.0
 30
0.0
  3
*U36
  1

  0
TEXT
  5
166B
  8
0
 10
13.46878405557265
 20
29.354041960743452
 30
0.0
 40
3.5
  1
Mindre synlig yta:
  7
BYGG-014976$0$ISO
  0
ENDBLK
  5
166D
  8
0
  0
BLOCK
  8
0
  2
*U37
 70
     1
 10
0.0
 20
0.0
 30
0.0
  3
*U37
  1

  0
TEXT
  5
166F
  8
0
 10
13.95790920971432
 20
35.46394413326076
 30
0.0
 40
3.5
  1
Synlig yta:
  7
BYGG-014976$0$ISO
  0
ENDBLK
  5
1671
  8
0
  0
BLOCK
  8
0
  2
*U38
 70
     1
 10
0.0
 20
0.0
 30
0.0
  3
*U38
  1

  0
TEXT
  5
1673
  8
0
 62
     1
 10
93.615022693827754
 20
14.333219839725979
 30
0.0
 40
3.5
  1
Vikt:
  7
BYGG-014976$0$ISO
  0
ENDBLK
  5
1675
  8
0
  0
BLOCK
  8
0
  2
*U39
 70
     1
 10
0.0
 20
0.0
 30
0.0
  3
*U39
  1

  0
TEXT
  5
1677
  8
0
 62
     1
 10
121.6340039895114
 20
14.333219839725979
 30
0.0
 40
3.5
  1
Perimeter:
  7
BYGG-014976$0$ISO
  0
ENDBLK
  5
1679
  8
0
  0
BLOCK
  8
0
  2
*U40
 70
     1
 10
0.0
 20
0.0
 30
0.0
  3
*U40
  1

  0
TEXT
  5
167B
  8
0
 62
     1
 10
93.615022693827754
 20
22.085065834235479
 30
0.0
 40
3.5
  1
Profilnr:
  7
BYGG-014976$0$ISO
  0
ENDBLK
  5
167D
  8
0
  0
BLOCK
  8
0
  2
*U41
 70
     1
 10
0.0
 20
0.0
 30
0.0
  3
*U41
  1

  0
TEXT
  5
167F
  8
0
 62
     1
 10
93.710566149484947
 20
6.5813738452164934
 30
0.0
 40
3.5
  1
G-ritn. godkänd:
  7
BYGG-014976$0$ISO
  0
ENDBLK
  5
1681
  8
0
  0
BLOCK
  8
0
  2
*U42
 70
     1
 10
0.0
 20
0.0
 30
0.0
  3
*U42
  1

  0
TEXT
  5
1683
  8
0
 62
     3
 10
149.7450256396138
 20
22.103092580874758
 30
0.0
 40
5.0
  1
/
  7
BYGG-014976$0$ISO
  0
ENDBLK
  5
1685
  8
0
  0
BLOCK
  8
0
  2
*U43
 70
     1
 10
0.0
 20
0.0
 30
0.0
  3
*U43
  1

  0
TEXT
  5
1687
  8
0
 62
     1
 10
121.7840039895114
 20
1.46186098016108
 30
0.0
 40
2.0
  1
PDF skapad:
  7
BYGG-014976$0$ISO
  0
ENDBLK
  5
1689
  8
0
  0
BLOCK
  8
0
  2
*U44
 70
     1
 10
0.0
 20
0.0
 30
0.0
  3
*U44
  1

  0
TEXT
  5
168B
  8
0
 10
-4.2465797624952764
 20
-0.1999999999845429
 30
0.0
 40
6.0
  1
52
 50
90.000000000000028
  7
BYGG-014976$0$ISO
  0
ENDBLK
  5
168D
  8
0
  0
BLOCK
  8
0
  2
*U45
 70
     1
 10
0.0
 20
0.0
 30
0.0
  3
*U45
  1

  0
TEXT
  5
168F
  8
0
 10
97.762922902158351
 20
10.799999999999111
 30
0.0
 40
6.0
  1
30
 50
90.000000000000028
  7
BYGG-014976$0$ISO
  0
ENDBLK
  5
1691
  8
0
  0
BLOCK
  8
0
  2
*U46
 70
     1
 10
0.0
 20
0.0
 30
0.0
  3
*U46
  1

  0
TEXT
  5
1693
  8
0
 10
55.499999997569013
 20
44.042992092243679
 30
0.0
 40
6.0
  1
74
 50
180.0
  7
BYGG-014976$0$ISO
  0
ENDBLK
  5
1695
  8
0
  0
BLOCK
  8
0
  2
*X47
 70
     1
 10
0.0
 20
0.0
 30
0.0
  3
*X47
  1

  0
LINE
  5
1995
  8
0
 62
     0
 10
64.956435600502431
 20
23.869082491506902
 30
0.0
 11
64.956435600502431
 21
27.7322701029176
 31
0.0
  0
LINE
  5
1996
  8
0
 62
     0
 10
64.956435600502431
 20
2.2677298970812672
 30
0.0
 11
64.956435600502431
 21
6.1309175084921881
 31
0.0
  0
LINE
  5
1997
  8
0
 62
     0
 10
63.706435600502431
 20
24.583576451715999
 30
0.0
 11
63.706435600502431
 21
26.633808230788649
 31
0.0
  0
LINE
  5
1998
  8
0
 62
     0
 10
63.706435600502431
 20
3.3661917692099901
 30
0.0
 11
63.706435600502431
 21
5.4164235482829781
 31
0.0
  0
LINE
  5
1999
  8
0
 62
     0
 10
62.456435600502431
 20
24.794877633216402
 30
0.0
 11
62.456435600502431
 21
28.201566388885681
 31
0.0
  0
LINE
  5
199A
  8
0
 62
     0
 10
62.456435600502431
 20
1.7984336111138639
 30
0.0
 11
62.456435600502431
 21
5.2051223667825752
 31
0.0
  0
LINE
  5
199B
  8
0
 62
     0
 10
61.206435600502431
 20
25.89381300511571
 30
0.0
 11
61.206435600502431
 21
29.694877633196029
 31
0.0
  0
LINE
  5
199C
  8
0
 62
     0
 10
61.206435600502431
 20
0.3051223668026068
 30
0.0
 11
61.206435600502431
 21
4.106186994883501
 31
0.0
  0
LINE
  5
199D
  8
0
 62
     0
 10
59.956435600502431
 20
27.894877633161741
 30
0.0
 11
59.956435600502431
 21
29.694877633196029
 31
0.0
  0
LINE
  5
199E
  8
0
 62
     0
 10
59.956435600502431
 20
0.3051223668026068
 30
0.0
 11
59.956435600502431
 21
2.1051223668373491
 31
0.0
  0
LINE
  5
199F
  8
0
 62
     0
 10
58.706435600502431
 20
27.894877633161741
 30
0.0
 11
58.706435600502431
 21
29.694877633196029
 31
0.0
  0
LINE
  5
19A0
  8
0
 62
     0
 10
58.706435600502431
 20
0.3051223668026068
 30
0.0
 11
58.706435600502431
 21
2.105122366837235
 31
0.0
  0
LINE
  5
19A1
  8
0
 62
     0
 10
57.456435600502431
 20
27.894877633161741
 30
0.0
 11
57.456435600502431
 21
29.694877633196029
 31
0.0
  0
LINE
  5
19A2
  8
0
 62
     0
 10
57.456435600502431
 20
0.3051223668026068
 30
0.0
 11
57.456435600502431
 21
2.1051223668371222
 31
0.0
  0
LINE
  5
19A3
  8
0
 62
     0
 10
56.206435600502431
 20
27.894877633161741
 30
0.0
 11
56.206435600502431
 21
29.694877633196029
 31
0.0
  0
LINE
  5
19A4
  8
0
 62
     0
 10
56.206435600502431
 20
0.3051223668026068
 30
0.0
 11
56.206435600502431
 21
2.105122366837008
 31
0.0
  0
LINE
  5
19A5
  8
0
 62
     0
 10
54.956435600502431
 20
27.894877633161741
 30
0.0
 11
54.956435600502431
 21
29.694877633196029
 31
0.0
  0
LINE
  5
19A6
  8
0
 62
     0
 10
54.956435600502431
 20
0.3051223668026068
 30
0.0
 11
54.956435600502431
 21
2.1051223668368939
 31
0.0
  0
LINE
  5
19A7
  8
0
 62
     0
 10
53.706435600502431
 20
27.894877633161741
 30
0.0
 11
53.706435600502431
 21
29.694877633196029
 31
0.0
  0
LINE
  5
19A8
  8
0
 62
     0
 10
53.706435600502431
 20
0.3051223668026068
 30
0.0
 11
53.706435600502431
 21
2.105122366836667
 31
0.0
  0
LINE
  5
19A9
  8
0
 62
     0
 10
52.456435600502431
 20
27.894877633161741
 30
0.0
 11
52.456435600502431
 21
29.694877633196029
 31
0.0
  0
LINE
  5
19AA
  8
0
 62
     0
 10
52.456435600502431
 20
0.3051223668026068
 30
0.0
 11
52.456435600502431
 21
2.1051223668365528
 31
0.0
  0
LINE
  5
19AB
  8
0
 62
     0
 10
51.206435600502431
 20
27.894877633161741
 30
0.0
 11
51.206435600502431
 21
29.694877633196029
 31
0.0
  0
LINE
  5
19AC
  8
0
 62
     0
 10
51.206435600502431
 20
0.3051223668026068
 30
0.0
 11
51.206435600502431
 21
2.1051223668364401
 31
0.0
  0
LINE
  5
19AD
  8
0
 62
     0
 10
49.956435600502431
 20
27.894877633161741
 30
0.0
 11
49.956435600502431
 21
29.694877633196029
 31
0.0
  0
LINE
  5
19AE
  8
0
 62
     0
 10
49.956435600502431
 20
0.3051223668026068
 30
0.0
 11
49.956435600502431
 21
2.1051223668365528
 31
0.0
  0
LINE
  5
19AF
  8
0
 62
     0
 10
48.706435600502431
 20
27.894877633161741
 30
0.0
 11
48.706435600502431
 21
29.694877633196029
 31
0.0
  0
LINE
  5
19B0
  8
0
 62
     0
 10
48.706435600502431
 20
0.3051223668026068
 30
0.0
 11
48.706435600502431
 21
2.105122366836667
 31
0.0
  0
LINE
  5
19B1
  8
0
 62
     0
 10
47.456435600502431
 20
27.894877633161741
 30
0.0
 11
47.456435600502431
 21
29.694877633196029
 31
0.0
  0
LINE
  5
19B2
  8
0
 62
     0
 10
47.456435600502417
 20
0.3051223668026068
 30
0.0
 11
47.456435600502417
 21
2.1051223668367811
 31
0.0
  0
LINE
  5
19B3
  8
0
 62
     0
 10
46.206435600502431
 20
27.894877633161741
 30
0.0
 11
46.206435600502431
 21
29.694877633196029
 31
0.0
  0
LINE
  5
19B4
  8
0
 62
     0
 10
46.206435600502417
 20
0.3051223668026068
 30
0.0
 11
46.206435600502417
 21
2.1051223668368939
 31
0.0
  0
LINE
  5
19B5
  8
0
 62
     0
 10
44.956435600502431
 20
27.894877633161741
 30
0.0
 11
44.956435600502431
 21
29.694877633196029
 31
0.0
  0
LINE
  5
19B6
  8
0
 62
     0
 10
44.956435600502417
 20
0.3051223668026068
 30
0.0
 11
44.956435600502417
 21
2.105122366837008
 31
0.0
  0
LINE
  5
19B7
  8
0
 62
     0
 10
43.706435600502431
 20
27.894877633161741
 30
0.0
 11
43.706435600502431
 21
29.694877633196029
 31
0.0
  0
LINE
  5
19B8
  8
0
 62
     0
 10
43.706435600502417
 20
0.3051223668026068
 30
0.0
 11
43.706435600502417
 21
2.1051223668371222
 31
0.0
  0
LINE
  5
19B9
  8
0
 62
     0
 10
42.456435600502431
 20
27.894877633161741
 30
0.0
 11
42.456435600502431
 21
29.694877633196029
 31
0.0
  0
LINE
  5
19BA
  8
0
 62
     0
 10
42.456435600502417
 20
0.3051223668026068
 30
0.0
 11
42.456435600502417
 21
2.1051223668373491
 31
0.0
  0
LINE
  5
19BB
  8
0
 62
     0
 10
41.206435600502431
 20
26.958156240298081
 30
0.0
 11
41.206435600502431
 21
29.694877633196029
 31
0.0
  0
LINE
  5
19BC
  8
0
 62
     0
 10
41.206435600502417
 20
0.3051223668026068
 30
0.0
 11
41.206435600502417
 21
3.0418437596994181
 31
0.0
  0
LINE
  5
19BD
  8
0
 62
     0
 10
39.956435600502438
 20
24.8331056750194
 30
0.0
 11
39.956435600502438
 21
29.265908551154102
 31
0.0
  0
LINE
  5
19BE
  8
0
 62
     0
 10
39.956435600502431
 20
0.7340914488434011
 30
0.0
 11
39.956435600502431
 21
5.166894324979693
 31
0.0
  0
LINE
  5
19BF
  8
0
 62
     0
 10
38.706435600502438
 20
24.75872266291379
 30
0.0
 11
38.706435600502438
 21
26.789582861393569
 31
0.0
  0
LINE
  5
19C0
  8
0
 62
     0
 10
38.706435600502431
 20
3.2104171386051799
 30
0.0
 11
38.706435600502431
 21
5.2412773370846253
 31
0.0
  0
LINE
  5
19C1
  8
0
 62
     0
 10
37.456435600502438
 20
24.105077677855661
 30
0.0
 11
37.456435600502438
 21
27.49551271077166
 31
0.0
  0
LINE
  5
19C2
  8
0
 62
     0
 10
37.456435600502431
 20
2.5044872892273129
 30
0.0
 11
37.456435600502431
 21
5.894922322142861
 31
0.0
  0
LINE
  5
19C3
  8
0
 62
     0
 10
36.206435600502438
 20
23.750549974997629
 30
0.0
 11
36.206435600502438
 21
27.839205291535219
 31
0.0
  0
LINE
  5
19C4
  8
0
 62
     0
 10
36.206435600502431
 20
2.160794708462844
 30
0.0
 11
36.206435600502431
 21
6.2494500250011242
 31
0.0
  0
ENDBLK
  5
19C6
  8
0
  0
BLOCK
  8
0
  2
*X48
 70
     1
 10
0.0
 20
0.0
 30
0.0
  3
*X48
  1

  0
LINE
  5
19C8
  8
0
 62
     0
 10
64.956435600502431
 20
23.869082491506902
 30
0.0
 11
64.956435600502431
 21
27.7322701029176
 31
0.0
  0
LINE
  5
19C9
  8
0
 62
     0
 10
64.956435600502431
 20
2.2677298970812672
 30
0.0
 11
64.956435600502431
 21
6.1309175084921881
 31
0.0
  0
LINE
  5
19CA
  8
0
 62
     0
 10
63.706435600502431
 20
24.583576451715999
 30
0.0
 11
63.706435600502431
 21
26.633808230788649
 31
0.0
  0
LINE
  5
19CB
  8
0
 62
     0
 10
63.706435600502431
 20
3.3661917692099901
 30
0.0
 11
63.706435600502431
 21
5.4164235482829781
 31
0.0
  0
LINE
  5
19CC
  8
0
 62
     0
 10
62.456435600502431
 20
24.794877633216402
 30
0.0
 11
62.456435600502431
 21
28.201566388885681
 31
0.0
  0
LINE
  5
19CD
  8
0
 62
     0
 10
62.456435600502431
 20
1.7984336111138639
 30
0.0
 11
62.456435600502431
 21
5.2051223667825752
 31
0.0
  0
LINE
  5
19CE
  8
0
 62
     0
 10
61.206435600502431
 20
25.89381300511571
 30
0.0
 11
61.206435600502431
 21
29.694877633196029
 31
0.0
  0
LINE
  5
19CF
  8
0
 62
     0
 10
61.206435600502431
 20
0.3051223668026068
 30
0.0
 11
61.206435600502431
 21
4.106186994883501
 31
0.0
  0
LINE
  5
19D0
  8
0
 62
     0
 10
59.956435600502431
 20
27.894877633161741
 30
0.0
 11
59.956435600502431
 21
29.694877633196029
 31
0.0
  0
LINE
  5
19D1
  8
0
 62
     0
 10
59.956435600502431
 20
0.3051223668026068
 30
0.0
 11
59.956435600502431
 21
2.1051223668373491
 31
0.0
  0
LINE
  5
19D2
  8
0
 62
     0
 10
58.706435600502431
 20
27.894877633161741
 30
0.0
 11
58.706435600502431
 21
29.694877633196029
 31
0.0
  0
LINE
  5
19D3
  8
0
 62
     0
 10
58.706435600502431
 20
0.3051223668026068
 30
0.0
 11
58.706435600502431
 21
2.105122366837235
 31
0.0
  0
LINE
  5
19D4
  8
0
 62
     0
 10
57.456435600502431
 20
27.894877633161741
 30
0.0
 11
57.456435600502431
 21
29.694877633196029
 31
0.0
  0
LINE
  5
19D5
  8
0
 62
     0
 10
57.456435600502431
 20
0.3051223668026068
 30
0.0
 11
57.456435600502431
 21
2.1051223668371222
 31
0.0
  0
LINE
  5
19D6
  8
0
 62
     0
 10
56.206435600502431
 20
27.894877633161741
 30
0.0
 11
56.206435600502431
 21
29.694877633196029
 31
0.0
  0
LINE
  5
19D7
  8
0
 62
     0
 10
56.206435600502431
 20
0.3051223668026068
 30
0.0
 11
56.206435600502431
 21
2.105122366837008
 31
0.0
  0
LINE
  5
19D8
  8
0
 62
     0
 10
54.956435600502431
 20
27.894877633161741
 30
0.0
 11
54.956435600502431
 21
29.694877633196029
 31
0.0
  0
LINE
  5
19D9
  8
0
 62
     0
 10
54.956435600502431
 20
0.3051223668026068
 30
0.0
 11
54.956435600502431
 21
2.1051223668368939
 31
0.0
  0
LINE
  5
19DA
  8
0
 62
     0
 10
53.706435600502431
 20
27.894877633161741
 30
0.0
 11
53.706435600502431
 21
29.694877633196029
 31
0.0
  0
LINE
  5
19DB
  8
0
 62
     0
 10
53.706435600502431
 20
0.3051223668026068
 30
0.0
 11
53.706435600502431
 21
2.105122366836667
 31
0.0
  0
LINE
  5
19DC
  8
0
 62
     0
 10
52.456435600502431
 20
27.894877633161741
 30
0.0
 11
52.456435600502431
 21
29.694877633196029
 31
0.0
  0
LINE
  5
19DD
  8
0
 62
     0
 10
52.456435600502431
 20
0.3051223668026068
 30
0.0
 11
52.456435600502431
 21
2.1051223668365528
 31
0.0
  0
LINE
  5
19DE
  8
0
 62
     0
 10
51.206435600502431
 20
27.894877633161741
 30
0.0
 11
51.206435600502431
 21
29.694877633196029
 31
0.0
  0
LINE
  5
19DF
  8
0
 62
     0
 10
51.206435600502431
 20
0.3051223668026068
 30
0.0
 11
51.206435600502431
 21
2.1051223668364401
 31
0.0
  0
LINE
  5
19E0
  8
0
 62
     0
 10
49.956435600502431
 20
27.894877633161741
 30
0.0
 11
49.956435600502431
 21
29.694877633196029
 31
0.0
  0
LINE
  5
19E1
  8
0
 62
     0
 10
49.956435600502431
 20
0.3051223668026068
 30
0.0
 11
49.956435600502431
 21
2.1051223668365528
 31
0.0
  0
LINE
  5
19E2
  8
0
 62
     0
 10
48.706435600502431
 20
27.894877633161741
 30
0.0
 11
48.706435600502431
 21
29.694877633196029
 31
0.0
  0
LINE
  5
19E3
  8
0
 62
     0
 10
48.706435600502431
 20
0.3051223668026068
 30
0.0
 11
48.706435600502431
 21
2.105122366836667
 31
0.0
  0
LINE
  5
19E4
  8
0
 62
     0
 10
47.456435600502431
 20
27.894877633161741
 30
0.0
 11
47.456435600502431
 21
29.694877633196029
 31
0.0
  0
LINE
  5
19E5
  8
0
 62
     0
 10
47.456435600502417
 20
0.3051223668026068
 30
0.0
 11
47.456435600502417
 21
2.1051223668367811
 31
0.0
  0
LINE
  5
19E6
  8
0
 62
     0
 10
46.206435600502431
 20
27.894877633161741
 30
0.0
 11
46.206435600502431
 21
29.694877633196029
 31
0.0
  0
LINE
  5
19E7
  8
0
 62
     0
 10
46.206435600502417
 20
0.3051223668026068
 30
0.0
 11
46.206435600502417
 21
2.1051223668368939
 31
0.0
  0
LINE
  5
19E8
  8
0
 62
     0
 10
44.956435600502431
 20
27.894877633161741
 30
0.0
 11
44.956435600502431
 21
29.694877633196029
 31
0.0
  0
LINE
  5
19E9
  8
0
 62
     0
 10
44.956435600502417
 20
0.3051223668026068
 30
0.0
 11
44.956435600502417
 21
2.105122366837008
 31
0.0
  0
LINE
  5
19EA
  8
0
 62
     0
 10
43.706435600502431
 20
27.894877633161741
 30
0.0
 11
43.706435600502431
 21
29.694877633196029
 31
0.0
  0
LINE
  5
19EB
  8
0
 62
     0
 10
43.706435600502417
 20
0.3051223668026068
 30
0.0
 11
43.706435600502417
 21
2.1051223668371222
 31
0.0
  0
LINE
  5
19EC
  8
0
 62
     0
 10
42.456435600502431
 20
27.894877633161741
 30
0.0
 11
42.456435600502431
 21
29.694877633196029
 31
0.0
  0
LINE
  5
19ED
  8
0
 62
     0
 10
42.456435600502417
 20
0.3051223668026068
 30
0.0
 11
42.456435600502417
 21
2.1051223668373491
 31
0.0
  0
LINE
  5
19EE
  8
0
 62
     0
 10
41.206435600502431
 20
26.958156240298081
 30
0.0
 11
41.206435600502431
 21
29.694877633196029
 31
0.0
  0
LINE
  5
19EF
  8
0
 62
     0
 10
41.206435600502417
 20
0.3051223668026068
 30
0.0
 11
41.206435600502417
 21
3.0418437596994181
 31
0.0
  0
LINE
  5
19F0
  8
0
 62
     0
 10
39.956435600502438
 20
24.8331056750194
 30
0.0
 11
39.956435600502438
 21
29.265908551154102
 31
0.0
  0
LINE
  5
19F1
  8
0
 62
     0
 10
39.956435600502431
 20
0.7340914488434011
 30
0.0
 11
39.956435600502431
 21
5.166894324979693
 31
0.0
  0
LINE
  5
19F2
  8
0
 62
     0
 10
38.706435600502438
 20
24.75872266291379
 30
0.0
 11
38.706435600502438
 21
26.789582861393569
 31
0.0
  0
LINE
  5
19F3
  8
0
 62
     0
 10
38.706435600502431
 20
3.2104171386051799
 30
0.0
 11
38.706435600502431
 21
5.2412773370846253
 31
0.0
  0
LINE
  5
19F4
  8
0
 62
     0
 10
37.456435600502438
 20
24.105077677855661
 30
0.0
 11
37.456435600502438
 21
27.49551271077166
 31
0.0
  0
LINE
  5
19F5
  8
0
 62
     0
 10
37.456435600502431
 20
2.5044872892273129
 30
0.0
 11
37.456435600502431
 21
5.894922322142861
 31
0.0
  0
LINE
  5
19F6
  8
0
 62
     0
 10
36.206435600502438
 20
23.750549974997629
 30
0.0
 11
36.206435600502438
 21
27.839205291535219
 31
0.0
  0
LINE
  5
19F7
  8
0
 62
     0
 10
36.206435600502431
 20
2.160794708462844
 30
0.0
 11
36.206435600502431
 21
6.2494500250011242
 31
0.0
  0
ENDBLK
  5
19F9
  8
0
  0
ENDSEC
  0
SECTION
  2
ENTITIES
  0
ARC
  5
358
  8
SAPA_ANSLUTNING
 10
118.5364321870348
 20
37.091514237473113
 30
0.0
 40
31.543903339916149
 50
165.480256263683
 51
192.99194681445661
  0
POLYLINE
  5
6E7
  8
SAPA_ANSLUTNING
 66
     1
 10
0.0
 20
0.0
 30
0.0
 70
     1
1001
ACAD
1000
ASC_BOUNDS
1002
{
1070
    19
1005
A50
1002
}
  0
VERTEX
  5
125E
  8
SAPA_ANSLUTNING
 10
32.000000000718117
 20
24.99999999999082
 30
0.0
  0
VERTEX
  5
125F
  8
SAPA_ANSLUTNING
 10
32.000000000718117
 20
44.999999999999417
 30
0.0
  0
VERTEX
  5
1260
  8
SAPA_ANSLUTNING
 10
23.243323029157711
 20
44.999999999999417
 30
0.0
  0
VERTEX
  5
1261
  8
SAPA_ANSLUTNING
 10
23.243323029157711
 20
24.99999999999082
 30
0.0
  0
SEQEND
  5
1262
  8
SAPA_ANSLUTNING
  0
POLYLINE
  5
6FA
  8
SAPA_ANSLUTNING
 66
     1
 10
0.0
 20
0.0
 30
0.0
  0
VERTEX
  5
1263
  8
SAPA_ANSLUTNING
 10
32.000000000718117
 20
29.93798115725853
 30
0.0
 42
0.5283966080225092
  0
VERTEX
  5
1264
  8
SAPA_ANSLUTNING
 10
34.729990294679148
 20
31.799999999999571
 30
0.0
  0
VERTEX
  5
1265
  8
SAPA_ANSLUTNING
 10
34.731584345125462
 20
43.000000000000441
 30
0.0
 42
-0.9999989466455052
  0
VERTEX
  5
1266
  8
SAPA_ANSLUTNING
 10
38.731584345121142
 20
43.000004213420638
 30
0.0
  0
VERTEX
  5
1267
  8
SAPA_ANSLUTNING
 10
38.731584345121163
 20
31.81117359299213
 30
0.0
 42
0.9999999999999998
  0
VERTEX
  5
1268
  8
SAPA_ANSLUTNING
 10
42.731584345121149
 20
31.81117359299213
 30
0.0
  0
VERTEX
  5
1269
  8
SAPA_ANSLUTNING
 10
42.731584345121142
 20
43.000000000005777
 30
0.0
 42
-1.0000000000000011
  0
VERTEX
  5
126A
  8
SAPA_ANSLUTNING
 10
46.731584345108409
 20
43.000000000005777
 30
0.0
  0
VERTEX
  5
126B
  8
SAPA_ANSLUTNING
 10
46.731584345108423
 20
31.799999999999599
 30
0.0
 42
0.9999999999999998
  0
VERTEX
  5
126C
  8
SAPA_ANSLUTNING
 10
50.731584345108423
 20
31.799999999999599
 30
0.0
  0
VERTEX
  5
126D
  8
SAPA_ANSLUTNING
 10
50.733178395554731
 20
43.000000000000469
 30
0.0
 42
-0.9999989466455052
  0
VERTEX
  5
126E
  8
SAPA_ANSLUTNING
 10
54.733178395550418
 20
43.000004213420667
 30
0.0
  0
VERTEX
  5
126F
  8
SAPA_ANSLUTNING
 10
54.731584345103869
 20
31.799999999999599
 30
0.0
 42
0.9999999999999998
  0
VERTEX
  5
1270
  8
SAPA_ANSLUTNING
 10
58.731584345103862
 20
31.799999999999599
 30
0.0
  0
VERTEX
  5
1271
  8
SAPA_ANSLUTNING
 10
58.733178395550297
 20
42.988830620449349
 30
0.0
 42
-0.9999974985601646
  0
VERTEX
  5
1272
  8
SAPA_ANSLUTNING
 10
62.733178395537692
 20
42.988830620449349
 30
0.0
  0
VERTEX
  5
1273
  8
SAPA_ANSLUTNING
 10
62.73158434509125
 20
31.799999999999599
 30
0.0
 42
0.9999999999999998
  0
VERTEX
  5
1274
  8
SAPA_ANSLUTNING
 10
66.73158434509125
 20
31.799999999999599
 30
0.0
  0
VERTEX
  5
1275
  8
SAPA_ANSLUTNING
 10
66.73158434509125
 20
42.991342536791102
 30
0.0
 42
-0.9999989466455052
  0
VERTEX
  5
1276
  8
SAPA_ANSLUTNING
 10
70.731584345086929
 20
42.991338323371131
 30
0.0
  0
VERTEX
  5
1277
  8
SAPA_ANSLUTNING
 10
70.731584345086688
 20
26.9999999999994
 30
0.0
 42
0.7675133829436435
  0
VERTEX
  5
1278
  8
SAPA_ANSLUTNING
 10
74.464104194776752
 20
26.000812845143241
 30
0.0
  0
SEQEND
  5
1279
  8
SAPA_ANSLUTNING
  0
POLYLINE
  5
78D
  8
SAPA_ANSLUTNING
 10
76.393774343720636
 20
24.999999999999421
 30
0.0
 66
     1
 70
     8
  0
VERTEX
  8
SAPA_ANSLUTNING
  5
19FA
 10
76.3938
 20
25.0000
 30
0.000000
  70
    32
  0
VERTEX
  8
SAPA_ANSLUTNING
  5
19FB
 10
76.6146
 20
25.0119
 30
0.000000
  70
    32
  0
VERTEX
  8
SAPA_ANSLUTNING
  5
19FC
 10
76.8349
 20
25.0479
 30
0.000000
  70
    32
  0
VERTEX
  8
SAPA_ANSLUTNING
  5
19FD
 10
77.0541
 20
25.1079
 30
0.000000
  70
    32
  0
VERTEX
  8
SAPA_ANSLUTNING
  5
19FE
 10
77.2718
 20
25.1917
 30
0.000000
  70
    32
  0
VERTEX
  8
SAPA_ANSLUTNING
  5
19FF
 10
77.4873
 20
25.2992
 30
0.000000
  70
    32
  0
VERTEX
  8
SAPA_ANSLUTNING
  5
1A00
 10
77.7003
 20
25.4300
 30
0.000000
  70
    32
  0
VERTEX
  8
SAPA_ANSLUTNING
  5
1A01
 10
77.9101
 20
25.5838
 30
0.000000
  70
    32
  0
VERTEX
  8
SAPA_ANSLUTNING
  5
1A02
 10
78.1162
 20
25.7604
 30
0.000000
  70
    32
  0
VERTEX
  8
SAPA_ANSLUTNING
  5
1A03
 10
78.3182
 20
25.9592
 30
0.000000
  70
    32
  0
VERTEX
  8
SAPA_ANSLUTNING
  5
1A04
 10
78.5156
 20
26.1798
 30
0.000000
  70
    32
  0
VERTEX
  8
SAPA_ANSLUTNING
  5
1A05
 10
78.7079
 20
26.4216
 30
0.000000
  70
    32
  0
VERTEX
  8
SAPA_ANSLUTNING
  5
1A06
 10
78.8947
 20
26.6841
 30
0.000000
  70
    32
  0
VERTEX
  8
SAPA_ANSLUTNING
  5
1A07
 10
79.0754
 20
26.9666
 30
0.000000
  70
    32
  0
VERTEX
  8
SAPA_ANSLUTNING
  5
1A08
 10
79.2496
 20
27.2685
 30
0.000000
  70
    32
  0
VERTEX
  8
SAPA_ANSLUTNING
  5
1A09
 10
79.4171
 20
27.5890
 30
0.000000
  70
    32
  0
VERTEX
  8
SAPA_ANSLUTNING
  5
1A0A
 10
79.5772
 20
27.9274
 30
0.000000
  70
    32
  0
VERTEX
  8
SAPA_ANSLUTNING
  5
1A0B
 10
79.7297
 20
28.2828
 30
0.000000
  70
    32
  0
VERTEX
  8
SAPA_ANSLUTNING
  5
1A0C
 10
79.8741
 20
28.6544
 30
0.000000
  70
    32
  0
VERTEX
  8
SAPA_ANSLUTNING
  5
1A0D
 10
80.0102
 20
29.0412
 30
0.000000
  70
    32
  0
VERTEX
  8
SAPA_ANSLUTNING
  5
1A0E
 10
80.1376
 20
29.4425
 30
0.000000
  70
    32
  0
VERTEX
  8
SAPA_ANSLUTNING
  5
1A0F
 10
80.2559
 20
29.8571
 30
0.000000
  70
    32
  0
VERTEX
  8
SAPA_ANSLUTNING
  5
1A10
 10
80.3650
 20
30.2841
 30
0.000000
  70
    32
  0
VERTEX
  8
SAPA_ANSLUTNING
  5
1A11
 10
80.4645
 20
30.7225
 30
0.000000
  70
    32
  0
VERTEX
  8
SAPA_ANSLUTNING
  5
1A12
 10
80.5542
 20
31.1711
 30
0.000000
  70
    32
  0
VERTEX
  8
SAPA_ANSLUTNING
  5
1A13
 10
80.6340
 20
31.6290
 30
0.000000
  70
    32
  0
VERTEX
  8
SAPA_ANSLUTNING
  5
1A14
 10
80.7035
 20
32.0951
 30
0.000000
  70
    32
  0
VERTEX
  8
SAPA_ANSLUTNING
  5
1A15
 10
80.7626
 20
32.5681
 30
0.000000
  70
    32
  0
VERTEX
  8
SAPA_ANSLUTNING
  5
1A16
 10
80.8112
 20
33.0469
 30
0.000000
  70
    32
  0
VERTEX
  8
SAPA_ANSLUTNING
  5
1A17
 10
80.8492
 20
33.5305
 30
0.000000
  70
    32
  0
VERTEX
  8
SAPA_ANSLUTNING
  5
1A18
 10
80.8765
 20
34.0176
 30
0.000000
  70
    32
  0
VERTEX
  8
SAPA_ANSLUTNING
  5
1A19
 10
80.8930
 20
34.5071
 30
0.000000
  70
    32
  0
VERTEX
  8
SAPA_ANSLUTNING
  5
1A1A
 10
80.8986
 20
34.9978
 30
0.000000
  70
    32
  0
VERTEX
  8
SAPA_ANSLUTNING
  5
1A1B
 10
80.8935
 20
35.4885
 30
0.000000
  70
    32
  0
VERTEX
  8
SAPA_ANSLUTNING
  5
1A1C
 10
80.8775
 20
35.9780
 30
0.000000
  70
    32
  0
VERTEX
  8
SAPA_ANSLUTNING
  5
1A1D
 10
80.8507
 20
36.4651
 30
0.000000
  70
    32
  0
VERTEX
  8
SAPA_ANSLUTNING
  5
1A1E
 10
80.8131
 20
36.9488
 30
0.000000
  70
    32
  0
VERTEX
  8
SAPA_ANSLUTNING
  5
1A1F
 10
80.7650
 20
37.4277
 30
0.000000
  70
    32
  0
VERTEX
  8
SAPA_ANSLUTNING
  5
1A20
 10
80.7063
 20
37.9008
 30
0.000000
  70
    32
  0
VERTEX
  8
SAPA_ANSLUTNING
  5
1A21
 10
80.6372
 20
38.3668
 30
0.000000
  70
    32
  0
VERTEX
  8
SAPA_ANSLUTNING
  5
1A22
 10
80.5580
 20
38.8248
 30
0.000000
  70
    32
  0
VERTEX
  8
SAPA_ANSLUTNING
  5
1A23
 10
80.4687
 20
39.2736
 30
0.000000
  70
    32
  0
VERTEX
  8
SAPA_ANSLUTNING
  5
1A24
 10
80.3696
 20
39.7120
 30
0.000000
  70
    32
  0
VERTEX
  8
SAPA_ANSLUTNING
  5
1A25
 10
80.2609
 20
40.1391
 30
0.000000
  70
    32
  0
VERTEX
  8
SAPA_ANSLUTNING
  5
1A26
 10
80.1430
 20
40.5539
 30
0.000000
  70
    32
  0
VERTEX
  8
SAPA_ANSLUTNING
  5
1A27
 10
80.0160
 20
40.9552
 30
0.000000
  70
    32
  0
VERTEX
  8
SAPA_ANSLUTNING
  5
1A28
 10
79.8803
 20
41.3422
 30
0.000000
  70
    32
  0
VERTEX
  8
SAPA_ANSLUTNING
  5
1A29
 10
79.7362
 20
41.7140
 30
0.000000
  70
    32
  0
VERTEX
  8
SAPA_ANSLUTNING
  5
1A2A
 10
79.5841
 20
42.0695
 30
0.000000
  70
    32
  0
VERTEX
  8
SAPA_ANSLUTNING
  5
1A2B
 10
79.4243
 20
42.4080
 30
0.000000
  70
    32
  0
VERTEX
  8
SAPA_ANSLUTNING
  5
1A2C
 10
79.2572
 20
42.7287
 30
0.000000
  70
    32
  0
VERTEX
  8
SAPA_ANSLUTNING
  5
1A2D
 10
79.0832
 20
43.0308
 30
0.000000
  70
    32
  0
VERTEX
  8
SAPA_ANSLUTNING
  5
1A2E
 10
78.9028
 20
43.3135
 30
0.000000
  70
    32
  0
VERTEX
  8
SAPA_ANSLUTNING
  5
1A2F
 10
78.7163
 20
43.5762
 30
0.000000
  70
    32
  0
VERTEX
  8
SAPA_ANSLUTNING
  5
1A30
 10
78.5242
 20
43.8182
 30
0.000000
  70
    32
  0
VERTEX
  8
SAPA_ANSLUTNING
  5
1A31
 10
78.3270
 20
44.0390
 30
0.000000
  70
    32
  0
VERTEX
  8
SAPA_ANSLUTNING
  5
1A32
 10
78.1252
 20
44.2380
 30
0.000000
  70
    32
  0
VERTEX
  8
SAPA_ANSLUTNING
  5
1A33
 10
77.9192
 20
44.4147
 30
0.000000
  70
    32
  0
VERTEX
  8
SAPA_ANSLUTNING
  5
1A34
 10
77.7096
 20
44.5688
 30
0.000000
  70
    32
  0
VERTEX
  8
SAPA_ANSLUTNING
  5
1A35
 10
77.4968
 20
44.6998
 30
0.000000
  70
    32
  0
VERTEX
  8
SAPA_ANSLUTNING
  5
1A36
 10
77.2813
 20
44.8074
 30
0.000000
  70
    32
  0
VERTEX
  8
SAPA_ANSLUTNING
  5
1A37
 10
77.0637
 20
44.8914
 30
0.000000
  70
    32
  0
VERTEX
  8
SAPA_ANSLUTNING
  5
1A38
 10
76.8446
 20
44.9516
 30
0.000000
  70
    32
  0
VERTEX
  8
SAPA_ANSLUTNING
  5
1A39
 10
76.6243
 20
44.9878
 30
0.000000
  70
    32
  0
VERTEX
  8
SAPA_ANSLUTNING
  5
1A3A
 10
76.4035
 20
45.0000
 30
0.000000
  70
    32
  0
VERTEX
  8
SAPA_ANSLUTNING
  5
1A3B
 10
76.1827
 20
44.9881
 30
0.000000
  70
    32
  0
VERTEX
  8
SAPA_ANSLUTNING
  5
1A3C
 10
75.9624
 20
44.9521
 30
0.000000
  70
    32
  0
VERTEX
  8
SAPA_ANSLUTNING
  5
1A3D
 10
75.7432
 20
44.8921
 30
0.000000
  70
    32
  0
VERTEX
  8
SAPA_ANSLUTNING
  5
1A3E
 10
75.5255
 20
44.8083
 30
0.000000
  70
    32
  0
VERTEX
  8
SAPA_ANSLUTNING
  5
1A3F
 10
75.3100
 20
44.7008
 30
0.000000
  70
    32
  0
VERTEX
  8
SAPA_ANSLUTNING
  5
1A40
 10
75.0970
 20
44.5700
 30
0.000000
  70
    32
  0
VERTEX
  8
SAPA_ANSLUTNING
  5
1A41
 10
74.8872
 20
44.4162
 30
0.000000
  70
    32
  0
VERTEX
  8
SAPA_ANSLUTNING
  5
1A42
 10
74.6811
 20
44.2396
 30
0.000000
  70
    32
  0
VERTEX
  8
SAPA_ANSLUTNING
  5
1A43
 10
74.4790
 20
44.0408
 30
0.000000
  70
    32
  0
VERTEX
  8
SAPA_ANSLUTNING
  5
1A44
 10
74.2817
 20
43.8202
 30
0.000000
  70
    32
  0
VERTEX
  8
SAPA_ANSLUTNING
  5
1A45
 10
74.0894
 20
43.5784
 30
0.000000
  70
    32
  0
VERTEX
  8
SAPA_ANSLUTNING
  5
1A46
 10
73.9026
 20
43.3159
 30
0.000000
  70
    32
  0
VERTEX
  8
SAPA_ANSLUTNING
  5
1A47
 10
73.7219
 20
43.0334
 30
0.000000
  70
    32
  0
VERTEX
  8
SAPA_ANSLUTNING
  5
1A48
 10
73.5476
 20
42.7315
 30
0.000000
  70
    32
  0
VERTEX
  8
SAPA_ANSLUTNING
  5
1A49
 10
73.3802
 20
42.4110
 30
0.000000
  70
    32
  0
VERTEX
  8
SAPA_ANSLUTNING
  5
1A4A
 10
73.2201
 20
42.0726
 30
0.000000
  70
    32
  0
VERTEX
  8
SAPA_ANSLUTNING
  5
1A4B
 10
73.0676
 20
41.7172
 30
0.000000
  70
    32
  0
VERTEX
  8
SAPA_ANSLUTNING
  5
1A4C
 10
72.9232
 20
41.3456
 30
0.000000
  70
    32
  0
VERTEX
  8
SAPA_ANSLUTNING
  5
1A4D
 10
72.7871
 20
40.9588
 30
0.000000
  70
    32
  0
VERTEX
  8
SAPA_ANSLUTNING
  5
1A4E
 10
72.6597
 20
40.5575
 30
0.000000
  70
    32
  0
VERTEX
  8
SAPA_ANSLUTNING
  5
1A4F
 10
72.5414
 20
40.1429
 30
0.000000
  70
    32
  0
VERTEX
  8
SAPA_ANSLUTNING
  5
1A50
 10
72.4323
 20
39.7159
 30
0.000000
  70
    32
  0
VERTEX
  8
SAPA_ANSLUTNING
  5
1A51
 10
72.3328
 20
39.2775
 30
0.000000
  70
    32
  0
VERTEX
  8
SAPA_ANSLUTNING
  5
1A52
 10
72.2430
 20
38.8289
 30
0.000000
  70
    32
  0
VERTEX
  8
SAPA_ANSLUTNING
  5
1A53
 10
72.1633
 20
38.3710
 30
0.000000
  70
    32
  0
VERTEX
  8
SAPA_ANSLUTNING
  5
1A54
 10
72.0938
 20
37.9049
 30
0.000000
  70
    32
  0
VERTEX
  8
SAPA_ANSLUTNING
  5
1A55
 10
72.0347
 20
37.4319
 30
0.000000
  70
    32
  0
VERTEX
  8
SAPA_ANSLUTNING
  5
1A56
 10
71.9861
 20
36.9531
 30
0.000000
  70
    32
  0
VERTEX
  8
SAPA_ANSLUTNING
  5
1A57
 10
71.9481
 20
36.4695
 30
0.000000
  70
    32
  0
VERTEX
  8
SAPA_ANSLUTNING
  5
1A58
 10
71.9208
 20
35.9824
 30
0.000000
  70
    32
  0
VERTEX
  8
SAPA_ANSLUTNING
  5
1A59
 10
71.9043
 20
35.4929
 30
0.000000
  70
    32
  0
VERTEX
  8
SAPA_ANSLUTNING
  5
1A5A
 10
71.8986
 20
35.0022
 30
0.000000
  70
    32
  0
VERTEX
  8
SAPA_ANSLUTNING
  5
1A5B
 10
71.9038
 20
34.5115
 30
0.000000
  70
    32
  0
VERTEX
  8
SAPA_ANSLUTNING
  5
1A5C
 10
71.9198
 20
34.0220
 30
0.000000
  70
    32
  0
VERTEX
  8
SAPA_ANSLUTNING
  5
1A5D
 10
71.9466
 20
33.5349
 30
0.000000
  70
    32
  0
VERTEX
  8
SAPA_ANSLUTNING
  5
1A5E
 10
71.9842
 20
33.0512
 30
0.000000
  70
    32
  0
VERTEX
  8
SAPA_ANSLUTNING
  5
1A5F
 10
72.0323
 20
32.5723
 30
0.000000
  70
    32
  0
VERTEX
  8
SAPA_ANSLUTNING
  5
1A60
 10
72.0910
 20
32.0992
 30
0.000000
  70
    32
  0
VERTEX
  8
SAPA_ANSLUTNING
  5
1A61
 10
72.1601
 20
31.6332
 30
0.000000
  70
    32
  0
VERTEX
  8
SAPA_ANSLUTNING
  5
1A62
 10
72.2393
 20
31.1752
 30
0.000000
  70
    32
  0
VERTEX
  8
SAPA_ANSLUTNING
  5
1A63
 10
72.3286
 20
30.7264
 30
0.000000
  70
    32
  0
VERTEX
  8
SAPA_ANSLUTNING
  5
1A64
 10
72.4277
 20
30.2880
 30
0.000000
  70
    32
  0
VERTEX
  8
SAPA_ANSLUTNING
  5
1A65
 10
72.5364
 20
29.8609
 30
0.000000
  70
    32
  0
VERTEX
  8
SAPA_ANSLUTNING
  5
1A66
 10
72.6543
 20
29.4461
 30
0.000000
  70
    32
  0
VERTEX
  8
SAPA_ANSLUTNING
  5
1A67
 10
72.7813
 20
29.0448
 30
0.000000
  70
    32
  0
VERTEX
  8
SAPA_ANSLUTNING
  5
1A68
 10
72.9170
 20
28.6578
 30
0.000000
  70
    32
  0
VERTEX
  8
SAPA_ANSLUTNING
  5
1A69
 10
73.0611
 20
28.2860
 30
0.000000
  70
    32
  0
VERTEX
  8
SAPA_ANSLUTNING
  5
1A6A
 10
73.2132
 20
27.9305
 30
0.000000
  70
    32
  0
VERTEX
  8
SAPA_ANSLUTNING
  5
1A6B
 10
73.3730
 20
27.5920
 30
0.000000
  70
    32
  0
VERTEX
  8
SAPA_ANSLUTNING
  5
1A6C
 10
73.5401
 20
27.2713
 30
0.000000
  70
    32
  0
VERTEX
  8
SAPA_ANSLUTNING
  5
1A6D
 10
73.7141
 20
26.9692
 30
0.000000
  70
    32
  0
VERTEX
  8
SAPA_ANSLUTNING
  5
1A6E
 10
73.8945
 20
26.6865
 30
0.000000
  70
    32
  0
VERTEX
  8
SAPA_ANSLUTNING
  5
1A6F
 10
74.0810
 20
26.4238
 30
0.000000
  70
    32
  0
VERTEX
  8
SAPA_ANSLUTNING
  5
1A70
 10
74.2731
 20
26.1818
 30
0.000000
  70
    32
  0
VERTEX
  8
SAPA_ANSLUTNING
  5
1A71
 10
74.4702
 20
25.9610
 30
0.000000
  70
    32
  0
VERTEX
  8
SAPA_ANSLUTNING
  5
1A72
 10
74.6721
 20
25.7620
 30
0.000000
  70
    32
  0
VERTEX
  8
SAPA_ANSLUTNING
  5
1A73
 10
74.8781
 20
25.5853
 30
0.000000
  70
    32
  0
VERTEX
  8
SAPA_ANSLUTNING
  5
1A74
 10
75.0877
 20
25.4312
 30
0.000000
  70
    32
  0
VERTEX
  8
SAPA_ANSLUTNING
  5
1A75
 10
75.3005
 20
25.3002
 30
0.000000
  70
    32
  0
VERTEX
  8
SAPA_ANSLUTNING
  5
1A76
 10
75.5160
 20
25.1926
 30
0.000000
  70
    32
  0
VERTEX
  8
SAPA_ANSLUTNING
  5
1A77
 10
75.7335
 20
25.1086
 30
0.000000
  70
    32
  0
VERTEX
  8
SAPA_ANSLUTNING
  5
1A78
 10
75.9527
 20
25.0484
 30
0.000000
  70
    32
  0
VERTEX
  8
SAPA_ANSLUTNING
  5
1A79
 10
76.1730
 20
25.0122
 30
0.000000
  70
    32
  0
VERTEX
  8
SAPA_ANSLUTNING
  5
1A7A
 10
76.3938
 20
25.0000
 30
0.000000
  70
    32
  0
SEQEND
  8
SAPA_ANSLUTNING
  5
1A7B
  0
INSERT
  5
7F1
  8
SAPA_ANSLUTNING
  6
CONTINUOUS
  2
*X13
 10
0.0
 20
0.0
 30
0.0
1001
ACAD
1000
HATCH
1002
{
1070
    19
1000
ANSI37
1040
0.5
1040
0.0
1000
R14_HATCH_DATA
1000
7F1
1011
1.0
1021
0.0
1031
0.0
1021
0.0
1031
0.0
1011
0.0
1021
0.0
1031
0.0
1021
1.0
1031
0.0
1011
0.0
1021
0.0
1031
0.0
1021
0.0
1031
1.0
1040
0.0
1010
0.0
1020
0.0
1030
1.0
1000
ANSI37
1070
     0
1070
     0
1071
        1
1071
        5
1071
       12
1070
     1
1040
87.999999997568239
1040
44.999999999999439
1040
76.403510522025982
1040
44.999999999999439
1070
     3
1040
76.398642432859901
1040
34.999999999999453
1040
-0.004868089139265
1040
-10.00000000000002
1040
0.4499999466788522
1040
3.1415926535957608
1040
6.2827471789631941
1070
     0
1070
     1
1040
76.39574592086494
1040
24.999999999999979
1040
85.699999994418377
1040
24.999999999999989
1070
     2
1040
85.699999994418263
1040
25.300000000000061
1040
0.3000000000000682
1040
4.712388980385068
1040
6.2831853071799646
1070
     1
1070
     1
1040
85.999999994418317
1040
25.300000000000171
1040
85.999999994418317
1040
27.700000000000259
1070
     2
1040
85.699999994418491
1040
27.700000000000149
1040
0.2999999999998408
1040
0.000000000000379
1040
1.5707963267952749
1070
     1
1070
     1
1040
85.699999994418377
1040
27.999999999999989
1040
84.299999994418286
1040
27.999999999999989
1070
     2
1040
84.299999994418314
1040
28.300000000000161
1040
0.3000000000001686
1040
1.570796326795038
1040
3.696111167335602
1070
     0
1070
     1
1040
84.044953777108176
1040
28.457960207128039
1040
84.941352754350319
1040
29.90530680475193
1070
     2
1040
85.111383565890222
1040
29.800000000000079
1040
0.1999999999999044
1040
3.696111167335804
1040
4.7123889803855423
1070
     0
1070
     1
1040
85.111383565890392
1040
29.999999999999989
1040
87.799999997568094
1040
29.999999999999989
1070
     2
1040
118.5364321870348
1040
37.091514237473177
1040
31.543903339916149
1040
2.9148404054335511
1040
3.3950099883343459
1070
     0
1071
        0
1070
     0
1070
     1
1040
0.0
1040
0.5
1070
     0
1070
     2
1040
0.7853981633974483
1040
0.0
1040
0.0
1040
-1.1225320151336431
1040
1.122532015133644
1070
     0
1040
2.3561944901923439
1040
0.0
1040
0.0
1040
-1.122532015133644
1040
-1.1225320151336431
1070
     0
1040
0.057882035285277
1071
        1
1040
84.116595225523554
1040
37.399851660857479
1040
0.0
1002
}
  0
INSERT
  5
951
  8
SAPA_ANSLUTNING
  6
CONTINUOUS
  2
*X14
 10
0.0
 20
0.0
 30
0.0
1001
ACAD
1000
HATCH
1002
{
1070
    19
1000
HEX
1040
0.25
1040
0.0
1000
R14_HATCH_DATA
1000
951
1011
1.0
1021
0.0
1031
0.0
1021
0.0
1031
0.0
1011
0.0
1021
0.0
1031
0.0
1021
1.0
1031
0.0
1011
0.0
1021
0.0
1031
0.0
1021
0.0
1031
1.0
1040
0.0
1010
0.0
1020
0.0
1030
1.0
1000
HEX
1070
     0
1070
     0
1071
        1
1071
        5
1071
        4
1070
     3
1040
76.398642432859901
1040
34.999999999999453
1040
-0.004868089139265
1040
-10.00000000000002
1040
0.4499999466788522
1040
0.000438128216392
1040
3.1415926535838241
1070
     1
1070
     1
1040
76.403510522025996
1040
44.999999999999439
1040
76.401538945965498
1040
44.999999999999439
1070
     3
1040
76.398642432859901
1040
34.999999999999453
1040
-0.004868089139265
1040
-10.00000000000002
1040
0.4499999466788522
1040
3.1420307815593711
1040
6.2831853069268027
1070
     1
1070
     1
1040
76.393774342583114
1040
24.999999999999979
1040
76.395745920864911
1040
24.999999999999979
1071
        0
1070
     0
1070
     1
1040
0.0
1040
0.25
1070
     0
1070
     3
1040
0.0
1040
0.0
1040
0.0
1040
0.0
1040
1.374814999999999
1070
     2
1040
0.79375
1040
-1.587499999999999
1040
2.0943951023931948
1040
0.0
1040
0.0
1040
-1.190624715503902
1040
-0.6874074999999996
1070
     2
1040
0.7937499999999998
1040
-1.587499999999999
1040
1.047197551196597
1040
0.79375
1040
0.0
1040
-1.190624715503902
1040
0.6874075000000001
1070
     2
1040
0.79375
1040
-1.587499999999999
1040
0.057882035285277
1071
        1
1040
76.76159473045584
1040
36.24221093346182
1040
0.0
1002
}
  0
INSERT
  5
A50
  8
SAPA_ANSLUTNING
  6
CONTINUOUS
  2
*X15
 10
0.0
 20
0.0
 30
0.0
1001
ACAD
1000
HATCH
1002
{
1070
    19
1000
HEX
1040
0.25
1040
0.0
1000
ASC_BOUNDS
1070
     1
1070
     1
1070
     1
1005
6E7
1000
ASC_SEEDPOINT
1011
27.86941211791321
1021
0.0
1031
0.0
1021
35.778520239113561
1031
0.0
1000
R14_HATCH_DATA
1000
A50
1011
1.0
1021
0.0
1031
0.0
1021
0.0
1031
0.0
1011
0.0
1021
0.0
1031
0.0
1021
1.0
1031
0.0
1011
0.0
1021
0.0
1031
0.0
1021
0.0
1031
1.0
1040
0.0
1010
0.0
1020
0.0
1030
1.0
1000
HEX
1070
     0
1070
     1
1071
        1
1071
        7
1070
     0
1070
     1
1071
        4
1040
32.000000000718117
1040
44.999999999999432
1040
23.243323029157711
1040
44.999999999999432
1040
23.243323029157711
1040
24.99999999999082
1040
32.000000000718117
1040
24.99999999999082
1071
        1
1005
6E7
1070
     0
1070
     1
1040
0.0
1040
0.25
1070
     0
1070
     3
1040
0.0
1040
0.0
1040
0.0
1040
0.0
1040
1.374814999999999
1070
     2
1040
0.79375
1040
-1.587499999999999
1040
2.0943951023931948
1040
0.0
1040
0.0
1040
-1.190624715503902
1040
-0.6874074999999996
1070
     2
1040
0.7937499999999998
1040
-1.587499999999999
1040
1.047197551196597
1040
0.79375
1040
0.0
1040
-1.190624715503902
1040
0.6874075000000001
1070
     2
1040
0.79375
1040
-1.587499999999999
1040
0.1038756628916797
1071
        1
1040
27.86941211791321
1040
35.778520239113561
1040
0.0
1002
}
  0
LINE
  5
1009
  8
SAPA_ANSLUTNING
  6
NEWDOT
 10
-131.7452310560445
 20
-65.543828313683704
 30
0.0
 11
221.0410663237833
 21
-65.543828313683704
 31
0.0
  0
INSERT
  5
100B
  8
SAPA_ANSLUTNING
  6
CONTINUOUS
  2
*X16
 10
0.0
 20
0.0
 30
0.0
1001
ACAD
1000
HATCH
1002
{
1070
    19
1000
ANSI31
1040
100.0
1040
0.0
1000
R14_HATCH_DATA
1000
100B
1011
1.0
1021
0.0
1031
0.0
1021
0.0
1031
0.0
1011
0.0
1021
0.0
1031
0.0
1021
1.0
1031
0.0
1011
0.0
1021
0.0
1031
0.0
1021
0.0
1031
1.0
1040
0.0
1010
0.0
1020
0.0
1030
1.0
1000
ANSI31
1070
     0
1070
     0
1071
        1
1071
        7
1070
     0
1070
     1
1071
        4
1040
-7.9999999992826361
1040
154.9999999999994
1040
-107.99999999928259
1040
154.9999999999994
1040
-107.99999999928259
1040
104.9999999999994
1040
-7.9999999992826361
1040
104.9999999999994
1071
        0
1070
     0
1070
     1
1040
0.0
1040
100.0
1070
     0
1070
     1
1040
0.7853981633974483
1040
-349.88148950598162
1040
-123.3834349390588
1040
-8.8388347648318426
1040
8.8388347648318444
1070
     0
1040
1.537758508788327
1071
        1
1040
-55.10136485447515
1040
132.72638234834571
1040
0.0
1002
}
  0
POLYLINE
  5
100C
  8
SAPA_ANSLUTNING
 66
     1
 10
0.0
 20
0.0
 30
0.0
 70
     1
  0
VERTEX
  5
13EA
  8
SAPA_ANSLUTNING
 10
-107.99999999928259
 20
154.9999999999994
 30
0.0
  0
VERTEX
  5
13EB
  8
SAPA_ANSLUTNING
 10
-107.99999999928259
 20
104.9999999999994
 30
0.0
  0
VERTEX
  5
13EC
  8
SAPA_ANSLUTNING
 10
-7.9999999992826361
 20
104.9999999999994
 30
0.0
  0
VERTEX
  5
13ED
  8
SAPA_ANSLUTNING
 10
-7.9999999992826361
 20
154.9999999999994
 30
0.0
  0
SEQEND
  5
13EE
  8
SAPA_ANSLUTNING
  0
POLYLINE
  5
100D
  8
SAPA_ANSLUTNING
  6
NEWDOT
 66
     1
 10
0.0
 20
0.0
 30
0.0
  0
VERTEX
  5
13EF
  8
SAPA_ANSLUTNING
  6
NEWDOT
 10
-117.99999999928249
 20
165.3798705268041
 30
0.0
  0
VERTEX
  5
13F0
  8
SAPA_ANSLUTNING
  6
NEWDOT
 10
203.00000000071819
 20
165.37987052680401
 30
0.0
  0
SEQEND
  5
13F1
  8
SAPA_ANSLUTNING
  6
NEWDOT
  0
INSERT
  5
1014
  8
SAPA_ANSLUTNING
  6
CONTINUOUS
  2
*X17
 10
0.0
 20
0.0
 30
0.0
1001
ACAD
1000
HATCH
1002
{
1070
    19
1000
ANSI31
1040
100.0
1040
0.0
1000
R14_HATCH_DATA
1000
1014
1011
1.0
1021
0.0
1031
0.0
1021
0.0
1031
0.0
1011
0.0
1021
0.0
1031
0.0
1021
1.0
1031
0.0
1011
0.0
1021
0.0
1031
0.0
1021
0.0
1031
1.0
1040
0.0
1010
0.0
1020
0.0
1030
1.0
1000
ANSI31
1070
     0
1070
     0
1071
        1
1071
        7
1070
     0
1070
     1
1071
        4
1040
-7.9999999992826361
1040
94.999999999999432
1040
-107.99999999928259
1040
94.999999999999432
1040
-107.99999999928259
1040
44.999999999999432
1040
-7.9999999992826361
1040
44.999999999999432
1071
        0
1070
     0
1070
     1
1040
0.0
1040
100.0
1070
     0
1070
     1
1040
0.7853981633974483
1040
-349.88148950598162
1040
-123.3834349390588
1040
-8.8388347648318426
1040
8.8388347648318444
1070
     0
1040
1.537758508788327
1071
        1
1040
-56.640172221910461
1040
63.527249866523441
1040
0.0
1002
}
  0
POLYLINE
  5
1015
  8
SAPA_ANSLUTNING
 66
     1
 10
0.0
 20
0.0
 30
0.0
 70
     1
  0
VERTEX
  5
13FD
  8
SAPA_ANSLUTNING
 10
-107.99999999928259
 20
94.999999999999432
 30
0.0
  0
VERTEX
  5
13FE
  8
SAPA_ANSLUTNING
 10
-107.99999999928259
 20
44.999999999999432
 30
0.0
  0
VERTEX
  5
13FF
  8
SAPA_ANSLUTNING
 10
-7.9999999992826361
 20
44.999999999999432
 30
0.0
  0
VERTEX
  5
1400
  8
SAPA_ANSLUTNING
 10
-7.9999999992826361
 20
94.999999999999432
 30
0.0
  0
SEQEND
  5
1401
  8
SAPA_ANSLUTNING
  0
POLYLINE
  5
1017
  8
SAPA_ANSLUTNING
 66
     1
 10
0.0
 20
0.0
 30
0.0
  0
VERTEX
  5
1402
  8
SAPA_ANSLUTNING
 10
-102.99999999928259
 20
94.999999999999432
 30
0.0
  0
VERTEX
  5
1403
  8
SAPA_ANSLUTNING
 10
-102.99999999928259
 20
104.9999999999994
 30
0.0
  0
SEQEND
  5
1404
  8
SAPA_ANSLUTNING
  0
POLYLINE
  5
1018
  8
SAPA_ANSLUTNING
 66
     1
 10
0.0
 20
0.0
 30
0.0
  0
VERTEX
  5
1405
  8
SAPA_ANSLUTNING
 10
-102.99999999928259
 20
154.9999999999994
 30
0.0
  0
VERTEX
  5
1406
  8
SAPA_ANSLUTNING
 10
-102.99999999928259
 20
164.9999999999994
 30
0.0
  0
SEQEND
  5
1407
  8
SAPA_ANSLUTNING
  0
LINE
  5
1079
  8
SAPA_ANSLUTNING
 10
59.000000000717357
 20
89.999999999999432
 30
0.0
 11
179.00000000071731
 21
89.999999999999432
 31
0.0
  0
POLYLINE
  5
107A
  8
SAPA_ANSLUTNING
 66
     1
 10
0.0
 20
0.0
 30
0.0
  0
VERTEX
  5
1408
  8
SAPA_ANSLUTNING
 10
173.63094579235499
 20
89.999999999999659
 30
0.0
 42
0.7343016746134183
  0
VERTEX
  5
1409
  8
SAPA_ANSLUTNING
 10
167.91802169350399
 20
108.2074660060678
 30
0.0
  0
VERTEX
  5
140A
  8
SAPA_ANSLUTNING
 10
70.620796794051103
 20
108.2074660060678
 30
0.0
 42
-0.9999999999999998
  0
VERTEX
  5
140B
  8
SAPA_ANSLUTNING
 10
70.620796794051103
 20
128.20746600606779
 30
0.0
  0
VERTEX
  5
140C
  8
SAPA_ANSLUTNING
 10
167.91802169350399
 20
128.20746600606779
 30
0.0
 42
0.9999999999999998
  0
VERTEX
  5
140D
  8
SAPA_ANSLUTNING
 10
167.91802169350399
 20
148.20746600606779
 30
0.0
  0
VERTEX
  5
140E
  8
SAPA_ANSLUTNING
 10
70.620796794051103
 20
148.20746600606779
 30
0.0
 42
-0.6734115168029874
  0
VERTEX
  5
140F
  8
SAPA_ANSLUTNING
 10
63.65253923631667
 20
165.3798705268041
 30
0.0
 42
-0.6734115168029874
  0
SEQEND
  5
1410
  8
SAPA_ANSLUTNING
  0
LINE
  5
107B
  8
SAPA_ANSLUTNING
 10
179.00000000071731
 20
44.999999999999432
 30
0.0
 11
59.000000000717357
 21
44.999999999999432
 31
0.0
  0
LINE
  5
107C
  8
SAPA_ANSLUTNING
 10
120.00000000071731
 20
44.499999999997613
 30
0.0
 11
110.00000000071731
 21
44.499999999997392
 31
0.0
  0
POLYLINE
  5
107D
  8
SAPA_ANSLUTNING
 66
     1
 10
0.0
 20
0.0
 30
0.0
 70
     1
  0
VERTEX
  5
1411
  8
SAPA_ANSLUTNING
 10
198.00000003617541
 20
26.000000000961219
 30
0.0
  0
VERTEX
  5
1412
  8
SAPA_ANSLUTNING
 10
88.000000000567297
 20
26.000000000961219
 30
0.0
  0
VERTEX
  5
1413
  8
SAPA_ANSLUTNING
 10
88.000000000567297
 20
44.000000000961222
 30
0.0
  0
VERTEX
  5
1414
  8
SAPA_ANSLUTNING
 10
198.00000003617541
 20
44.000000000961222
 30
0.0
  0
SEQEND
  5
1415
  8
SAPA_ANSLUTNING
  0
LINE
  5
107E
  8
SAPA_ANSLUTNING
 10
59.000000000717357
 20
89.999999999999432
 30
0.0
 11
179.00000000071731
 21
44.999999999999432
 31
0.0
  0
LINE
  5
107F
  8
SAPA_ANSLUTNING
 10
59.000000000717357
 20
44.999999999999432
 30
0.0
 11
179.00000000071731
 21
89.999999999999432
 31
0.0
  0
LINE
  5
1080
  8
SAPA_ANSLUTNING
 10
59.000000000717357
 20
44.999999999999432
 30
0.0
 11
59.000000000717357
 21
89.999999999999432
 31
0.0
  0
LINE
  5
1081
  8
SAPA_ANSLUTNING
 10
59.000000000717357
 20
44.999999999999432
 30
0.0
 11
59.000000000717357
 21
89.999999999999432
 31
0.0
  0
LINE
  5
1082
  8
SAPA_ANSLUTNING
 10
14.00000000071736
 20
89.999999999999432
 30
0.0
 11
14.00000000071736
 21
44.999999999999432
 31
0.0
  0
LINE
  5
1083
  8
SAPA_ANSLUTNING
 10
59.000000000717357
 20
44.999999999999432
 30
0.0
 11
14.00000000071736
 21
74.999999999999432
 31
0.0
  0
LINE
  5
1084
  8
SAPA_ANSLUTNING
 10
14.00000000071736
 20
44.999999999999432
 30
0.0
 11
59.000000000717357
 21
74.999999999999432
 31
0.0
  0
LINE
  5
1085
  8
SAPA_ANSLUTNING
 10
14.00000000071736
 20
44.999999999999432
 30
0.0
 11
59.000000000717357
 21
44.999999999999432
 31
0.0
  0
LINE
  5
1089
  8
SAPA_ANSLUTNING
 10
100.00000000071761
 20
44.499999999997151
 30
0.0
 11
90.000000000717591
 21
44.499999999996703
 31
0.0
  0
LINE
  5
10A7
  8
SAPA_ANSLUTNING
 10
100.00000000071761
 20
44.999999999997151
 30
0.0
 11
100.00000000071761
 21
43.999999999997158
 31
0.0
  0
LINE
  5
10A8
  8
SAPA_ANSLUTNING
 10
110.00000000071731
 20
44.999999999997378
 30
0.0
 11
110.00000000071761
 21
43.999999999997378
 31
0.0
  0
POLYLINE
  5
10A9
  8
SAPA_ANSLUTNING
 66
     1
 10
0.0
 20
0.0
 30
0.0
  0
VERTEX
  5
1416
  8
SAPA_ANSLUTNING
 10
57.228148998425922
 20
74.933019799003318
 30
0.0
 42
0.3557231347462373
  0
VERTEX
  5
1417
  8
SAPA_ANSLUTNING
 10
51.352247948868133
 20
79.719023565151815
 30
0.0
  0
VERTEX
  5
1418
  8
SAPA_ANSLUTNING
 10
21.065468240546121
 20
79.719012156883863
 30
0.0
 42
-0.9999999999999985
  0
VERTEX
  5
1419
  8
SAPA_ANSLUTNING
 10
21.065466495983181
 20
91.71901215688365
 30
0.0
  0
VERTEX
  5
141A
  8
SAPA_ANSLUTNING
 10
51.352246204305168
 20
91.719023565151588
 30
0.0
 42
0.9999999999999998
  0
VERTEX
  5
141B
  8
SAPA_ANSLUTNING
 10
51.352246204305168
 20
103.7190235651518
 30
0.0
  0
VERTEX
  5
141C
  8
SAPA_ANSLUTNING
 10
21.065466495983181
 20
103.71901215688359
 30
0.0
 42
-0.9999999999999985
  0
VERTEX
  5
141D
  8
SAPA_ANSLUTNING
 10
21.06546475142045
 20
115.71901215688339
 30
0.0
  0
VERTEX
  5
141E
  8
SAPA_ANSLUTNING
 10
51.352244459742451
 20
115.7190235651513
 30
0.0
 42
0.9999999999999998
  0
VERTEX
  5
141F
  8
SAPA_ANSLUTNING
 10
51.352244459742451
 20
127.7190235651513
 30
0.0
  0
VERTEX
  5
1420
  8
SAPA_ANSLUTNING
 10
21.06546475142045
 20
127.71901215688339
 30
0.0
 42
-0.9999999999999985
  0
VERTEX
  5
1421
  8
SAPA_ANSLUTNING
 10
21.065463006857719
 20
139.7190121568832
 30
0.0
  0
VERTEX
  5
1422
  8
SAPA_ANSLUTNING
 10
52.351615453999557
 20
139.7190235651513
 30
0.0
 42
0.6250062363770168
  0
VERTEX
  5
1423
  8
SAPA_ANSLUTNING
 10
57.078225082632123
 20
149.4148538397335
 30
0.0
 42
0.6250062363770168
  0
SEQEND
  5
1424
  8
SAPA_ANSLUTNING
  0
LINE
  5
10AA
  8
SAPA_ANSLUTNING
 10
59.000000000717357
 20
74.999999999999432
 30
0.0
 11
14.00000000071736
 21
74.999999999999432
 31
0.0
  0
LINE
  5
10AB
  8
SAPA_ANSLUTNING
 10
14.00000000071736
 20
89.999999999999432
 30
0.0
 11
14.00000000071736
 21
165.37987052680421
 31
0.0
  0
POLYLINE
  5
10AC
  8
SAPA_ANSLUTNING
 66
     1
 10
0.0
 20
0.0
 30
0.0
  0
VERTEX
  5
1425
  8
SAPA_ANSLUTNING
 10
-7.9999999992826361
 20
94.754367859994204
 30
0.0
  0
VERTEX
  5
1426
  8
SAPA_ANSLUTNING
 10
-7.9999999992826361
 20
104.9999999999994
 30
0.0
  0
SEQEND
  5
1427
  8
SAPA_ANSLUTNING
  0
POLYLINE
  5
10AD
  8
SAPA_ANSLUTNING
 66
     1
 10
0.0
 20
0.0
 30
0.0
  0
VERTEX
  5
1428
  8
SAPA_ANSLUTNING
 10
-7.9999999992826361
 20
154.9999999999994
 30
0.0
  0
VERTEX
  5
1429
  8
SAPA_ANSLUTNING
 10
-7.9999999992826361
 20
164.9999999999994
 30
0.0
  0
SEQEND
  5
142A
  8
SAPA_ANSLUTNING
  0
LINE
  5
10AE
  8
SAPA_ANSLUTNING
 10
59.000000000717357
 20
89.999999999999432
 30
0.0
 11
59.00000000071725
 21
165.37987052680421
 31
0.0
  0
LINE
  5
10AF
  8
SAPA_ANSLUTNING
 10
179.00000000071731
 20
89.999999999999432
 30
0.0
 11
179.00000000071731
 21
44.999999999999432
 31
0.0
  0
LINE
  5
10B0
  8
SAPA_ANSLUTNING
 10
180.00000000071819
 20
165.3798705268041
 30
0.0
 11
180.00000000071731
 21
43.999999999999652
 31
0.0
  0
LINE
  5
10B1
  8
SAPA_ANSLUTNING
 10
179.00000000071731
 20
44.999999999999432
 30
0.0
 11
179.00000000071839
 21
165.3798705268041
 31
0.0
  0
LINE
  5
10B2
  8
SAPA_ANSLUTNING
 10
193.0000000007181
 20
165.3798705268041
 30
0.0
 11
193.00000000071739
 21
43.999999999999652
 31
0.0
  0
LINE
  5
10B3
  8
SAPA_ANSLUTNING
 10
179.50000000071691
 20
54.999999999999659
 30
0.0
 11
179.50000000071731
 21
44.999999999999432
 31
0.0
  0
LINE
  5
10B4
  8
SAPA_ANSLUTNING
 10
160.00000000071731
 20
44.499999999998977
 30
0.0
 11
150.00000000071731
 21
44.499999999998742
 31
0.0
  0
LINE
  5
10B5
  8
SAPA_ANSLUTNING
 10
140.00000000071731
 20
44.499999999998288
 30
0.0
 11
130.00000000071731
 21
44.49999999999806
 31
0.0
  0
LINE
  5
10B6
  8
SAPA_ANSLUTNING
 10
120.00000000071731
 20
44.999999999997613
 30
0.0
 11
120.00000000071731
 21
43.999999999997613
 31
0.0
  0
LINE
  5
10B7
  8
SAPA_ANSLUTNING
 10
130.00000000071731
 20
44.999999999998067
 30
0.0
 11
130.00000000071731
 21
43.99999999999806
 31
0.0
  0
LINE
  5
10B8
  8
SAPA_ANSLUTNING
 10
140.00000000071731
 20
44.999999999998522
 30
0.0
 11
140.00000000071731
 21
43.999999999998288
 31
0.0
  0
LINE
  5
10B9
  8
SAPA_ANSLUTNING
 10
150.00000000071731
 20
44.999999999998522
 30
0.0
 11
150.00000000071731
 21
43.999999999998749
 31
0.0
  0
LINE
  5
10BA
  8
SAPA_ANSLUTNING
 10
160.00000000071731
 20
44.99999999999897
 30
0.0
 11
160.00000000071731
 21
43.999999999998977
 31
0.0
  0
LINE
  5
10BB
  8
SAPA_ANSLUTNING
 10
180.00000000071731
 20
44.499999999999659
 30
0.0
 11
170.00000000071731
 21
44.499999999999432
 31
0.0
  0
LINE
  5
10BC
  8
SAPA_ANSLUTNING
 10
170.00000000071731
 20
44.999999999999432
 30
0.0
 11
170.00000000071731
 21
43.999999999999432
 31
0.0
  0
LINE
  5
10BD
  8
SAPA_ANSLUTNING
 10
180.00000000071731
 20
44.999999999999659
 30
0.0
 11
180.00000000071731
 21
43.999999999999652
 31
0.0
  0
LINE
  5
10BE
  8
SAPA_ANSLUTNING
 10
179.00000000071731
 20
44.999999999999432
 30
0.0
 11
180.00000000071731
 21
44.999999999999659
 31
0.0
  0
LINE
  5
10BF
  8
SAPA_ANSLUTNING
 10
179.50000000071711
 20
154.9999999999994
 30
0.0
 11
179.50000000071711
 21
144.9999999999994
 31
0.0
  0
LINE
  5
10C0
  8
SAPA_ANSLUTNING
 10
179.5000000007164
 20
74.999999999999432
 30
0.0
 11
179.50000000071671
 21
64.999999999999432
 31
0.0
  0
LINE
  5
10C1
  8
SAPA_ANSLUTNING
 10
179.00000000071691
 20
54.999999999999432
 30
0.0
 11
180.00000000071691
 21
54.999999999999432
 31
0.0
  0
LINE
  5
10C2
  8
SAPA_ANSLUTNING
 10
179.0000000007166
 20
64.999999999999432
 30
0.0
 11
180.0000000007166
 21
64.999999999999659
 31
0.0
  0
LINE
  5
10C3
  8
SAPA_ANSLUTNING
 10
179.0000000007164
 20
74.999999999999432
 30
0.0
 11
180.0000000007164
 21
74.999999999999659
 31
0.0
  0
LINE
  5
10C4
  8
SAPA_ANSLUTNING
 10
179.0000000007158
 20
94.999999999999432
 30
0.0
 11
180.00000000071569
 21
94.999999999999432
 31
0.0
  0
LINE
  5
10C5
  8
SAPA_ANSLUTNING
 10
179.000000000716
 20
84.999999999999432
 30
0.0
 11
180.000000000716
 21
84.999999999999432
 31
0.0
  0
LINE
  5
10C6
  8
SAPA_ANSLUTNING
 10
179.50000000071569
 20
94.999999999999432
 30
0.0
 11
179.500000000716
 21
84.999999999999432
 31
0.0
  0
LINE
  5
10C7
  8
SAPA_ANSLUTNING
 10
179.50000000071509
 20
114.9999999999994
 30
0.0
 11
179.50000000071549
 21
104.9999999999994
 31
0.0
  0
LINE
  5
10C8
  8
SAPA_ANSLUTNING
 10
179.00000000071549
 20
104.9999999999994
 30
0.0
 11
180.00000000071549
 21
104.9999999999994
 31
0.0
  0
LINE
  5
10C9
  8
SAPA_ANSLUTNING
 10
179.00000000071509
 20
114.9999999999994
 30
0.0
 11
180.00000000071509
 21
114.9999999999994
 31
0.0
  0
LINE
  5
10CA
  8
SAPA_ANSLUTNING
 10
179.50000000071691
 20
134.9999999999994
 30
0.0
 11
179.50000000071691
 21
124.9999999999994
 31
0.0
  0
LINE
  5
10CB
  8
SAPA_ANSLUTNING
 10
179.00000000071691
 20
124.9999999999994
 30
0.0
 11
180.00000000071691
 21
124.9999999999994
 31
0.0
  0
LINE
  5
10CC
  8
SAPA_ANSLUTNING
 10
179.00000000071711
 20
144.9999999999994
 30
0.0
 11
180.00000000071711
 21
144.9999999999994
 31
0.0
  0
LINE
  5
10CD
  8
SAPA_ANSLUTNING
 10
179.00000000071691
 20
134.9999999999994
 30
0.0
 11
180.00000000071691
 21
134.9999999999994
 31
0.0
  0
LINE
  5
10CE
  8
SAPA_ANSLUTNING
 10
179.00000000071711
 20
154.9999999999994
 30
0.0
 11
180.00000000071711
 21
154.9999999999996
 31
0.0
  0
LINE
  5
10CF
  8
SAPA_ANSLUTNING
 10
179.50000000071711
 20
165.3798705268043
 30
0.0
 11
179.50000000071711
 21
164.9999999999994
 31
0.0
  0
LINE
  5
10D0
  8
SAPA_ANSLUTNING
 10
179.00000000071711
 20
164.9999999999994
 30
0.0
 11
180.00000000071711
 21
164.9999999999994
 31
0.0
  0
POLYLINE
  5
10D8
  8
SAPA_ANSLUTNING
 66
     1
 10
0.0
 20
0.0
 30
0.0
  0
VERTEX
  5
142B
  8
SAPA_ANSLUTNING
 10
-9.1314795513799254
 20
34.999999999999432
 30
0.0
  0
VERTEX
  5
142C
  8
SAPA_ANSLUTNING
 10
-107.99999999928259
 20
34.999999999999432
 30
0.0
  0
VERTEX
  5
142D
  8
SAPA_ANSLUTNING
 10
-107.99999999928259
 20
-15.00000000000057
 30
0.0
  0
VERTEX
  5
142E
  8
SAPA_ANSLUTNING
 10
-20.462940157230829
 20
-15.00000000000057
 30
0.0
  0
SEQEND
  5
142F
  8
SAPA_ANSLUTNING
  0
POLYLINE
  5
10D9
  8
SAPA_ANSLUTNING
 66
     1
 10
0.0
 20
0.0
 30
0.0
  0
VERTEX
  5
1430
  8
SAPA_ANSLUTNING
 10
-102.99999999928259
 20
34.999999999999432
 30
0.0
  0
VERTEX
  5
1431
  8
SAPA_ANSLUTNING
 10
-102.99999999928259
 20
44.999999999999432
 30
0.0
  0
SEQEND
  5
1432
  8
SAPA_ANSLUTNING
  0
POLYLINE
  5
10DA
  8
SAPA_ANSLUTNING
 66
     1
 10
0.0
 20
0.0
 30
0.0
  0
VERTEX
  5
1433
  8
SAPA_ANSLUTNING
 10
-7.9999999992826361
 20
35.303179032236237
 30
0.0
  0
VERTEX
  5
1434
  8
SAPA_ANSLUTNING
 10
-7.9999999992826361
 20
44.999999999999432
 30
0.0
  0
SEQEND
  5
1435
  8
SAPA_ANSLUTNING
  0
POLYLINE
  5
10DB
  8
SAPA_ANSLUTNING
 66
     1
 10
0.0
 20
0.0
 30
0.0
  0
VERTEX
  5
1436
  8
SAPA_ANSLUTNING
 10
-102.99999999928259
 20
-25.000000000000568
 30
0.0
  0
VERTEX
  5
1437
  8
SAPA_ANSLUTNING
 10
-102.99999999928259
 20
-15.00000000000057
 30
0.0
  0
SEQEND
  5
1438
  8
SAPA_ANSLUTNING
  0
POLYLINE
  5
10DC
  8
SAPA_ANSLUTNING
 66
     1
 10
0.0
 20
0.0
 30
0.0
  0
VERTEX
  5
1439
  8
SAPA_ANSLUTNING
 10
-20.462940157230829
 20
-25.000000000000568
 30
0.0
  0
VERTEX
  5
143A
  8
SAPA_ANSLUTNING
 10
-107.99999999928259
 20
-25.000000000000568
 30
0.0
  0
VERTEX
  5
143B
  8
SAPA_ANSLUTNING
 10
-107.99999999928259
 20
-65.543828313683704
 30
0.0
  0
SEQEND
  5
143C
  8
SAPA_ANSLUTNING
  0
LINE
  5
10E3
  8
SAPA_ANSLUTNING
 10
193.00000000071739
 20
26.000000000961219
 30
0.0
 11
193.00000000071731
 21
-65.543828313683704
 31
0.0
  0
LINE
  5
10EF
  8
SAPA_ANSLUTNING
 10
51.202324033074319
 20
154.20085760588199
 30
0.0
 11
20.915544324752322
 21
154.200846197614
 31
0.0
  0
ARC
  5
10F0
  8
SAPA_ANSLUTNING
 10
20.915543452470839
 20
160.20084619761391
 30
0.0
 40
5.9999999999999494
 50
120.3255225857018
 51
270.00000832967351
  0
ARC
  5
10F1
  8
SAPA_ANSLUTNING
 10
51.20232403307444
 20
148.20085760588211
 30
0.0
 40
5.9999999999998694
 50
11.673402558831439
 51
90.0
  0
POLYLINE
  5
10F7
  8
SAPA_ANSLUTNING
  6
CONTINUOUS
 66
     1
 10
0.0
 20
0.0
 30
0.0
  0
VERTEX
  5
143D
  8
SAPA_ANSLUTNING
  6
CONTINUOUS
 10
14.00000000071736
 20
29.620129473199881
 30
0.0
  0
VERTEX
  5
143E
  8
SAPA_ANSLUTNING
  6
CONTINUOUS
 10
14.00000000071736
 20
79.620129473199881
 30
0.0
  0
VERTEX
  5
143F
  8
SAPA_ANSLUTNING
  6
CONTINUOUS
 10
13.00000000071736
 20
79.620129473199881
 30
0.0
  0
VERTEX
  5
1440
  8
SAPA_ANSLUTNING
  6
CONTINUOUS
 10
13.00000000071736
 20
30.577350269188969
 30
0.0
  0
VERTEX
  5
1441
  8
SAPA_ANSLUTNING
  6
CONTINUOUS
 10
-26.378214005742851
 20
20.025989626778141
 30
0.0
  0
VERTEX
  5
1442
  8
SAPA_ANSLUTNING
  6
CONTINUOUS
 10
-26.378214005742851
 20
3.2586626387991369
 30
0.0
  0
VERTEX
  5
1443
  8
SAPA_ANSLUTNING
  6
CONTINUOUS
 10
-22.378214005742851
 20
3.2586626387991369
 30
0.0
  0
VERTEX
  5
1444
  8
SAPA_ANSLUTNING
  6
CONTINUOUS
 10
-22.378214005742851
 20
7.2586626387991373
 30
0.0
  0
VERTEX
  5
1445
  8
SAPA_ANSLUTNING
  6
CONTINUOUS
 10
-23.378214005742851
 20
7.2586626387991373
 30
0.0
  0
VERTEX
  5
1446
  8
SAPA_ANSLUTNING
  6
CONTINUOUS
 10
-23.378214005742851
 20
4.2586626387991373
 30
0.0
  0
VERTEX
  5
1447
  8
SAPA_ANSLUTNING
  6
CONTINUOUS
 10
-25.378214005742851
 20
4.2586626387991373
 30
0.0
  0
VERTEX
  5
1448
  8
SAPA_ANSLUTNING
  6
CONTINUOUS
 10
-25.378214005742851
 20
19.258662638799141
 30
0.0
  0
VERTEX
  5
1449
  8
SAPA_ANSLUTNING
  6
CONTINUOUS
 10
13.25881904581979
 20
29.611424442899882
 30
0.0
  0
SEQEND
  5
144A
  8
SAPA_ANSLUTNING
  6
CONTINUOUS
  0
POLYLINE
  5
10F8
  8
SAPA_ANSLUTNING
  6
CONTINUOUS
 66
     1
 10
0.0
 20
0.0
 30
0.0
  0
VERTEX
  5
144B
  8
SAPA_ANSLUTNING
  6
CONTINUOUS
 10
13.00000000071736
 20
40.930112073289699
 30
0.0
  0
VERTEX
  5
144C
  8
SAPA_ANSLUTNING
  6
CONTINUOUS
 10
-26.378214005742731
 20
30.378751430878989
 30
0.0
  0
VERTEX
  5
144D
  8
SAPA_ANSLUTNING
  6
CONTINUOUS
 10
-26.378214005742851
 20
20.025989626778141
 30
0.0
  0
SEQEND
  5
144E
  8
SAPA_ANSLUTNING
  6
CONTINUOUS
  0
LINE
  5
10F9
  8
SAPA_ANSLUTNING
 10
-20.462940157230829
 20
20.575706297085731
 30
0.0
 11
-20.462940157230829
 21
-65.543828313683704
 31
0.0
  0
LINE
  5
10FA
  8
SAPA_ANSLUTNING
 10
-15.462940157230831
 20
21.915452259241309
 30
0.0
 11
-15.46294015723077
 21
-65.543828313683704
 31
0.0
  0
LINE
  5
1133
  8
SAPA_ANSLUTNING
 10
90.000000000717591
 20
44.999999999996703
 30
0.0
 11
90.000000000717591
 21
43.999999999996703
 31
0.0
  0
POLYLINE
  5
1240
  8
SAPA_PROFIL
 62
     4
 66
     1
 10
0.0
 20
0.0
 30
0.0
 70
     1
  0
VERTEX
  5
1815
  8
SAPA_PROFIL
 62
     4
 10
40.023789213031812
 20
0.5604603295560154
 30
0.0
 42
0.3095427405277249
  0
VERTEX
  5
1816
  8
SAPA_PROFIL
 62
     4
 10
40.396713997646081
 20
0.3051223668026139
 30
0.0
  0
VERTEX
  5
1817
  8
SAPA_PROFIL
 62
     4
 10
50.999999997563798
 20
0.3051223668026139
 30
0.0
  0
VERTEX
  5
1818
  8
SAPA_PROFIL
 62
     4
 10
61.603285997491518
 20
0.3051223668026175
 30
0.0
 42
0.3095427405277116
  0
VERTEX
  5
1819
  8
SAPA_PROFIL
 62
     4
 10
61.976210782105788
 20
0.5604603295560189
 30
0.0
  0
VERTEX
  5
181A
  8
SAPA_PROFIL
 62
     4
 10
62.934067588235038
 20
3.0297228252043271
 30
0.0
 42
-0.3951183166278546
  0
VERTEX
  5
181B
  8
SAPA_PROFIL
 62
     4
 10
63.303680059325522
 20
3.207433367086661
 30
0.0
  0
VERTEX
  5
181C
  8
SAPA_PROFIL
 62
     4
 10
63.543863124107808
 20
3.346103124193188
 30
0.0
 42
-0.5773502691891896
  0
VERTEX
  5
181D
  8
SAPA_PROFIL
 62
     4
 10
63.858863124107643
 20
3.1642377893981681
 30
0.0
  0
VERTEX
  5
181E
  8
SAPA_PROFIL
 62
     4
 10
63.858863124107643
 20
2.8971232611857078
 30
0.0
  0
VERTEX
  5
181F
  8
SAPA_PROFIL
 62
     4
 10
65.239999997524464
 20
2.105122366717306
 30
0.0
  0
VERTEX
  5
1820
  8
SAPA_PROFIL
 62
     4
 10
65.589999997524146
 20
2.1051223667082111
 30
0.0
 42
0.4142135623733655
  0
VERTEX
  5
1821
  8
SAPA_PROFIL
 62
     4
 10
65.989999997534014
 20
2.5051223666992071
 30
0.0
  0
VERTEX
  5
1822
  8
SAPA_PROFIL
 62
     4
 10
65.989999997613836
 20
5.905122366699298
 30
0.0
 42
0.4142135623732407
  0
VERTEX
  5
1823
  8
SAPA_PROFIL
 62
     4
 10
65.589999997623053
 20
6.3051223667084839
 30
0.0
  0
VERTEX
  5
1824
  8
SAPA_PROFIL
 62
     4
 10
65.245222046091953
 20
6.2959864454233063
 30
0.0
  0
VERTEX
  5
1825
  8
SAPA_PROFIL
 62
     4
 10
63.602968599513922
 20
5.3572823104532388
 30
0.0
 42
-0.1246505592471785
  0
VERTEX
  5
1826
  8
SAPA_PROFIL
 62
     4
 10
62.968259773624929
 20
5.2051223667704214
 30
0.0
  0
VERTEX
  5
1827
  8
SAPA_PROFIL
 62
     4
 10
62.317415997597081
 20
5.2051223667858819
 30
0.0
 42
0.3095428336485235
  0
VERTEX
  5
1828
  8
SAPA_PROFIL
 62
     4
 10
61.385103913114897
 20
4.5667771430180544
 30
0.0
  0
VERTEX
  5
1829
  8
SAPA_PROFIL
 62
     4
 10
60.529247831317768
 20
2.360460456343854
 30
0.0
 42
-0.3095428336421182
  0
VERTEX
  5
182A
  8
SAPA_PROFIL
 62
     4
 10
60.156322997534389
 20
2.1051223668373602
 30
0.0
  0
VERTEX
  5
182B
  8
SAPA_PROFIL
 62
     4
 10
50.9999999975688
 20
2.1051223668364472
 30
0.0
  0
VERTEX
  5
182C
  8
SAPA_PROFIL
 62
     4
 10
41.843676997603417
 20
2.1051223668373562
 30
0.0
 42
-0.3095428336421894
  0
VERTEX
  5
182D
  8
SAPA_PROFIL
 62
     4
 10
41.470752163819832
 20
2.3604604563438509
 30
0.0
  0
VERTEX
  5
182E
  8
SAPA_PROFIL
 62
     4
 10
41.470752490118556
 20
2.3604596151826689
 30
0.0
  0
VERTEX
  5
182F
  8
SAPA_PROFIL
 62
     4
 10
41.470752172262898
 20
2.3604604345787328
 30
0.0
  0
VERTEX
  5
1830
  8
SAPA_PROFIL
 62
     4
 10
40.614896082022923
 20
4.5667771430180499
 30
0.0
 42
0.3095428336485546
  0
VERTEX
  5
1831
  8
SAPA_PROFIL
 62
     4
 10
39.682583997540512
 20
5.2051223667858793
 30
0.0
  0
VERTEX
  5
1832
  8
SAPA_PROFIL
 62
     4
 10
39.031740221512671
 20
5.205122366770417
 30
0.0
 42
-0.1246505592471561
  0
VERTEX
  5
1833
  8
SAPA_PROFIL
 62
     4
 10
38.397031395623678
 20
5.3572823104527814
 30
0.0
  0
VERTEX
  5
1834
  8
SAPA_PROFIL
 62
     4
 10
36.754777949045881
 20
6.2959864454233019
 30
0.0
  0
VERTEX
  5
1835
  8
SAPA_PROFIL
 62
     4
 10
36.409999997514767
 20
6.3051223667084813
 30
0.0
 42
0.4142135623732407
  0
VERTEX
  5
1836
  8
SAPA_PROFIL
 62
     4
 10
36.009999997523998
 20
5.9051223666992954
 30
0.0
  0
VERTEX
  5
1837
  8
SAPA_PROFIL
 62
     4
 10
36.009999997603813
 20
2.505122366699204
 30
0.0
 42
0.4142135623733655
  0
VERTEX
  5
1838
  8
SAPA_PROFIL
 62
     4
 10
36.409999997613447
 20
2.105122366708208
 30
0.0
  0
VERTEX
  5
1839
  8
SAPA_PROFIL
 62
     4
 10
36.759999997613129
 20
2.1051223667173029
 30
0.0
  0
VERTEX
  5
183A
  8
SAPA_PROFIL
 62
     4
 10
38.141136871030191
 20
2.8971232611857038
 30
0.0
  0
VERTEX
  5
183B
  8
SAPA_PROFIL
 62
     4
 10
38.141136871030191
 20
3.1642377893981641
 30
0.0
 42
-0.5773502691891445
  0
VERTEX
  5
183C
  8
SAPA_PROFIL
 62
     4
 10
38.456136871029791
 20
3.346103124193184
 30
0.0
  0
VERTEX
  5
183D
  8
SAPA_PROFIL
 62
     4
 10
38.696319935812078
 20
3.2074333670866571
 30
0.0
 42
-0.3951183166278546
  0
VERTEX
  5
183E
  8
SAPA_PROFIL
 62
     4
 10
39.065932406902782
 20
3.029722825204324
 30
0.0
  0
SEQEND
  5
183F
  8
SAPA_PROFIL
 62
     4
  0
POLYLINE
  5
1241
  8
SAPA_PROFIL
 62
     4
 66
     1
 10
0.0
 20
0.0
 30
0.0
 70
     1
  0
VERTEX
  5
1840
  8
SAPA_PROFIL
 62
     4
 10
40.023789213032252
 20
29.439539670442642
 30
0.0
  0
VERTEX
  5
1841
  8
SAPA_PROFIL
 62
     4
 10
39.065932406903229
 20
26.97027717479433
 30
0.0
 42
-0.3951183166278715
  0
VERTEX
  5
1842
  8
SAPA_PROFIL
 62
     4
 10
38.696319935812532
 20
26.792566632911988
 30
0.0
  0
VERTEX
  5
1843
  8
SAPA_PROFIL
 62
     4
 10
38.456136871030239
 20
26.653896875805462
 30
0.0
 42
-0.5773502691893923
  0
VERTEX
  5
1844
  8
SAPA_PROFIL
 62
     4
 10
38.141136871030412
 20
26.835762210600489
 30
0.0
  0
VERTEX
  5
1845
  8
SAPA_PROFIL
 62
     4
 10
38.141136871030412
 20
27.102876738812949
 30
0.0
  0
VERTEX
  5
1846
  8
SAPA_PROFIL
 62
     4
 10
36.759999997613583
 20
27.894877633281801
 30
0.0
  0
VERTEX
  5
1847
  8
SAPA_PROFIL
 62
     4
 10
36.409999997613888
 20
27.89487763328999
 30
0.0
 42
0.4142135623733657
  0
VERTEX
  5
1848
  8
SAPA_PROFIL
 62
     4
 10
36.009999997604027
 20
27.494877633299449
 30
0.0
  0
VERTEX
  5
1849
  8
SAPA_PROFIL
 62
     4
 10
36.009999997524218
 20
24.094877633299362
 30
0.0
 42
0.4142135623732407
  0
VERTEX
  5
184A
  8
SAPA_PROFIL
 62
     4
 10
36.409999997514987
 20
23.694877633290169
 30
0.0
  0
VERTEX
  5
184B
  8
SAPA_PROFIL
 62
     4
 10
36.754777949046563
 20
23.704013554575798
 30
0.0
  0
VERTEX
  5
184C
  8
SAPA_PROFIL
 62
     4
 10
38.397031395625262
 20
24.64271768954632
 30
0.0
 42
-0.1246505592468612
  0
VERTEX
  5
184D
  8
SAPA_PROFIL
 62
     4
 10
39.031740221512891
 20
24.794877633228229
 30
0.0
  0
VERTEX
  5
184E
  8
SAPA_PROFIL
 62
     4
 10
39.682583997540732
 20
24.794877633213229
 30
0.0
 42
0.3095428336485416
  0
VERTEX
  5
184F
  8
SAPA_PROFIL
 62
     4
 10
40.614896082023151
 20
25.433222856980599
 30
0.0
  0
VERTEX
  5
1850
  8
SAPA_PROFIL
 62
     4
 10
41.470752163820507
 20
27.639539543654799
 30
0.0
 42
-0.3095428336420965
  0
VERTEX
  5
1851
  8
SAPA_PROFIL
 62
     4
 10
41.843676997603879
 20
27.894877633161752
 30
0.0
  0
VERTEX
  5
1852
  8
SAPA_PROFIL
 62
     4
 10
50.99999999756924
 20
27.894877633161752
 30
0.0
  0
VERTEX
  5
1853
  8
SAPA_PROFIL
 62
     4
 10
60.156322997534623
 20
27.894877633161759
 30
0.0
 42
-0.3095428336420966
  0
VERTEX
  5
1854
  8
SAPA_PROFIL
 62
     4
 10
60.529247831317988
 20
27.639539543654809
 30
0.0
  0
VERTEX
  5
1855
  8
SAPA_PROFIL
 62
     4
 10
61.385103913115117
 20
25.43322285698061
 30
0.0
 42
0.309542833648536
  0
VERTEX
  5
1856
  8
SAPA_PROFIL
 62
     4
 10
62.317415997597543
 20
24.794877633213229
 30
0.0
  0
VERTEX
  5
1857
  8
SAPA_PROFIL
 62
     4
 10
62.96825977362537
 20
24.794877633228239
 30
0.0
 42
-0.1246505592468612
  0
VERTEX
  5
1858
  8
SAPA_PROFIL
 62
     4
 10
63.602968599513012
 20
24.64271768954633
 30
0.0
  0
VERTEX
  5
1859
  8
SAPA_PROFIL
 62
     4
 10
65.245222046091726
 20
23.704013554575809
 30
0.0
  0
VERTEX
  5
185A
  8
SAPA_PROFIL
 62
     4
 10
65.589999997623295
 20
23.694877633290179
 30
0.0
 42
0.4142135623732407
  0
VERTEX
  5
185B
  8
SAPA_PROFIL
 62
     4
 10
65.989999997614049
 20
24.094877633299362
 30
0.0
  0
VERTEX
  5
185C
  8
SAPA_PROFIL
 62
     4
 10
65.989999997534241
 20
27.494877633299449
 30
0.0
 42
0.4142135623733657
  0
VERTEX
  5
185D
  8
SAPA_PROFIL
 62
     4
 10
65.5899999975246
 20
27.89487763328999
 30
0.0
  0
VERTEX
  5
185E
  8
SAPA_PROFIL
 62
     4
 10
65.239999997524919
 20
27.894877633281808
 30
0.0
  0
VERTEX
  5
185F
  8
SAPA_PROFIL
 62
     4
 10
63.858863124107863
 20
27.102876738812949
 30
0.0
  0
VERTEX
  5
1860
  8
SAPA_PROFIL
 62
     4
 10
63.858863124107863
 20
26.835762210600489
 30
0.0
 42
-0.5773502691895012
  0
VERTEX
  5
1861
  8
SAPA_PROFIL
 62
     4
 10
63.543863124108022
 20
26.653896875805469
 30
0.0
  0
VERTEX
  5
1862
  8
SAPA_PROFIL
 62
     4
 10
63.30368005932597
 20
26.792566632911999
 30
0.0
 42
-0.3951183166278822
  0
VERTEX
  5
1863
  8
SAPA_PROFIL
 62
     4
 10
62.934067588235258
 20
26.97027717479433
 30
0.0
  0
VERTEX
  5
1864
  8
SAPA_PROFIL
 62
     4
 10
61.976210782106229
 20
29.439539670442642
 30
0.0
 42
0.309542740527736
  0
VERTEX
  5
1865
  8
SAPA_PROFIL
 62
     4
 10
61.603285997491959
 20
29.69487763319604
 30
0.0
  0
VERTEX
  5
1866
  8
SAPA_PROFIL
 62
     4
 10
50.99999999757425
 20
29.69487763319604
 30
0.0
  0
VERTEX
  5
1867
  8
SAPA_PROFIL
 62
     4
 10
40.396713997646302
 20
29.69487763319604
 30
0.0
 42
0.3095427405276612
  0
SEQEND
  5
1868
  8
SAPA_PROFIL
 62
     4
  0
POLYLINE
  5
1242
  8
SAPA_PROFIL
 66
     1
 10
0.0
 20
0.0
 30
0.0
 70
     1
  0
VERTEX
  5
1869
  8
SAPA_PROFIL
 10
14.00000000071906
 20
-0.0000000000009095
 30
0.0
  0
VERTEX
  5
186A
  8
SAPA_PROFIL
 10
14.00000000070224
 20
-21.499999999967709
 30
0.0
 42
0.4142135623565294
  0
VERTEX
  5
186B
  8
SAPA_PROFIL
 10
14.500000000673589
 20
-21.999999999968171
 30
0.0
  0
VERTEX
  5
186C
  8
SAPA_PROFIL
 10
18.200000000685229
 20
-22.00000000018008
 30
0.0
 42
0.4142135623897996
  0
VERTEX
  5
186D
  8
SAPA_PROFIL
 10
18.50000000070224
 20
-21.700000000179902
 30
0.0
  0
VERTEX
  5
186E
  8
SAPA_PROFIL
 10
18.50000000070224
 20
-20.932455532153199
 30
0.0
 42
0.2896898632853548
  0
VERTEX
  5
186F
  8
SAPA_PROFIL
 10
17.928571429331779
 20
-20.028947629275532
 30
0.0
 42
0.5507604245882519
  0
VERTEX
  5
1870
  8
SAPA_PROFIL
 10
17.50000000074294
 20
-20.300000000121148
 30
0.0
  0
VERTEX
  5
1871
  8
SAPA_PROFIL
 10
17.500000000731351
 20
-20.5000000001437
 30
0.0
 42
-0.4142135623677535
  0
VERTEX
  5
1872
  8
SAPA_PROFIL
 10
17.200000000719569
 20
-20.800000000126602
 30
0.0
  0
VERTEX
  5
1873
  8
SAPA_PROFIL
 10
15.69999999953995
 20
-20.800000000066571
 30
0.0
 42
-0.4142135623614654
  0
VERTEX
  5
1874
  8
SAPA_PROFIL
 10
15.199999999549281
 20
-20.300000000056571
 30
0.0
  0
VERTEX
  5
1875
  8
SAPA_PROFIL
 10
15.19999999954927
 20
-17.000000000065938
 30
0.0
 42
-0.4142135623847744
  0
VERTEX
  5
1876
  8
SAPA_PROFIL
 10
15.699999999569281
 20
-16.500000000065938
 30
0.0
  0
VERTEX
  5
1877
  8
SAPA_PROFIL
 10
17.20000000095877
 20
-16.50000000012551
 30
0.0
 42
-0.4142135623787421
  0
VERTEX
  5
1878
  8
SAPA_PROFIL
 10
17.50000000094667
 20
-16.800000000142969
 30
0.0
  0
VERTEX
  5
1879
  8
SAPA_PROFIL
 10
17.50000000093485
 20
-17.000000000120512
 30
0.0
 42
0.5507604245845086
  0
VERTEX
  5
187A
  8
SAPA_PROFIL
 10
17.928571429489121
 20
-17.27105237101841
 30
0.0
 42
0.289689863320267
  0
VERTEX
  5
187B
  8
SAPA_PROFIL
 10
18.500000000976002
 20
-16.367544468085271
 30
0.0
  0
VERTEX
  5
187C
  8
SAPA_PROFIL
 10
18.500000000976002
 20
-15.370072656020049
 30
0.0
 42
0.0436609429084833
  0
VERTEX
  5
187D
  8
SAPA_PROFIL
 10
18.492403877482161
 20
-15.283248567187
 30
0.0
  0
VERTEX
  5
187E
  8
SAPA_PROFIL
 10
18.2155577065597
 20
-13.71317591120305
 30
0.0
 42
0.8390996311773337
  0
VERTEX
  5
187F
  8
SAPA_PROFIL
 10
17.230749953547381
 20
-13.71317591120305
 30
0.0
  0
VERTEX
  5
1880
  8
SAPA_PROFIL
 10
17.023804113965411
 20
-14.886824088870069
 30
0.0
 42
-0.3639702342662515
  0
VERTEX
  5
1881
  8
SAPA_PROFIL
 10
16.531400237459248
 20
-15.30000000003656
 30
0.0
  0
VERTEX
  5
1882
  8
SAPA_PROFIL
 10
15.69999999954927
 20
-15.30000000003656
 30
0.0
 42
-0.437328258627285
  0
VERTEX
  5
1883
  8
SAPA_PROFIL
 10
15.20153071924539
 20
-14.76090554271422
 30
0.0
  0
VERTEX
  5
1884
  8
SAPA_PROFIL
 10
15.78832948226829
 20
-0.2878467213240583
 30
0.0
 42
-0.4023941304320373
  0
VERTEX
  5
1885
  8
SAPA_PROFIL
 10
16.088083210881098
 20
-0.0000000000009095
 30
0.0
  0
VERTEX
  5
1886
  8
SAPA_PROFIL
 10
16.888616429246319
 20
-0.0000000000009095
 30
0.0
 42
0.2596812337301571
  0
VERTEX
  5
1887
  8
SAPA_PROFIL
 10
17.058647240786389
 20
0.0946931952476007
 30
0.0
  0
VERTEX
  5
1888
  8
SAPA_PROFIL
 10
17.955046218028759
 20
1.5420397928714911
 30
0.0
 42
0.5877032589248628
  0
VERTEX
  5
1889
  8
SAPA_PROFIL
 10
17.700000000718649
 20
1.9999999999990901
 30
0.0
  0
VERTEX
  5
188A
  8
SAPA_PROFIL
 10
16.300000000718558
 20
1.9999999999990901
 30
0.0
 42
-0.4142135623730951
  0
VERTEX
  5
188B
  8
SAPA_PROFIL
 10
16.000000000718611
 20
2.299999999999272
 30
0.0
  0
VERTEX
  5
188C
  8
SAPA_PROFIL
 10
16.000000000718611
 20
4.6999999999993634
 30
0.0
 42
-0.4142135623730397
  0
VERTEX
  5
188D
  8
SAPA_PROFIL
 10
16.300000000718558
 20
4.9999999999990896
 30
0.0
  0
VERTEX
  5
188E
  8
SAPA_PROFIL
 10
25.900000000718471
 20
4.9999999999990941
 30
0.0
 42
-0.4142135623731437
  0
VERTEX
  5
188F
  8
SAPA_PROFIL
 10
26.200000000718649
 20
4.699999999999366
 30
0.0
  0
VERTEX
  5
1890
  8
SAPA_PROFIL
 10
26.200000000718649
 20
0.2999999999992759
 30
0.0
 42
0.4142135623730119
  0
VERTEX
  5
1891
  8
SAPA_PROFIL
 10
26.500000000718611
 20
-0.0000000000009059
 30
0.0
  0
VERTEX
  5
1892
  8
SAPA_PROFIL
 10
27.98408806607187
 20
-0.0000000000009059
 30
0.0
 42
0.2596812337301531
  0
VERTEX
  5
1893
  8
SAPA_PROFIL
 10
28.154118877611939
 20
0.0946931952476042
 30
0.0
  0
VERTEX
  5
1894
  8
SAPA_PROFIL
 10
28.555046222163689
 20
0.7420397928717684
 30
0.0
 42
0.5877032589250223
  0
VERTEX
  5
1895
  8
SAPA_PROFIL
 10
28.30000000485358
 20
1.199999999999366
 30
0.0
  0
VERTEX
  5
1896
  8
SAPA_PROFIL
 10
27.900000000718471
 20
1.199999999999366
 30
0.0
 42
-0.4142135623731229
  0
VERTEX
  5
1897
  8
SAPA_PROFIL
 10
27.60000000071852
 20
1.4999999999990941
 30
0.0
  0
VERTEX
  5
1898
  8
SAPA_PROFIL
 10
27.60000000071852
 20
4.699999999999366
 30
0.0
 42
-0.4142135623730744
  0
VERTEX
  5
1899
  8
SAPA_PROFIL
 10
27.900000000718698
 20
4.9999999999990941
 30
0.0
  0
VERTEX
  5
189A
  8
SAPA_PROFIL
 10
33.73417878710859
 20
4.9999999999990941
 30
0.0
 42
-0.4683749459848296
  0
VERTEX
  5
189B
  8
SAPA_PROFIL
 10
34.000000000718607
 20
4.699999999999366
 30
0.0
  0
VERTEX
  5
189C
  8
SAPA_PROFIL
 10
34.000000000718607
 20
2.2999999999992751
 30
0.0
 42
-0.4683749459842226
  0
VERTEX
  5
189D
  8
SAPA_PROFIL
 10
33.734178787109038
 20
1.9999999999990941
 30
0.0
  0
VERTEX
  5
189E
  8
SAPA_PROFIL
 10
32.300000000718562
 20
1.9999999999990941
 30
0.0
 42
0.5877032589248341
  0
VERTEX
  5
189F
  8
SAPA_PROFIL
 10
32.04495378340868
 20
1.5420397928714951
 30
0.0
  0
VERTEX
  5
18A0
  8
SAPA_PROFIL
 10
32.817484852478053
 20
0.2946931952474223
 30
0.0
 42
0.2596812337301256
  0
VERTEX
  5
18A1
  8
SAPA_PROFIL
 10
32.987515664018133
 20
0.1999999999993669
 30
0.0
  0
VERTEX
  5
18A2
  8
SAPA_PROFIL
 10
35.999999997526508
 20
0.1999999999993704
 30
0.0
  0
VERTEX
  5
18A3
  8
SAPA_PROFIL
 10
37.282085913055759
 20
0.6947262543667492
 30
0.0
 42
-0.4580511809929225
  0
VERTEX
  5
18A4
  8
SAPA_PROFIL
 10
37.697466295604613
 20
0.5106585387138765
 30
0.0
  0
VERTEX
  5
18A5
  8
SAPA_PROFIL
 10
37.711984704851943
 20
0.4628127887153895
 30
0.0
  0
VERTEX
  5
18A6
  8
SAPA_PROFIL
 10
39.21634251966281
 20
0.4627291109277465
 30
0.0
 42
0.4757248385987927
  0
VERTEX
  5
18A7
  8
SAPA_PROFIL
 10
39.517338610120412
 20
0.8343860557779478
 30
0.0
  0
VERTEX
  5
18A8
  8
SAPA_PROFIL
 10
39.135892013992702
 20
2.6476165264357472
 30
0.0
 42
0.2350054070139662
  0
VERTEX
  5
18A9
  8
SAPA_PROFIL
 10
38.693911221270461
 20
3.206665443318804
 30
0.0
 42
-0.0011882050612086
  0
VERTEX
  5
18AA
  8
SAPA_PROFIL
 10
38.695268898953252
 20
3.2071010348595399
 30
0.0
  0
VERTEX
  5
18AB
  8
SAPA_PROFIL
 10
38.445400825606271
 20
3.34063026902141
 30
0.0
 42
0.5773502691894064
  0
VERTEX
  5
18AC
  8
SAPA_PROFIL
 10
38.151244525351892
 20
3.1576765289110038
 30
0.0
  0
VERTEX
  5
18AD
  8
SAPA_PROFIL
 10
38.161805891578403
 20
2.8359188006929861
 30
0.0
  0
VERTEX
  5
18AE
  8
SAPA_PROFIL
 10
36.275962199717348
 20
1.7513543537215881
 30
0.0
  0
VERTEX
  5
18AF
  8
SAPA_PROFIL
 10
36.104408153093452
 20
1.6992976536594211
 30
0.0
 42
-0.8292414158586378
  0
VERTEX
  5
18B0
  8
SAPA_PROFIL
 10
35.908274864562017
 20
2.0312932866786531
 30
0.0
 42
0.2036002236713389
  0
VERTEX
  5
18B1
  8
SAPA_PROFIL
 10
35.999999997526281
 20
2.247213595499495
 30
0.0
  0
VERTEX
  5
18B2
  8
SAPA_PROFIL
 10
35.999999997526281
 20
6.0999999999990058
 30
0.0
 42
-0.41421356237306
  0
VERTEX
  5
18B3
  8
SAPA_PROFIL
 10
36.299999997526228
 20
6.3999999999991877
 30
0.0
  0
VERTEX
  5
18B4
  8
SAPA_PROFIL
 10
36.599999997526417
 20
6.3999999999991877
 30
0.0
  0
VERTEX
  5
18B5
  8
SAPA_PROFIL
 10
38.199999997526326
 20
5.4762395692960188
 30
0.0
 42
0.5773502691895401
  0
VERTEX
  5
18B6
  8
SAPA_PROFIL
 10
38.499999997526281
 20
5.6494446500528346
 30
0.0
  0
VERTEX
  5
18B7
  8
SAPA_PROFIL
 10
38.499999997526281
 20
7.0350852961078161
 30
0.0
 42
0.2679491924311281
  0
VERTEX
  5
18B8
  8
SAPA_PROFIL
 10
37.999999997526281
 20
7.9011106998923486
 30
0.0
  0
VERTEX
  5
18B9
  8
SAPA_PROFIL
 10
36.249999997526047
 20
8.9114736709743791
 30
0.0
 42
-0.26794919243099
  0
VERTEX
  5
18BA
  8
SAPA_PROFIL
 10
35.999999997526508
 20
9.3444863728664203
 30
0.0
  0
VERTEX
  5
18BB
  8
SAPA_PROFIL
 10
35.999999997526501
 20
20.655513627131771
 30
0.0
 42
-0.2679491924310374
  0
VERTEX
  5
18BC
  8
SAPA_PROFIL
 10
36.249999997526281
 20
21.088526329023811
 30
0.0
  0
VERTEX
  5
18BD
  8
SAPA_PROFIL
 10
37.999999997526729
 20
22.0988893001063
 30
0.0
 42
0.267949192431151
  0
VERTEX
  5
18BE
  8
SAPA_PROFIL
 10
38.499999997526729
 20
22.96491470389083
 30
0.0
  0
VERTEX
  5
18BF
  8
SAPA_PROFIL
 10
38.499999997526501
 20
24.350555349946269
 30
0.0
 42
0.5773502691897736
  0
VERTEX
  5
18C0
  8
SAPA_PROFIL
 10
38.199999997526547
 20
24.523760430703089
 30
0.0
  0
VERTEX
  5
18C1
  8
SAPA_PROFIL
 10
36.599999997526638
 20
23.599999999999461
 30
0.0
  0
VERTEX
  5
18C2
  8
SAPA_PROFIL
 10
36.299999997526683
 20
23.599999999999461
 30
0.0
 42
-0.4142135623731708
  0
VERTEX
  5
18C3
  8
SAPA_PROFIL
 10
35.999999997526501
 20
23.89999999999965
 30
0.0
  0
VERTEX
  5
18C4
  8
SAPA_PROFIL
 10
35.999999997526501
 20
27.752786404499609
 30
0.0
 42
0.2036002236725054
  0
VERTEX
  5
18C5
  8
SAPA_PROFIL
 10
35.908274864561562
 20
27.968706713320898
 30
0.0
 42
-0.8292414158560874
  0
VERTEX
  5
18C6
  8
SAPA_PROFIL
 10
36.104408153094361
 20
28.300702346339229
 30
0.0
  0
VERTEX
  5
18C7
  8
SAPA_PROFIL
 10
36.275962199717803
 20
28.24864564627752
 30
0.0
  0
VERTEX
  5
18C8
  8
SAPA_PROFIL
 10
38.161805891578851
 20
27.164081199305659
 30
0.0
  0
VERTEX
  5
18C9
  8
SAPA_PROFIL
 10
38.151244525352112
 20
26.842323471087649
 30
0.0
 42
0.5773502691895062
  0
VERTEX
  5
18CA
  8
SAPA_PROFIL
 10
38.445400825606711
 20
26.659369730977239
 30
0.0
  0
VERTEX
  5
18CB
  8
SAPA_PROFIL
 10
38.730083108838109
 20
26.811503642085889
 30
0.0
 42
0.2216946626431207
  0
VERTEX
  5
18CC
  8
SAPA_PROFIL
 10
39.135892013993143
 20
27.352383473562899
 30
0.0
  0
VERTEX
  5
18CD
  8
SAPA_PROFIL
 10
39.517338610120859
 20
29.16561394422116
 30
0.0
 42
0.4757248385934992
  0
VERTEX
  5
18CE
  8
SAPA_PROFIL
 10
39.216342519668487
 20
29.5372708890709
 30
0.0
  0
VERTEX
  5
18CF
  8
SAPA_PROFIL
 10
37.711984704852377
 20
29.537187211283261
 30
0.0
  0
VERTEX
  5
18D0
  8
SAPA_PROFIL
 10
37.697466295605047
 20
29.489341461284781
 30
0.0
 42
-0.4580511809929313
  0
VERTEX
  5
18D1
  8
SAPA_PROFIL
 10
37.28208591305598
 20
29.305273745631901
 30
0.0
  0
VERTEX
  5
18D2
  8
SAPA_PROFIL
 10
35.999999997527183
 20
29.79999999999928
 30
0.0
  0
VERTEX
  5
18D3
  8
SAPA_PROFIL
 10
32.987515664018353
 20
29.79999999999928
 30
0.0
 42
0.2596812337301257
  0
VERTEX
  5
18D4
  8
SAPA_PROFIL
 10
32.81748485247828
 20
29.705306804750769
 30
0.0
  0
VERTEX
  5
18D5
  8
SAPA_PROFIL
 10
32.0449537834089
 20
28.457960207127151
 30
0.0
 42
0.5877032589249777
  0
VERTEX
  5
18D6
  8
SAPA_PROFIL
 10
32.30000000071901
 20
27.999999999999101
 30
0.0
  0
VERTEX
  5
18D7
  8
SAPA_PROFIL
 10
33.734178787109258
 20
27.999999999999101
 30
0.0
 42
-0.4683749459842228
  0
VERTEX
  5
18D8
  8
SAPA_PROFIL
 10
34.000000000718828
 20
27.69999999999937
 30
0.0
  0
VERTEX
  5
18D9
  8
SAPA_PROFIL
 10
34.000000000718828
 20
25.29999999999928
 30
0.0
 42
-0.4683749459847173
  0
VERTEX
  5
18DA
  8
SAPA_PROFIL
 10
33.734178787109258
 20
24.999999999999101
 30
0.0
  0
VERTEX
  5
18DB
  8
SAPA_PROFIL
 10
27.900000000718919
 20
24.999999999999101
 30
0.0
  0
VERTEX
  5
18DC
  8
SAPA_PROFIL
 10
25.900000000718929
 20
24.999999999999091
 30
0.0
  0
VERTEX
  5
18DD
  8
SAPA_PROFIL
 10
16.300000000718779
 20
24.999999999999091
 30
0.0
 42
-0.4142135623730951
  0
VERTEX
  5
18DE
  8
SAPA_PROFIL
 10
16.000000000718831
 20
25.299999999999269
 30
0.0
  0
VERTEX
  5
18DF
  8
SAPA_PROFIL
 10
16.000000000718831
 20
27.69999999999936
 30
0.0
 42
-0.4142135623730951
  0
VERTEX
  5
18E0
  8
SAPA_PROFIL
 10
16.300000000718779
 20
27.999999999999091
 30
0.0
  0
VERTEX
  5
18E1
  8
SAPA_PROFIL
 10
17.70000000071888
 20
27.999999999999091
 30
0.0
 42
0.5877032589248341
  0
VERTEX
  5
18E2
  8
SAPA_PROFIL
 10
17.955046218028979
 20
28.457960207127151
 30
0.0
  0
VERTEX
  5
18E3
  8
SAPA_PROFIL
 10
17.05864724078684
 20
29.905306804751032
 30
0.0
 42
0.2596812337300371
  0
VERTEX
  5
18E4
  8
SAPA_PROFIL
 10
16.88861642924677
 20
29.999999999999091
 30
0.0
  0
VERTEX
  5
18E5
  8
SAPA_PROFIL
 10
14.199999997569069
 20
29.999999999999091
 30
0.0
 42
0.414213562404161
  0
VERTEX
  5
18E6
  8
SAPA_PROFIL
 10
13.99999999756902
 20
29.79999999997835
 30
0.0
  0
SEQEND
  5
18E7
  8
SAPA_PROFIL
  0
POLYLINE
  5
1243
  8
SAPA_PROFIL
 66
     1
 10
0.0
 20
0.0
 30
0.0
 70
     1
  0
VERTEX
  5
18E8
  8
SAPA_PROFIL
 10
15.999999997526279
 20
6.6999999999993634
 30
0.0
 42
-0.4142135624878015
  0
VERTEX
  5
18E9
  8
SAPA_PROFIL
 10
15.69999999752633
 20
7.0000000001168701
 30
0.0
  0
VERTEX
  5
18EA
  8
SAPA_PROFIL
 10
15.69999999815297
 20
8.6000000000776708
 30
0.0
 42
-0.4142135622584246
  0
VERTEX
  5
18EB
  8
SAPA_PROFIL
 10
15.89999999815301
 20
8.7999999999992724
 30
0.0
  0
VERTEX
  5
18EC
  8
SAPA_PROFIL
 10
16.09999999831404
 20
8.7999999999992724
 30
0.0
 42
0.4142135622517338
  0
VERTEX
  5
18ED
  8
SAPA_PROFIL
 10
16.299999998314082
 20
8.9999999999163265
 30
0.0
  0
VERTEX
  5
18EE
  8
SAPA_PROFIL
 10
16.299999998977331
 20
10.59999999991623
 30
0.0
 42
0.4142135624945394
  0
VERTEX
  5
18EF
  8
SAPA_PROFIL
 10
16.099999998977289
 20
10.799999999999271
 30
0.0
  0
VERTEX
  5
18F0
  8
SAPA_PROFIL
 10
15.899999997402
 20
10.799999999999271
 30
0.0
 42
-0.4142135623731784
  0
VERTEX
  5
18F1
  8
SAPA_PROFIL
 10
15.69999999740195
 20
10.999999999999091
 30
0.0
  0
VERTEX
  5
18F2
  8
SAPA_PROFIL
 10
15.69999999740218
 20
18.999999999999091
 30
0.0
 42
-0.4142135623730119
  0
VERTEX
  5
18F3
  8
SAPA_PROFIL
 10
15.89999999740199
 20
19.19999999999936
 30
0.0
  0
VERTEX
  5
18F4
  8
SAPA_PROFIL
 10
16.099999998977509
 20
19.19999999999936
 30
0.0
 42
0.4142135624945394
  0
VERTEX
  5
18F5
  8
SAPA_PROFIL
 10
16.299999998977562
 20
19.4000000000824
 30
0.0
  0
VERTEX
  5
18F6
  8
SAPA_PROFIL
 10
16.299999998314309
 20
21.000000000082309
 30
0.0
 42
0.4142135622515674
  0
VERTEX
  5
18F7
  8
SAPA_PROFIL
 10
16.09999999831426
 20
21.19999999999937
 30
0.0
  0
VERTEX
  5
18F8
  8
SAPA_PROFIL
 10
15.89999999815301
 20
21.19999999999937
 30
0.0
 42
-0.4142135622584246
  0
VERTEX
  5
18F9
  8
SAPA_PROFIL
 10
15.699999998152959
 20
21.399999999920968
 30
0.0
  0
VERTEX
  5
18FA
  8
SAPA_PROFIL
 10
15.69999999752655
 20
22.999999999881769
 30
0.0
 42
-0.4142135624878013
  0
VERTEX
  5
18FB
  8
SAPA_PROFIL
 10
15.999999997526499
 20
23.299999999999269
 30
0.0
  0
VERTEX
  5
18FC
  8
SAPA_PROFIL
 10
33.999999997526501
 20
23.29999999999928
 30
0.0
 42
-0.4142135623730765
  0
VERTEX
  5
18FD
  8
SAPA_PROFIL
 10
34.299999997526463
 20
22.999999999999549
 30
0.0
  0
VERTEX
  5
18FE
  8
SAPA_PROFIL
 10
34.299999997526463
 20
21.39999999999965
 30
0.0
 42
-0.4142135623731161
  0
VERTEX
  5
18FF
  8
SAPA_PROFIL
 10
34.09999999752641
 20
21.19999999999937
 30
0.0
  0
VERTEX
  5
1900
  8
SAPA_PROFIL
 10
33.899999997526372
 20
21.19999999999937
 30
0.0
 42
0.414213562373012
  0
VERTEX
  5
1901
  8
SAPA_PROFIL
 10
33.699999997526547
 20
20.999999999999101
 30
0.0
  0
VERTEX
  5
1902
  8
SAPA_PROFIL
 10
33.699999997526547
 20
19.399999999999189
 30
0.0
 42
0.4142135623729909
  0
VERTEX
  5
1903
  8
SAPA_PROFIL
 10
33.899999997526372
 20
19.19999999999937
 30
0.0
  0
VERTEX
  5
1904
  8
SAPA_PROFIL
 10
34.099999997526638
 20
19.19999999999937
 30
0.0
 42
-0.4142135623730743
  0
VERTEX
  5
1905
  8
SAPA_PROFIL
 10
34.299999997526463
 20
18.999999999999091
 30
0.0
  0
VERTEX
  5
1906
  8
SAPA_PROFIL
 10
34.299999997526463
 20
10.999999999999091
 30
0.0
 42
-0.4142135623730743
  0
VERTEX
  5
1907
  8
SAPA_PROFIL
 10
34.099999997526652
 20
10.79999999999928
 30
0.0
  0
VERTEX
  5
1908
  8
SAPA_PROFIL
 10
33.899999997526372
 20
10.79999999999928
 30
0.0
 42
0.4142135623731574
  0
VERTEX
  5
1909
  8
SAPA_PROFIL
 10
33.699999997526326
 20
10.59999999999946
 30
0.0
  0
VERTEX
  5
190A
  8
SAPA_PROFIL
 10
33.699999997526326
 20
8.9999999999990976
 30
0.0
 42
0.4142135623731784
  0
VERTEX
  5
190B
  8
SAPA_PROFIL
 10
33.899999997526372
 20
8.7999999999992795
 30
0.0
  0
VERTEX
  5
190C
  8
SAPA_PROFIL
 10
34.099999997526417
 20
8.7999999999992795
 30
0.0
 42
-0.4142135623731159
  0
VERTEX
  5
190D
  8
SAPA_PROFIL
 10
34.299999997526463
 20
8.5999999999994614
 30
0.0
  0
VERTEX
  5
190E
  8
SAPA_PROFIL
 10
34.299999997526243
 20
6.9999999999990941
 30
0.0
 42
-0.4142135623730764
  0
VERTEX
  5
190F
  8
SAPA_PROFIL
 10
33.999999997526281
 20
6.699999999999366
 30
0.0
  0
SEQEND
  5
1910
  8
SAPA_PROFIL
  0
POLYLINE
  5
1244
  8
SAPA_PROFIL
 66
     1
 10
0.0
 20
0.0
 30
0.0
 70
     1
  0
VERTEX
  5
1911
  8
SAPA_PROFIL
 10
86.299999997735867
 20
10.999999999999099
 30
0.0
 42
-0.4142135623731784
  0
VERTEX
  5
1912
  8
SAPA_PROFIL
 10
86.099999997735836
 20
10.79999999999929
 30
0.0
  0
VERTEX
  5
1913
  8
SAPA_PROFIL
 10
85.899999996160517
 20
10.79999999999929
 30
0.0
 42
0.4142135624945394
  0
VERTEX
  5
1914
  8
SAPA_PROFIL
 10
85.699999996160486
 20
10.59999999991625
 30
0.0
  0
VERTEX
  5
1915
  8
SAPA_PROFIL
 10
85.699999996823735
 20
8.9999999999163407
 30
0.0
 42
0.4142135622517339
  0
VERTEX
  5
1916
  8
SAPA_PROFIL
 10
85.89999999682378
 20
8.7999999999992866
 30
0.0
  0
VERTEX
  5
1917
  8
SAPA_PROFIL
 10
86.099999996985034
 20
8.7999999999992866
 30
0.0
 42
-0.4142135622584246
  0
VERTEX
  5
1918
  8
SAPA_PROFIL
 10
86.299999996985079
 20
8.6000000000776851
 30
0.0
  0
VERTEX
  5
1919
  8
SAPA_PROFIL
 10
86.299999997611508
 20
7.0000000001168869
 30
0.0
 42
-0.4142135624878013
  0
VERTEX
  5
191A
  8
SAPA_PROFIL
 10
85.999999997611553
 20
6.6999999999993811
 30
0.0
  0
VERTEX
  5
191B
  8
SAPA_PROFIL
 10
67.999999997611553
 20
6.6999999999993767
 30
0.0
 42
-0.4142135623730765
  0
VERTEX
  5
191C
  8
SAPA_PROFIL
 10
67.699999997611599
 20
6.9999999999991038
 30
0.0
  0
VERTEX
  5
191D
  8
SAPA_PROFIL
 10
67.699999997611599
 20
8.5999999999994685
 30
0.0
 42
-0.4142135623731161
  0
VERTEX
  5
191E
  8
SAPA_PROFIL
 10
67.899999997611644
 20
8.7999999999992866
 30
0.0
  0
VERTEX
  5
191F
  8
SAPA_PROFIL
 10
68.099999997611462
 20
8.7999999999992866
 30
0.0
 42
0.4142135623731784
  0
VERTEX
  5
1920
  8
SAPA_PROFIL
 10
68.299999997611508
 20
8.9999999999991047
 30
0.0
  0
VERTEX
  5
1921
  8
SAPA_PROFIL
 10
68.299999997611508
 20
10.59999999999947
 30
0.0
 42
0.4142135623731574
  0
VERTEX
  5
1922
  8
SAPA_PROFIL
 10
68.099999997611462
 20
10.79999999999929
 30
0.0
  0
VERTEX
  5
1923
  8
SAPA_PROFIL
 10
67.899999997611417
 20
10.79999999999929
 30
0.0
 42
-0.4142135623729078
  0
VERTEX
  5
1924
  8
SAPA_PROFIL
 10
67.699999997611599
 20
10.999999999999099
 30
0.0
  0
VERTEX
  5
1925
  8
SAPA_PROFIL
 10
67.699999997611599
 20
18.999999999999101
 30
0.0
 42
-0.4142135623730743
  0
VERTEX
  5
1926
  8
SAPA_PROFIL
 10
67.899999997611417
 20
19.19999999999937
 30
0.0
  0
VERTEX
  5
1927
  8
SAPA_PROFIL
 10
68.09999999761169
 20
19.19999999999937
 30
0.0
 42
0.4142135623729909
  0
VERTEX
  5
1928
  8
SAPA_PROFIL
 10
68.299999997611735
 20
19.399999999999189
 30
0.0
  0
VERTEX
  5
1929
  8
SAPA_PROFIL
 10
68.299999997611735
 20
20.999999999999101
 30
0.0
 42
0.4142135623730119
  0
VERTEX
  5
192A
  8
SAPA_PROFIL
 10
68.09999999761169
 20
21.199999999999381
 30
0.0
  0
VERTEX
  5
192B
  8
SAPA_PROFIL
 10
67.899999997611644
 20
21.199999999999381
 30
0.0
 42
-0.4142135623731159
  0
VERTEX
  5
192C
  8
SAPA_PROFIL
 10
67.699999997611599
 20
21.39999999999965
 30
0.0
  0
VERTEX
  5
192D
  8
SAPA_PROFIL
 10
67.699999997611826
 20
22.999999999999559
 30
0.0
 42
-0.4142135623730764
  0
VERTEX
  5
192E
  8
SAPA_PROFIL
 10
67.999999997611781
 20
23.29999999999929
 30
0.0
  0
VERTEX
  5
192F
  8
SAPA_PROFIL
 10
85.999999997611766
 20
23.29999999999929
 30
0.0
 42
-0.4142135624878015
  0
VERTEX
  5
1930
  8
SAPA_PROFIL
 10
86.299999997611735
 20
22.99999999988178
 30
0.0
  0
VERTEX
  5
1931
  8
SAPA_PROFIL
 10
86.299999996985079
 20
21.399999999920979
 30
0.0
 42
-0.4142135622584246
  0
VERTEX
  5
1932
  8
SAPA_PROFIL
 10
86.099999996985034
 20
21.199999999999381
 30
0.0
  0
VERTEX
  5
1933
  8
SAPA_PROFIL
 10
85.89999999682378
 20
21.199999999999381
 30
0.0
 42
0.4142135622515673
  0
VERTEX
  5
1934
  8
SAPA_PROFIL
 10
85.699999996823962
 20
21.000000000082331
 30
0.0
  0
VERTEX
  5
1935
  8
SAPA_PROFIL
 10
85.699999996160699
 20
19.400000000082411
 30
0.0
 42
0.4142135624945394
  0
VERTEX
  5
1936
  8
SAPA_PROFIL
 10
85.899999996160744
 20
19.19999999999937
 30
0.0
  0
VERTEX
  5
1937
  8
SAPA_PROFIL
 10
86.099999997736035
 20
19.19999999999937
 30
0.0
 42
-0.4142135623728455
  0
VERTEX
  5
1938
  8
SAPA_PROFIL
 10
86.299999997735867
 20
18.999999999999101
 30
0.0
  0
SEQEND
  5
1939
  8
SAPA_PROFIL
  0
POLYLINE
  5
1245
  8
SAPA_PROFIL
 66
     1
 10
0.0
 20
0.0
 30
0.0
 70
     1
  0
VERTEX
  5
193A
  8
SAPA_PROFIL
 10
65.999999997611781
 20
9.3444863728664274
 30
0.0
 42
-0.267949192431007
  0
VERTEX
  5
193B
  8
SAPA_PROFIL
 10
65.749999997611781
 20
8.911473670974388
 30
0.0
  0
VERTEX
  5
193C
  8
SAPA_PROFIL
 10
63.999999997611312
 20
7.901110699892353
 30
0.0
 42
0.2679491924311281
  0
VERTEX
  5
193D
  8
SAPA_PROFIL
 10
63.499999997611319
 20
7.0350852961078187
 30
0.0
  0
VERTEX
  5
193E
  8
SAPA_PROFIL
 10
63.499999997611553
 20
5.649444650052839
 30
0.0
 42
0.57735026918954
  0
VERTEX
  5
193F
  8
SAPA_PROFIL
 10
63.799999997611501
 20
5.4762395692960233
 30
0.0
  0
VERTEX
  5
1940
  8
SAPA_PROFIL
 10
65.399999997611189
 20
6.3999999999991921
 30
0.0
  0
VERTEX
  5
1941
  8
SAPA_PROFIL
 10
65.699999997611371
 20
6.3999999999991921
 30
0.0
 42
-0.41421356237306
  0
VERTEX
  5
1942
  8
SAPA_PROFIL
 10
65.999999997611553
 20
6.0999999999990102
 30
0.0
  0
VERTEX
  5
1943
  8
SAPA_PROFIL
 10
65.999999997611553
 20
2.2472135954994981
 30
0.0
 42
0.2036002236709541
  0
VERTEX
  5
1944
  8
SAPA_PROFIL
 10
66.091725130575355
 20
2.0312932866791118
 30
0.0
 42
-0.8292414158604859
  0
VERTEX
  5
1945
  8
SAPA_PROFIL
 10
65.895591842043927
 20
1.699297653659424
 30
0.0
  0
VERTEX
  5
1946
  8
SAPA_PROFIL
 10
65.724037795420031
 20
1.751354353721136
 30
0.0
  0
VERTEX
  5
1947
  8
SAPA_PROFIL
 10
63.838194103559189
 20
2.8359188006929901
 30
0.0
  0
VERTEX
  5
1948
  8
SAPA_PROFIL
 10
63.848755469785942
 20
3.1576765289110069
 30
0.0
 42
0.5773502691894565
  0
VERTEX
  5
1949
  8
SAPA_PROFIL
 10
63.554599169531329
 20
3.340630269021414
 30
0.0
  0
VERTEX
  5
194A
  8
SAPA_PROFIL
 10
63.269916886300159
 20
3.1884963579132188
 30
0.0
 42
0.2216946626431577
  0
VERTEX
  5
194B
  8
SAPA_PROFIL
 10
62.864107981144898
 20
2.6476165264357512
 30
0.0
  0
VERTEX
  5
194C
  8
SAPA_PROFIL
 10
62.482661385017188
 20
0.8343860557779514
 30
0.0
 42
0.4757248385987928
  0
VERTEX
  5
194D
  8
SAPA_PROFIL
 10
62.783657475475017
 20
0.4627291109277501
 30
0.0
  0
VERTEX
  5
194E
  8
SAPA_PROFIL
 10
64.288015290285671
 20
0.462812788715393
 30
0.0
  0
VERTEX
  5
194F
  8
SAPA_PROFIL
 10
64.302533699533001
 20
0.51065853871388
 30
0.0
 42
-0.4580511809928869
  0
VERTEX
  5
1950
  8
SAPA_PROFIL
 10
64.717914082082075
 20
0.6947262543667528
 30
0.0
  0
VERTEX
  5
1951
  8
SAPA_PROFIL
 10
65.999999997611326
 20
0.199999999999374
 30
0.0
  0
VERTEX
  5
1952
  8
SAPA_PROFIL
 10
69.012484331119708
 20
0.1999999999993776
 30
0.0
 42
0.2596812337301257
  0
VERTEX
  5
1953
  8
SAPA_PROFIL
 10
69.182515142659781
 20
0.294693195247433
 30
0.0
  0
VERTEX
  5
1954
  8
SAPA_PROFIL
 10
69.955046211729382
 20
1.5420397928715059
 30
0.0
 42
0.5877032589249617
  0
VERTEX
  5
1955
  8
SAPA_PROFIL
 10
69.699999994419272
 20
1.9999999999991041
 30
0.0
  0
VERTEX
  5
1956
  8
SAPA_PROFIL
 10
68.265821208028797
 20
1.9999999999991041
 30
0.0
 42
-0.4683749459842228
  0
VERTEX
  5
1957
  8
SAPA_PROFIL
 10
67.999999994419227
 20
2.2999999999992862
 30
0.0
  0
VERTEX
  5
1958
  8
SAPA_PROFIL
 10
67.999999994419454
 20
4.6999999999989219
 30
0.0
 42
-0.4683749459847173
  0
VERTEX
  5
1959
  8
SAPA_PROFIL
 10
68.265821208029024
 20
4.9999999999991038
 30
0.0
  0
VERTEX
  5
195A
  8
SAPA_PROFIL
 10
74.099999994419363
 20
4.9999999999991038
 30
0.0
  0
VERTEX
  5
195B
  8
SAPA_PROFIL
 10
76.099999994419363
 20
4.9999999999991038
 30
0.0
  0
VERTEX
  5
195C
  8
SAPA_PROFIL
 10
85.699999994419272
 20
4.9999999999991083
 30
0.0
 42
-0.4142135623730951
  0
VERTEX
  5
195D
  8
SAPA_PROFIL
 10
85.999999994419227
 20
4.6999999999993811
 30
0.0
  0
VERTEX
  5
195E
  8
SAPA_PROFIL
 10
85.999999994419227
 20
2.2999999999992902
 30
0.0
 42
-0.4142135623730951
  0
VERTEX
  5
195F
  8
SAPA_PROFIL
 10
85.699999994419272
 20
1.999999999999108
 30
0.0
  0
VERTEX
  5
1960
  8
SAPA_PROFIL
 10
84.299999994419181
 20
1.999999999999108
 30
0.0
 42
0.5877032589248625
  0
VERTEX
  5
1961
  8
SAPA_PROFIL
 10
84.044953777109285
 20
1.5420397928715091
 30
0.0
  0
VERTEX
  5
1962
  8
SAPA_PROFIL
 10
84.941352754351442
 20
0.0946931952476185
 30
0.0
 42
0.2596812337300832
  0
VERTEX
  5
1963
  8
SAPA_PROFIL
 10
85.111383565891515
 20
-0.0000000000008917
 30
0.0
  0
VERTEX
  5
1964
  8
SAPA_PROFIL
 10
87.799999997568989
 20
-0.0000000000008917
 30
0.0
 42
0.4142135623731107
  0
VERTEX
  5
1965
  8
SAPA_PROFIL
 10
87.999999997569034
 20
0.1999999999993811
 30
0.0
  0
VERTEX
  5
1966
  8
SAPA_PROFIL
 10
87.99999999756902
 20
29.79999999999929
 30
0.0
 42
0.4142135623730273
  0
VERTEX
  5
1967
  8
SAPA_PROFIL
 10
87.799999997568975
 20
29.999999999999108
 30
0.0
  0
VERTEX
  5
1968
  8
SAPA_PROFIL
 10
85.111383565891259
 20
29.999999999999108
 30
0.0
 42
0.2596812337302099
  0
VERTEX
  5
1969
  8
SAPA_PROFIL
 10
84.9413527543512
 20
29.905306804751049
 30
0.0
  0
VERTEX
  5
196A
  8
SAPA_PROFIL
 10
84.044953777109058
 20
28.457960207127162
 30
0.0
 42
0.5877032589250762
  0
VERTEX
  5
196B
  8
SAPA_PROFIL
 10
84.299999994419153
 20
27.999999999999108
 30
0.0
  0
VERTEX
  5
196C
  8
SAPA_PROFIL
 10
85.699999994419244
 20
27.999999999999108
 30
0.0
 42
-0.4142135623730951
  0
VERTEX
  5
196D
  8
SAPA_PROFIL
 10
85.999999994419213
 20
27.699999999999381
 30
0.0
  0
VERTEX
  5
196E
  8
SAPA_PROFIL
 10
85.999999994419213
 20
25.29999999999929
 30
0.0
 42
-0.4142135623730951
  0
VERTEX
  5
196F
  8
SAPA_PROFIL
 10
85.699999994419244
 20
24.999999999999108
 30
0.0
  0
VERTEX
  5
1970
  8
SAPA_PROFIL
 10
76.099999994419122
 20
24.999999999999108
 30
0.0
  0
VERTEX
  5
1971
  8
SAPA_PROFIL
 10
74.099999994419122
 20
24.999999999999108
 30
0.0
  0
VERTEX
  5
1972
  8
SAPA_PROFIL
 10
68.265821208029465
 20
24.999999999999108
 30
0.0
 42
-0.4683749459843959
  0
VERTEX
  5
1973
  8
SAPA_PROFIL
 10
67.999999994419213
 20
25.299999999998828
 30
0.0
  0
VERTEX
  5
1974
  8
SAPA_PROFIL
 10
67.999999994419213
 20
27.699999999999381
 30
0.0
 42
-0.4683749459842226
  0
VERTEX
  5
1975
  8
SAPA_PROFIL
 10
68.265821208028783
 20
27.999999999999108
 30
0.0
  0
VERTEX
  5
1976
  8
SAPA_PROFIL
 10
69.699999994419031
 20
27.999999999999108
 30
0.0
 42
0.5877032589249771
  0
VERTEX
  5
1977
  8
SAPA_PROFIL
 10
69.95504621172914
 20
28.457960207127162
 30
0.0
  0
VERTEX
  5
1978
  8
SAPA_PROFIL
 10
69.182515142659767
 20
29.70530680475078
 30
0.0
 42
0.2596812337301256
  0
VERTEX
  5
1979
  8
SAPA_PROFIL
 10
69.012484331119694
 20
29.79999999999929
 30
0.0
  0
VERTEX
  5
197A
  8
SAPA_PROFIL
 10
65.999999997611312
 20
29.79999999999929
 30
0.0
  0
VERTEX
  5
197B
  8
SAPA_PROFIL
 10
64.717914082082288
 20
29.305273745631911
 30
0.0
 42
-0.4580511809929225
  0
VERTEX
  5
197C
  8
SAPA_PROFIL
 10
64.302533699533441
 20
29.489341461284781
 30
0.0
  0
VERTEX
  5
197D
  8
SAPA_PROFIL
 10
64.288015290285884
 20
29.537187211283271
 30
0.0
  0
VERTEX
  5
197E
  8
SAPA_PROFIL
 10
62.783657475469781
 20
29.537270889070911
 30
0.0
 42
0.4757248385933691
  0
VERTEX
  5
197F
  8
SAPA_PROFIL
 10
62.482661385017629
 20
29.16561394422116
 30
0.0
  0
VERTEX
  5
1980
  8
SAPA_PROFIL
 10
62.864107981145132
 20
27.352383473562909
 30
0.0
 42
0.2350054070140314
  0
VERTEX
  5
1981
  8
SAPA_PROFIL
 10
63.306088773867579
 20
26.793334556679849
 30
0.0
 42
-0.0011882050611145
  0
VERTEX
  5
1982
  8
SAPA_PROFIL
 10
63.304731096185023
 20
26.79289896513912
 30
0.0
  0
VERTEX
  5
1983
  8
SAPA_PROFIL
 10
63.554599169531549
 20
26.65936973097725
 30
0.0
 42
0.5773502691894562
  0
VERTEX
  5
1984
  8
SAPA_PROFIL
 10
63.848755469786163
 20
26.842323471087202
 30
0.0
  0
VERTEX
  5
1985
  8
SAPA_PROFIL
 10
63.838194103559417
 20
27.16408119930567
 30
0.0
  0
VERTEX
  5
1986
  8
SAPA_PROFIL
 10
65.724037795420699
 20
28.24864564627752
 30
0.0
  0
VERTEX
  5
1987
  8
SAPA_PROFIL
 10
65.895591842044141
 20
28.300702346339239
 30
0.0
 42
-0.8292414158590609
  0
VERTEX
  5
1988
  8
SAPA_PROFIL
 10
66.091725130576023
 20
27.968706713320461
 30
0.0
 42
0.2036002236714843
  0
VERTEX
  5
1989
  8
SAPA_PROFIL
 10
65.999999997611766
 20
27.75278640449962
 30
0.0
  0
VERTEX
  5
198A
  8
SAPA_PROFIL
 10
65.999999997611781
 20
23.89999999999965
 30
0.0
 42
-0.4142135623731708
  0
VERTEX
  5
198B
  8
SAPA_PROFIL
 10
65.699999997611599
 20
23.599999999999469
 30
0.0
  0
VERTEX
  5
198C
  8
SAPA_PROFIL
 10
65.399999997611417
 20
23.599999999999469
 30
0.0
  0
VERTEX
  5
198D
  8
SAPA_PROFIL
 10
63.799999997611948
 20
24.523760430703089
 30
0.0
 42
0.5773502691897499
  0
VERTEX
  5
198E
  8
SAPA_PROFIL
 10
63.499999997611773
 20
24.35055534994628
 30
0.0
  0
VERTEX
  5
198F
  8
SAPA_PROFIL
 10
63.499999997611553
 20
22.964914703890841
 30
0.0
 42
0.2679491924311548
  0
VERTEX
  5
1990
  8
SAPA_PROFIL
 10
63.999999997611539
 20
22.098889300106311
 30
0.0
  0
VERTEX
  5
1991
  8
SAPA_PROFIL
 10
65.749999997611781
 20
21.088526329024269
 30
0.0
 42
-0.2679491924310984
  0
VERTEX
  5
1992
  8
SAPA_PROFIL
 10
65.999999997611781
 20
20.655513627131779
 30
0.0
  0
SEQEND
  5
1993
  8
SAPA_PROFIL
  0
INSERT
  5
124B
  8
SAPA_ISOLATOR
  6
CONTINUOUS
  2
*X48
 10
0.0
 20
0.0
 30
0.0
1001
ACAD
1000
HATCH
1002
{
1070
    19
1000
ANSI31
1040
10.0
1040
5.4977871437821371
1000
R14_HATCH_DATA
1000
124B
1011
1.0
1021
0.0
1031
0.0
1021
0.0
1031
0.0
1011
0.0
1021
0.0
1031
0.0
1021
1.0
1031
0.0
1011
0.0
1021
0.0
1031
0.0
1021
0.0
1031
1.0
1040
0.0
1010
0.0
1020
0.0
1030
1.0
1000
ANSI31
1070
     0
1070
     0
1071
        2
1071
        1
1071
       42
1070
     3
1040
40.396713997646103
1040
0.7051223668025202
1040
0.2828427124745531
1040
0.2828427124745531
1040
0.9999999999999925
1040
2.7262370304854988
1040
3.9269908169871912
1070
     1
1070
     1
1040
40.396713997646081
1040
0.3051223668026139
1040
50.999999997563798
1040
0.3051223668026139
1070
     1
1040
50.999999997563798
1040
0.3051223668026139
1040
61.603285997491518
1040
0.3051223668026175
1070
     3
1040
61.60328599749149
1040
0.705122366802538
1040
-0.282842712474562
1040
0.282842712474562
1040
0.9999999999999962
1040
2.3561944901924141
1040
3.5569482766940581
1070
     1
1070
     1
1040
61.976210782105788
1040
0.5604603295560189
1040
62.934067588235038
1040
3.0297228252043271
1070
     3
1040
63.21376099754432
1040
2.921226366764472
1040
-0.2121318984795039
1040
0.2121318984795039
1040
0.9999999999999989
1040
5.8678296840752644
1040
7.3729935173778669
1070
     0
1070
     1
1040
63.303680059325522
1040
3.207433367086661
1040
63.543863124107808
1040
3.346103124193188
1070
     3
1040
63.648863124107557
1040
3.1642377893982241
1040
-0.1484924240492271
1040
0.1484924240492271
1040
0.9999999999999985
1040
0.2617993878007391
1040
2.356194490192614
1070
     0
1070
     1
1040
63.858863124107643
1040
3.1642377893981681
1040
63.858863124107643
1040
2.8971232611857078
1070
     1
1040
63.858863124107643
1040
2.8971232611857078
1040
65.239999997524464
1040
2.105122366717306
1070
     1
1040
65.239999997524464
1040
2.105122366717306
1040
65.589999997524146
1040
2.1051223667082111
1070
     3
1040
65.589999997533766
1040
2.5051223667084588
1040
0.2828427124748035
1040
0.2828427124748035
1040
0.9999999999999676
1040
3.926990816963241
1040
5.4977871437589929
1070
     1
1070
     1
1040
65.989999997534014
1040
2.5051223666992071
1040
65.989999997613836
1040
5.905122366699298
1070
     3
1040
65.589999997613944
1040
5.905122366708607
1040
0.2828427124745385
1040
0.2828427124745385
1040
0.9999999999999935
1040
5.4977871437588641
1040
7.0685834705542288
1070
     1
1070
     1
1040
65.589999997623053
1040
6.3051223667084839
1040
65.245222046091953
1040
6.2959864454233063
1070
     1
1040
65.245222046091953
1040
6.2959864454233063
1040
63.602968599513922
1040
5.3572823104532388
1070
     3
1040
62.985182885641649
1040
6.5343994262084273
1040
-0.9400169925241968
1040
0.9400169925241968
1040
0.999999999999988
1040
3.443677533679609
1040
3.939721193763194
1070
     0
1070
     1
1040
62.968259773624929
1040
5.2051223667704214
1040
62.317415997597081
1040
5.2051223667858819
1070
     3
1040
62.317415997574017
1040
4.2051223667858286
1040
-0.707106781186586
1040
0.707106781186586
1040
0.999999999999993
1040
-0.7853981633974519
1040
0.4153559629949449
1070
     1
1070
     1
1040
61.385103913114897
1040
4.5667771430180544
1040
60.529247831317768
1040
2.360460456343854
1070
     3
1040
60.156322997534659
1040
2.5051223668369502
1040
-0.2828427124743292
1040
0.2828427124743292
1040
0.9999999999999994
1040
2.726236690595818
1040
3.9269908169878982
1070
     0
1070
     1
1040
60.156322997534389
1040
2.1051223668373602
1040
50.9999999975688
1040
2.1051223668364472
1070
     1
1040
50.9999999975688
1040
2.1051223668364472
1040
41.843676997603417
1040
2.1051223668373562
1070
     3
1040
41.843676997602998
1040
2.505122366837039
1040
0.2828427124743951
1040
0.2828427124743951
1040
0.9999999999999952
1040
2.3561944901912759
1040
3.5569486165836111
1070
     0
1070
     1
1040
41.470752163819832
1040
2.3604604563438509
1040
41.470752490118556
1040
2.3604596151826689
1070
     1
1040
41.470752490118556
1040
2.3604596151826689
1040
41.470752172262898
1040
2.3604604345787328
1070
     1
1040
41.470752172262898
1040
2.3604604345787328
1040
40.614896082022923
1040
4.5667771430180499
1070
     3
1040
39.682583997563754
1040
4.2051223667857442
1040
-0.7071067811866442
1040
0.7071067811866443
1040
0.9999999999999966
1040
4.2970330173898041
1040
5.49778714380537
1070
     1
1070
     1
1040
39.682583997540512
1040
5.2051223667858793
1040
39.031740221512671
1040
5.205122366770417
1070
     3
1040
39.014817109495112
1040
6.5343994262084273
1040
0.9400169925242042
1040
0.9400169925242042
1040
0.9999999999999882
1040
2.343464113415755
1040
2.839507773499252
1070
     0
1070
     1
1040
38.397031395623678
1040
5.3572823104527814
1040
36.754777949045881
1040
6.2959864454233019
1070
     1
1040
36.754777949045881
1040
6.2959864454233019
1040
36.409999997514767
1040
6.3051223667084813
1070
     3
1040
36.409999997523883
1040
5.9051223667086026
1040
-0.2828427124745349
1040
0.2828427124745349
1040
0.9999999999999834
1040
-0.7853981633746838
1040
0.7853981634207266
1070
     1
1070
     1
1040
36.009999997523998
1040
5.9051223666992954
1040
36.009999997603813
1040
2.505122366699204
1070
     3
1040
36.40999999760394
1040
2.5051223667083411
1040
-0.2828427124747162
1040
0.2828427124747162
1040
0.9999999999999815
1040
0.7853981634203016
1040
2.3561944902161032
1070
     1
1070
     1
1040
36.409999997613447
1040
2.105122366708208
1040
36.759999997613129
1040
2.1051223667173029
1070
     1
1040
36.759999997613129
1040
2.1051223667173029
1040
38.141136871030191
1040
2.8971232611857038
1070
     1
1040
38.141136871030191
1040
2.8971232611857038
1040
38.141136871030191
1040
3.1642377893981641
1070
     3
1040
38.351136871030157
1040
3.1642377893982712
1040
-0.1484924240491553
1040
0.1484924240491553
1040
0.9999999999999687
1040
5.4977871437816139
1040
7.5921822461733512
1070
     0
1070
     1
1040
38.456136871029791
1040
3.346103124193184
1040
38.696319935812078
1040
3.2074333670866571
1070
     3
1040
38.786238997593401
1040
2.9212263667643472
1040
0.2121318984796102
1040
0.2121318984796103
1040
0.9999999999999925
1040
-1.089808210198524
1040
0.4153556231040856
1070
     0
1070
     1
1040
39.065932406902782
1040
3.029722825204324
1040
40.023789213031812
1040
0.5604603295560154
1071
        0
1071
        1
1071
       40
1070
     3
1040
38.786238997593848
1040
27.078773633234292
1040
-0.2121318984796031
1040
0.2121318984796031
1040
0.9999999999999985
1040
2.7262370304856849
1040
4.2314008637883482
1070
     0
1070
     1
1040
38.696319935812532
1040
26.792566632911988
1040
38.456136871030239
1040
26.653896875805462
1070
     3
1040
38.351136871030462
1040
26.835762210600361
1040
-0.1484924240492027
1040
0.1484924240492027
1040
0.9999999999999968
1040
3.4033920413902332
1040
5.4977871437827108
1070
     0
1070
     1
1040
38.141136871030412
1040
26.835762210600489
1040
38.141136871030412
1040
27.102876738812949
1070
     1
1040
38.141136871030412
1040
27.102876738812949
1040
36.759999997613583
1040
27.894877633281801
1070
     1
1040
36.759999997613583
1040
27.894877633281801
1040
36.409999997613888
1040
27.89487763328999
1070
     3
1040
36.409999997604046
1040
27.49487763328997
1040
0.2828427124746335
1040
0.2828427124746335
1040
0.9999999999999969
1040
0.7853981633974497
1040
2.356194490168646
1070
     1
1070
     1
1040
36.009999997604027
1040
27.494877633299449
1040
36.009999997524218
1040
24.094877633299362
1070
     3
1040
36.409999997524103
1040
24.09487763329005
1040
0.2828427124745333
1040
0.2828427124745332
1040
0.9999999999999957
1040
2.3561944901690719
1040
3.9269908169644698
1070
     1
1070
     1
1040
36.409999997514987
1040
23.694877633290169
1040
36.754777949046563
1040
23.704013554575798
1070
     1
1040
36.754777949046563
1040
23.704013554575798
1040
38.397031395625262
1040
24.64271768954632
1070
     3
1040
39.014817109495851
1040
23.465600573790081
1040
-0.9400169925243025
1040
0.9400169925243023
1040
0.999999999999985
1040
0.3020848800913068
1040
0.7981285401736419
1070
     0
1070
     1
1040
39.031740221512891
1040
24.794877633228229
1040
39.682583997540732
1040
24.794877633213229
1070
     3
1040
39.682583997564279
1040
25.794877633213169
1040
-0.7071067811865066
1040
0.7071067811865066
1040
0.9999999999999939
1040
2.3561944901687939
1040
3.5569486165843229
1070
     1
1070
     1
1040
40.614896082023151
1040
25.433222856980599
1040
41.470752163820507
1040
27.639539543654799
1070
     3
1040
41.843676997603957
1040
27.494877633161909
1040
0.2828427124745108
1040
0.2828427124745108
1040
0.9999999999999815
1040
4.2970330173899347
1040
5.497787143781915
1070
     0
1070
     1
1040
41.843676997603879
1040
27.894877633161752
1040
50.99999999756924
1040
27.894877633161752
1070
     1
1040
50.99999999756924
1040
27.894877633161752
1040
60.156322997534623
1040
27.894877633161759
1070
     3
1040
60.156322997534531
1040
27.494877633161909
1040
0.2828427124745081
1040
0.2828427124745081
1040
0.9999999999999889
1040
-0.7853981633972407
1040
0.4153559629947652
1070
     0
1070
     1
1040
60.529247831317988
1040
27.639539543654809
1040
61.385103913115117
1040
25.43322285698061
1070
     3
1040
62.317415997574003
1040
25.79487763321319
1040
0.7071067811865183
1040
0.7071067811865182
1040
0.9999999999999943
1040
2.72623669059527
1040
3.9269908170107768
1070
     1
1070
     1
1040
62.317415997597543
1040
24.794877633213229
1040
62.96825977362537
1040
24.794877633228239
1070
     3
1040
62.985182885642431
1040
23.465600573790091
1040
0.9400169925242954
1040
0.9400169925242957
1040
0.999999999999995
1040
-0.7981285401736478
1040
-0.3020848800913134
1070
     0
1070
     1
1040
63.602968599513012
1040
24.64271768954633
1040
65.245222046091726
1040
23.704013554575809
1070
     1
1040
65.245222046091726
1040
23.704013554575809
1040
65.589999997623295
1040
23.694877633290179
1070
     3
1040
65.589999997614171
1040
24.094877633290061
1040
-0.2828427124745403
1040
0.2828427124745403
1040
0.9999999999999456
1040
2.3561944902151248
1040
3.9269908170105392
1070
     1
1070
     1
1040
65.989999997614049
1040
24.094877633299362
1040
65.989999997534241
1040
27.494877633299449
1070
     3
1040
65.589999997534335
1040
27.494877633290091
1040
-0.2828427124745545
1040
0.2828427124745545
1040
0.9999999999999873
1040
3.9269908170106591
1040
5.4977871438064669
1070
     1
1070
     1
1040
65.5899999975246
1040
27.89487763328999
1040
65.239999997524919
1040
27.894877633281808
1070
     1
1040
65.239999997524919
1040
27.894877633281808
1040
63.858863124107863
1040
27.102876738812949
1070
     1
1040
63.858863124107863
1040
27.102876738812949
1040
63.858863124107863
1040
26.835762210600489
1070
     3
1040
63.648863124107827
1040
26.83576221060034
1040
0.1484924240491914
1040
0.1484924240491914
1040
0.9999999999999866
1040
0.7853981633967107
1040
2.8797932657895049
1070
     0
1070
     1
1040
63.543863124108022
1040
26.653896875805469
1040
63.30368005932597
1040
26.792566632911999
1070
     3
1040
63.213760997544647
1040
27.078773633234292
1040
0.2121318984795998
1040
0.2121318984795998
1040
0.9999999999999996
1040
2.05178444339123
1040
3.5569482766939231
1070
     0
1070
     1
1040
62.934067588235258
1040
26.97027717479433
1040
61.976210782106229
1040
29.439539670442642
1070
     3
1040
61.603285997491952
1040
29.294877633196151
1040
-0.2828427124745454
1040
0.2828427124745456
1040
0.9999999999999895
1040
4.2970333572803749
1040
5.4977871437820971
1070
     1
1070
     1
1040
61.603285997491959
1040
29.69487763319604
1040
50.99999999757425
1040
29.69487763319604
1070
     1
1040
50.99999999757425
1040
29.69487763319604
1040
40.396713997646302
1040
29.69487763319604
1070
     3
1040
40.396713997646494
1040
29.294877633196229
1040
0.2828427124744894
1040
0.2828427124744894
1040
0.9999999999999708
1040
0.7853981633979247
1040
1.9861519498993501
1070
     1
1070
     1
1040
40.023789213032252
1040
29.439539670442642
1040
39.065932406903229
1040
26.97027717479433
1071
        0
1070
     0
1070
     1
1040
5.4977871437821371
1040
10.0
1070
     0
1070
     1
1040
1.5707963267948959
1040
167.45643560050249
1040
890.02975715496939
1040
1.25
1040
0.0000000000000006
1070
     0
1071
        1
1040
914.12802429162036
1040
155.95630091036909
1040
0.0
1002
}
  0
ENDSEC
  0
EOF
