  0
SECTION
  2
HEADER
  9
$ACADVER
  1
AC1009
  9
$INSBASE
 10
0.0
 20
0.0
 30
0.0
  9
$EXTMIN
 10
-42.168642102270532
 20
-26.196278589245399
 30
-0.3
  9
$EXTMAX
 10
319.55149858806209
 20
112.29341737497749
 30
0.1
  9
$LIMMIN
 10
0.0
 20
0.0
  9
$LIMMAX
 10
790.0
 20
790.0
  9
$ORTHOMODE
 70
     0
  9
$REGENMODE
 70
     1
  9
$FILLMODE
 70
     1
  9
$QTEXTMODE
 70
     0
  9
$MIRRTEXT
 70
     1
  9
$DRAGMODE
 70
     2
  9
$LTSCALE
 40
4.0
  9
$OSMODE
 70
   167
  9
$ATTMODE
 70
     1
  9
$TEXTSIZE
 40
3.5
  9
$TRACEWID
 40
0.05
  9
$TEXTSTYLE
  7
ISO
  9
$CLAYER
  8
0
  9
$CELTYPE
  6
BYLAYER
  9
$CECOLOR
 62
   256
  9
$DIMSCALE
 40
0.0
  9
$DIMASZ
 40
3.0
  9
$DIMEXO
 40
1.5
  9
$DIMDLI
 40
10.0
  9
$DIMRND
 40
0.0
  9
$DIMDLE
 40
0.0
  9
$DIMEXE
 40
1.5
  9
$DIMTP
 40
0.0
  9
$DIMTM
 40
0.0
  9
$DIMTXT
 40
3.0
  9
$DIMCEN
 40
-5.0
  9
$DIMTSZ
 40
0.0
  9
$DIMTOL
 70
     0
  9
$DIMLIM
 70
     0
  9
$DIMTIH
 70
     0
  9
$DIMTOH
 70
     0
  9
$DIMSE1
 70
     0
  9
$DIMSE2
 70
     0
  9
$DIMTAD
 70
     1
  9
$DIMZIN
 70
     8
  9
$DIMBLK
  1

  9
$DIMASO
 70
     1
  9
$DIMSHO
 70
     1
  9
$DIMPOST
  1

  9
$DIMAPOST
  1

  9
$DIMALT
 70
     0
  9
$DIMALTD
 70
     0
  9
$DIMALTF
 40
25.399999999999999
  9
$DIMLFAC
 40
-1.0
  9
$DIMTOFL
 70
     1
  9
$DIMTVP
 40
0.0
  9
$DIMTIX
 70
     0
  9
$DIMSOXD
 70
     0
  9
$DIMSAH
 70
     0
  9
$DIMBLK1
  1

  9
$DIMBLK2
  1

  9
$DIMSTYLE
  2
MASKIN
  9
$DIMCLRD
 70
   256
  9
$DIMCLRE
 70
   256
  9
$DIMCLRT
 70
     2
  9
$DIMTFAC
 40
1.0
  9
$DIMGAP
 40
1.0
  9
$LUNITS
 70
     2
  9
$LUPREC
 70
     8
  9
$SKETCHINC
 40
0.1
  9
$FILLETRAD
 40
0.0
  9
$AUNITS
 70
     0
  9
$AUPREC
 70
     8
  9
$MENU
  1
ACAD
  9
$ELEVATION
 40
0.0
  9
$PELEVATION
 40
0.0
  9
$THICKNESS
 40
0.0
  9
$LIMCHECK
 70
     0
  9
$BLIPMODE
 70
     0
  9
$CHAMFERA
 40
0.0
  9
$CHAMFERB
 40
0.0
  9
$SKPOLY
 70
     0
  9
$TDCREATE
 40
2454876.637785336
  9
$TDUPDATE
 40
2455863.4330633222
  9
$TDINDWG
 40
0.9346008218
  9
$TDUSRTIMER
 40
0.9346008218
  9
$USRTIMER
 70
     1
  9
$ANGBASE
 50
0.0
  9
$ANGDIR
 70
     0
  9
$PDMODE
 70
     0
  9
$PDSIZE
 40
0.0
  9
$PLINEWID
 40
0.0
  9
$COORDS
 70
     1
  9
$SPLFRAME
 70
     0
  9
$SPLINETYPE
 70
     6
  9
$SPLINESEGS
 70
     8
  9
$ATTDIA
 70
     0
  9
$ATTREQ
 70
     1
  9
$HANDLING
 70
     1
  9
$HANDSEED
  5
1EB8
  9
$SURFTAB1
 70
     6
  9
$SURFTAB2
 70
     6
  9
$SURFTYPE
 70
     6
  9
$SURFU
 70
     6
  9
$SURFV
 70
     6
  9
$UCSNAME
  2

  9
$UCSORG
 10
0.0
 20
0.0
 30
0.0
  9
$UCSXDIR
 10
1.0
 20
0.0
 30
0.0
  9
$UCSYDIR
 10
0.0
 20
1.0
 30
0.0
  9
$PUCSNAME
  2

  9
$PUCSORG
 10
0.0
 20
0.0
 30
0.0
  9
$PUCSXDIR
 10
1.0
 20
0.0
 30
0.0
  9
$PUCSYDIR
 10
0.0
 20
1.0
 30
0.0
  9
$USERI1
 70
     0
  9
$USERI2
 70
     0
  9
$USERI3
 70
     0
  9
$USERI4
 70
     0
  9
$USERI5
 70
     0
  9
$USERR1
 40
0.0
  9
$USERR2
 40
0.0
  9
$USERR3
 40
0.0
  9
$USERR4
 40
0.0
  9
$USERR5
 40
0.0
  9
$WORLDVIEW
 70
     1
  9
$SHADEDGE
 70
     3
  9
$SHADEDIF
 70
    70
  9
$TILEMODE
 70
     1
  9
$MAXACTVP
 70
    16
  9
$PLIMCHECK
 70
     0
  9
$PEXTMIN
 10
1.0000000000000000E+020
 20
1.0000000000000000E+020
 30
1.0000000000000000E+020
  9
$PEXTMAX
 10
-1.0000000000000000E+020
 20
-1.0000000000000000E+020
 30
-1.0000000000000000E+020
  9
$PLIMMIN
 10
-5.069427490234375
 20
-5.8737497329711914
  9
$PLIMMAX
 10
291.89889526367187
 20
204.0995779037475
  9
$UNITMODE
 70
     0
  9
$VISRETAIN
 70
     1
  9
$PLINEGEN
 70
     0
  9
$PSLTSCALE
 70
     1
  0
ENDSEC
  0
SECTION
  2
TABLES
  0
TABLE
  2
VPORT
 70
     1
  0
VPORT
  2
*ACTIVE
 70
     0
 10
0.0
 20
0.0
 11
1.0
 21
1.0
 12
137.90557527985371
 22
67.377030313635061
 13
0.0
 23
0.0
 14
1.0
 24
1.0
 15
0.0
 25
0.0
 16
0.0
 26
0.0
 36
1.0
 17
0.0
 27
0.0
 37
0.0
 40
217.9483288703334
 41
1.6590214067278279
 42
50.0
 43
0.0
 44
0.0
 50
0.0
 51
0.0
 71
     0
 72
   100
 73
     1
 74
     1
 75
     0
 76
     0
 77
     0
 78
     0
  0
ENDTAB
  0
TABLE
  2
LTYPE
 70
    19
  0
LTYPE
  2
CONTINUOUS
 70
     0
  3
Solid line
 72
    65
 73
     0
 40
0.0
  0
LTYPE
  2
BYGG-020317$0$NEWDOT
 70
     0
  3
____ . ____ . ____ . ____ . ____ . ____ . ____
 72
    65
 73
     4
 40
2.0
 49
1.0
 49
-0.5
 49
0.0
 49
-0.5
  0
LTYPE
  2
BYGG-014413$0$NEWDOT
 70
     0
  3
____ . ____ . ____ . ____ . ____ . ____ . ____
 72
    65
 73
     4
 40
2.0
 49
1.0
 49
-0.5
 49
0.0
 49
-0.5
  0
LTYPE
  2
BYGG-014406$0$NEWDOT
 70
     0
  3
____ . ____ . ____ . ____ . ____ . ____ . ____
 72
    65
 73
     4
 40
2.0
 49
1.0
 49
-0.5
 49
0.0
 49
-0.5
  0
LTYPE
  2
BYGG-021463$0$NEWDOT
 70
     0
  3
____ . ____ . ____ . ____ . ____ . ____ . ____
 72
    65
 73
     4
 40
2.0
 49
1.0
 49
-0.5
 49
0.0
 49
-0.5
  0
LTYPE
  2
BYGG-020317$0$ZIGZAG
 70
     0
  3
Zig zag /\/\/\/\/\/\/\/\/\/\/\/\/\/\/\/\/\/\/\/\/\/\/\/
 72
    65
 73
     4
 40
20.32254
 49
0.00254
 49
-5.0800000000000001
 49
-10.16
 49
-5.0800000000000001
  0
LTYPE
  2
BYGG-024893$0$NEWDOT
 70
     0
  3
____ . ____ . ____ . ____ . ____ . ____ . ____
 72
    65
 73
     4
 40
2.0
 49
1.0
 49
-0.5
 49
0.0
 49
-0.5
  0
LTYPE
  2
BYGG-024893$0$DASHDOT
 70
     0
  3
__ . __ . __ . __ . __ . __ . __ . __ . __ . __
 72
    65
 73
     4
 40
1.0
 49
0.5
 49
-0.25
 49
0.0
 49
-0.25
  0
LTYPE
  2
BYGG-024892$0$NEWDOT
 70
     0
  3
____ . ____ . ____ . ____ . ____ . ____ . ____
 72
    65
 73
     4
 40
2.0
 49
1.0
 49
-0.5
 49
0.0
 49
-0.5
  0
LTYPE
  2
BYGG-024892$0$DASHDOT
 70
     0
  3
__ . __ . __ . __ . __ . __ . __ . __ . __ . __
 72
    65
 73
     4
 40
1.0
 49
0.5
 49
-0.25
 49
0.0
 49
-0.25
  0
LTYPE
  2
BYGG-021556$0$DASHDOT
 70
     0
  3
__ . __ . __ . __ . __ . __ . __ . __ . __ . __
 72
    65
 73
     4
 40
1.0
 49
0.5
 49
-0.25
 49
0.0
 49
-0.25
  0
LTYPE
  2
BYGG-008943$0$DASHDOT
 70
     0
  3
__ . __ . __ . __ . __ . __ . __ . __ . __ . __
 72
    65
 73
     4
 40
1.0
 49
0.5
 49
-0.25
 49
0.0
 49
-0.25
  0
LTYPE
  2
BYGG-00894401$0$DASHDOT
 70
     0
  3
__ . __ . __ . __ . __ . __ . __ . __ . __ . __
 72
    65
 73
     4
 40
1.0
 49
0.5
 49
-0.25
 49
0.0
 49
-0.25
  0
LTYPE
  2
BYGG-014413$0$ZIGZAG
 70
     0
  3
Zig zag /\/\/\/\/\/\/\/\/\/\/\/\/\/\/\/\/\/\/\/\/\/\/\/
 72
    65
 73
     4
 40
20.32254
 49
0.00254
 49
-5.0800000000000001
 49
-10.16
 49
-5.0800000000000001
  0
LTYPE
  2
BYGG-014406$0$ZIGZAG
 70
     0
  3
Zig zag /\/\/\/\/\/\/\/\/\/\/\/\/\/\/\/\/\/\/\/\/\/\/\/
 72
    65
 73
     4
 40
20.32254
 49
0.00254
 49
-5.0800000000000001
 49
-10.16
 49
-5.0800000000000001
  0
LTYPE
  2
BYGG-021536$0$DASHDOT
 70
     0
  3
__ . __ . __ . __ . __ . __ . __ . __ . __ . __
 72
    65
 73
     4
 40
1.0
 49
0.5
 49
-0.25
 49
0.0
 49
-0.25
  0
LTYPE
  2
BYGG-024924$0$DASHDOT
 70
     0
  3
__ . __ . __ . __ . __ . __ . __ . __ . __ . __
 72
    65
 73
     4
 40
1.0
 49
0.5
 49
-0.25
 49
0.0
 49
-0.25
  0
LTYPE
  2
BYGG-024935$0$NEWDOT
 70
     0
  3
____ . ____ . ____ . ____ . ____ . ____ . ____
 72
    65
 73
     4
 40
2.0
 49
1.0
 49
-0.5
 49
0.0
 49
-0.5
  0
LTYPE
  2
BYGG-024935$0$DASHDOT
 70
     0
  3
__ . __ . __ . __ . __ . __ . __ . __ . __ . __
 72
    65
 73
     4
 40
1.0
 49
0.5
 49
-0.25
 49
0.0
 49
-0.25
  0
ENDTAB
  0
TABLE
  2
LAYER
 70
   116
  0
LAYER
  2
0
 70
     0
 62
     7
  6
CONTINUOUS
  0
LAYER
  2
SAPA_ARTIKELNR
 70
     0
 62
     4
  6
CONTINUOUS
  0
LAYER
  2
SAPA_LIGHT
 70
     1
 62
     1
  6
CONTINUOUS
  0
LAYER
  2
SAPA_ISOLATOR
 70
     0
 62
     4
  6
CONTINUOUS
  0
LAYER
  2
SAPA_MATT
 70
     0
 62
     1
  6
CONTINUOUS
  0
LAYER
  2
SAPA_GLAS
 70
     0
 62
     4
  6
CONTINUOUS
  0
LAYER
  2
SAPA_FOGBAND
 70
     0
 62
     2
  6
CONTINUOUS
  0
LAYER
  2
SAPA_PROFIL
 70
     0
 62
     7
  6
CONTINUOUS
  0
ENDTAB
  0
TABLE
  2
STYLE
 70
    42
  0
STYLE
  2
STANDARD
 70
     0
 40
0.0
 41
1.0
 50
0.0
 71
     0
 42
0.2
  3
txt
  4

  0
STYLE
  2
ISO
 70
     0
 40
0.0
 41
1.0
 50
0.0
 71
     0
 42
3.5
  3
txt
  4

  0
STYLE
  2

 70
     1
 40
0.0
 41
1.0
 50
0.0
 71
     0
 42
0.2
  3
ltypeshp.shx
  4

  0
STYLE
  2
BYGG-021463$0$STANDARD
 70
     0
 40
0.0
 41
1.0
 50
0.0
 71
     0
 42
0.2
  3
txt
  4

  0
STYLE
  2
BYGG-021463$0$ISO
 70
     0
 40
0.0
 41
1.0
 50
0.0
 71
     0
 42
7.0
  3
ISO
  4

  0
STYLE
  2
BYGG-020317$0$STANDARD
 70
     0
 40
0.0
 41
1.0
 50
0.0
 71
     0
 42
0.2
  3
txt
  4

  0
STYLE
  2
BYGG-020317$0$ISO
 70
     0
 40
0.0
 41
1.0
 50
0.0
 71
     0
 42
3.5
  3
isocp3.shx
  4

  0
STYLE
  2
BYGG-024893$0$STANDARD
 70
     0
 40
0.0
 41
1.0
 50
0.0
 71
     0
 42
0.2
  3
txt
  4

  0
STYLE
  2
BYGG-024893$0$ISO
 70
     0
 40
0.0
 41
1.0
 50
0.0
 71
     0
 42
3.5
  3
txt
  4

  0
STYLE
  2
BYGG-024893$0$ANNOTATIVE
 70
     0
 40
0.0
 41
1.0
 50
0.0
 71
     0
 42
0.2
  3
txt
  4

  0
STYLE
  2
BYGG-024892$0$STANDARD
 70
     0
 40
0.0
 41
1.0
 50
0.0
 71
     0
 42
0.2
  3
txt
  4

  0
STYLE
  2
BYGG-024892$0$ISO
 70
     0
 40
0.0
 41
1.0
 50
0.0
 71
     0
 42
3.5
  3
txt
  4

  0
STYLE
  2
BYGG-024892$0$ANNOTATIVE
 70
     0
 40
0.0
 41
1.0
 50
0.0
 71
     0
 42
0.2
  3
txt
  4

  0
STYLE
  2
BYGG-024973$0$STANDARD
 70
     0
 40
0.0
 41
1.0
 50
0.0
 71
     0
 42
0.2
  3
txt
  4

  0
STYLE
  2
BYGG-024973$0$ISO
 70
     0
 40
0.0
 41
1.0
 50
0.0
 71
     0
 42
3.5
  3
txt
  4

  0
STYLE
  2
BYGG-021556$0$STANDARD
 70
     0
 40
0.0
 41
1.0
 50
0.0
 71
     0
 42
0.2
  3
txt
  4

  0
STYLE
  2
BYGG-021556$0$ISO
 70
     0
 40
0.0
 41
1.0
 50
0.0
 71
     0
 42
7.0
  3
ISO
  4

  0
STYLE
  2
BYGG-008943$0$STANDARD
 70
     0
 40
0.0
 41
1.0
 50
0.0
 71
     0
 42
0.2
  3
txt
  4

  0
STYLE
  2
BYGG-008943$0$ISO
 70
     0
 40
0.0
 41
1.0
 50
0.0
 71
     0
 42
3.5
  3
txt
  4

  0
STYLE
  2
BYGG-008943$0$CONVERTER_2
 70
     0
 40
0.0
 41
0.72
 50
0.0
 71
     0
 42
0.2
  3
txt.shx
  4

  0
STYLE
  2
BYGG-008943$0$ANNOTATIVE
 70
     0
 40
0.0
 41
1.0
 50
0.0
 71
     0
 42
0.2
  3
txt
  4

  0
STYLE
  2
BYGG-021764$0$STANDARD
 70
     0
 40
0.0
 41
1.0
 50
0.0
 71
     0
 42
0.2
  3
txt
  4

  0
STYLE
  2
BYGG-021764$0$ISO
 70
     0
 40
0.0
 41
1.0
 50
0.0
 71
     0
 42
3.5
  3
txt
  4

  0
STYLE
  2
BYGG-00894401$0$STANDARD
 70
     0
 40
0.0
 41
1.0
 50
0.0
 71
     0
 42
0.2
  3
txt
  4

  0
STYLE
  2
BYGG-00894401$0$ISO
 70
     0
 40
0.0
 41
1.0
 50
0.0
 71
     0
 42
3.5
  3
txt
  4

  0
STYLE
  2
BYGG-00894401$0$CONVERTER_
 70
     0
 40
0.0
 41
0.72
 50
0.0
 71
     0
 42
0.2
  3
txt.shx
  4

  0
STYLE
  2
BYGG-00894401$0$ANNOTATIVE
 70
     0
 40
0.0
 41
1.0
 50
0.0
 71
     0
 42
0.2
  3
txt
  4

  0
STYLE
  2
BYGG-021409$0$STANDARD
 70
     0
 40
0.0
 41
1.0
 50
0.0
 71
     0
 42
0.2
  3
txt
  4

  0
STYLE
  2
BYGG-021409$0$ISO
 70
     0
 40
0.0
 41
1.0
 50
0.0
 71
     0
 42
3.5
  3
txt
  4

  0
STYLE
  2
BYGG-014413$0$STANDARD
 70
     0
 40
0.0
 41
1.0
 50
0.0
 71
     0
 42
0.2
  3
txt
  4

  0
STYLE
  2
BYGG-014413$0$ISO
 70
     0
 40
0.0
 41
1.0
 50
0.0
 71
     0
 42
3.5
  3
isocp3.shx
  4

  0
STYLE
  2
BYGG-021377$0$STANDARD
 70
     0
 40
0.0
 41
1.0
 50
0.0
 71
     0
 42
0.2
  3
txt
  4

  0
STYLE
  2
BYGG-021377$0$ISO
 70
     0
 40
0.0
 41
1.0
 50
0.0
 71
     0
 42
7.0
  3
ISO
  4

  0
STYLE
  2
BYGG-014406$0$STANDARD
 70
     0
 40
0.0
 41
1.0
 50
0.0
 71
     0
 42
0.2
  3
txt
  4

  0
STYLE
  2
BYGG-014406$0$ISO
 70
     0
 40
0.0
 41
1.0
 50
0.0
 71
     0
 42
3.5
  3
isocp3.shx
  4

  0
STYLE
  2
BYGG-021536$0$STANDARD
 70
     0
 40
0.0
 41
1.0
 50
0.0
 71
     0
 42
0.2
  3
txt
  4

  0
STYLE
  2
BYGG-021536$0$ISO
 70
     0
 40
0.0
 41
1.0
 50
0.0
 71
     0
 42
3.5
  3
isocp3.shx
  4

  0
STYLE
  2
BYGG-024924$0$STANDARD
 70
     0
 40
0.0
 41
1.0
 50
0.0
 71
     0
 42
0.2
  3
txt
  4

  0
STYLE
  2
BYGG-024924$0$ISO
 70
     0
 40
0.0
 41
1.0
 50
0.0
 71
     0
 42
3.5
  3
txt
  4

  0
STYLE
  2
BYGG-024924$0$ANNOTATIVE
 70
     0
 40
0.0
 41
1.0
 50
0.0
 71
     0
 42
0.2
  3
txt
  4

  0
STYLE
  2
BYGG-024935$0$STANDARD
 70
     0
 40
0.0
 41
1.0
 50
0.0
 71
     0
 42
0.2
  3
txt
  4

  0
STYLE
  2
BYGG-024935$0$ISO
 70
     0
 40
0.0
 41
1.0
 50
0.0
 71
     0
 42
3.5
  3
txt
  4

  0
ENDTAB
  0
TABLE
  2
VIEW
 70
     0
  0
ENDTAB
  0
TABLE
  2
UCS
 70
     0
  0
ENDTAB
  0
TABLE
  2
APPID
 70
    21
  0
APPID
  2
ACAD
 70
     0
  0
APPID
  2
ACAD_DSTYLE_DIMTEXT_FILL
 70
     0
  0
APPID
  2
ACAD_DSTYLE_DIMEXT_LENGTH
 70
     0
  0
APPID
  2
ACAD_DSTYLE_DIMEXT_ENABLED
 70
     0
  0
APPID
  2
ACAD_DSTYLE_DIM_LINETYPE
 70
     0
  0
APPID
  2
ACAD_DSTYLE_DIM_EXT1_LINETYPE
 70
     0
  0
APPID
  2
ACAD_DSTYLE_DIM_EXT2_LINETYPE
 70
     0
  0
APPID
  2
ACAD_DSTYLE_DIMJOGGED_JOGA
 70
     0
  0
APPID
  2
ACAD_DSTYLE_DIMARC_LENGTH_
 70
     0
  0
APPID
  2
ACAD_PSEXT
 70
     0
  0
APPID
  2
ACAD_MLEADERVER
 70
     0
  0
APPID
  2
ACAECLAYERSTANDARD
 70
     0
  0
APPID
  2
ACDBDYNAMICBLOCKGUID
 70
     0
  0
APPID
  2
ACDBBLOCKREPETAG
 70
     0
  0
APPID
  2
ACADANNOTATIVE
 70
     0
  0
APPID
  2
ACAD_EXEMPT_FROM_CAD_STANDARDS
 70
     0
  0
APPID
  2
ACAD_DSTYLE_DIMJAG
 70
     0
  0
APPID
  2
ACAD_DSTYLE_DIMTALN
 70
     0
  0
APPID
  2
AMG_ARCHIVE11
 70
     0
  0
APPID
  2
RC_PROFILE
 70
     0
  0
APPID
  2
ACAD_NAV_VCDISPLAY
 70
     0
  0
ENDTAB
  0
TABLE
  2
DIMSTYLE
 70
    39
  0
DIMSTYLE
  2
STANDARD
 70
     0
  3

  4

  5

  6

  7

 40
1.0
 41
0.18
 42
0.0625
 43
0.38
 44
0.18
 45
0.0
 46
0.0
 47
0.0
 48
0.0
140
0.18
141
0.09
142
0.0
143
25.399999999999999
144
1.0
145
0.0
146
1.0
147
0.09
 71
     0
 72
     0
 73
     1
 74
     1
 75
     0
 76
     0
 77
     0
 78
     0
170
     0
171
     2
172
     0
173
     0
174
     0
175
     0
176
     0
177
     0
178
     0
  0
DIMSTYLE
  2
MASKIN
 70
     0
  3

  4

  5

  6

  7

 40
0.0
 41
3.0
 42
1.5
 43
10.0
 44
1.5
 45
0.0
 46
0.0
 47
0.0
 48
0.0
140
3.0
141
-5.0
142
0.0
143
25.399999999999999
144
-1.0
145
0.0
146
1.0
147
1.0
 71
     0
 72
     0
 73
     0
 74
     0
 75
     0
 76
     0
 77
     1
 78
     8
170
     0
171
     0
172
     1
173
     0
174
     0
175
     0
176
   256
177
   256
178
     2
  0
DIMSTYLE
  2
BYGG-021463$0$MASKIN
 70
     0
  3

  4

  5

  6

  7

 40
1.0
 41
3.0
 42
1.5
 43
10.0
 44
1.5
 45
0.0
 46
0.0
 47
0.0
 48
0.0
140
3.0
141
-5.0
142
0.0
143
25.399999999999999
144
1.0
145
0.0
146
1.0
147
0.09
 71
     0
 72
     0
 73
     0
 74
     0
 75
     0
 76
     0
 77
     1
 78
     8
170
     0
171
     0
172
     0
173
     0
174
     0
175
     0
176
   256
177
   256
178
   256
  0
DIMSTYLE
  2
BYGG-021463$0$STANDARD
 70
     0
  3

  4

  5

  6

  7

 40
1.0
 41
0.18
 42
0.0625
 43
0.38
 44
0.18
 45
0.0
 46
0.0
 47
0.0
 48
0.0
140
0.18
141
0.09
142
0.0
143
25.399999999999999
144
1.0
145
0.0
146
1.0
147
0.09
 71
     0
 72
     0
 73
     1
 74
     1
 75
     0
 76
     0
 77
     0
 78
     0
170
     0
171
     2
172
     0
173
     0
174
     0
175
     0
176
     0
177
     0
178
     0
  0
DIMSTYLE
  2
BYGG-020317$0$STANDARD
 70
     0
  3

  4

  5

  6

  7

 40
1.0
 41
0.18
 42
0.0625
 43
0.38
 44
0.18
 45
0.0
 46
0.0
 47
0.0
 48
0.0
140
0.18
141
0.09
142
0.0
143
25.399999999999999
144
1.0
145
0.0
146
1.0
147
0.09
 71
     0
 72
     0
 73
     1
 74
     1
 75
     0
 76
     0
 77
     0
 78
     0
170
     0
171
     2
172
     0
173
     0
174
     0
175
     0
176
     0
177
     0
178
     0
  0
DIMSTYLE
  2
BYGG-020317$0$MASKIN
 70
     0
  3

  4

  5

  6

  7

 40
0.0
 41
3.0
 42
1.5
 43
10.0
 44
1.5
 45
0.0
 46
0.0
 47
0.0
 48
0.0
140
3.0
141
-5.0
142
0.0
143
25.399999999999999
144
-1.0
145
0.0
146
1.0
147
1.0
 71
     0
 72
     0
 73
     0
 74
     0
 75
     0
 76
     0
 77
     1
 78
     8
170
     0
171
     0
172
     1
173
     0
174
     0
175
     0
176
   256
177
   256
178
     2
  0
DIMSTYLE
  2
BYGG-024893$0$STANDARD
 70
     0
  3

  4

  5

  6

  7

 40
1.0
 41
0.18
 42
0.0625
 43
0.38
 44
0.18
 45
0.0
 46
0.0
 47
0.0
 48
0.0
140
0.18
141
0.09
142
0.0
143
25.399999999999999
144
1.0
145
0.0
146
1.0
147
0.09
 71
     0
 72
     0
 73
     1
 74
     1
 75
     0
 76
     0
 77
     0
 78
     0
170
     0
171
     2
172
     0
173
     0
174
     0
175
     0
176
     0
177
     0
178
     0
  0
DIMSTYLE
  2
BYGG-024893$0$MASKIN
 70
     0
  3

  4

  5

  6

  7

 40
0.0
 41
3.0
 42
1.5
 43
10.0
 44
1.5
 45
0.0
 46
0.0
 47
0.0
 48
0.0
140
3.0
141
-5.0
142
0.0
143
25.399999999999999
144
-1.0
145
0.0
146
1.0
147
1.0
 71
     0
 72
     0
 73
     0
 74
     0
 75
     0
 76
     0
 77
     1
 78
     8
170
     0
171
     0
172
     1
173
     0
174
     0
175
     0
176
   256
177
   256
178
     2
  0
DIMSTYLE
  2
BYGG-024893$0$ANNOTATIVE
 70
     0
  3

  4

  5

  6

  7

 40
1.0
 41
0.18
 42
0.0625
 43
0.38
 44
0.18
 45
0.0
 46
0.0
 47
0.0
 48
0.0
140
0.18
141
0.09
142
0.0
143
25.399999999999999
144
1.0
145
0.0
146
1.0
147
0.09
 71
     0
 72
     0
 73
     1
 74
     1
 75
     0
 76
     0
 77
     0
 78
     0
170
     0
171
     2
172
     0
173
     0
174
     0
175
     0
176
     0
177
     0
178
     0
  0
DIMSTYLE
  2
BYGG-024892$0$STANDARD
 70
     0
  3

  4

  5

  6

  7

 40
1.0
 41
0.18
 42
0.0625
 43
0.38
 44
0.18
 45
0.0
 46
0.0
 47
0.0
 48
0.0
140
0.18
141
0.09
142
0.0
143
25.399999999999999
144
1.0
145
0.0
146
1.0
147
0.09
 71
     0
 72
     0
 73
     1
 74
     1
 75
     0
 76
     0
 77
     0
 78
     0
170
     0
171
     2
172
     0
173
     0
174
     0
175
     0
176
     0
177
     0
178
     0
  0
DIMSTYLE
  2
BYGG-024892$0$MASKIN
 70
     0
  3

  4

  5

  6

  7

 40
0.0
 41
3.0
 42
1.5
 43
10.0
 44
1.5
 45
0.0
 46
0.0
 47
0.0
 48
0.0
140
3.0
141
-5.0
142
0.0
143
25.399999999999999
144
-1.0
145
0.0
146
1.0
147
1.0
 71
     0
 72
     0
 73
     0
 74
     0
 75
     0
 76
     0
 77
     1
 78
     8
170
     0
171
     0
172
     1
173
     0
174
     0
175
     0
176
   256
177
   256
178
     2
  0
DIMSTYLE
  2
BYGG-024892$0$ANNOTATIVE
 70
     0
  3

  4

  5

  6

  7

 40
1.0
 41
0.18
 42
0.0625
 43
0.38
 44
0.18
 45
0.0
 46
0.0
 47
0.0
 48
0.0
140
0.18
141
0.09
142
0.0
143
25.399999999999999
144
1.0
145
0.0
146
1.0
147
0.09
 71
     0
 72
     0
 73
     1
 74
     1
 75
     0
 76
     0
 77
     0
 78
     0
170
     0
171
     2
172
     0
173
     0
174
     0
175
     0
176
     0
177
     0
178
     0
  0
DIMSTYLE
  2
BYGG-024973$0$STANDARD
 70
     0
  3

  4

  5

  6

  7

 40
1.0
 41
0.18
 42
0.0625
 43
0.38
 44
0.18
 45
0.0
 46
0.0
 47
0.0
 48
0.0
140
0.18
141
0.09
142
0.0
143
25.399999999999999
144
1.0
145
0.0
146
1.0
147
0.09
 71
     0
 72
     0
 73
     1
 74
     1
 75
     0
 76
     0
 77
     0
 78
     0
170
     0
171
     2
172
     0
173
     0
174
     0
175
     0
176
     0
177
     0
178
     0
  0
DIMSTYLE
  2
BYGG-024973$0$MASKIN
 70
     0
  3

  4

  5

  6

  7

 40
0.0
 41
3.0
 42
1.5
 43
10.0
 44
1.5
 45
0.0
 46
0.0
 47
0.0
 48
0.0
140
3.0
141
-5.0
142
0.0
143
25.399999999999999
144
-1.0
145
0.0
146
1.0
147
1.0
 71
     0
 72
     0
 73
     0
 74
     0
 75
     0
 76
     0
 77
     1
 78
     8
170
     0
171
     0
172
     1
173
     0
174
     0
175
     0
176
   256
177
   256
178
     2
  0
DIMSTYLE
  2
BYGG-021556$0$MASKIN
 70
     0
  3

  4

  5

  6

  7

 40
1.0
 41
3.0
 42
1.5
 43
10.0
 44
1.5
 45
0.0
 46
0.0
 47
0.0
 48
0.0
140
3.0
141
-5.0
142
0.0
143
25.399999999999999
144
1.0
145
0.0
146
1.0
147
0.09
 71
     0
 72
     0
 73
     0
 74
     0
 75
     0
 76
     0
 77
     1
 78
     8
170
     0
171
     0
172
     0
173
     0
174
     0
175
     0
176
   256
177
   256
178
   256
  0
DIMSTYLE
  2
BYGG-008943$0$MASKIN
 70
     0
  3

  4

  5

  6

  7

 40
0.0
 41
3.0
 42
1.5
 43
10.0
 44
1.5
 45
0.0
 46
0.0
 47
0.0
 48
0.0
140
3.0
141
-5.0
142
0.0
143
25.399999999999999
144
-1.0
145
0.0
146
1.0
147
1.0
 71
     0
 72
     0
 73
     0
 74
     0
 75
     0
 76
     0
 77
     1
 78
     8
170
     0
171
     0
172
     1
173
     0
174
     0
175
     0
176
   256
177
   256
178
     2
  0
DIMSTYLE
  2
BYGG-008943$0$STANDARD
 70
     0
  3

  4

  5

  6

  7

 40
1.0
 41
0.18
 42
0.0625
 43
0.38
 44
0.18
 45
0.0
 46
0.0
 47
0.0
 48
0.0
140
0.18
141
0.09
142
0.0
143
25.399999999999999
144
1.0
145
0.0
146
1.0
147
0.09
 71
     0
 72
     0
 73
     1
 74
     1
 75
     0
 76
     0
 77
     0
 78
     0
170
     0
171
     2
172
     0
173
     0
174
     0
175
     0
176
     0
177
     0
178
     0
  0
DIMSTYLE
  2
BYGG-008943$0$ANNOTATIVE
 70
     0
  3

  4

  5

  6

  7

 40
1.0
 41
0.18
 42
0.0625
 43
0.38
 44
0.18
 45
0.0
 46
0.0
 47
0.0
 48
0.0
140
0.18
141
0.09
142
0.0
143
25.399999999999999
144
1.0
145
0.0
146
1.0
147
0.09
 71
     0
 72
     0
 73
     1
 74
     1
 75
     0
 76
     0
 77
     0
 78
     0
170
     0
171
     2
172
     0
173
     0
174
     0
175
     0
176
     0
177
     0
178
     0
  0
DIMSTYLE
  2
BYGG-021764$0$STANDARD
 70
     0
  3

  4

  5

  6

  7

 40
1.0
 41
0.18
 42
0.0625
 43
0.38
 44
0.18
 45
0.0
 46
0.0
 47
0.0
 48
0.0
140
0.18
141
0.09
142
0.0
143
25.399999999999999
144
1.0
145
0.0
146
1.0
147
0.09
 71
     0
 72
     0
 73
     1
 74
     1
 75
     0
 76
     0
 77
     0
 78
     0
170
     0
171
     2
172
     0
173
     0
174
     0
175
     0
176
     0
177
     0
178
     0
  0
DIMSTYLE
  2
BYGG-021764$0$MASKIN
 70
     0
  3

  4

  5

  6

  7

 40
0.0
 41
3.0
 42
1.5
 43
10.0
 44
1.5
 45
0.0
 46
0.0
 47
0.0
 48
0.0
140
3.0
141
-5.0
142
0.0
143
25.399999999999999
144
-1.0
145
0.0
146
1.0
147
1.0
 71
     0
 72
     0
 73
     0
 74
     0
 75
     0
 76
     0
 77
     1
 78
     8
170
     0
171
     0
172
     1
173
     0
174
     0
175
     0
176
   256
177
   256
178
     2
  0
DIMSTYLE
  2
BYGG-00894401$0$MASKIN
 70
     0
  3

  4

  5

  6

  7

 40
0.0
 41
3.0
 42
1.5
 43
10.0
 44
1.5
 45
0.0
 46
0.0
 47
0.0
 48
0.0
140
3.0
141
-5.0
142
0.0
143
25.399999999999999
144
-1.0
145
0.0
146
1.0
147
1.0
 71
     0
 72
     0
 73
     0
 74
     0
 75
     0
 76
     0
 77
     1
 78
     8
170
     0
171
     0
172
     1
173
     0
174
     0
175
     0
176
   256
177
   256
178
     2
  0
DIMSTYLE
  2
BYGG-00894401$0$STANDARD
 70
     0
  3

  4

  5

  6

  7

 40
1.0
 41
0.18
 42
0.0625
 43
0.38
 44
0.18
 45
0.0
 46
0.0
 47
0.0
 48
0.0
140
0.18
141
0.09
142
0.0
143
25.399999999999999
144
1.0
145
0.0
146
1.0
147
0.09
 71
     0
 72
     0
 73
     1
 74
     1
 75
     0
 76
     0
 77
     0
 78
     0
170
     0
171
     2
172
     0
173
     0
174
     0
175
     0
176
     0
177
     0
178
     0
  0
DIMSTYLE
  2
BYGG-00894401$0$ANNOTATIVE
 70
     0
  3

  4

  5

  6

  7

 40
1.0
 41
0.18
 42
0.0625
 43
0.38
 44
0.18
 45
0.0
 46
0.0
 47
0.0
 48
0.0
140
0.18
141
0.09
142
0.0
143
25.399999999999999
144
1.0
145
0.0
146
1.0
147
0.09
 71
     0
 72
     0
 73
     1
 74
     1
 75
     0
 76
     0
 77
     0
 78
     0
170
     0
171
     2
172
     0
173
     0
174
     0
175
     0
176
     0
177
     0
178
     0
  0
DIMSTYLE
  2
BYGG-021409$0$STANDARD
 70
     0
  3

  4

  5

  6

  7

 40
1.0
 41
0.18
 42
0.0625
 43
0.38
 44
0.18
 45
0.0
 46
0.0
 47
0.0
 48
0.0
140
0.18
141
0.09
142
0.0
143
25.399999999999999
144
1.0
145
0.0
146
1.0
147
0.09
 71
     0
 72
     0
 73
     1
 74
     1
 75
     0
 76
     0
 77
     0
 78
     0
170
     0
171
     2
172
     0
173
     0
174
     0
175
     0
176
     0
177
     0
178
     0
  0
DIMSTYLE
  2
BYGG-021409$0$MASKIN
 70
     0
  3

  4

  5

  6

  7

 40
0.0
 41
3.0
 42
1.5
 43
10.0
 44
1.5
 45
0.0
 46
0.0
 47
0.0
 48
0.0
140
3.0
141
-5.0
142
0.0
143
25.399999999999999
144
-1.0
145
0.0
146
1.0
147
1.0
 71
     0
 72
     0
 73
     0
 74
     0
 75
     0
 76
     0
 77
     1
 78
     8
170
     0
171
     0
172
     1
173
     0
174
     0
175
     0
176
   256
177
   256
178
     2
  0
DIMSTYLE
  2
BYGG-021409$0$MASKINX
 70
     0
  3

  4

  5

  6

  7

 40
0.0
 41
3.0
 42
1.5
 43
10.0
 44
1.5
 45
0.0
 46
0.0
 47
0.0
 48
0.0
140
3.0
141
-5.0
142
0.0
143
25.399999999999999
144
-1.0
145
0.0
146
1.0
147
1.0
 71
     0
 72
     0
 73
     0
 74
     0
 75
     0
 76
     0
 77
     1
 78
     8
170
     0
171
     0
172
     1
173
     0
174
     0
175
     0
176
   256
177
   256
178
   256
  0
DIMSTYLE
  2
BYGG-014413$0$MASKIN
 70
     0
  3

  4

  5

  6

  7

 40
0.0
 41
3.0
 42
1.5
 43
10.0
 44
1.5
 45
0.0
 46
0.0
 47
0.0
 48
0.0
140
3.0
141
-5.0
142
0.0
143
25.399999999999999
144
-1.0
145
0.0
146
1.0
147
1.0
 71
     0
 72
     0
 73
     0
 74
     0
 75
     0
 76
     0
 77
     1
 78
     8
170
     0
171
     0
172
     1
173
     0
174
     0
175
     0
176
   256
177
   256
178
   256
  0
DIMSTYLE
  2
BYGG-014413$0$STANDARD
 70
     0
  3

  4

  5

  6

  7

 40
1.0
 41
0.18
 42
0.0625
 43
0.38
 44
0.18
 45
0.0
 46
0.0
 47
0.0
 48
0.0
140
0.18
141
0.09
142
0.0
143
25.399999999999999
144
1.0
145
0.0
146
1.0
147
0.09
 71
     0
 72
     0
 73
     1
 74
     1
 75
     0
 76
     0
 77
     0
 78
     0
170
     0
171
     2
172
     0
173
     0
174
     0
175
     0
176
     0
177
     0
178
     0
  0
DIMSTYLE
  2
BYGG-021377$0$MASKIN
 70
     0
  3

  4

  5

  6

  7

 40
1.0
 41
3.0
 42
1.5
 43
10.0
 44
1.5
 45
0.0
 46
0.0
 47
0.0
 48
0.0
140
3.0
141
-5.0
142
0.0
143
25.399999999999999
144
1.0
145
0.0
146
1.0
147
0.09
 71
     0
 72
     0
 73
     0
 74
     0
 75
     0
 76
     0
 77
     1
 78
     8
170
     0
171
     0
172
     0
173
     0
174
     0
175
     0
176
   256
177
   256
178
   256
  0
DIMSTYLE
  2
BYGG-021377$0$STANDARD
 70
     0
  3

  4

  5

  6

  7

 40
1.0
 41
0.18
 42
0.0625
 43
0.38
 44
0.18
 45
0.0
 46
0.0
 47
0.0
 48
0.0
140
0.18
141
0.09
142
0.0
143
25.399999999999999
144
1.0
145
0.0
146
1.0
147
0.09
 71
     0
 72
     0
 73
     1
 74
     1
 75
     0
 76
     0
 77
     0
 78
     0
170
     0
171
     2
172
     0
173
     0
174
     0
175
     0
176
     0
177
     0
178
     0
  0
DIMSTYLE
  2
BYGG-014406$0$MASKIN
 70
     0
  3

  4

  5

  6

  7

 40
0.0
 41
3.0
 42
1.5
 43
10.0
 44
1.5
 45
0.0
 46
0.0
 47
0.0
 48
0.0
140
3.0
141
-5.0
142
0.0
143
25.399999999999999
144
-1.0
145
0.0
146
1.0
147
1.0
 71
     0
 72
     0
 73
     0
 74
     0
 75
     0
 76
     0
 77
     1
 78
     8
170
     0
171
     0
172
     1
173
     0
174
     0
175
     0
176
   256
177
   256
178
   256
  0
DIMSTYLE
  2
BYGG-014406$0$STANDARD
 70
     0
  3

  4

  5

  6

  7

 40
1.0
 41
0.18
 42
0.0625
 43
0.38
 44
0.18
 45
0.0
 46
0.0
 47
0.0
 48
0.0
140
0.18
141
0.09
142
0.0
143
25.399999999999999
144
1.0
145
0.0
146
1.0
147
0.09
 71
     0
 72
     0
 73
     1
 74
     1
 75
     0
 76
     0
 77
     0
 78
     0
170
     0
171
     2
172
     0
173
     0
174
     0
175
     0
176
     0
177
     0
178
     0
  0
DIMSTYLE
  2
BYGG-021536$0$MASKIN
 70
     0
  3

  4

  5

  6

  7

 40
0.0
 41
3.0
 42
1.5
 43
10.0
 44
1.5
 45
0.0
 46
0.0
 47
0.0
 48
0.0
140
3.0
141
-5.0
142
0.0
143
25.399999999999999
144
-1.0
145
0.0
146
1.0
147
1.0
 71
     0
 72
     0
 73
     0
 74
     0
 75
     0
 76
     0
 77
     1
 78
     8
170
     0
171
     0
172
     1
173
     0
174
     0
175
     0
176
   256
177
   256
178
   256
  0
DIMSTYLE
  2
BYGG-021536$0$STANDARD
 70
     0
  3

  4

  5

  6

  7

 40
1.0
 41
0.18
 42
0.0625
 43
0.38
 44
0.18
 45
0.0
 46
0.0
 47
0.0
 48
0.0
140
0.18
141
0.09
142
0.0
143
25.399999999999999
144
1.0
145
0.0
146
1.0
147
0.09
 71
     0
 72
     0
 73
     1
 74
     1
 75
     0
 76
     0
 77
     0
 78
     0
170
     0
171
     2
172
     0
173
     0
174
     0
175
     0
176
     0
177
     0
178
     0
  0
DIMSTYLE
  2
BYGG-024924$0$MASKIN
 70
     0
  3

  4

  5

  6

  7

 40
0.0
 41
3.0
 42
1.5
 43
10.0
 44
1.5
 45
0.0
 46
0.0
 47
0.0
 48
0.0
140
3.0
141
-5.0
142
0.0
143
25.399999999999999
144
-1.0
145
0.0
146
1.0
147
1.0
 71
     0
 72
     0
 73
     0
 74
     0
 75
     0
 76
     0
 77
     1
 78
     8
170
     0
171
     0
172
     1
173
     0
174
     0
175
     0
176
   256
177
   256
178
     2
  0
DIMSTYLE
  2
BYGG-024924$0$STANDARD
 70
     0
  3

  4

  5

  6

  7

 40
1.0
 41
0.18
 42
0.0625
 43
0.38
 44
0.18
 45
0.0
 46
0.0
 47
0.0
 48
0.0
140
0.18
141
0.09
142
0.0
143
25.399999999999999
144
1.0
145
0.0
146
1.0
147
0.09
 71
     0
 72
     0
 73
     1
 74
     1
 75
     0
 76
     0
 77
     0
 78
     0
170
     0
171
     2
172
     0
173
     0
174
     0
175
     0
176
     0
177
     0
178
     0
  0
DIMSTYLE
  2
BYGG-024924$0$ANNOTATIVE
 70
     0
  3

  4

  5

  6

  7

 40
1.0
 41
0.18
 42
0.0625
 43
0.38
 44
0.18
 45
0.0
 46
0.0
 47
0.0
 48
0.0
140
0.18
141
0.09
142
0.0
143
25.399999999999999
144
1.0
145
0.0
146
1.0
147
0.09
 71
     0
 72
     0
 73
     1
 74
     1
 75
     0
 76
     0
 77
     0
 78
     0
170
     0
171
     2
172
     0
173
     0
174
     0
175
     0
176
     0
177
     0
178
     0
  0
DIMSTYLE
  2
BYGG-024935$0$STANDARD
 70
     0
  3

  4

  5

  6

  7

 40
1.0
 41
0.18
 42
0.0625
 43
0.38
 44
0.18
 45
0.0
 46
0.0
 47
0.0
 48
0.0
140
0.18
141
0.09
142
0.0
143
25.399999999999999
144
1.0
145
0.0
146
1.0
147
0.09
 71
     0
 72
     0
 73
     1
 74
     1
 75
     0
 76
     0
 77
     0
 78
     0
170
     0
171
     2
172
     0
173
     0
174
     0
175
     0
176
     0
177
     0
178
     0
  0
DIMSTYLE
  2
BYGG-024935$0$MASKIN
 70
     0
  3

  4

  5

  6

  7

 40
0.0
 41
3.0
 42
1.5
 43
10.0
 44
1.5
 45
0.0
 46
0.0
 47
0.0
 48
0.0
140
3.0
141
-5.0
142
0.0
143
25.399999999999999
144
-1.0
145
0.0
146
1.0
147
1.0
 71
     0
 72
     0
 73
     0
 74
     0
 75
     0
 76
     0
 77
     1
 78
     8
170
     0
171
     0
172
     1
173
     0
174
     0
175
     0
176
   256
177
   256
178
     2
  0
ENDTAB
  0
ENDSEC
  0
SECTION
  2
BLOCKS
  0
BLOCK
  8
0
  2
$MODEL_SPACE
 70
     0
 10
0.0
 20
0.0
 30
0.0
  3
$MODEL_SPACE
  1

  0
ENDBLK
  5
37
  8
0
  0
BLOCK
 67
     1
  8
0
  2
$PAPER_SPACE
 70
     0
 10
0.0
 20
0.0
 30
0.0
  3
$PAPER_SPACE
  1

  0
ENDBLK
  5
35
 67
     1
  8
0
  0
BLOCK
  8
0
  2
*U77
 70
     1
 10
0.0
 20
0.0
 30
0.0
  3
*U77
  1

  0
TEXT
  5
1281
  8
SAPA_ARTIKELNR
 10
34.233922620031997
 20
91.244211193227088
 30
0.0
 40
3.5
  1
74426
  7
ISO
  0
ENDBLK
  5
1283
  8
0
  0
BLOCK
  8
0
  2
*U78
 70
     1
 10
0.0
 20
0.0
 30
0.0
  3
*U78
  1

  0
TEXT
  5
1285
  8
SAPA_ARTIKELNR
 10
87.720426844355202
 20
91.244211193227088
 30
0.0
 40
3.5
  1
74517
  7
ISO
  0
ENDBLK
  5
1287
  8
0
  0
BLOCK
  8
0
  2
*U79
 70
     1
 10
0.0
 20
0.0
 30
0.0
  3
*U79
  1

  0
TEXT
  5
1289
  8
SAPA_ARTIKELNR
 10
186.81774382982019
 20
91.244211193227088
 30
0.0
 40
3.5
  1
74016
  7
ISO
  0
ENDBLK
  5
128B
  8
0
  0
BLOCK
  8
0
  2
*X80
 70
     1
 10
0.0
 20
0.0
 30
0.0
  3
*X80
  1

  0
LINE
  5
1B2B
  8
0
 62
     0
 10
81.625665042239234
 20
65.568499383007776
 30
-0.1
 11
77.425665042239174
 21
65.568499383007776
 31
-0.1
  0
LINE
  5
1B2C
  8
0
 62
     0
 10
81.176803529648339
 20
64.457249383007763
 30
-0.1
 11
77.874526755238179
 21
64.457249383007763
 31
-0.1
  0
LINE
  5
1B2D
  8
0
 62
     0
 10
80.498920968390493
 20
63.345999383007779
 30
-0.1
 11
78.475333402547804
 21
63.345999383007779
 31
-0.1
  0
LINE
  5
1B2E
  8
0
 62
     0
 10
80.525665042178915
 20
62.234749383007767
 30
-0.1
 11
78.525665041636785
 21
62.234749383007767
 31
-0.1
  0
LINE
  5
1B2F
  8
0
 62
     0
 10
80.525665042178915
 20
61.123499383007768
 30
-0.1
 11
78.525665041662705
 21
61.123499383007768
 31
-0.1
  0
LINE
  5
1B30
  8
0
 62
     0
 10
80.525665042178915
 20
60.012249383007777
 30
-0.1
 11
78.525665041688626
 21
60.012249383007777
 31
-0.1
  0
LINE
  5
1B31
  8
0
 62
     0
 10
80.525665042178915
 20
58.900999383007779
 30
-0.1
 11
78.525665041714575
 21
58.900999383007779
 31
-0.1
  0
LINE
  5
1B32
  8
0
 62
     0
 10
80.525665042178915
 20
57.789749383007781
 30
-0.1
 11
78.525665041740496
 21
57.789749383007781
 31
-0.1
  0
LINE
  5
1B33
  8
0
 62
     0
 10
80.525665042178915
 20
56.678499383007768
 30
-0.1
 11
78.525665041766416
 21
56.678499383007768
 31
-0.1
  0
LINE
  5
1B34
  8
0
 62
     0
 10
80.525665042178915
 20
55.567249383007777
 30
-0.1
 11
78.525665041792337
 21
55.567249383007777
 31
-0.1
  0
LINE
  5
1B35
  8
0
 62
     0
 10
80.525665042178915
 20
54.455999383007779
 30
-0.1
 11
78.525665041818257
 21
54.455999383007779
 31
-0.1
  0
LINE
  5
1B36
  8
0
 62
     0
 10
80.525665042178915
 20
53.34474938300778
 30
-0.1
 11
78.525665041844206
 21
53.34474938300778
 31
-0.1
  0
LINE
  5
1B37
  8
0
 62
     0
 10
80.525665042178915
 20
52.233499383007782
 30
-0.1
 11
78.525665041870127
 21
52.233499383007782
 31
-0.1
  0
LINE
  5
1B38
  8
0
 62
     0
 10
80.525665042178915
 20
51.12224938300777
 30
-0.1
 11
78.525665041896048
 21
51.12224938300777
 31
-0.1
  0
LINE
  5
1B39
  8
0
 62
     0
 10
80.525665042178915
 20
50.010999383007778
 30
-0.1
 11
78.525665041921954
 21
50.010999383007778
 31
-0.1
  0
LINE
  5
1B3A
  8
0
 62
     0
 10
80.525665042178915
 20
48.89974938300778
 30
-0.1
 11
78.525665041947889
 21
48.89974938300778
 31
-0.1
  0
LINE
  5
1B3B
  8
0
 62
     0
 10
80.525665042178915
 20
47.788499383007782
 30
-0.1
 11
78.525665041973809
 21
47.788499383007782
 31
-0.1
  0
LINE
  5
1B3C
  8
0
 62
     0
 10
80.525665042178915
 20
46.677249383007783
 30
-0.1
 11
78.525665041999758
 21
46.677249383007783
 31
-0.1
  0
LINE
  5
1B3D
  8
0
 62
     0
 10
80.525665042178915
 20
45.565999383007771
 30
-0.1
 11
78.525665042025679
 21
45.565999383007771
 31
-0.1
  0
LINE
  5
1B3E
  8
0
 62
     0
 10
80.525665042178915
 20
44.45474938300778
 30
-0.1
 11
78.5256650420516
 21
44.45474938300778
 31
-0.1
  0
LINE
  5
1B3F
  8
0
 62
     0
 10
80.525665042178915
 20
43.343499383007767
 30
-0.1
 11
78.52566504207752
 21
43.343499383007767
 31
-0.1
  0
LINE
  5
1B40
  8
0
 62
     0
 10
80.525665042178915
 20
42.232249383007783
 30
-0.1
 11
78.525665042103441
 21
42.232249383007783
 31
-0.1
  0
LINE
  5
1B41
  8
0
 62
     0
 10
80.525665042178915
 20
41.120999383007778
 30
-0.1
 11
78.525665042129361
 21
41.120999383007778
 31
-0.1
  0
LINE
  5
1B42
  8
0
 62
     0
 10
80.525665042178915
 20
40.009749383007772
 30
-0.1
 11
78.52566504215531
 21
40.009749383007772
 31
-0.1
  0
LINE
  5
1B43
  8
0
 62
     0
 10
80.525665042178915
 20
38.898499383007781
 30
-0.1
 11
78.521541587136213
 21
38.898499383007781
 31
-0.1
  0
LINE
  5
1B44
  8
0
 62
     0
 10
81.036597840843172
 20
37.787249383007783
 30
-0.1
 11
78.014732506629684
 21
37.787249383007783
 31
-0.1
  0
LINE
  5
1B45
  8
0
 62
     0
 10
81.625665042233464
 20
36.675999383007778
 30
-0.1
 11
77.425665042233391
 21
36.675999383007778
 31
-0.1
  0
ENDBLK
  5
1B47
  8
0
  0
BLOCK
  8
0
  2
*X81
 70
     1
 10
0.0
 20
0.0
 30
0.0
  3
*X81
  1

  0
LINE
  5
1B49
  8
0
 62
     0
 10
2.2721958242497871
 20
37.11124984580276
 30
0.0
 11
6.0746739111594596
 21
37.11124984580276
 31
0.0
  0
LINE
  5
1B4A
  8
0
 62
     0
 10
3.3052720350134281
 20
38.222499845802759
 30
0.0
 11
5.4330934245225064
 21
38.222499845802759
 31
0.0
  0
LINE
  5
1B4B
  8
0
 62
     0
 10
2.932889389662042
 20
39.333749845802771
 30
0.0
 11
5.1728786377489024
 21
39.333749845802771
 31
0.0
  0
LINE
  5
1B4C
  8
0
 62
     0
 10
0.3016385359674657
 20
40.444999845802762
 30
0.0
 11
5.0398307747076974
 21
40.444999845802762
 31
0.0
  0
LINE
  5
1B4D
  8
0
 62
     0
 10
0.2781389187509795
 20
41.55624984580276
 30
0.0
 11
2.674229625250232
 21
41.55624984580276
 31
0.0
  0
LINE
  5
1B4E
  8
0
 62
     0
 10
0.2781389187509826
 20
42.667499845802752
 30
0.0
 11
2.0781389187509349
 21
42.667499845802752
 31
0.0
  0
LINE
  5
1B4F
  8
0
 62
     0
 10
0.2781389187509855
 20
43.778749845802757
 30
0.0
 11
2.078138918750942
 21
43.778749845802757
 31
0.0
  0
LINE
  5
1B50
  8
0
 62
     0
 10
0.2781389187509886
 20
44.889999845802762
 30
0.0
 11
2.0781389187509491
 21
44.889999845802762
 31
0.0
  0
LINE
  5
1B51
  8
0
 62
     0
 10
0.2781389187509916
 20
46.001249845802761
 30
0.0
 11
2.0781389187509558
 21
46.001249845802761
 31
0.0
  0
LINE
  5
1B52
  8
0
 62
     0
 10
0.2781389187509947
 20
47.112499845802759
 30
0.0
 11
2.0781389187509629
 21
47.112499845802759
 31
0.0
  0
LINE
  5
1B53
  8
0
 62
     0
 10
0.2781389187509977
 20
48.22374984580275
 30
0.0
 11
2.07813891875097
 21
48.22374984580275
 31
0.0
  0
LINE
  5
1B54
  8
0
 62
     0
 10
0.2781389187510007
 20
49.334999845802763
 30
0.0
 11
2.0781389187509771
 21
49.334999845802763
 31
0.0
  0
LINE
  5
1B55
  8
0
 62
     0
 10
0.2781389187510038
 20
50.446249845802761
 30
0.0
 11
2.0781389187509842
 21
50.446249845802761
 31
0.0
  0
LINE
  5
1B56
  8
0
 62
     0
 10
0.2781389187510084
 20
51.557499845802759
 30
0.0
 11
2.078138918750986
 21
51.557499845802759
 31
0.0
  0
LINE
  5
1B57
  8
0
 62
     0
 10
0.2781389187510145
 20
52.668749845802758
 30
0.0
 11
2.078138918750986
 21
52.668749845802758
 31
0.0
  0
LINE
  5
1B58
  8
0
 62
     0
 10
0.2781389187510206
 20
53.779999845802763
 30
0.0
 11
2.078138918750986
 21
53.779999845802763
 31
0.0
  0
LINE
  5
1B59
  8
0
 62
     0
 10
0.2781389187510268
 20
54.891249845802761
 30
0.0
 11
2.0781389187509869
 21
54.891249845802761
 31
0.0
  0
LINE
  5
1B5A
  8
0
 62
     0
 10
0.278138918751033
 20
56.00249984580276
 30
0.0
 11
2.0781389187509869
 21
56.00249984580276
 31
0.0
  0
LINE
  5
1B5B
  8
0
 62
     0
 10
0.2781389187510391
 20
57.113749845802758
 30
0.0
 11
2.0781389187509869
 21
57.113749845802758
 31
0.0
  0
LINE
  5
1B5C
  8
0
 62
     0
 10
0.2781389187510453
 20
58.224999845802749
 30
0.0
 11
2.0781389187509869
 21
58.224999845802749
 31
0.0
  0
LINE
  5
1B5D
  8
0
 62
     0
 10
0.2781389187510515
 20
59.336249845802747
 30
0.0
 11
2.0781389187509882
 21
59.336249845802747
 31
0.0
  0
LINE
  5
1B5E
  8
0
 62
     0
 10
0.2781389187510576
 20
60.44749984580276
 30
0.0
 11
2.6845318368472122
 21
60.44749984580276
 31
0.0
  0
LINE
  5
1B5F
  8
0
 62
     0
 10
0.3030050283284024
 20
61.558749845802751
 30
0.0
 11
5.0419756302776833
 21
61.558749845802751
 31
0.0
  0
LINE
  5
1B60
  8
0
 62
     0
 10
2.9431916012590591
 20
62.669999845802757
 30
0.0
 11
5.1728786377490401
 21
62.669999845802757
 31
0.0
  0
LINE
  5
1B61
  8
0
 62
     0
 10
3.3026442585694462
 20
63.781249845802762
 30
0.0
 11
5.4352583138848916
 21
63.781249845802762
 31
0.0
  0
LINE
  5
1B62
  8
0
 62
     0
 10
2.2688960027840031
 20
64.89249984580276
 30
0.0
 11
6.0768388005219007
 21
64.89249984580276
 31
0.0
  0
ENDBLK
  5
1B64
  8
0
  0
BLOCK
  8
0
  2
*X82
 70
     1
 10
0.0
 20
0.0
 30
0.0
  3
*X82
  1

  0
LINE
  5
1B66
  8
0
 62
     0
 10
97.37311658926005
 20
36.431500701365742
 30
0.0
 11
101.5731165892601
 21
36.431500701365742
 31
0.0
  0
LINE
  5
1B67
  8
0
 62
     0
 10
97.821978101850945
 20
37.54275070136574
 30
0.0
 11
101.12425487626111
 21
37.54275070136574
 31
0.0
  0
LINE
  5
1B68
  8
0
 62
     0
 10
98.499860663108777
 20
38.654000701365739
 30
0.0
 11
100.52344822895139
 21
38.654000701365739
 31
0.0
  0
LINE
  5
1B69
  8
0
 62
     0
 10
98.473116589320369
 20
39.765250701365737
 30
0.0
 11
100.4731165898625
 21
39.765250701365737
 31
0.0
  0
LINE
  5
1B6A
  8
0
 62
     0
 10
98.473116589320369
 20
40.876500701365742
 30
0.0
 11
100.47311658983649
 21
40.876500701365742
 31
0.0
  0
LINE
  5
1B6B
  8
0
 62
     0
 10
98.473116589320369
 20
41.987750701365741
 30
0.0
 11
100.4731165898106
 21
41.987750701365741
 31
0.0
  0
LINE
  5
1B6C
  8
0
 62
     0
 10
98.473116589320369
 20
43.099000701365732
 30
0.0
 11
100.47311658978469
 21
43.099000701365732
 31
0.0
  0
LINE
  5
1B6D
  8
0
 62
     0
 10
98.473116589320369
 20
44.210250701365737
 30
0.0
 11
100.4731165897588
 21
44.210250701365737
 31
0.0
  0
LINE
  5
1B6E
  8
0
 62
     0
 10
98.473116589320369
 20
45.321500701365743
 30
0.0
 11
100.4731165897329
 21
45.321500701365743
 31
0.0
  0
LINE
  5
1B6F
  8
0
 62
     0
 10
98.473116589320369
 20
46.432750701365727
 30
0.0
 11
100.4731165897069
 21
46.432750701365727
 31
0.0
  0
LINE
  5
1B70
  8
0
 62
     0
 10
98.473116589320369
 20
47.544000701365739
 30
0.0
 11
100.473116589681
 21
47.544000701365739
 31
0.0
  0
LINE
  5
1B71
  8
0
 62
     0
 10
98.473116589320369
 20
48.65525070136573
 30
0.0
 11
100.47311658965501
 21
48.65525070136573
 31
0.0
  0
LINE
  5
1B72
  8
0
 62
     0
 10
98.473116589320369
 20
49.766500701365743
 30
0.0
 11
100.4731165896291
 21
49.766500701365743
 31
0.0
  0
LINE
  5
1B73
  8
0
 62
     0
 10
98.473116589320369
 20
50.877750701365741
 30
0.0
 11
100.47311658960319
 21
50.877750701365741
 31
0.0
  0
LINE
  5
1B74
  8
0
 62
     0
 10
98.473116589320369
 20
51.989000701365732
 30
0.0
 11
100.4731165895773
 21
51.989000701365732
 31
0.0
  0
LINE
  5
1B75
  8
0
 62
     0
 10
98.473116589320369
 20
53.100250701365738
 30
0.0
 11
100.4731165895514
 21
53.100250701365738
 31
0.0
  0
LINE
  5
1B76
  8
0
 62
     0
 10
98.473116589320369
 20
54.211500701365729
 30
0.0
 11
100.4731165895254
 21
54.211500701365729
 31
0.0
  0
LINE
  5
1B77
  8
0
 62
     0
 10
98.473116589320369
 20
55.322750701365742
 30
0.0
 11
100.4731165894995
 21
55.322750701365742
 31
0.0
  0
LINE
  5
1B78
  8
0
 62
     0
 10
98.473116589320369
 20
56.43400070136574
 30
0.0
 11
100.47311658947361
 21
56.43400070136574
 31
0.0
  0
LINE
  5
1B79
  8
0
 62
     0
 10
98.473116589320369
 20
57.545250701365731
 30
0.0
 11
100.4731165894477
 21
57.545250701365731
 31
0.0
  0
LINE
  5
1B7A
  8
0
 62
     0
 10
98.473116589320369
 20
58.656500701365736
 30
0.0
 11
100.47311658942171
 21
58.656500701365736
 31
0.0
  0
LINE
  5
1B7B
  8
0
 62
     0
 10
98.473116589320369
 20
59.767750701365728
 30
0.0
 11
100.4731165893958
 21
59.767750701365728
 31
0.0
  0
LINE
  5
1B7C
  8
0
 62
     0
 10
98.473116589320369
 20
60.87900070136574
 30
0.0
 11
100.47311658936989
 21
60.87900070136574
 31
0.0
  0
LINE
  5
1B7D
  8
0
 62
     0
 10
98.473116589320369
 20
61.990250701365738
 30
0.0
 11
100.4731165893439
 21
61.990250701365738
 31
0.0
  0
LINE
  5
1B7E
  8
0
 62
     0
 10
98.473116589320369
 20
63.101500701365737
 30
0.0
 11
100.477240044363
 21
63.101500701365737
 31
0.0
  0
LINE
  5
1B7F
  8
0
 62
     0
 10
97.962183790656098
 20
64.212750701365735
 30
0.0
 11
100.9840491248696
 21
64.212750701365735
 31
0.0
  0
LINE
  5
1B80
  8
0
 62
     0
 10
97.373116589265805
 20
65.324000701365733
 30
0.0
 11
101.57311658926589
 21
65.324000701365733
 31
0.0
  0
ENDBLK
  5
1B82
  8
0
  0
BLOCK
  8
0
  2
*X83
 70
     1
 10
0.0
 20
0.0
 30
0.0
  3
*X83
  1

  0
LINE
  5
1B84
  8
0
 62
     0
 10
278.73037583722709
 20
64.892499766537156
 30
0.0
 11
274.92243303948919
 21
64.892499766537156
 31
0.0
  0
LINE
  5
1B85
  8
0
 62
     0
 10
277.69662758144159
 20
63.781249766537151
 30
0.0
 11
275.56401352612619
 21
63.781249766537151
 31
0.0
  0
LINE
  5
1B86
  8
0
 62
     0
 10
278.05608023875197
 20
62.669999766537153
 30
0.0
 11
275.82639320226212
 21
62.669999766537153
 31
0.0
  0
LINE
  5
1B87
  8
0
 62
     0
 10
280.69626681168268
 20
61.558749766537147
 30
0.0
 11
275.9572962097335
 21
61.558749766537147
 31
0.0
  0
LINE
  5
1B88
  8
0
 62
     0
 10
280.72113292125999
 20
60.447499766537149
 30
0.0
 11
278.31474000316388
 21
60.447499766537149
 31
0.0
  0
LINE
  5
1B89
  8
0
 62
     0
 10
280.72113292125999
 20
59.336249766537151
 30
0.0
 11
278.9211329212601
 21
59.336249766537151
 31
0.0
  0
LINE
  5
1B8A
  8
0
 62
     0
 10
280.72113292125999
 20
58.224999766537152
 30
0.0
 11
278.9211329212601
 21
58.224999766537152
 31
0.0
  0
LINE
  5
1B8B
  8
0
 62
     0
 10
280.72113292125999
 20
57.113749766537147
 30
0.0
 11
278.9211329212601
 21
57.113749766537147
 31
0.0
  0
LINE
  5
1B8C
  8
0
 62
     0
 10
280.72113292125999
 20
56.002499766537149
 30
0.0
 11
278.9211329212601
 21
56.002499766537149
 31
0.0
  0
LINE
  5
1B8D
  8
0
 62
     0
 10
280.72113292125999
 20
54.891249766537157
 30
0.0
 11
278.9211329212601
 21
54.891249766537157
 31
0.0
  0
LINE
  5
1B8E
  8
0
 62
     0
 10
280.72113292125999
 20
53.779999766537159
 30
0.0
 11
278.9211329212601
 21
53.779999766537159
 31
0.0
  0
LINE
  5
1B8F
  8
0
 62
     0
 10
280.72113292125999
 20
52.668749766537161
 30
0.0
 11
278.9211329212601
 21
52.668749766537161
 31
0.0
  0
LINE
  5
1B90
  8
0
 62
     0
 10
280.72113292125999
 20
51.557499766537163
 30
0.0
 11
278.9211329212601
 21
51.557499766537163
 31
0.0
  0
LINE
  5
1B91
  8
0
 62
     0
 10
280.72113292125999
 20
50.44624976653715
 30
0.0
 11
278.9211329212601
 21
50.44624976653715
 31
0.0
  0
LINE
  5
1B92
  8
0
 62
     0
 10
280.72113292125999
 20
49.334999766537152
 30
0.0
 11
278.9211329212601
 21
49.334999766537152
 31
0.0
  0
LINE
  5
1B93
  8
0
 62
     0
 10
280.72113292125999
 20
48.223749766537161
 30
0.0
 11
278.9211329212601
 21
48.223749766537161
 31
0.0
  0
LINE
  5
1B94
  8
0
 62
     0
 10
280.72113292125999
 20
47.112499766537148
 30
0.0
 11
278.9211329212601
 21
47.112499766537148
 31
0.0
  0
LINE
  5
1B95
  8
0
 62
     0
 10
280.72113292125999
 20
46.001249766537157
 30
0.0
 11
278.9211329212601
 21
46.001249766537157
 31
0.0
  0
LINE
  5
1B96
  8
0
 62
     0
 10
280.72113292126011
 20
44.889999766537152
 30
0.0
 11
278.9211329212601
 21
44.889999766537152
 31
0.0
  0
LINE
  5
1B97
  8
0
 62
     0
 10
280.72113292126011
 20
43.77874976653716
 30
0.0
 11
278.9211329212601
 21
43.77874976653716
 31
0.0
  0
LINE
  5
1B98
  8
0
 62
     0
 10
280.72113292126011
 20
42.667499766537162
 30
0.0
 11
278.9211329212601
 21
42.667499766537162
 31
0.0
  0
LINE
  5
1B99
  8
0
 62
     0
 10
280.72113292126011
 20
41.55624976653715
 30
0.0
 11
278.32504221476091
 21
41.55624976653715
 31
0.0
  0
LINE
  5
1B9A
  8
0
 62
     0
 10
280.69763330404362
 20
40.444999766537158
 30
0.0
 11
275.95944106530328
 21
40.444999766537158
 31
0.0
  0
LINE
  5
1B9B
  8
0
 62
     0
 10
278.06638245034912
 20
39.33374976653716
 30
0.0
 11
275.82639320226218
 21
39.33374976653716
 31
0.0
  0
LINE
  5
1B9C
  8
0
 62
     0
 10
277.69399980499759
 20
38.222499766537148
 30
0.0
 11
275.56617841548859
 21
38.222499766537148
 31
0.0
  0
LINE
  5
1B9D
  8
0
 62
     0
 10
278.72707601576133
 20
37.111249766537163
 30
0.0
 11
274.9245979288516
 21
37.111249766537163
 31
0.0
  0
ENDBLK
  5
1B9F
  8
0
  0
BLOCK
  8
0
  2
*X84
 70
     1
 10
0.0
 20
0.0
 30
0.0
  3
*X84
  1

  0
LINE
  5
1BA1
  8
0
 62
     0
 10
108.26962416278511
 20
37.107500060154621
 30
0.0
 11
112.077566960523
 21
37.107500060154621
 31
0.0
  0
LINE
  5
1BA2
  8
0
 62
     0
 10
109.3033724185706
 20
38.218750060154619
 30
0.0
 11
111.435986473886
 21
38.218750060154619
 31
0.0
  0
LINE
  5
1BA3
  8
0
 62
     0
 10
108.9439197612602
 20
39.330000060154632
 30
0.0
 11
111.1736067977502
 21
39.330000060154632
 31
0.0
  0
LINE
  5
1BA4
  8
0
 62
     0
 10
106.3037331883295
 20
40.441250060154623
 30
0.0
 11
111.04270379027879
 21
40.441250060154623
 31
0.0
  0
LINE
  5
1BA5
  8
0
 62
     0
 10
106.2788670787522
 20
41.552500060154621
 30
0.0
 11
108.6852599968483
 21
41.552500060154621
 31
0.0
  0
LINE
  5
1BA6
  8
0
 62
     0
 10
106.2788670787522
 20
42.663750060154619
 30
0.0
 11
108.0788670787521
 21
42.663750060154619
 31
0.0
  0
LINE
  5
1BA7
  8
0
 62
     0
 10
106.2788670787522
 20
43.775000060154618
 30
0.0
 11
108.0788670787521
 21
43.775000060154618
 31
0.0
  0
LINE
  5
1BA8
  8
0
 62
     0
 10
106.2788670787522
 20
44.886250060154623
 30
0.0
 11
108.0788670787521
 21
44.886250060154623
 31
0.0
  0
LINE
  5
1BA9
  8
0
 62
     0
 10
106.2788670787522
 20
45.997500060154621
 30
0.0
 11
108.0788670787521
 21
45.997500060154621
 31
0.0
  0
LINE
  5
1BAA
  8
0
 62
     0
 10
106.2788670787521
 20
47.10875006015462
 30
0.0
 11
108.0788670787521
 21
47.10875006015462
 31
0.0
  0
LINE
  5
1BAB
  8
0
 62
     0
 10
106.2788670787521
 20
48.220000060154611
 30
0.0
 11
108.0788670787521
 21
48.220000060154611
 31
0.0
  0
LINE
  5
1BAC
  8
0
 62
     0
 10
106.2788670787521
 20
49.331250060154623
 30
0.0
 11
108.0788670787521
 21
49.331250060154623
 31
0.0
  0
LINE
  5
1BAD
  8
0
 62
     0
 10
106.2788670787521
 20
50.442500060154622
 30
0.0
 11
108.0788670787521
 21
50.442500060154622
 31
0.0
  0
LINE
  5
1BAE
  8
0
 62
     0
 10
106.2788670787521
 20
51.55375006015462
 30
0.0
 11
108.0788670787521
 21
51.55375006015462
 31
0.0
  0
LINE
  5
1BAF
  8
0
 62
     0
 10
106.2788670787521
 20
52.665000060154618
 30
0.0
 11
108.0788670787521
 21
52.665000060154618
 31
0.0
  0
LINE
  5
1BB0
  8
0
 62
     0
 10
106.2788670787521
 20
53.776250060154617
 30
0.0
 11
108.0788670787521
 21
53.776250060154617
 31
0.0
  0
LINE
  5
1BB1
  8
0
 62
     0
 10
106.2788670787521
 20
54.887500060154622
 30
0.0
 11
108.0788670787521
 21
54.887500060154622
 31
0.0
  0
LINE
  5
1BB2
  8
0
 62
     0
 10
106.2788670787521
 20
55.99875006015462
 30
0.0
 11
108.0788670787521
 21
55.99875006015462
 31
0.0
  0
LINE
  5
1BB3
  8
0
 62
     0
 10
106.2788670787521
 20
57.110000060154618
 30
0.0
 11
108.0788670787521
 21
57.110000060154618
 31
0.0
  0
LINE
  5
1BB4
  8
0
 62
     0
 10
106.2788670787521
 20
58.22125006015461
 30
0.0
 11
108.0788670787521
 21
58.22125006015461
 31
0.0
  0
LINE
  5
1BB5
  8
0
 62
     0
 10
106.2788670787521
 20
59.332500060154622
 30
0.0
 11
108.078867078752
 21
59.332500060154622
 31
0.0
  0
LINE
  5
1BB6
  8
0
 62
     0
 10
106.2788670787521
 20
60.44375006015462
 30
0.0
 11
108.67495778525139
 21
60.44375006015462
 31
0.0
  0
LINE
  5
1BB7
  8
0
 62
     0
 10
106.3023666959686
 20
61.555000060154612
 30
0.0
 11
111.0405589347088
 21
61.555000060154612
 31
0.0
  0
LINE
  5
1BB8
  8
0
 62
     0
 10
108.9336175496631
 20
62.666250060154617
 30
0.0
 11
111.17360679775
 21
62.666250060154617
 31
0.0
  0
LINE
  5
1BB9
  8
0
 62
     0
 10
109.30600019501451
 20
63.777500060154622
 30
0.0
 11
111.4338215845236
 21
63.777500060154622
 31
0.0
  0
LINE
  5
1BBA
  8
0
 62
     0
 10
108.27292398425089
 20
64.888750060154621
 30
0.0
 11
112.0754020711606
 21
64.888750060154621
 31
0.0
  0
ENDBLK
  5
1BBC
  8
0
  0
BLOCK
  8
0
  2
*X85
 70
     1
 10
0.0
 20
0.0
 30
0.0
  3
*X85
  1

  0
LINE
  5
1BBE
  8
0
 62
     0
 10
81.625665042239234
 20
65.568499383007776
 30
-0.1
 11
77.425665042239174
 21
65.568499383007776
 31
-0.1
  0
LINE
  5
1BBF
  8
0
 62
     0
 10
81.176803529648339
 20
64.457249383007763
 30
-0.1
 11
77.874526755238179
 21
64.457249383007763
 31
-0.1
  0
LINE
  5
1BC0
  8
0
 62
     0
 10
80.498920968390493
 20
63.345999383007779
 30
-0.1
 11
78.475333402547804
 21
63.345999383007779
 31
-0.1
  0
LINE
  5
1BC1
  8
0
 62
     0
 10
80.525665042178915
 20
62.234749383007767
 30
-0.1
 11
78.525665041636785
 21
62.234749383007767
 31
-0.1
  0
LINE
  5
1BC2
  8
0
 62
     0
 10
80.525665042178915
 20
61.123499383007768
 30
-0.1
 11
78.525665041662705
 21
61.123499383007768
 31
-0.1
  0
LINE
  5
1BC3
  8
0
 62
     0
 10
80.525665042178915
 20
60.012249383007777
 30
-0.1
 11
78.525665041688626
 21
60.012249383007777
 31
-0.1
  0
LINE
  5
1BC4
  8
0
 62
     0
 10
80.525665042178915
 20
58.900999383007779
 30
-0.1
 11
78.525665041714575
 21
58.900999383007779
 31
-0.1
  0
LINE
  5
1BC5
  8
0
 62
     0
 10
80.525665042178915
 20
57.789749383007781
 30
-0.1
 11
78.525665041740496
 21
57.789749383007781
 31
-0.1
  0
LINE
  5
1BC6
  8
0
 62
     0
 10
80.525665042178915
 20
56.678499383007768
 30
-0.1
 11
78.525665041766416
 21
56.678499383007768
 31
-0.1
  0
LINE
  5
1BC7
  8
0
 62
     0
 10
80.525665042178915
 20
55.567249383007777
 30
-0.1
 11
78.525665041792337
 21
55.567249383007777
 31
-0.1
  0
LINE
  5
1BC8
  8
0
 62
     0
 10
80.525665042178915
 20
54.455999383007779
 30
-0.1
 11
78.525665041818257
 21
54.455999383007779
 31
-0.1
  0
LINE
  5
1BC9
  8
0
 62
     0
 10
80.525665042178915
 20
53.34474938300778
 30
-0.1
 11
78.525665041844206
 21
53.34474938300778
 31
-0.1
  0
LINE
  5
1BCA
  8
0
 62
     0
 10
80.525665042178915
 20
52.233499383007782
 30
-0.1
 11
78.525665041870127
 21
52.233499383007782
 31
-0.1
  0
LINE
  5
1BCB
  8
0
 62
     0
 10
80.525665042178915
 20
51.12224938300777
 30
-0.1
 11
78.525665041896048
 21
51.12224938300777
 31
-0.1
  0
LINE
  5
1BCC
  8
0
 62
     0
 10
80.525665042178915
 20
50.010999383007778
 30
-0.1
 11
78.525665041921954
 21
50.010999383007778
 31
-0.1
  0
LINE
  5
1BCD
  8
0
 62
     0
 10
80.525665042178915
 20
48.89974938300778
 30
-0.1
 11
78.525665041947889
 21
48.89974938300778
 31
-0.1
  0
LINE
  5
1BCE
  8
0
 62
     0
 10
80.525665042178915
 20
47.788499383007782
 30
-0.1
 11
78.525665041973809
 21
47.788499383007782
 31
-0.1
  0
LINE
  5
1BCF
  8
0
 62
     0
 10
80.525665042178915
 20
46.677249383007783
 30
-0.1
 11
78.525665041999758
 21
46.677249383007783
 31
-0.1
  0
LINE
  5
1BD0
  8
0
 62
     0
 10
80.525665042178915
 20
45.565999383007771
 30
-0.1
 11
78.525665042025679
 21
45.565999383007771
 31
-0.1
  0
LINE
  5
1BD1
  8
0
 62
     0
 10
80.525665042178915
 20
44.45474938300778
 30
-0.1
 11
78.5256650420516
 21
44.45474938300778
 31
-0.1
  0
LINE
  5
1BD2
  8
0
 62
     0
 10
80.525665042178915
 20
43.343499383007767
 30
-0.1
 11
78.52566504207752
 21
43.343499383007767
 31
-0.1
  0
LINE
  5
1BD3
  8
0
 62
     0
 10
80.525665042178915
 20
42.232249383007783
 30
-0.1
 11
78.525665042103441
 21
42.232249383007783
 31
-0.1
  0
LINE
  5
1BD4
  8
0
 62
     0
 10
80.525665042178915
 20
41.120999383007778
 30
-0.1
 11
78.525665042129361
 21
41.120999383007778
 31
-0.1
  0
LINE
  5
1BD5
  8
0
 62
     0
 10
80.525665042178915
 20
40.009749383007772
 30
-0.1
 11
78.52566504215531
 21
40.009749383007772
 31
-0.1
  0
LINE
  5
1BD6
  8
0
 62
     0
 10
80.525665042178915
 20
38.898499383007781
 30
-0.1
 11
78.521541587136213
 21
38.898499383007781
 31
-0.1
  0
LINE
  5
1BD7
  8
0
 62
     0
 10
81.036597840843172
 20
37.787249383007783
 30
-0.1
 11
78.014732506629684
 21
37.787249383007783
 31
-0.1
  0
LINE
  5
1BD8
  8
0
 62
     0
 10
81.625665042233464
 20
36.675999383007778
 30
-0.1
 11
77.425665042233391
 21
36.675999383007778
 31
-0.1
  0
ENDBLK
  5
1BDA
  8
0
  0
BLOCK
  8
0
  2
*X86
 70
     1
 10
0.0
 20
0.0
 30
0.0
  3
*X86
  1

  0
LINE
  5
1BDC
  8
0
 62
     0
 10
2.2721958242497871
 20
37.11124984580276
 30
0.0
 11
6.0746739111594596
 21
37.11124984580276
 31
0.0
  0
LINE
  5
1BDD
  8
0
 62
     0
 10
3.3052720350134281
 20
38.222499845802759
 30
0.0
 11
5.4330934245225064
 21
38.222499845802759
 31
0.0
  0
LINE
  5
1BDE
  8
0
 62
     0
 10
2.932889389662042
 20
39.333749845802771
 30
0.0
 11
5.1728786377489024
 21
39.333749845802771
 31
0.0
  0
LINE
  5
1BDF
  8
0
 62
     0
 10
0.3016385359674658
 20
40.444999845802762
 30
0.0
 11
5.0398307747076974
 21
40.444999845802762
 31
0.0
  0
LINE
  5
1BE0
  8
0
 62
     0
 10
0.2781389187509796
 20
41.55624984580276
 30
0.0
 11
2.674229625250232
 21
41.55624984580276
 31
0.0
  0
LINE
  5
1BE1
  8
0
 62
     0
 10
0.2781389187509826
 20
42.667499845802752
 30
0.0
 11
2.0781389187509349
 21
42.667499845802752
 31
0.0
  0
LINE
  5
1BE2
  8
0
 62
     0
 10
0.2781389187509856
 20
43.778749845802757
 30
0.0
 11
2.078138918750942
 21
43.778749845802757
 31
0.0
  0
LINE
  5
1BE3
  8
0
 62
     0
 10
0.2781389187509887
 20
44.889999845802762
 30
0.0
 11
2.0781389187509491
 21
44.889999845802762
 31
0.0
  0
LINE
  5
1BE4
  8
0
 62
     0
 10
0.2781389187509917
 20
46.001249845802761
 30
0.0
 11
2.0781389187509558
 21
46.001249845802761
 31
0.0
  0
LINE
  5
1BE5
  8
0
 62
     0
 10
0.2781389187509947
 20
47.112499845802759
 30
0.0
 11
2.0781389187509629
 21
47.112499845802759
 31
0.0
  0
LINE
  5
1BE6
  8
0
 62
     0
 10
0.2781389187509978
 20
48.22374984580275
 30
0.0
 11
2.07813891875097
 21
48.22374984580275
 31
0.0
  0
LINE
  5
1BE7
  8
0
 62
     0
 10
0.2781389187510008
 20
49.334999845802763
 30
0.0
 11
2.0781389187509771
 21
49.334999845802763
 31
0.0
  0
LINE
  5
1BE8
  8
0
 62
     0
 10
0.2781389187510038
 20
50.446249845802761
 30
0.0
 11
2.0781389187509842
 21
50.446249845802761
 31
0.0
  0
LINE
  5
1BE9
  8
0
 62
     0
 10
0.2781389187510084
 20
51.557499845802759
 30
0.0
 11
2.078138918750986
 21
51.557499845802759
 31
0.0
  0
LINE
  5
1BEA
  8
0
 62
     0
 10
0.2781389187510146
 20
52.668749845802758
 30
0.0
 11
2.078138918750986
 21
52.668749845802758
 31
0.0
  0
LINE
  5
1BEB
  8
0
 62
     0
 10
0.2781389187510207
 20
53.779999845802763
 30
0.0
 11
2.078138918750986
 21
53.779999845802763
 31
0.0
  0
LINE
  5
1BEC
  8
0
 62
     0
 10
0.2781389187510268
 20
54.891249845802761
 30
0.0
 11
2.0781389187509869
 21
54.891249845802761
 31
0.0
  0
LINE
  5
1BED
  8
0
 62
     0
 10
0.278138918751033
 20
56.00249984580276
 30
0.0
 11
2.0781389187509869
 21
56.00249984580276
 31
0.0
  0
LINE
  5
1BEE
  8
0
 62
     0
 10
0.2781389187510392
 20
57.113749845802758
 30
0.0
 11
2.0781389187509869
 21
57.113749845802758
 31
0.0
  0
LINE
  5
1BEF
  8
0
 62
     0
 10
0.2781389187510453
 20
58.224999845802749
 30
0.0
 11
2.0781389187509869
 21
58.224999845802749
 31
0.0
  0
LINE
  5
1BF0
  8
0
 62
     0
 10
0.2781389187510515
 20
59.336249845802747
 30
0.0
 11
2.0781389187509882
 21
59.336249845802747
 31
0.0
  0
LINE
  5
1BF1
  8
0
 62
     0
 10
0.2781389187510577
 20
60.44749984580276
 30
0.0
 11
2.6845318368472122
 21
60.44749984580276
 31
0.0
  0
LINE
  5
1BF2
  8
0
 62
     0
 10
0.3030050283284025
 20
61.558749845802751
 30
0.0
 11
5.0419756302776833
 21
61.558749845802751
 31
0.0
  0
LINE
  5
1BF3
  8
0
 62
     0
 10
2.9431916012590591
 20
62.669999845802757
 30
0.0
 11
5.1728786377490401
 21
62.669999845802757
 31
0.0
  0
LINE
  5
1BF4
  8
0
 62
     0
 10
3.3026442585694462
 20
63.781249845802762
 30
0.0
 11
5.4352583138848916
 21
63.781249845802762
 31
0.0
  0
LINE
  5
1BF5
  8
0
 62
     0
 10
2.2688960027840031
 20
64.89249984580276
 30
0.0
 11
6.0768388005219007
 21
64.89249984580276
 31
0.0
  0
ENDBLK
  5
1BF7
  8
0
  0
BLOCK
  8
0
  2
*X87
 70
     1
 10
0.0
 20
0.0
 30
0.0
  3
*X87
  1

  0
LINE
  5
1BF9
  8
0
 62
     0
 10
97.37311658926005
 20
36.431500701365742
 30
0.0
 11
101.5731165892601
 21
36.431500701365742
 31
0.0
  0
LINE
  5
1BFA
  8
0
 62
     0
 10
97.821978101850945
 20
37.54275070136574
 30
0.0
 11
101.12425487626111
 21
37.54275070136574
 31
0.0
  0
LINE
  5
1BFB
  8
0
 62
     0
 10
98.499860663108777
 20
38.654000701365739
 30
0.0
 11
100.52344822895139
 21
38.654000701365739
 31
0.0
  0
LINE
  5
1BFC
  8
0
 62
     0
 10
98.473116589320369
 20
39.765250701365737
 30
0.0
 11
100.4731165898625
 21
39.765250701365737
 31
0.0
  0
LINE
  5
1BFD
  8
0
 62
     0
 10
98.473116589320369
 20
40.876500701365742
 30
0.0
 11
100.47311658983649
 21
40.876500701365742
 31
0.0
  0
LINE
  5
1BFE
  8
0
 62
     0
 10
98.473116589320369
 20
41.987750701365741
 30
0.0
 11
100.4731165898106
 21
41.987750701365741
 31
0.0
  0
LINE
  5
1BFF
  8
0
 62
     0
 10
98.473116589320369
 20
43.099000701365732
 30
0.0
 11
100.47311658978469
 21
43.099000701365732
 31
0.0
  0
LINE
  5
1C00
  8
0
 62
     0
 10
98.473116589320369
 20
44.210250701365737
 30
0.0
 11
100.4731165897588
 21
44.210250701365737
 31
0.0
  0
LINE
  5
1C01
  8
0
 62
     0
 10
98.473116589320369
 20
45.321500701365743
 30
0.0
 11
100.4731165897329
 21
45.321500701365743
 31
0.0
  0
LINE
  5
1C02
  8
0
 62
     0
 10
98.473116589320369
 20
46.432750701365727
 30
0.0
 11
100.4731165897069
 21
46.432750701365727
 31
0.0
  0
LINE
  5
1C03
  8
0
 62
     0
 10
98.473116589320369
 20
47.544000701365739
 30
0.0
 11
100.473116589681
 21
47.544000701365739
 31
0.0
  0
LINE
  5
1C04
  8
0
 62
     0
 10
98.473116589320369
 20
48.65525070136573
 30
0.0
 11
100.47311658965501
 21
48.65525070136573
 31
0.0
  0
LINE
  5
1C05
  8
0
 62
     0
 10
98.473116589320369
 20
49.766500701365743
 30
0.0
 11
100.4731165896291
 21
49.766500701365743
 31
0.0
  0
LINE
  5
1C06
  8
0
 62
     0
 10
98.473116589320369
 20
50.877750701365741
 30
0.0
 11
100.47311658960319
 21
50.877750701365741
 31
0.0
  0
LINE
  5
1C07
  8
0
 62
     0
 10
98.473116589320369
 20
51.989000701365732
 30
0.0
 11
100.4731165895773
 21
51.989000701365732
 31
0.0
  0
LINE
  5
1C08
  8
0
 62
     0
 10
98.473116589320369
 20
53.100250701365738
 30
0.0
 11
100.4731165895514
 21
53.100250701365738
 31
0.0
  0
LINE
  5
1C09
  8
0
 62
     0
 10
98.473116589320369
 20
54.211500701365729
 30
0.0
 11
100.4731165895254
 21
54.211500701365729
 31
0.0
  0
LINE
  5
1C0A
  8
0
 62
     0
 10
98.473116589320369
 20
55.322750701365742
 30
0.0
 11
100.4731165894995
 21
55.322750701365742
 31
0.0
  0
LINE
  5
1C0B
  8
0
 62
     0
 10
98.473116589320369
 20
56.43400070136574
 30
0.0
 11
100.47311658947361
 21
56.43400070136574
 31
0.0
  0
LINE
  5
1C0C
  8
0
 62
     0
 10
98.473116589320369
 20
57.545250701365731
 30
0.0
 11
100.4731165894477
 21
57.545250701365731
 31
0.0
  0
LINE
  5
1C0D
  8
0
 62
     0
 10
98.473116589320369
 20
58.656500701365736
 30
0.0
 11
100.47311658942171
 21
58.656500701365736
 31
0.0
  0
LINE
  5
1C0E
  8
0
 62
     0
 10
98.473116589320369
 20
59.767750701365728
 30
0.0
 11
100.4731165893958
 21
59.767750701365728
 31
0.0
  0
LINE
  5
1C0F
  8
0
 62
     0
 10
98.473116589320369
 20
60.87900070136574
 30
0.0
 11
100.47311658936989
 21
60.87900070136574
 31
0.0
  0
LINE
  5
1C10
  8
0
 62
     0
 10
98.473116589320369
 20
61.990250701365738
 30
0.0
 11
100.4731165893439
 21
61.990250701365738
 31
0.0
  0
LINE
  5
1C11
  8
0
 62
     0
 10
98.473116589320369
 20
63.101500701365737
 30
0.0
 11
100.477240044363
 21
63.101500701365737
 31
0.0
  0
LINE
  5
1C12
  8
0
 62
     0
 10
97.962183790656098
 20
64.212750701365735
 30
0.0
 11
100.9840491248696
 21
64.212750701365735
 31
0.0
  0
LINE
  5
1C13
  8
0
 62
     0
 10
97.373116589265805
 20
65.324000701365733
 30
0.0
 11
101.57311658926589
 21
65.324000701365733
 31
0.0
  0
ENDBLK
  5
1C15
  8
0
  0
BLOCK
  8
0
  2
*X88
 70
     1
 10
0.0
 20
0.0
 30
0.0
  3
*X88
  1

  0
LINE
  5
1C17
  8
0
 62
     0
 10
278.73037583722709
 20
64.892499766537156
 30
0.0
 11
274.92243303948919
 21
64.892499766537156
 31
0.0
  0
LINE
  5
1C18
  8
0
 62
     0
 10
277.69662758144159
 20
63.781249766537151
 30
0.0
 11
275.56401352612619
 21
63.781249766537151
 31
0.0
  0
LINE
  5
1C19
  8
0
 62
     0
 10
278.05608023875197
 20
62.669999766537153
 30
0.0
 11
275.82639320226212
 21
62.669999766537153
 31
0.0
  0
LINE
  5
1C1A
  8
0
 62
     0
 10
280.69626681168268
 20
61.558749766537147
 30
0.0
 11
275.9572962097335
 21
61.558749766537147
 31
0.0
  0
LINE
  5
1C1B
  8
0
 62
     0
 10
280.72113292125999
 20
60.447499766537149
 30
0.0
 11
278.31474000316388
 21
60.447499766537149
 31
0.0
  0
LINE
  5
1C1C
  8
0
 62
     0
 10
280.72113292125999
 20
59.336249766537151
 30
0.0
 11
278.9211329212601
 21
59.336249766537151
 31
0.0
  0
LINE
  5
1C1D
  8
0
 62
     0
 10
280.72113292125999
 20
58.224999766537152
 30
0.0
 11
278.9211329212601
 21
58.224999766537152
 31
0.0
  0
LINE
  5
1C1E
  8
0
 62
     0
 10
280.72113292125999
 20
57.113749766537147
 30
0.0
 11
278.9211329212601
 21
57.113749766537147
 31
0.0
  0
LINE
  5
1C1F
  8
0
 62
     0
 10
280.72113292125999
 20
56.002499766537149
 30
0.0
 11
278.9211329212601
 21
56.002499766537149
 31
0.0
  0
LINE
  5
1C20
  8
0
 62
     0
 10
280.72113292125999
 20
54.891249766537157
 30
0.0
 11
278.9211329212601
 21
54.891249766537157
 31
0.0
  0
LINE
  5
1C21
  8
0
 62
     0
 10
280.72113292125999
 20
53.779999766537159
 30
0.0
 11
278.9211329212601
 21
53.779999766537159
 31
0.0
  0
LINE
  5
1C22
  8
0
 62
     0
 10
280.72113292125999
 20
52.668749766537161
 30
0.0
 11
278.9211329212601
 21
52.668749766537161
 31
0.0
  0
LINE
  5
1C23
  8
0
 62
     0
 10
280.72113292125999
 20
51.557499766537163
 30
0.0
 11
278.9211329212601
 21
51.557499766537163
 31
0.0
  0
LINE
  5
1C24
  8
0
 62
     0
 10
280.72113292125999
 20
50.44624976653715
 30
0.0
 11
278.9211329212601
 21
50.44624976653715
 31
0.0
  0
LINE
  5
1C25
  8
0
 62
     0
 10
280.72113292125999
 20
49.334999766537152
 30
0.0
 11
278.9211329212601
 21
49.334999766537152
 31
0.0
  0
LINE
  5
1C26
  8
0
 62
     0
 10
280.72113292125999
 20
48.223749766537161
 30
0.0
 11
278.9211329212601
 21
48.223749766537161
 31
0.0
  0
LINE
  5
1C27
  8
0
 62
     0
 10
280.72113292125999
 20
47.112499766537148
 30
0.0
 11
278.9211329212601
 21
47.112499766537148
 31
0.0
  0
LINE
  5
1C28
  8
0
 62
     0
 10
280.72113292125999
 20
46.001249766537157
 30
0.0
 11
278.9211329212601
 21
46.001249766537157
 31
0.0
  0
LINE
  5
1C29
  8
0
 62
     0
 10
280.72113292126011
 20
44.889999766537152
 30
0.0
 11
278.9211329212601
 21
44.889999766537152
 31
0.0
  0
LINE
  5
1C2A
  8
0
 62
     0
 10
280.72113292126011
 20
43.77874976653716
 30
0.0
 11
278.9211329212601
 21
43.77874976653716
 31
0.0
  0
LINE
  5
1C2B
  8
0
 62
     0
 10
280.72113292126011
 20
42.667499766537162
 30
0.0
 11
278.9211329212601
 21
42.667499766537162
 31
0.0
  0
LINE
  5
1C2C
  8
0
 62
     0
 10
280.72113292126011
 20
41.55624976653715
 30
0.0
 11
278.32504221476091
 21
41.55624976653715
 31
0.0
  0
LINE
  5
1C2D
  8
0
 62
     0
 10
280.69763330404362
 20
40.444999766537158
 30
0.0
 11
275.95944106530328
 21
40.444999766537158
 31
0.0
  0
LINE
  5
1C2E
  8
0
 62
     0
 10
278.06638245034912
 20
39.33374976653716
 30
0.0
 11
275.82639320226218
 21
39.33374976653716
 31
0.0
  0
LINE
  5
1C2F
  8
0
 62
     0
 10
277.69399980499759
 20
38.222499766537148
 30
0.0
 11
275.56617841548859
 21
38.222499766537148
 31
0.0
  0
LINE
  5
1C30
  8
0
 62
     0
 10
278.72707601576133
 20
37.111249766537163
 30
0.0
 11
274.9245979288516
 21
37.111249766537163
 31
0.0
  0
ENDBLK
  5
1C32
  8
0
  0
BLOCK
  8
0
  2
*X89
 70
     1
 10
0.0
 20
0.0
 30
0.0
  3
*X89
  1

  0
LINE
  5
1C34
  8
0
 62
     0
 10
108.26962416278511
 20
37.107500060154621
 30
0.0
 11
112.077566960523
 21
37.107500060154621
 31
0.0
  0
LINE
  5
1C35
  8
0
 62
     0
 10
109.3033724185706
 20
38.218750060154619
 30
0.0
 11
111.435986473886
 21
38.218750060154619
 31
0.0
  0
LINE
  5
1C36
  8
0
 62
     0
 10
108.9439197612602
 20
39.330000060154632
 30
0.0
 11
111.1736067977502
 21
39.330000060154632
 31
0.0
  0
LINE
  5
1C37
  8
0
 62
     0
 10
106.3037331883295
 20
40.441250060154623
 30
0.0
 11
111.04270379027879
 21
40.441250060154623
 31
0.0
  0
LINE
  5
1C38
  8
0
 62
     0
 10
106.2788670787522
 20
41.552500060154621
 30
0.0
 11
108.6852599968483
 21
41.552500060154621
 31
0.0
  0
LINE
  5
1C39
  8
0
 62
     0
 10
106.2788670787522
 20
42.663750060154619
 30
0.0
 11
108.0788670787521
 21
42.663750060154619
 31
0.0
  0
LINE
  5
1C3A
  8
0
 62
     0
 10
106.2788670787522
 20
43.775000060154618
 30
0.0
 11
108.0788670787521
 21
43.775000060154618
 31
0.0
  0
LINE
  5
1C3B
  8
0
 62
     0
 10
106.2788670787522
 20
44.886250060154623
 30
0.0
 11
108.0788670787521
 21
44.886250060154623
 31
0.0
  0
LINE
  5
1C3C
  8
0
 62
     0
 10
106.2788670787522
 20
45.997500060154621
 30
0.0
 11
108.0788670787521
 21
45.997500060154621
 31
0.0
  0
LINE
  5
1C3D
  8
0
 62
     0
 10
106.2788670787521
 20
47.10875006015462
 30
0.0
 11
108.0788670787521
 21
47.10875006015462
 31
0.0
  0
LINE
  5
1C3E
  8
0
 62
     0
 10
106.2788670787521
 20
48.220000060154611
 30
0.0
 11
108.0788670787521
 21
48.220000060154611
 31
0.0
  0
LINE
  5
1C3F
  8
0
 62
     0
 10
106.2788670787521
 20
49.331250060154623
 30
0.0
 11
108.0788670787521
 21
49.331250060154623
 31
0.0
  0
LINE
  5
1C40
  8
0
 62
     0
 10
106.2788670787521
 20
50.442500060154622
 30
0.0
 11
108.0788670787521
 21
50.442500060154622
 31
0.0
  0
LINE
  5
1C41
  8
0
 62
     0
 10
106.2788670787521
 20
51.55375006015462
 30
0.0
 11
108.0788670787521
 21
51.55375006015462
 31
0.0
  0
LINE
  5
1C42
  8
0
 62
     0
 10
106.2788670787521
 20
52.665000060154618
 30
0.0
 11
108.0788670787521
 21
52.665000060154618
 31
0.0
  0
LINE
  5
1C43
  8
0
 62
     0
 10
106.2788670787521
 20
53.776250060154617
 30
0.0
 11
108.0788670787521
 21
53.776250060154617
 31
0.0
  0
LINE
  5
1C44
  8
0
 62
     0
 10
106.2788670787521
 20
54.887500060154622
 30
0.0
 11
108.0788670787521
 21
54.887500060154622
 31
0.0
  0
LINE
  5
1C45
  8
0
 62
     0
 10
106.2788670787521
 20
55.99875006015462
 30
0.0
 11
108.0788670787521
 21
55.99875006015462
 31
0.0
  0
LINE
  5
1C46
  8
0
 62
     0
 10
106.2788670787521
 20
57.110000060154618
 30
0.0
 11
108.0788670787521
 21
57.110000060154618
 31
0.0
  0
LINE
  5
1C47
  8
0
 62
     0
 10
106.2788670787521
 20
58.22125006015461
 30
0.0
 11
108.0788670787521
 21
58.22125006015461
 31
0.0
  0
LINE
  5
1C48
  8
0
 62
     0
 10
106.2788670787521
 20
59.332500060154622
 30
0.0
 11
108.078867078752
 21
59.332500060154622
 31
0.0
  0
LINE
  5
1C49
  8
0
 62
     0
 10
106.2788670787521
 20
60.44375006015462
 30
0.0
 11
108.67495778525139
 21
60.44375006015462
 31
0.0
  0
LINE
  5
1C4A
  8
0
 62
     0
 10
106.3023666959686
 20
61.555000060154612
 30
0.0
 11
111.0405589347088
 21
61.555000060154612
 31
0.0
  0
LINE
  5
1C4B
  8
0
 62
     0
 10
108.9336175496631
 20
62.666250060154617
 30
0.0
 11
111.17360679775
 21
62.666250060154617
 31
0.0
  0
LINE
  5
1C4C
  8
0
 62
     0
 10
109.30600019501451
 20
63.777500060154622
 30
0.0
 11
111.4338215845236
 21
63.777500060154622
 31
0.0
  0
LINE
  5
1C4D
  8
0
 62
     0
 10
108.27292398425089
 20
64.888750060154621
 30
0.0
 11
112.0754020711606
 21
64.888750060154621
 31
0.0
  0
ENDBLK
  5
1C4F
  8
0
  0
ENDSEC
  0
SECTION
  2
ENTITIES
  0
INSERT
  5
888
  8
0
  2
*U77
 10
0.0
 20
0.0
 30
0.0
  0
INSERT
  5
8C6
  8
0
  2
*U78
 10
0.0
 20
0.0
 30
0.0
  0
INSERT
  5
8C7
  8
0
  2
*U79
 10
0.0
 20
0.0
 30
0.0
  0
POLYLINE
  5
95A
  8
SAPA_LIGHT
 66
     1
 10
0.0
 20
0.0
 30
0.0
  0
VERTEX
  5
128C
  8
SAPA_LIGHT
 10
302.99994365517819
 20
22.927297835588149
 30
0.0
  0
VERTEX
  5
128D
  8
SAPA_LIGHT
 10
302.99994365517819
 20
13.99999991338046
 30
0.0
  0
VERTEX
  5
128E
  8
SAPA_LIGHT
 10
102.9995428118948
 20
14.000000008878541
 30
0.0
  0
VERTEX
  5
128F
  8
SAPA_LIGHT
 10
102.9995428118948
 20
22.7000000173303
 30
0.0
  0
VERTEX
  5
1290
  8
SAPA_LIGHT
 10
98.499999979432943
 20
22.7000000173303
 30
0.0
  0
VERTEX
  5
1291
  8
SAPA_LIGHT
 10
98.499999979432943
 20
79.300000016990509
 30
0.0
  0
VERTEX
  5
1292
  8
SAPA_LIGHT
 10
80.999999995803847
 20
79.300000006034736
 30
0.0
  0
VERTEX
  5
1293
  8
SAPA_LIGHT
 10
80.999999995803847
 20
88.000000008878544
 30
0.0
  0
VERTEX
  5
1294
  8
SAPA_LIGHT
 10
302.99994365517819
 20
87.999999913310774
 30
0.0
  0
VERTEX
  5
1295
  8
SAPA_LIGHT
 10
302.99994365517819
 20
46.927297763525239
 30
0.0
  0
SEQEND
  5
1296
  8
SAPA_LIGHT
  0
POLYLINE
  5
95B
  8
SAPA_LIGHT
 66
     1
 10
0.0
 20
0.0
 30
0.0
  0
VERTEX
  5
1297
  8
SAPA_LIGHT
 10
-22.000000000016328
 20
22.949999936645838
 30
0.0
  0
VERTEX
  5
1298
  8
SAPA_LIGHT
 10
-22.000000000016328
 20
14.00000003679866
 30
0.0
  0
VERTEX
  5
1299
  8
SAPA_LIGHT
 10
98.0014761878504
 20
14.000000034839159
 30
0.0
  0
VERTEX
  5
129A
  8
SAPA_LIGHT
 10
98.0014761878504
 20
22.700000009832419
 30
0.0
  0
VERTEX
  5
129B
  8
SAPA_LIGHT
 10
83.501476183910455
 20
22.700000009832419
 30
0.0
  0
VERTEX
  5
129C
  8
SAPA_LIGHT
 10
83.501476141146014
 20
79.300000000424973
 30
0.0
  0
VERTEX
  5
129D
  8
SAPA_LIGHT
 10
75.999999999998437
 20
79.300000000424973
 30
0.0
  0
VERTEX
  5
129E
  8
SAPA_LIGHT
 10
75.999999999998437
 20
87.999999996098325
 30
0.0
  0
VERTEX
  5
129F
  8
SAPA_LIGHT
 10
-22.000000000016328
 20
87.999999998057817
 30
0.0
  0
VERTEX
  5
12A0
  8
SAPA_LIGHT
 10
-22.000000000016328
 20
46.949999864582928
 30
0.0
  0
SEQEND
  5
12A1
  8
SAPA_LIGHT
  0
POLYLINE
  5
95C
  8
SAPA_LIGHT
 66
     1
 10
0.0
 20
0.0
 30
0.0
 70
     1
  0
VERTEX
  5
12A2
  8
SAPA_LIGHT
 10
-5.0000000000009086
 20
22.949999922299931
 30
0.0
  0
VERTEX
  5
12A3
  8
SAPA_LIGHT
 10
-35.000000000000909
 20
22.949999922299931
 30
0.0
  0
VERTEX
  5
12A4
  8
SAPA_LIGHT
 10
-35.000000000000909
 20
46.949999850237013
 30
0.0
  0
VERTEX
  5
12A5
  8
SAPA_LIGHT
 10
-5.0000000000009086
 20
46.949999850237013
 30
0.0
  0
SEQEND
  5
12A6
  8
SAPA_LIGHT
  0
POLYLINE
  5
95D
  8
SAPA_LIGHT
 66
     1
 10
0.0
 20
0.0
 30
0.0
 70
     1
  0
VERTEX
  5
12A7
  8
SAPA_LIGHT
 10
285.85073809195342
 20
22.949999934686328
 30
0.0
  0
VERTEX
  5
12A8
  8
SAPA_LIGHT
 10
315.85073809195342
 20
22.949999934686328
 30
0.0
  0
VERTEX
  5
12A9
  8
SAPA_LIGHT
 10
315.85073809195342
 20
46.949999862623429
 30
0.0
  0
VERTEX
  5
12AA
  8
SAPA_LIGHT
 10
285.85073809195342
 20
46.949999862623429
 30
0.0
  0
SEQEND
  5
12AB
  8
SAPA_LIGHT
  0
POLYLINE
  5
119F
  8
SAPA_PROFIL
 66
     1
 10
0.0
 20
0.0
 30
0.0
 70
     1
  0
VERTEX
  5
16F3
  8
SAPA_PROFIL
 10
81.454990753069453
 20
65.999999996618556
 30
0.0
  0
VERTEX
  5
16F4
  8
SAPA_PROFIL
 10
77.602204348569202
 20
65.999999996618556
 30
0.0
 42
0.4142135623731784
  0
VERTEX
  5
16F5
  8
SAPA_PROFIL
 10
77.302204348569234
 20
65.699999996618487
 30
0.0
  0
VERTEX
  5
16F6
  8
SAPA_PROFIL
 10
77.302204348569234
 20
65.453589835104339
 30
0.0
 42
0.1316524975874233
  0
VERTEX
  5
16F7
  8
SAPA_PROFIL
 10
77.328999267812392
 20
65.35358983510433
 30
0.0
  0
VERTEX
  5
16F8
  8
SAPA_PROFIL
 10
78.22596477927253
 20
63.799999996618432
 30
0.0
 42
-0.577350269188775
  0
VERTEX
  5
16F9
  8
SAPA_PROFIL
 10
78.052759698515601
 20
63.499999996618548
 30
0.0
  0
VERTEX
  5
16FA
  8
SAPA_PROFIL
 10
76.66711905246062
 20
63.499999996618428
 30
0.0
 42
-0.267949192431105
  0
VERTEX
  5
16FB
  8
SAPA_PROFIL
 10
75.801093648676201
 20
63.999999996618371
 30
0.0
  0
VERTEX
  5
16FC
  8
SAPA_PROFIL
 10
74.790730679103021
 20
65.749999994005336
 30
0.0
 42
0.2679491932397091
  0
VERTEX
  5
16FD
  8
SAPA_PROFIL
 10
74.357717975701817
 20
65.999999994005407
 30
0.0
  0
VERTEX
  5
16FE
  8
SAPA_PROFIL
 10
9.3422820242982283
 20
65.999999994005407
 30
0.0
 42
0.2679491916226364
  0
VERTEX
  5
16FF
  8
SAPA_PROFIL
 10
8.9092693224059047
 20
65.749999996618499
 30
0.0
  0
VERTEX
  5
1700
  8
SAPA_PROFIL
 10
7.8989063513239861
 20
63.999999996618527
 30
0.0
 42
-0.2679491924311289
  0
VERTEX
  5
1701
  8
SAPA_PROFIL
 10
7.0328809475396241
 20
63.499999996618548
 30
0.0
  0
VERTEX
  5
1702
  8
SAPA_PROFIL
 10
5.6472403014845289
 20
63.499999996618548
 30
0.0
 42
-0.5773502691893695
  0
VERTEX
  5
1703
  8
SAPA_PROFIL
 10
5.4740352207275151
 20
63.79999999661851
 30
0.0
  0
VERTEX
  5
1704
  8
SAPA_PROFIL
 10
6.3710007321878797
 20
65.353589835104756
 30
0.0
 42
0.1316524975874061
  0
VERTEX
  5
1705
  8
SAPA_PROFIL
 10
6.3977956514309957
 20
65.453589835104765
 30
0.0
  0
VERTEX
  5
1706
  8
SAPA_PROFIL
 10
6.3977956514309957
 20
65.699999996618487
 30
0.0
 42
0.4142135623732032
  0
VERTEX
  5
1707
  8
SAPA_PROFIL
 10
6.0977956514308138
 20
65.999999996618556
 30
0.0
  0
VERTEX
  5
1708
  8
SAPA_PROFIL
 10
2.2450092469307061
 20
65.999999996618541
 30
0.0
 42
-0.2134217652834358
  0
VERTEX
  5
1709
  8
SAPA_PROFIL
 10
2.0214024491806271
 20
66.099999996618649
 30
0.0
 42
0.7625858545243257
  0
VERTEX
  5
170A
  8
SAPA_PROFIL
 10
1.6910763681635921
 20
65.915420794421166
 30
0.0
  0
VERTEX
  5
170B
  8
SAPA_PROFIL
 10
1.7491500051526849
 20
65.724037794427446
 30
0.0
  0
VERTEX
  5
170C
  8
SAPA_PROFIL
 10
2.8337144521244251
 20
63.838194102566391
 30
0.0
  0
VERTEX
  5
170D
  8
SAPA_PROFIL
 10
3.1554721803426982
 20
63.848755468793371
 30
0.0
 42
-0.5773502691897454
  0
VERTEX
  5
170E
  8
SAPA_PROFIL
 10
3.338425920452849
 20
63.55459916853853
 30
0.0
  0
VERTEX
  5
170F
  8
SAPA_PROFIL
 10
3.1862920093440859
 20
63.269916885306891
 30
0.0
 42
-0.2216946626430182
  0
VERTEX
  5
1710
  8
SAPA_PROFIL
 10
2.645412177867299
 20
62.864107980152099
 30
0.0
  0
VERTEX
  5
1711
  8
SAPA_PROFIL
 10
0.8321817072090738
 20
62.482661384024382
 30
0.0
 42
-0.476975532698164
  0
VERTEX
  5
1712
  8
SAPA_PROFIL
 10
0.4605248322631752
 20
62.78491420853085
 30
0.0
  0
VERTEX
  5
1713
  8
SAPA_PROFIL
 10
0.460608440146828
 20
64.288015289292858
 30
0.0
  0
VERTEX
  5
1714
  8
SAPA_PROFIL
 10
0.508454190145315
 20
64.30253369853996
 30
0.0
 42
0.4142135623730958
  0
VERTEX
  5
1715
  8
SAPA_PROFIL
 10
0.7084182346527115
 20
64.676718654015772
 30
0.0
  0
VERTEX
  5
1716
  8
SAPA_PROFIL
 10
0.2000000000000313
 20
65.992132373861352
 30
0.0
  0
VERTEX
  5
1717
  8
SAPA_PROFIL
 10
0.2000000000000028
 20
68.990283235034667
 30
0.0
 42
-0.2562769736732632
  0
VERTEX
  5
1718
  8
SAPA_PROFIL
 10
0.2925309983154847
 20
69.158955739246039
 30
0.0
  0
VERTEX
  5
1719
  8
SAPA_PROFIL
 10
1.5387964974733981
 20
69.953008745422622
 30
0.0
 42
-0.5920056181179856
  0
VERTEX
  5
171A
  8
SAPA_PROFIL
 10
2.0000000000000422
 20
69.699999989105606
 30
0.0
  0
VERTEX
  5
171B
  8
SAPA_PROFIL
 10
2.0000000000000422
 20
68.299999989105629
 30
0.0
 42
0.4142135623731429
  0
VERTEX
  5
171C
  8
SAPA_PROFIL
 10
2.3000000000000251
 20
67.999999989105604
 30
0.0
  0
VERTEX
  5
171D
  8
SAPA_PROFIL
 10
4.6999999999999451
 20
67.999999989105746
 30
0.0
 42
0.4142135623729847
  0
VERTEX
  5
171E
  8
SAPA_PROFIL
 10
4.9999999999999281
 20
68.299999989105629
 30
0.0
  0
VERTEX
  5
171F
  8
SAPA_PROFIL
 10
4.9999999999999574
 20
85.699999989105706
 30
0.0
 42
0.4142135623730951
  0
VERTEX
  5
1720
  8
SAPA_PROFIL
 10
4.6999999999999451
 20
85.999999989105675
 30
0.0
  0
VERTEX
  5
1721
  8
SAPA_PROFIL
 10
2.299999999999855
 20
85.999999989105675
 30
0.0
 42
0.414213562373018
  0
VERTEX
  5
1722
  8
SAPA_PROFIL
 10
2.0000000000000422
 20
85.699999989105606
 30
0.0
  0
VERTEX
  5
1723
  8
SAPA_PROFIL
 10
2.0000000000001559
 20
84.299999989105601
 30
0.0
 42
-0.5877032589249791
  0
VERTEX
  5
1724
  8
SAPA_PROFIL
 10
1.5420397928724441
 20
84.044953771795505
 30
0.0
  0
VERTEX
  5
1725
  8
SAPA_PROFIL
 10
0.0946931952481549
 20
84.941352749037762
 30
0.0
 42
-0.2596812337301832
  0
VERTEX
  5
1726
  8
SAPA_PROFIL
 10
-0.0000000000000426
 20
85.111383560577806
 30
0.0
  0
VERTEX
  5
1727
  8
SAPA_PROFIL
 10
0.0000000000000142
 20
87.799999993937206
 30
0.0
 42
-0.4142135623732303
  0
VERTEX
  5
1728
  8
SAPA_PROFIL
 10
0.1999999999999176
 20
87.999999993937195
 30
0.0
  0
VERTEX
  5
1729
  8
SAPA_PROFIL
 10
74.000001494150112
 20
87.999999993937095
 30
0.0
 42
-0.4142135623730077
  0
VERTEX
  5
172A
  8
SAPA_PROFIL
 10
76.000000000000114
 20
86.000001488087676
 30
0.0
  0
VERTEX
  5
172B
  8
SAPA_PROFIL
 10
76.000000000000114
 20
80.299999246862285
 30
0.0
 42
0.4142135623730035
  0
VERTEX
  5
172C
  8
SAPA_PROFIL
 10
76.999999252925122
 20
79.299999993937291
 30
0.0
  0
VERTEX
  5
172D
  8
SAPA_PROFIL
 10
84.501019000000184
 20
79.299999993937234
 30
0.0
 42
-0.4142135623730951
  0
VERTEX
  5
172E
  8
SAPA_PROFIL
 10
85.501019000000156
 20
78.299999993937291
 30
0.0
  0
VERTEX
  5
172F
  8
SAPA_PROFIL
 10
85.501019000000113
 20
77.802224844522286
 30
0.0
 42
-0.4142135623729703
  0
VERTEX
  5
1730
  8
SAPA_PROFIL
 10
85.301019149415112
 20
77.602224993937185
 30
0.0
  0
VERTEX
  5
1731
  8
SAPA_PROFIL
 10
83.703168436821457
 20
77.602224993937284
 30
0.0
 42
0.4146459924388422
  0
VERTEX
  5
1732
  8
SAPA_PROFIL
 10
83.503168654732988
 20
77.401929757476736
 30
0.0
  0
VERTEX
  5
1733
  8
SAPA_PROFIL
 10
83.501612147791107
 20
65.996303430636743
 30
0.0
  0
VERTEX
  5
1734
  8
SAPA_PROFIL
 10
82.991581765347675
 20
64.676718654015787
 30
0.0
 42
0.4142135623730955
  0
VERTEX
  5
1735
  8
SAPA_PROFIL
 10
83.191545809855072
 20
64.302533698539975
 30
0.0
  0
VERTEX
  5
1736
  8
SAPA_PROFIL
 10
83.239391559853544
 20
64.288015289292872
 30
0.0
  0
VERTEX
  5
1737
  8
SAPA_PROFIL
 10
83.239475167737183
 20
62.784914208530857
 30
0.0
 42
-0.4769755326981641
  0
VERTEX
  5
1738
  8
SAPA_PROFIL
 10
82.867818292791327
 20
62.482661384024389
 30
0.0
  0
VERTEX
  5
1739
  8
SAPA_PROFIL
 10
81.054587822133087
 20
62.864107980152127
 30
0.0
 42
-0.2216946626430181
  0
VERTEX
  5
173A
  8
SAPA_PROFIL
 10
80.5137079906563
 20
63.269916885306912
 30
0.0
  0
VERTEX
  5
173B
  8
SAPA_PROFIL
 10
80.361574079547523
 20
63.554599168538552
 30
0.0
 42
-0.5773502691897449
  0
VERTEX
  5
173C
  8
SAPA_PROFIL
 10
80.544527819657716
 20
63.848755468793371
 30
0.0
  0
VERTEX
  5
173D
  8
SAPA_PROFIL
 10
80.866285547875961
 20
63.838194102566412
 30
0.0
  0
VERTEX
  5
173E
  8
SAPA_PROFIL
 10
81.950849994847701
 20
65.72403779442746
 30
0.0
  0
VERTEX
  5
173F
  8
SAPA_PROFIL
 10
82.008923631836794
 20
65.915420794421181
 30
0.0
 42
0.7625858545243258
  0
VERTEX
  5
1740
  8
SAPA_PROFIL
 10
81.678597550819788
 20
66.099999996618678
 30
0.0
 42
-0.2134217652834359
  0
SEQEND
  5
1741
  8
SAPA_PROFIL
  0
POLYLINE
  5
11A0
  8
SAPA_PROFIL
  6
CONTINUOUS
 66
     1
 10
0.0
 20
0.0
 30
0.0
 70
     1
  0
VERTEX
  5
1742
  8
SAPA_PROFIL
  6
CONTINUOUS
 10
70.20000000000023
 20
85.699999997155288
 30
0.0
 42
-0.4142135623728245
  0
VERTEX
  5
1743
  8
SAPA_PROFIL
  6
CONTINUOUS
 10
70.000000000000128
 20
85.899999997155192
 30
0.0
  0
VERTEX
  5
1744
  8
SAPA_PROFIL
  6
CONTINUOUS
 10
70.000000000000128
 20
85.999999997155385
 30
0.0
  0
VERTEX
  5
1745
  8
SAPA_PROFIL
  6
CONTINUOUS
 10
10.70000000000014
 20
85.999999997155385
 30
0.0
  0
VERTEX
  5
1746
  8
SAPA_PROFIL
  6
CONTINUOUS
 10
10.699999999999919
 20
85.89999999715539
 30
0.0
 42
-0.4142135623730951
  0
VERTEX
  5
1747
  8
SAPA_PROFIL
  6
CONTINUOUS
 10
10.499999999999931
 20
85.699999997155416
 30
0.0
  0
VERTEX
  5
1748
  8
SAPA_PROFIL
  6
CONTINUOUS
 10
8.8999999999999346
 20
85.699999997155501
 30
0.0
 42
-0.4142135623730951
  0
VERTEX
  5
1749
  8
SAPA_PROFIL
  6
CONTINUOUS
 10
8.7000000000000313
 20
85.89999999715539
 30
0.0
  0
VERTEX
  5
174A
  8
SAPA_PROFIL
  6
CONTINUOUS
 10
8.7000000000000313
 20
85.999999997155385
 30
0.0
  0
VERTEX
  5
174B
  8
SAPA_PROFIL
  6
CONTINUOUS
 10
6.9999999999999574
 20
85.999999997155385
 30
0.0
 42
0.4142135623730847
  0
VERTEX
  5
174C
  8
SAPA_PROFIL
  6
CONTINUOUS
 10
6.7000000000001441
 20
85.699999997155416
 30
0.0
  0
VERTEX
  5
174D
  8
SAPA_PROFIL
  6
CONTINUOUS
 10
6.7000000000001441
 20
68.099999997155393
 30
0.0
 42
0.4142135623730701
  0
VERTEX
  5
174E
  8
SAPA_PROFIL
  6
CONTINUOUS
 10
6.9999999999999574
 20
67.799999997155453
 30
0.0
  0
VERTEX
  5
174F
  8
SAPA_PROFIL
  6
CONTINUOUS
 10
8.7000000000002018
 20
67.799999997155453
 30
0.0
  0
VERTEX
  5
1750
  8
SAPA_PROFIL
  6
CONTINUOUS
 10
8.6999999999999744
 20
68.099999997155464
 30
0.0
 42
-0.4142135623731451
  0
VERTEX
  5
1751
  8
SAPA_PROFIL
  6
CONTINUOUS
 10
8.9000000000001336
 20
68.299999997155453
 30
0.0
  0
VERTEX
  5
1752
  8
SAPA_PROFIL
  6
CONTINUOUS
 10
10.499999999999931
 20
68.299999997155524
 30
0.0
 42
-0.4142135623732616
  0
VERTEX
  5
1753
  8
SAPA_PROFIL
  6
CONTINUOUS
 10
10.700000000000029
 20
68.099999997155294
 30
0.0
  0
VERTEX
  5
1754
  8
SAPA_PROFIL
  6
CONTINUOUS
 10
10.699999999999941
 20
67.799999997155396
 30
0.0
  0
VERTEX
  5
1755
  8
SAPA_PROFIL
  6
CONTINUOUS
 10
70.000000000000327
 20
67.799999997155396
 30
0.0
  0
VERTEX
  5
1756
  8
SAPA_PROFIL
  6
CONTINUOUS
 10
70.000000000000156
 20
68.099999997155464
 30
0.0
 42
-0.4142135623732199
  0
VERTEX
  5
1757
  8
SAPA_PROFIL
  6
CONTINUOUS
 10
70.20000000000023
 20
68.299999997155453
 30
0.0
  0
VERTEX
  5
1758
  8
SAPA_PROFIL
  6
CONTINUOUS
 10
71.800000000000196
 20
68.299999997155396
 30
0.0
 42
-0.4142135623733448
  0
VERTEX
  5
1759
  8
SAPA_PROFIL
  6
CONTINUOUS
 10
72.000000000000128
 20
68.099999997155294
 30
0.0
  0
VERTEX
  5
175A
  8
SAPA_PROFIL
  6
CONTINUOUS
 10
72.000000000000128
 20
67.799999997155453
 30
0.0
  0
VERTEX
  5
175B
  8
SAPA_PROFIL
  6
CONTINUOUS
 10
81.499999999999886
 20
67.799999997155453
 30
0.0
 42
0.4142135623732325
  0
VERTEX
  5
175C
  8
SAPA_PROFIL
  6
CONTINUOUS
 10
81.799999999999983
 20
68.099999997155464
 30
0.0
  0
VERTEX
  5
175D
  8
SAPA_PROFIL
  6
CONTINUOUS
 10
81.799999999999983
 20
77.299999993937291
 30
0.0
 42
0.4142135623732325
  0
VERTEX
  5
175E
  8
SAPA_PROFIL
  6
CONTINUOUS
 10
81.499999999999886
 20
77.599999993937274
 30
0.0
  0
VERTEX
  5
175F
  8
SAPA_PROFIL
  6
CONTINUOUS
 10
76.999999252925207
 20
77.599999993937274
 30
0.0
 42
-0.4142135623730514
  0
VERTEX
  5
1760
  8
SAPA_PROFIL
  6
CONTINUOUS
 10
74.300000000000196
 20
80.299999246862114
 30
0.0
  0
VERTEX
  5
1761
  8
SAPA_PROFIL
  6
CONTINUOUS
 10
74.300000000000196
 20
85.699999997155388
 30
0.0
 42
0.4142135623732907
  0
VERTEX
  5
1762
  8
SAPA_PROFIL
  6
CONTINUOUS
 10
74.000000000000114
 20
85.999999997155385
 30
0.0
  0
VERTEX
  5
1763
  8
SAPA_PROFIL
  6
CONTINUOUS
 10
72.000000000000128
 20
85.999999997155385
 30
0.0
  0
VERTEX
  5
1764
  8
SAPA_PROFIL
  6
CONTINUOUS
 10
72.000000000000156
 20
85.899999997155476
 30
0.0
 42
-0.4142135623732303
  0
VERTEX
  5
1765
  8
SAPA_PROFIL
  6
CONTINUOUS
 10
71.800000000000196
 20
85.699999997155388
 30
0.0
  0
SEQEND
  5
1766
  8
SAPA_PROFIL
  6
CONTINUOUS
  0
POLYLINE
  5
11A1
  8
SAPA_PROFIL
 66
     1
 10
0.0
 20
0.0
 30
0.0
 70
     1
  0
VERTEX
  5
1767
  8
SAPA_PROFIL
 10
7.034357136107551
 20
38.499999996533681
 30
0.0
 42
-0.2679491924311144
  0
VERTEX
  5
1768
  8
SAPA_PROFIL
 10
7.900382539892
 20
37.999999996533688
 30
0.0
  0
VERTEX
  5
1769
  8
SAPA_PROFIL
 10
8.9107455109740599
 20
36.249999996533511
 30
0.0
 42
0.2679491924311245
  0
VERTEX
  5
176A
  8
SAPA_PROFIL
 10
9.3437582128662982
 20
35.999999996533518
 30
0.0
  0
VERTEX
  5
176B
  8
SAPA_PROFIL
 10
74.35624179644816
 20
35.999999996533518
 30
0.0
 42
0.2679491924311231
  0
VERTEX
  5
176C
  8
SAPA_PROFIL
 10
74.789254498340355
 20
36.249999996533518
 30
0.0
  0
VERTEX
  5
176D
  8
SAPA_PROFIL
 10
75.799617469422572
 20
37.99999999653361
 30
0.0
 42
-0.2679491924311169
  0
VERTEX
  5
176E
  8
SAPA_PROFIL
 10
76.665642873206878
 20
38.499999996533518
 30
0.0
  0
VERTEX
  5
176F
  8
SAPA_PROFIL
 10
78.051283519262029
 20
38.49999999653339
 30
0.0
 42
-0.5773502691897388
  0
VERTEX
  5
1770
  8
SAPA_PROFIL
 10
78.224488600018788
 20
38.199999996533442
 30
0.0
  0
VERTEX
  5
1771
  8
SAPA_PROFIL
 10
77.300728169315505
 20
36.599999996533768
 30
0.0
  0
VERTEX
  5
1772
  8
SAPA_PROFIL
 10
77.300728169315505
 20
36.299999996533572
 30
0.0
 42
0.4142135623729036
  0
VERTEX
  5
1773
  8
SAPA_PROFIL
 10
77.600728169315403
 20
35.999999996533518
 30
0.0
  0
VERTEX
  5
1774
  8
SAPA_PROFIL
 10
81.453514573815497
 20
35.999999996533518
 30
0.0
 42
-0.2134217652834283
  0
VERTEX
  5
1775
  8
SAPA_PROFIL
 10
81.677121371565534
 20
35.89999999653341
 30
0.0
 42
0.7625858545243336
  0
VERTEX
  5
1776
  8
SAPA_PROFIL
 10
82.007447452582596
 20
36.084579198730893
 30
0.0
  0
VERTEX
  5
1777
  8
SAPA_PROFIL
 10
81.949373815593503
 20
36.275962198724613
 30
0.0
  0
VERTEX
  5
1778
  8
SAPA_PROFIL
 10
80.864809368621763
 20
38.161805890585661
 30
0.0
  0
VERTEX
  5
1779
  8
SAPA_PROFIL
 10
80.543051640403519
 20
38.151244524358681
 30
0.0
 42
-0.5773502691897449
  0
VERTEX
  5
177A
  8
SAPA_PROFIL
 10
80.36009790029334
 20
38.445400824613522
 30
0.0
  0
VERTEX
  5
177B
  8
SAPA_PROFIL
 10
80.512231811402103
 20
38.730083107845147
 30
0.0
 42
-0.221694662643014
  0
VERTEX
  5
177C
  8
SAPA_PROFIL
 10
81.053111642878875
 20
39.135892012999953
 30
0.0
  0
VERTEX
  5
177D
  8
SAPA_PROFIL
 10
82.866342113537087
 20
39.51733860912767
 30
0.0
 42
-0.476975532698164
  0
VERTEX
  5
177E
  8
SAPA_PROFIL
 10
83.237998988483014
 20
39.215085784621202
 30
0.0
  0
VERTEX
  5
177F
  8
SAPA_PROFIL
 10
83.237915380599361
 20
37.711984703859201
 30
0.0
  0
VERTEX
  5
1780
  8
SAPA_PROFIL
 10
83.190069630600874
 20
37.697466294612092
 30
0.0
 42
0.4142135623730868
  0
VERTEX
  5
1781
  8
SAPA_PROFIL
 10
82.990105586093478
 20
37.32328133913628
 30
0.0
  0
VERTEX
  5
1782
  8
SAPA_PROFIL
 10
83.500000004657238
 20
36.004048337374208
 30
0.0
  0
VERTEX
  5
1783
  8
SAPA_PROFIL
 10
83.500000004657167
 20
16.26852159987742
 30
0.0
 42
0.3821712090170688
  0
VERTEX
  5
1784
  8
SAPA_PROFIL
 10
83.766880220562996
 20
15.970355404775541
 30
0.0
  0
VERTEX
  5
1785
  8
SAPA_PROFIL
 10
90.344851004657244
 20
15.444515869810539
 30
0.0
 42
0.4469990000000225
  0
VERTEX
  5
1786
  8
SAPA_PROFIL
 10
90.9000510046572
 20
15.941459869810551
 30
0.0
  0
VERTEX
  5
1787
  8
SAPA_PROFIL
 10
90.9000510046572
 20
17.699999996533531
 30
0.0
 42
-0.414213999999998
  0
VERTEX
  5
1788
  8
SAPA_PROFIL
 10
91.9000510046572
 20
18.699999996533531
 30
0.0
  0
VERTEX
  5
1789
  8
SAPA_PROFIL
 10
92.167595004657244
 20
18.699999996533521
 30
0.0
 42
-0.2896899999999803
  0
VERTEX
  5
178A
  8
SAPA_PROFIL
 10
93.071103004657175
 20
18.128571996533541
 30
0.0
 42
-0.5507600000000087
  0
VERTEX
  5
178B
  8
SAPA_PROFIL
 10
92.800051004657178
 20
17.699999996533531
 30
0.0
  0
VERTEX
  5
178C
  8
SAPA_PROFIL
 10
92.500051004657266
 20
17.699999996533531
 30
0.0
 42
0.4142140000001479
  0
VERTEX
  5
178D
  8
SAPA_PROFIL
 10
92.300051004657163
 20
17.499999996533511
 30
0.0
  0
VERTEX
  5
178E
  8
SAPA_PROFIL
 10
92.300051004657163
 20
16.399999996533481
 30
0.0
 42
0.4142139999999898
  0
VERTEX
  5
178F
  8
SAPA_PROFIL
 10
93.300051004657163
 20
15.39999999653349
 30
0.0
  0
VERTEX
  5
1790
  8
SAPA_PROFIL
 10
95.600000004657204
 20
15.39999999653349
 30
0.0
 42
0.4142139999999898
  0
VERTEX
  5
1791
  8
SAPA_PROFIL
 10
96.600000004657204
 20
16.399999996533491
 30
0.0
  0
VERTEX
  5
1792
  8
SAPA_PROFIL
 10
96.600000004657133
 20
17.499999996533539
 30
0.0
 42
0.4142139999999398
  0
VERTEX
  5
1793
  8
SAPA_PROFIL
 10
96.400000004657215
 20
17.699999996533531
 30
0.0
  0
VERTEX
  5
1794
  8
SAPA_PROFIL
 10
96.100051004657203
 20
17.699999996533531
 30
0.0
 42
-0.5507600000000129
  0
VERTEX
  5
1795
  8
SAPA_PROFIL
 10
95.828998004657251
 20
18.128571996533509
 30
0.0
 42
-0.2896900000000043
  0
VERTEX
  5
1796
  8
SAPA_PROFIL
 10
96.732506004657196
 20
18.699999996533531
 30
0.0
  0
VERTEX
  5
1797
  8
SAPA_PROFIL
 10
97.000000004657238
 20
18.699999996533499
 30
0.0
 42
-0.4142140000000064
  0
VERTEX
  5
1798
  8
SAPA_PROFIL
 10
98.000000004657238
 20
17.699999996533531
 30
0.0
  0
VERTEX
  5
1799
  8
SAPA_PROFIL
 10
98.000000004657181
 20
15.9999999965335
 30
0.0
 42
-0.4142139999999898
  0
VERTEX
  5
179A
  8
SAPA_PROFIL
 10
96.000000004657196
 20
13.999999996533511
 30
0.0
  0
VERTEX
  5
179B
  8
SAPA_PROFIL
 10
-21.499999995342741
 20
13.99999999653356
 30
0.0
 42
-0.414213999999998
  0
VERTEX
  5
179C
  8
SAPA_PROFIL
 10
-21.999999995342741
 20
14.499999996533541
 30
0.0
  0
VERTEX
  5
179D
  8
SAPA_PROFIL
 10
-21.999999995342659
 20
18.199999996533549
 30
0.0
 42
-0.4142139999999107
  0
VERTEX
  5
179E
  8
SAPA_PROFIL
 10
-21.699999995342811
 20
18.499999996533539
 30
0.0
  0
VERTEX
  5
179F
  8
SAPA_PROFIL
 10
-20.932454995342741
 20
18.499999996533571
 30
0.0
 42
-0.2896899999999899
  0
VERTEX
  5
17A0
  8
SAPA_PROFIL
 10
-20.028946995342761
 20
17.928571996533549
 30
0.0
 42
-0.5507600000000253
  0
VERTEX
  5
17A1
  8
SAPA_PROFIL
 10
-20.299999995342748
 20
17.499999996533539
 30
0.0
  0
VERTEX
  5
17A2
  8
SAPA_PROFIL
 10
-20.499999995342741
 20
17.499999996533539
 30
0.0
 42
0.4142140000000646
  0
VERTEX
  5
17A3
  8
SAPA_PROFIL
 10
-20.799999995342748
 20
17.199999996533549
 30
0.0
  0
VERTEX
  5
17A4
  8
SAPA_PROFIL
 10
-20.799999995342748
 20
15.699999996533521
 30
0.0
 42
0.414213999999998
  0
VERTEX
  5
17A5
  8
SAPA_PROFIL
 10
-20.299999995342748
 20
15.19999999653353
 30
0.0
  0
VERTEX
  5
17A6
  8
SAPA_PROFIL
 10
-16.999999995342709
 20
15.19999999653353
 30
0.0
 42
0.4142140000000147
  0
VERTEX
  5
17A7
  8
SAPA_PROFIL
 10
-16.499999995342709
 20
15.69999999653353
 30
0.0
  0
VERTEX
  5
17A8
  8
SAPA_PROFIL
 10
-16.499999995342709
 20
17.199999996533549
 30
0.0
 42
0.4142140000000064
  0
VERTEX
  5
17A9
  8
SAPA_PROFIL
 10
-16.79999999534278
 20
17.499999996533539
 30
0.0
  0
VERTEX
  5
17AA
  8
SAPA_PROFIL
 10
-16.999999995342709
 20
17.499999996533521
 30
0.0
 42
-0.5507599999999967
  0
VERTEX
  5
17AB
  8
SAPA_PROFIL
 10
-17.271051995342741
 20
17.928571996533591
 30
0.0
 42
-0.2896899999999881
  0
VERTEX
  5
17AC
  8
SAPA_PROFIL
 10
-16.367543995342778
 20
18.499999996533539
 30
0.0
  0
VERTEX
  5
17AD
  8
SAPA_PROFIL
 10
-15.37007299534279
 20
18.499999996533521
 30
0.0
 42
-0.0436609999999811
  0
VERTEX
  5
17AE
  8
SAPA_PROFIL
 10
-15.28324799534281
 20
18.492403996533529
 30
0.0
  0
VERTEX
  5
17AF
  8
SAPA_PROFIL
 10
-13.7131759953428
 20
18.215557996533519
 30
0.0
 42
-0.8390999999999783
  0
VERTEX
  5
17B0
  8
SAPA_PROFIL
 10
-13.7131759953428
 20
17.23074999653354
 30
0.0
  0
VERTEX
  5
17B1
  8
SAPA_PROFIL
 10
-14.886823995342811
 20
17.023804996533549
 30
0.0
 42
0.3639700000000321
  0
VERTEX
  5
17B2
  8
SAPA_PROFIL
 10
-15.29999999534278
 20
16.53140099653352
 30
0.0
  0
VERTEX
  5
17B3
  8
SAPA_PROFIL
 10
-15.29999999534278
 20
15.71999999653354
 30
0.0
 42
0.4373279999999815
  0
VERTEX
  5
17B4
  8
SAPA_PROFIL
 10
-14.7609049953428
 20
15.22153099653354
 30
0.0
  0
VERTEX
  5
17B5
  8
SAPA_PROFIL
 10
-0.2878467219264067
 20
15.788329482929401
 30
0.0
 42
0.402394135529822
  0
VERTEX
  5
17B6
  8
SAPA_PROFIL
 10
0.0000000046572879
 20
16.088083211755691
 30
0.0
  0
VERTEX
  5
17B7
  8
SAPA_PROFIL
 10
0.0000000046572879
 20
16.888616996533521
 30
0.0
 42
-0.2596810000001258
  0
VERTEX
  5
17B8
  8
SAPA_PROFIL
 10
0.0946930046572945
 20
17.058647996533509
 30
0.0
  0
VERTEX
  5
17B9
  8
SAPA_PROFIL
 10
1.5420400046571601
 20
17.955046996533589
 30
0.0
 42
-0.5877030000000313
  0
VERTEX
  5
17BA
  8
SAPA_PROFIL
 10
2.000000004657287
 20
17.699999996533499
 30
0.0
  0
VERTEX
  5
17BB
  8
SAPA_PROFIL
 10
2.000000004657287
 20
16.299999996533518
 30
0.0
 42
0.4142139999999523
  0
VERTEX
  5
17BC
  8
SAPA_PROFIL
 10
2.3000000046571851
 20
15.999999996533511
 30
0.0
  0
VERTEX
  5
17BD
  8
SAPA_PROFIL
 10
4.7000000046571913
 20
15.999999996533511
 30
0.0
 42
0.4142140000000606
  0
VERTEX
  5
17BE
  8
SAPA_PROFIL
 10
5.000000004657287
 20
16.299999996533518
 30
0.0
  0
VERTEX
  5
17BF
  8
SAPA_PROFIL
 10
5.000000004657287
 20
33.699999996533492
 30
0.0
 42
0.4142140000001147
  0
VERTEX
  5
17C0
  8
SAPA_PROFIL
 10
4.7000000046571913
 20
33.999999996533518
 30
0.0
  0
VERTEX
  5
17C1
  8
SAPA_PROFIL
 10
2.3000000046571851
 20
33.999999996533518
 30
0.0
 42
0.4142140000000064
  0
VERTEX
  5
17C2
  8
SAPA_PROFIL
 10
2.000000004657287
 20
33.699999996533492
 30
0.0
  0
VERTEX
  5
17C3
  8
SAPA_PROFIL
 10
2.000000004657287
 20
32.299999996533522
 30
0.0
 42
-0.5920053870335283
  0
VERTEX
  5
17C4
  8
SAPA_PROFIL
 10
1.53879668830293
 20
32.046991469911113
 30
0.0
  0
VERTEX
  5
17C5
  8
SAPA_PROFIL
 10
0.2925310248364425
 20
32.841044353653352
 30
0.0
 42
-0.2562770082070921
  0
VERTEX
  5
17C6
  8
SAPA_PROFIL
 10
0.2000000046573049
 20
33.009716871795057
 30
0.0
  0
VERTEX
  5
17C7
  8
SAPA_PROFIL
 10
0.2000000046573049
 20
36.004048337374599
 30
0.0
  0
VERTEX
  5
17C8
  8
SAPA_PROFIL
 10
0.7098944232209236
 20
37.32328133913628
 30
0.0
 42
0.4142135623730868
  0
VERTEX
  5
17C9
  8
SAPA_PROFIL
 10
0.509930378713527
 20
37.697466294612092
 30
0.0
  0
VERTEX
  5
17CA
  8
SAPA_PROFIL
 10
0.46208462871504
 20
37.711984703859201
 30
0.0
  0
VERTEX
  5
17CB
  8
SAPA_PROFIL
 10
0.4620010208314156
 20
39.215085784621202
 30
0.0
 42
-0.4769755326981641
  0
VERTEX
  5
17CC
  8
SAPA_PROFIL
 10
0.8336578957772574
 20
39.51733860912767
 30
0.0
  0
VERTEX
  5
17CD
  8
SAPA_PROFIL
 10
2.6468883664355398
 20
39.135892012999939
 30
0.0
 42
-0.2216946626430139
  0
VERTEX
  5
17CE
  8
SAPA_PROFIL
 10
3.1877681979122978
 20
38.730083107845147
 30
0.0
  0
VERTEX
  5
17CF
  8
SAPA_PROFIL
 10
3.3399021090210601
 20
38.445400824613522
 30
0.0
 42
-0.5773502691897449
  0
VERTEX
  5
17D0
  8
SAPA_PROFIL
 10
3.1569483689108822
 20
38.151244524358702
 30
0.0
  0
VERTEX
  5
17D1
  8
SAPA_PROFIL
 10
2.835190640692637
 20
38.161805890585661
 30
0.0
  0
VERTEX
  5
17D2
  8
SAPA_PROFIL
 10
1.7506261937208969
 20
36.275962198724613
 30
0.0
  0
VERTEX
  5
17D3
  8
SAPA_PROFIL
 10
1.692552556731804
 20
36.084579198730893
 30
0.0
 42
0.7625858545243336
  0
VERTEX
  5
17D4
  8
SAPA_PROFIL
 10
2.0228786377488102
 20
35.899999996533388
 30
0.0
 42
-0.2134217652834432
  0
VERTEX
  5
17D5
  8
SAPA_PROFIL
 10
2.2464854354989461
 20
35.999999996533518
 30
0.0
  0
VERTEX
  5
17D6
  8
SAPA_PROFIL
 10
6.0992718399990258
 20
35.999999996533518
 30
0.0
 42
0.4142135623729036
  0
VERTEX
  5
17D7
  8
SAPA_PROFIL
 10
6.3992718399989519
 20
36.299999996533572
 30
0.0
  0
VERTEX
  5
17D8
  8
SAPA_PROFIL
 10
6.3992718399989519
 20
36.599999996533768
 30
0.0
  0
VERTEX
  5
17D9
  8
SAPA_PROFIL
 10
5.4755114092955282
 20
38.199999996533379
 30
0.0
 42
-0.5773502691897388
  0
VERTEX
  5
17DA
  8
SAPA_PROFIL
 10
5.6487164900524292
 20
38.499999996533518
 30
0.0
  0
SEQEND
  5
17DB
  8
SAPA_PROFIL
  0
POLYLINE
  5
11A2
  8
SAPA_PROFIL
  6
CONTINUOUS
 66
     1
 10
0.0
 20
0.0
 30
0.0
 70
     1
  0
VERTEX
  5
17DC
  8
SAPA_PROFIL
  6
CONTINUOUS
 10
79.800000004657306
 20
33.899999996533552
 30
0.0
 42
-0.4142135623730951
  0
VERTEX
  5
17DD
  8
SAPA_PROFIL
  6
CONTINUOUS
 10
79.600000004657261
 20
33.699999996533492
 30
0.0
  0
VERTEX
  5
17DE
  8
SAPA_PROFIL
  6
CONTINUOUS
 10
78.000000004657238
 20
33.699999996533563
 30
0.0
 42
-0.4142135623730951
  0
VERTEX
  5
17DF
  8
SAPA_PROFIL
  6
CONTINUOUS
 10
77.800000004657193
 20
33.899999996533552
 30
0.0
  0
VERTEX
  5
17E0
  8
SAPA_PROFIL
  6
CONTINUOUS
 10
77.80000000465725
 20
34.200000080406838
 30
0.0
  0
VERTEX
  5
17E1
  8
SAPA_PROFIL
  6
CONTINUOUS
 10
10.700000004657189
 20
34.200000080406838
 30
0.0
  0
VERTEX
  5
17E2
  8
SAPA_PROFIL
  6
CONTINUOUS
 10
10.70000000465725
 20
33.899999996533552
 30
0.0
 42
-0.4142135623730951
  0
VERTEX
  5
17E3
  8
SAPA_PROFIL
  6
CONTINUOUS
 10
10.500000004657201
 20
33.699999996533492
 30
0.0
  0
VERTEX
  5
17E4
  8
SAPA_PROFIL
  6
CONTINUOUS
 10
8.9000000046571799
 20
33.699999996533563
 30
0.0
 42
-0.4142135623730951
  0
VERTEX
  5
17E5
  8
SAPA_PROFIL
  6
CONTINUOUS
 10
8.7000000046571913
 20
33.899999996533552
 30
0.0
  0
VERTEX
  5
17E6
  8
SAPA_PROFIL
  6
CONTINUOUS
 10
8.7000000046571913
 20
34.200000080406838
 30
0.0
  0
VERTEX
  5
17E7
  8
SAPA_PROFIL
  6
CONTINUOUS
 10
7.0000000046572017
 20
34.200000080406838
 30
0.0
 42
0.4142135623730951
  0
VERTEX
  5
17E8
  8
SAPA_PROFIL
  6
CONTINUOUS
 10
6.7000000046571913
 20
33.900000080406862
 30
0.0
  0
VERTEX
  5
17E9
  8
SAPA_PROFIL
  6
CONTINUOUS
 10
6.7000000046572188
 20
16.299999996533518
 30
0.0
 42
0.4142135623730951
  0
VERTEX
  5
17EA
  8
SAPA_PROFIL
  6
CONTINUOUS
 10
7.0000000046572017
 20
15.999999996533511
 30
0.0
  0
VERTEX
  5
17EB
  8
SAPA_PROFIL
  6
CONTINUOUS
 10
8.7000000046571913
 20
15.999999996533511
 30
0.0
  0
VERTEX
  5
17EC
  8
SAPA_PROFIL
  6
CONTINUOUS
 10
8.7000000046571913
 20
16.09999999653353
 30
0.0
 42
-0.4142135623730951
  0
VERTEX
  5
17ED
  8
SAPA_PROFIL
  6
CONTINUOUS
 10
8.9000000046571799
 20
16.299999996533518
 30
0.0
  0
VERTEX
  5
17EE
  8
SAPA_PROFIL
  6
CONTINUOUS
 10
10.500000004657201
 20
16.299999996533518
 30
0.0
 42
-0.4142135623730951
  0
VERTEX
  5
17EF
  8
SAPA_PROFIL
  6
CONTINUOUS
 10
10.700000004657189
 20
16.09999999653353
 30
0.0
  0
VERTEX
  5
17F0
  8
SAPA_PROFIL
  6
CONTINUOUS
 10
10.700000004657189
 20
15.999999996533511
 30
0.0
  0
VERTEX
  5
17F1
  8
SAPA_PROFIL
  6
CONTINUOUS
 10
77.800000004657193
 20
15.999999996533511
 30
0.0
  0
VERTEX
  5
17F2
  8
SAPA_PROFIL
  6
CONTINUOUS
 10
77.80000000465725
 20
16.09999999653353
 30
0.0
 42
-0.4142135623730951
  0
VERTEX
  5
17F3
  8
SAPA_PROFIL
  6
CONTINUOUS
 10
78.000000004657238
 20
16.299999996533518
 30
0.0
  0
VERTEX
  5
17F4
  8
SAPA_PROFIL
  6
CONTINUOUS
 10
79.600000004657261
 20
16.299999996533518
 30
0.0
 42
-0.4142135623730951
  0
VERTEX
  5
17F5
  8
SAPA_PROFIL
  6
CONTINUOUS
 10
79.800000004657193
 20
16.09999999653353
 30
0.0
  0
VERTEX
  5
17F6
  8
SAPA_PROFIL
  6
CONTINUOUS
 10
79.800000004657193
 20
15.999999996533511
 30
0.0
  0
VERTEX
  5
17F7
  8
SAPA_PROFIL
  6
CONTINUOUS
 10
81.500000004657224
 20
15.999999996533511
 30
0.0
 42
0.4142135623730951
  0
VERTEX
  5
17F8
  8
SAPA_PROFIL
  6
CONTINUOUS
 10
81.800000004657193
 20
16.299999996533518
 30
0.0
  0
VERTEX
  5
17F9
  8
SAPA_PROFIL
  6
CONTINUOUS
 10
81.800000004657235
 20
33.900000080406862
 30
0.0
 42
0.4142135623730951
  0
VERTEX
  5
17FA
  8
SAPA_PROFIL
  6
CONTINUOUS
 10
81.500000004657224
 20
34.200000080406838
 30
0.0
  0
VERTEX
  5
17FB
  8
SAPA_PROFIL
  6
CONTINUOUS
 10
79.800000004657193
 20
34.200000080406838
 30
0.0
  0
SEQEND
  5
17FC
  8
SAPA_PROFIL
  6
CONTINUOUS
  0
POLYLINE
  5
11A3
  8
SAPA_PROFIL
 62
     4
 66
     1
 10
0.0
 20
0.0
 30
0.0
 70
     1
1001
RC_PROFILE
1002
{
1000
Contour
1002
}
  0
VERTEX
  5
17FD
  8
SAPA_PROFIL
 62
     4
 10
80.384684284755338
 20
38.456136870167072
 30
0.0
 42
0.5773502691895099
  0
VERTEX
  5
17FE
  8
SAPA_PROFIL
 62
     4
 10
80.566549619550003
 20
38.141136870167351
 30
0.0
  0
VERTEX
  5
17FF
  8
SAPA_PROFIL
 62
     4
 10
80.833664147763031
 20
38.141136870167351
 30
0.0
  0
VERTEX
  5
1800
  8
SAPA_PROFIL
 62
     4
 10
81.625665042231432
 20
36.7599999967508
 30
0.0
  0
VERTEX
  5
1801
  8
SAPA_PROFIL
 62
     4
 10
81.625665042240087
 20
36.399999996750438
 30
0.0
 42
-0.4142135623731464
  0
VERTEX
  5
1802
  8
SAPA_PROFIL
 62
     4
 10
81.225665042249403
 20
35.999999996740918
 30
0.0
  0
VERTEX
  5
1803
  8
SAPA_PROFIL
 62
     4
 10
77.825665042249454
 20
35.999999996661167
 30
0.0
 42
-0.4142135623728774
  0
VERTEX
  5
1804
  8
SAPA_PROFIL
 62
     4
 10
77.425665042239928
 20
36.399999996651431
 30
0.0
  0
VERTEX
  5
1805
  8
SAPA_PROFIL
 62
     4
 10
77.425665042231401
 20
36.759999996651722
 30
0.0
  0
VERTEX
  5
1806
  8
SAPA_PROFIL
 62
     4
 10
78.366652951144772
 20
38.400948292764362
 30
0.0
 42
0.130905717258469
  0
VERTEX
  5
1807
  8
SAPA_PROFIL
 62
     4
 10
78.5256650421789
 20
38.997893996677632
 30
0.0
  0
VERTEX
  5
1808
  8
SAPA_PROFIL
 62
     4
 10
78.525665041618879
 20
63.002069334957099
 30
0.0
 42
0.1309134860018379
  0
VERTEX
  5
1809
  8
SAPA_PROFIL
 62
     4
 10
78.366652951144772
 20
63.59905170055535
 30
0.0
  0
VERTEX
  5
180A
  8
SAPA_PROFIL
 62
     4
 10
77.425665042231401
 20
65.239999996667763
 30
0.0
  0
VERTEX
  5
180B
  8
SAPA_PROFIL
 62
     4
 10
77.425665042239928
 20
65.599999996668174
 30
0.0
 42
-0.4142135623729619
  0
VERTEX
  5
180C
  8
SAPA_PROFIL
 62
     4
 10
77.825665042249454
 20
65.999999996658545
 30
0.0
  0
VERTEX
  5
180D
  8
SAPA_PROFIL
 62
     4
 10
81.225665042249432
 20
65.999999996578794
 30
0.0
 42
-0.4142135623730782
  0
VERTEX
  5
180E
  8
SAPA_PROFIL
 62
     4
 10
81.625665042239973
 20
65.59999999656921
 30
0.0
  0
VERTEX
  5
180F
  8
SAPA_PROFIL
 62
     4
 10
81.625665042231446
 20
65.239999996568969
 30
0.0
  0
VERTEX
  5
1810
  8
SAPA_PROFIL
 62
     4
 10
80.833664147763045
 20
63.85886312315219
 30
0.0
  0
VERTEX
  5
1811
  8
SAPA_PROFIL
 62
     4
 10
80.566549619550017
 20
63.858863123152297
 30
0.0
 42
0.5773502691896441
  0
VERTEX
  5
1812
  8
SAPA_PROFIL
 62
     4
 10
80.384684284755437
 20
63.54386312315259
 30
0.0
  0
VERTEX
  5
1813
  8
SAPA_PROFIL
 62
     4
 10
80.525665042178915
 20
63.299677288404688
 30
0.0
  0
VERTEX
  5
1814
  8
SAPA_PROFIL
 62
     4
 10
80.525665042178915
 20
38.70032270491491
 30
0.0
  0
SEQEND
  5
1815
  8
SAPA_PROFIL
 62
     4
  0
POLYLINE
  5
11A4
  8
SAPA_PROFIL
  6
CONTINUOUS
 62
     4
 66
     1
 10
0.0
 20
0.0
 30
-0.1
 70
     1
  0
VERTEX
  5
1816
  8
SAPA_PROFIL
  6
CONTINUOUS
 62
     4
 10
80.566549619550017
 20
38.141136870167337
 30
-0.1
  0
VERTEX
  5
1817
  8
SAPA_PROFIL
  6
CONTINUOUS
 62
     4
 10
80.833664147763045
 20
38.141136870167337
 30
-0.1
  0
VERTEX
  5
1818
  8
SAPA_PROFIL
  6
CONTINUOUS
 62
     4
 10
81.625665042231446
 20
36.7599999967508
 30
-0.1
  0
VERTEX
  5
1819
  8
SAPA_PROFIL
  6
CONTINUOUS
 62
     4
 10
81.625665042240087
 20
36.399999996750438
 30
-0.1
 42
-0.4142135623731473
  0
VERTEX
  5
181A
  8
SAPA_PROFIL
  6
CONTINUOUS
 62
     4
 10
81.225665042249432
 20
35.999999996740911
 30
-0.1
  0
VERTEX
  5
181B
  8
SAPA_PROFIL
  6
CONTINUOUS
 62
     4
 10
77.825665042249454
 20
35.99999999666116
 30
-0.1
 42
-0.4142135623728817
  0
VERTEX
  5
181C
  8
SAPA_PROFIL
  6
CONTINUOUS
 62
     4
 10
77.425665042239928
 20
36.399999996651431
 30
-0.1
  0
VERTEX
  5
181D
  8
SAPA_PROFIL
  6
CONTINUOUS
 62
     4
 10
77.425665042231401
 20
36.759999996651722
 30
-0.1
  0
VERTEX
  5
181E
  8
SAPA_PROFIL
  6
CONTINUOUS
 62
     4
 10
78.366652951144772
 20
38.400948292764362
 30
-0.1
 42
0.1309057172584687
  0
VERTEX
  5
181F
  8
SAPA_PROFIL
  6
CONTINUOUS
 62
     4
 10
78.5256650421789
 20
38.997893996677618
 30
-0.1
  0
VERTEX
  5
1820
  8
SAPA_PROFIL
  6
CONTINUOUS
 62
     4
 10
78.525665041618879
 20
63.002069334957099
 30
-0.1
 42
0.1309134860018382
  0
VERTEX
  5
1821
  8
SAPA_PROFIL
  6
CONTINUOUS
 62
     4
 10
78.366652951144772
 20
63.59905170055535
 30
-0.1
  0
VERTEX
  5
1822
  8
SAPA_PROFIL
  6
CONTINUOUS
 62
     4
 10
77.425665042231401
 20
65.239999996667763
 30
-0.1
  0
VERTEX
  5
1823
  8
SAPA_PROFIL
  6
CONTINUOUS
 62
     4
 10
77.425665042239928
 20
65.599999996668174
 30
-0.1
 42
-0.4142135623729598
  0
VERTEX
  5
1824
  8
SAPA_PROFIL
  6
CONTINUOUS
 62
     4
 10
77.825665042249454
 20
65.999999996658545
 30
-0.1
  0
VERTEX
  5
1825
  8
SAPA_PROFIL
  6
CONTINUOUS
 62
     4
 10
81.225665042249432
 20
65.999999996578794
 30
-0.1
 42
-0.4142135623730795
  0
VERTEX
  5
1826
  8
SAPA_PROFIL
  6
CONTINUOUS
 62
     4
 10
81.625665042239973
 20
65.59999999656921
 30
-0.1
  0
VERTEX
  5
1827
  8
SAPA_PROFIL
  6
CONTINUOUS
 62
     4
 10
81.625665042231446
 20
65.239999996568969
 30
-0.1
  0
VERTEX
  5
1828
  8
SAPA_PROFIL
  6
CONTINUOUS
 62
     4
 10
80.833664147763045
 20
63.85886312315219
 30
-0.1
  0
VERTEX
  5
1829
  8
SAPA_PROFIL
  6
CONTINUOUS
 62
     4
 10
80.566549619550017
 20
63.858863123152297
 30
-0.1
 42
0.5773502691896458
  0
VERTEX
  5
182A
  8
SAPA_PROFIL
  6
CONTINUOUS
 62
     4
 10
80.384684284755437
 20
63.54386312315259
 30
-0.1
  0
VERTEX
  5
182B
  8
SAPA_PROFIL
  6
CONTINUOUS
 62
     4
 10
80.525665042178915
 20
63.299677288404688
 30
-0.1
  0
VERTEX
  5
182C
  8
SAPA_PROFIL
  6
CONTINUOUS
 62
     4
 10
80.525665042178915
 20
38.700322704914903
 30
-0.1
  0
VERTEX
  5
182D
  8
SAPA_PROFIL
  6
CONTINUOUS
 62
     4
 10
80.384684284755338
 20
38.456136870167057
 30
-0.1
 42
0.5773502691895091
  0
SEQEND
  5
182E
  8
SAPA_PROFIL
  6
CONTINUOUS
 62
     4
  0
POLYLINE
  5
11A5
  8
SAPA_PROFIL
 62
     4
 66
     1
 10
0.0
 20
0.0
 30
0.0
 70
     1
  0
VERTEX
  5
182F
  8
SAPA_PROFIL
 62
     4
 10
3.1717865084981369
 20
39.037778467170568
 30
0.0
 42
0.3137019356282051
  0
VERTEX
  5
1830
  8
SAPA_PROFIL
 62
     4
 10
2.9741608829647181
 20
39.31872825071688
 30
0.0
  0
VERTEX
  5
1831
  8
SAPA_PROFIL
 62
     4
 10
0.5413308614206978
 20
40.204205963588059
 30
0.0
 42
-0.3152987888779321
  0
VERTEX
  5
1832
  8
SAPA_PROFIL
 62
     4
 10
0.2781389187509768
 20
40.580083011904463
 30
0.0
  0
VERTEX
  5
1833
  8
SAPA_PROFIL
 62
     4
 10
0.2781389187510053
 20
50.999999996618577
 30
0.0
  0
VERTEX
  5
1834
  8
SAPA_PROFIL
 62
     4
 10
0.2781389187510621
 20
61.419916981336691
 30
0.0
 42
-0.3152987888779395
  0
VERTEX
  5
1835
  8
SAPA_PROFIL
 62
     4
 10
0.5413308614207831
 20
61.795794029649038
 30
0.0
  0
VERTEX
  5
1836
  8
SAPA_PROFIL
 62
     4
 10
2.9741608829564758
 20
62.681271742517232
 30
0.0
 42
0.3138982169096283
  0
VERTEX
  5
1837
  8
SAPA_PROFIL
 62
     4
 10
3.17178650849683
 20
62.962221526031414
 30
0.0
 42
0.0157923906855865
  0
VERTEX
  5
1838
  8
SAPA_PROFIL
 62
     4
 10
3.1751896381364251
 20
63.313680058370267
 30
0.0
  0
VERTEX
  5
1839
  8
SAPA_PROFIL
 62
     4
 10
3.3138593952429511
 20
63.553863123152553
 30
0.0
 42
0.5773502691889272
  0
VERTEX
  5
183A
  8
SAPA_PROFIL
 62
     4
 10
3.1319940604481582
 20
63.868863123152259
 30
0.0
  0
VERTEX
  5
183B
  8
SAPA_PROFIL
 62
     4
 10
2.8648795322352432
 20
63.86886312315238
 30
0.0
  0
VERTEX
  5
183C
  8
SAPA_PROFIL
 62
     4
 10
2.668657466450945
 20
64.199999996618573
 30
0.0
  0
VERTEX
  5
183D
  8
SAPA_PROFIL
 62
     4
 10
2.101013302953497
 20
65.183320134599086
 30
0.0
 42
-0.1316524975869703
  0
VERTEX
  5
183E
  8
SAPA_PROFIL
 62
     4
 10
2.0728786377489361
 20
65.28832013459791
 30
0.0
  0
VERTEX
  5
183F
  8
SAPA_PROFIL
 62
     4
 10
2.072878637748822
 20
65.599999996620483
 30
0.0
 42
-0.4142135623775584
  0
VERTEX
  5
1840
  8
SAPA_PROFIL
 62
     4
 10
2.4728786377491412
 20
65.999999996618527
 30
0.0
  0
VERTEX
  5
1841
  8
SAPA_PROFIL
 62
     4
 10
5.8728786377488911
 20
65.999999996618584
 30
0.0
 42
-0.4142135623773978
  0
VERTEX
  5
1842
  8
SAPA_PROFIL
 62
     4
 10
6.2728786377488683
 20
65.599999996618536
 30
0.0
  0
VERTEX
  5
1843
  8
SAPA_PROFIL
 62
     4
 10
6.2728786377488683
 20
65.288320134594883
 30
0.0
 42
-0.1316524975869708
  0
VERTEX
  5
1844
  8
SAPA_PROFIL
 62
     4
 10
6.244743972543624
 20
65.183320134597949
 30
0.0
  0
VERTEX
  5
1845
  8
SAPA_PROFIL
 62
     4
 10
5.6770238261815891
 20
64.199999996618573
 30
0.0
  0
VERTEX
  5
1846
  8
SAPA_PROFIL
 62
     4
 10
5.3336481532094737
 20
63.605255884947702
 30
0.0
 42
0.1316524975869772
  0
VERTEX
  5
1847
  8
SAPA_PROFIL
 62
     4
 10
5.1728786377489593
 20
63.005255884944319
 30
0.0
  0
VERTEX
  5
1848
  8
SAPA_PROFIL
 62
     4
 10
5.1728786377491858
 20
62.053391552057889
 30
0.0
 42
-0.3152987888780149
  0
VERTEX
  5
1849
  8
SAPA_PROFIL
 62
     4
 10
4.5148987810747991
 20
61.113698931286393
 30
0.0
  0
VERTEX
  5
184A
  8
SAPA_PROFIL
 62
     4
 10
2.341330861421107
 20
60.322584906376527
 30
0.0
 42
0.3152987888779391
  0
VERTEX
  5
184B
  8
SAPA_PROFIL
 62
     4
 10
2.0781389187509882
 20
59.946707858062013
 30
0.0
  0
VERTEX
  5
184C
  8
SAPA_PROFIL
 62
     4
 10
2.0781389187509882
 20
50.999999996618577
 30
0.0
  0
VERTEX
  5
184D
  8
SAPA_PROFIL
 62
     4
 10
2.0781389187509309
 20
42.053292135175099
 30
0.0
 42
0.3152987888779318
  0
VERTEX
  5
184E
  8
SAPA_PROFIL
 62
     4
 10
2.3413308614173549
 20
41.677415086861927
 30
0.0
  0
VERTEX
  5
184F
  8
SAPA_PROFIL
 62
     4
 10
4.5148987810745709
 20
40.886301061950832
 30
0.0
 42
-0.3152987888779361
  0
VERTEX
  5
1850
  8
SAPA_PROFIL
 62
     4
 10
5.1728786377489024
 20
39.946608441150232
 30
0.0
  0
VERTEX
  5
1851
  8
SAPA_PROFIL
 62
     4
 10
5.1728786377489024
 20
38.994744108292743
 30
0.0
 42
0.1316524975869766
  0
VERTEX
  5
1852
  8
SAPA_PROFIL
 62
     4
 10
5.3336481532036188
 20
38.394744108299541
 30
0.0
  0
VERTEX
  5
1853
  8
SAPA_PROFIL
 62
     4
 10
5.6728786377488447
 20
37.807179673591037
 30
0.0
  0
VERTEX
  5
1854
  8
SAPA_PROFIL
 62
     4
 10
6.2447439725435681
 20
36.816679858639098
 30
0.0
 42
-0.1316524975869832
  0
VERTEX
  5
1855
  8
SAPA_PROFIL
 62
     4
 10
6.2728786377488106
 20
36.711679858636018
 30
0.0
  0
VERTEX
  5
1856
  8
SAPA_PROFIL
 62
     4
 10
6.2728786377488683
 20
36.399999996618511
 30
0.0
 42
-0.414213562371655
  0
VERTEX
  5
1857
  8
SAPA_PROFIL
 62
     4
 10
5.872878637744912
 20
35.999999996618527
 30
0.0
  0
VERTEX
  5
1858
  8
SAPA_PROFIL
 62
     4
 10
2.4728786377488561
 20
35.999999996618527
 30
0.0
 42
-0.4142135623716633
  0
VERTEX
  5
1859
  8
SAPA_PROFIL
 62
     4
 10
2.0728786377488788
 20
36.399999996620551
 30
0.0
  0
VERTEX
  5
185A
  8
SAPA_PROFIL
 62
     4
 10
2.0728786377488788
 20
36.711679858639201
 30
0.0
 42
-0.1316524975869709
  0
VERTEX
  5
185B
  8
SAPA_PROFIL
 62
     4
 10
2.1010133029544642
 20
36.816679858639787
 30
0.0
  0
VERTEX
  5
185C
  8
SAPA_PROFIL
 62
     4
 10
2.8648795322352432
 20
38.131136870084788
 30
0.0
  0
VERTEX
  5
185D
  8
SAPA_PROFIL
 62
     4
 10
3.1319940604481582
 20
38.131136870084902
 30
0.0
 42
0.5773502691889269
  0
VERTEX
  5
185E
  8
SAPA_PROFIL
 62
     4
 10
3.3138593952429511
 20
38.446136870084608
 30
0.0
  0
VERTEX
  5
185F
  8
SAPA_PROFIL
 62
     4
 10
3.1751896381364269
 20
38.686319934866908
 30
0.0
 42
0.015792390685586
  0
SEQEND
  5
1860
  8
SAPA_PROFIL
 62
     4
  0
POLYLINE
  5
11A6
  8
SAPA_PROFIL
 66
     1
 10
0.0
 20
0.0
 30
0.0
 70
     1
  0
VERTEX
  5
1861
  8
SAPA_PROFIL
 10
296.3003158522647
 20
16.00003497195922
 30
0.0
 42
-0.4141600752745751
  0
VERTEX
  5
1862
  8
SAPA_PROFIL
 10
295.80031983621939
 20
15.50012230556217
 30
0.0
  0
VERTEX
  5
1863
  8
SAPA_PROFIL
 10
284.13537489444491
 20
15.5000307032746
 30
0.0
 42
-0.3693031405631438
  0
VERTEX
  5
1864
  8
SAPA_PROFIL
 10
283.60001956456267
 20
16.050894122378391
 30
0.0
  0
VERTEX
  5
1865
  8
SAPA_PROFIL
 10
283.60001956456267
 20
17.175079456434041
 30
0.0
 42
0.2216949999999729
  0
VERTEX
  5
1866
  8
SAPA_PROFIL
 10
283.52857756456268
 20
17.328288456434048
 30
0.0
  0
VERTEX
  5
1867
  8
SAPA_PROFIL
 10
279.05531477030462
 20
21.08180115730886
 30
0.0
 42
-0.2216946784688125
  0
VERTEX
  5
1868
  8
SAPA_PROFIL
 10
278.69810233376961
 20
21.84784563921232
 30
0.0
  0
VERTEX
  5
1869
  8
SAPA_PROFIL
 10
278.69810233376961
 20
26.507179477096141
 30
0.0
  0
VERTEX
  5
186A
  8
SAPA_PROFIL
 10
278.29810233376952
 20
27.199999477096132
 30
0.0
  0
VERTEX
  5
186B
  8
SAPA_PROFIL
 10
278.69944901562928
 20
27.895152321526378
 30
0.0
  0
VERTEX
  5
186C
  8
SAPA_PROFIL
 10
278.53176333376962
 20
32.697062477096161
 30
0.0
 42
0.6681790000000026
  0
VERTEX
  5
186D
  8
SAPA_PROFIL
 10
277.67820933376947
 20
33.050616477096128
 30
0.0
  0
VERTEX
  5
186E
  8
SAPA_PROFIL
 10
276.14646633376952
 20
31.518872477096131
 30
0.0
 42
0.1989120000000385
  0
VERTEX
  5
186F
  8
SAPA_PROFIL
 10
276.0000193337695
 20
31.165319477096151
 30
0.0
  0
VERTEX
  5
1870
  8
SAPA_PROFIL
 10
276.00001933376961
 20
30.699999477096132
 30
0.0
 42
0.4142139999999794
  0
VERTEX
  5
1871
  8
SAPA_PROFIL
 10
276.50001933376961
 20
30.199999477096132
 30
0.0
  0
VERTEX
  5
1872
  8
SAPA_PROFIL
 10
276.70001933376949
 20
30.199999477096132
 30
0.0
 42
-0.414213999999988
  0
VERTEX
  5
1873
  8
SAPA_PROFIL
 10
277.20001933376949
 20
29.699999477096132
 30
0.0
  0
VERTEX
  5
1874
  8
SAPA_PROFIL
 10
277.20001933376949
 20
21.146776058099309
 30
0.0
 42
0.2216946299337935
  0
VERTEX
  5
1875
  8
SAPA_PROFIL
 10
277.55723162855151
 20
20.3807316951407
 30
0.0
  0
VERTEX
  5
1876
  8
SAPA_PROFIL
 10
278.4285775645626
 20
19.649585456434071
 30
0.0
 42
-0.2216950000000585
  0
VERTEX
  5
1877
  8
SAPA_PROFIL
 10
278.50001956456271
 20
19.49637645643406
 30
0.0
  0
VERTEX
  5
1878
  8
SAPA_PROFIL
 10
278.50001956456271
 20
18.249999456434072
 30
0.0
 42
0.4142140000000904
  0
VERTEX
  5
1879
  8
SAPA_PROFIL
 10
278.80001956456272
 20
17.94999945643406
 30
0.0
  0
VERTEX
  5
187A
  8
SAPA_PROFIL
 10
280.53684256456268
 20
17.94999945643406
 30
0.0
 42
-0.1763270000000077
  0
VERTEX
  5
187B
  8
SAPA_PROFIL
 10
280.66540056456267
 20
17.903208456434069
 30
0.0
  0
VERTEX
  5
187C
  8
SAPA_PROFIL
 10
282.02857756456268
 20
16.75936745643406
 30
0.0
 42
-0.2216949999999463
  0
VERTEX
  5
187D
  8
SAPA_PROFIL
 10
282.10001956456267
 20
16.606158456434059
 30
0.0
  0
VERTEX
  5
187E
  8
SAPA_PROFIL
 10
282.10001956456267
 20
15.49325745643403
 30
0.0
 42
-0.2216860000000748
  0
VERTEX
  5
187F
  8
SAPA_PROFIL
 10
282.02858256456273
 20
15.340052456434019
 30
0.0
  0
VERTEX
  5
1880
  8
SAPA_PROFIL
 10
281.00001958924952
 20
14.47692647715018
 30
0.0
  0
VERTEX
  5
1881
  8
SAPA_PROFIL
 10
281.00001958924952
 20
14.199999913380051
 30
0.0
 42
0.419334801758378
  0
VERTEX
  5
1882
  8
SAPA_PROFIL
 10
281.20350997239962
 20
14.00003047078809
 30
0.0
  0
VERTEX
  5
1883
  8
SAPA_PROFIL
 10
302.70001959382392
 20
14.00003047078809
 30
0.0
 42
0.414162414884939
  0
VERTEX
  5
1884
  8
SAPA_PROFIL
 10
303.00001958924952
 20
14.299978081306669
 30
0.0
  0
VERTEX
  5
1885
  8
SAPA_PROFIL
 10
303.00070045888037
 20
18.19886924826363
 30
0.0
 42
0.4142140000000813
  0
VERTEX
  5
1886
  8
SAPA_PROFIL
 10
302.70075286108693
 20
18.49892201635441
 30
0.0
  0
VERTEX
  5
1887
  8
SAPA_PROFIL
 10
301.93320796325588
 20
18.499055483855098
 30
0.0
 42
0.2896900000000099
  0
VERTEX
  5
1888
  8
SAPA_PROFIL
 10
301.02959983040569
 20
17.927784549226939
 30
0.0
 42
0.5507599999999338
  0
VERTEX
  5
1889
  8
SAPA_PROFIL
 10
301.30057769987002
 20
17.499165453155001
 30
0.0
  0
VERTEX
  5
188A
  8
SAPA_PROFIL
 10
301.50057816686427
 20
17.499131057076681
 30
0.0
 42
-0.4142140000000394
  0
VERTEX
  5
188B
  8
SAPA_PROFIL
 10
301.80052576465778
 20
17.199078288985842
 30
0.0
  0
VERTEX
  5
188C
  8
SAPA_PROFIL
 10
301.80026336527669
 20
15.69907886522873
 30
0.0
 42
-0.4142139999999463
  0
VERTEX
  5
188D
  8
SAPA_PROFIL
 10
301.3001767515849
 20
15.19916617873724
 30
0.0
  0
VERTEX
  5
188E
  8
SAPA_PROFIL
 10
298.00017619492132
 20
15.1997420893212
 30
0.0
 42
-0.4142139999999708
  0
VERTEX
  5
188F
  8
SAPA_PROFIL
 10
297.50026350842978
 20
15.699828703013109
 30
0.0
  0
VERTEX
  5
1890
  8
SAPA_PROFIL
 10
297.50052592543761
 20
17.199829126614809
 30
0.0
 42
-0.4142140000000203
  0
VERTEX
  5
1891
  8
SAPA_PROFIL
 10
297.80057769368381
 20
17.49977674203512
 30
0.0
  0
VERTEX
  5
1892
  8
SAPA_PROFIL
 10
298.00057816067812
 20
17.499742345956751
 30
0.0
 42
0.55075999999978
  0
VERTEX
  5
1893
  8
SAPA_PROFIL
 10
298.27170482996621
 20
17.928265797891129
 30
0.0
 42
0.2896899999999945
  0
VERTEX
  5
1894
  8
SAPA_PROFIL
 10
297.36829676916437
 20
18.499851897841271
 30
0.0
  0
VERTEX
  5
1895
  8
SAPA_PROFIL
 10
296.600752888805
 20
18.49998634755962
 30
0.0
 42
0.4142139999999696
  0
VERTEX
  5
1896
  8
SAPA_PROFIL
 10
296.30070012071423
 20
18.200038749766289
 30
0.0
  0
SEQEND
  5
1897
  8
SAPA_PROFIL
  0
POLYLINE
  5
11A7
  8
SAPA_PROFIL
 66
     1
 10
0.0
 20
0.0
 30
0.0
 70
     1
  0
VERTEX
  5
1898
  8
SAPA_PROFIL
 10
300.85073809195347
 20
70.802767719573239
 30
0.0
  0
VERTEX
  5
1899
  8
SAPA_PROFIL
 10
276.4507380919535
 20
71.458555847049411
 30
0.0
 42
0.6681786379237078
  0
VERTEX
  5
189A
  8
SAPA_PROFIL
 10
276.23860605760029
 20
70.946423812691137
 30
0.0
  0
VERTEX
  5
189B
  8
SAPA_PROFIL
 10
278.23860605759762
 20
68.946423812693411
 30
0.0
 42
0.733230336258869
  0
VERTEX
  5
189C
  8
SAPA_PROFIL
 10
278.74618041785692
 20
69.210650300351062
 30
0.0
  0
VERTEX
  5
189D
  8
SAPA_PROFIL
 10
278.64112284668528
 20
69.806461393749487
 30
0.0
 42
-0.4663076581593259
  0
VERTEX
  5
189E
  8
SAPA_PROFIL
 10
278.93656517258881
 20
70.158555847049684
 30
0.0
  0
VERTEX
  5
189F
  8
SAPA_PROFIL
 10
300.85073809195347
 20
69.502767719573512
 30
0.0
 42
-0.41421356237163
  0
VERTEX
  5
18A0
  8
SAPA_PROFIL
 10
301.35073809195347
 20
69.002767719575786
 30
0.0
  0
VERTEX
  5
18A1
  8
SAPA_PROFIL
 10
301.35073809195347
 20
59.800000100728539
 30
0.0
 42
-0.4142135623716965
  0
VERTEX
  5
18A2
  8
SAPA_PROFIL
 10
300.85073809195848
 20
59.300000100728539
 30
0.0
  0
VERTEX
  5
18A3
  8
SAPA_PROFIL
 10
289.15073809195508
 20
59.300000100728539
 30
0.0
 42
0.4142135623729286
  0
VERTEX
  5
18A4
  8
SAPA_PROFIL
 10
288.8507380919549
 20
59.000000100728812
 30
0.0
  0
VERTEX
  5
18A5
  8
SAPA_PROFIL
 10
288.8507380919549
 20
58.300000100728539
 30
0.0
 42
0.414213562373206
  0
VERTEX
  5
18A6
  8
SAPA_PROFIL
 10
289.15073809195508
 20
58.00000010072835
 30
0.0
  0
VERTEX
  5
18A7
  8
SAPA_PROFIL
 10
300.55073809196932
 20
58.00000010072835
 30
0.0
 42
-0.4142135623732283
  0
VERTEX
  5
18A8
  8
SAPA_PROFIL
 10
301.05073809196932
 20
57.50000010072835
 30
0.0
  0
VERTEX
  5
18A9
  8
SAPA_PROFIL
 10
301.05073809196841
 20
56.300000100728987
 30
0.0
 42
0.4142135623732616
  0
VERTEX
  5
18AA
  8
SAPA_PROFIL
 10
301.35073809196808
 20
56.000000100728812
 30
0.0
  0
VERTEX
  5
18AB
  8
SAPA_PROFIL
 10
302.5507380919538
 20
56.000000100728357
 30
0.0
 42
0.4142135623717076
  0
VERTEX
  5
18AC
  8
SAPA_PROFIL
 10
302.85073809195347
 20
56.300000100729903
 30
0.0
  0
VERTEX
  5
18AD
  8
SAPA_PROFIL
 10
302.85073809196717
 20
86.200000100728175
 30
0.0
 42
0.4142135623732531
  0
VERTEX
  5
18AE
  8
SAPA_PROFIL
 10
302.55073809196699
 20
86.500000100728343
 30
0.0
  0
VERTEX
  5
18AF
  8
SAPA_PROFIL
 10
281.0553059905227
 20
86.500000100728343
 30
0.0
 42
0.4209196114694233
  0
VERTEX
  5
18B0
  8
SAPA_PROFIL
 10
280.85073809195359
 20
86.300052271776167
 30
0.0
  0
VERTEX
  5
18B1
  8
SAPA_PROFIL
 10
280.85073809195359
 20
85.499998821495865
 30
0.0
  0
VERTEX
  5
18B2
  8
SAPA_PROFIL
 10
281.15073809195331
 20
85.499998821495865
 30
0.0
 42
-0.4142135623730117
  0
VERTEX
  5
18B3
  8
SAPA_PROFIL
 10
281.35073809195347
 20
85.299998821496047
 30
0.0
  0
VERTEX
  5
18B4
  8
SAPA_PROFIL
 10
281.35073809195347
 20
85.082821056026205
 30
0.0
 42
-0.1988669396405999
  0
VERTEX
  5
18B5
  8
SAPA_PROFIL
 10
281.29218416599031
 20
84.941424421909673
 30
0.0
  0
VERTEX
  5
18B6
  8
SAPA_PROFIL
 10
280.85073809195359
 20
84.499823994421149
 30
0.0
  0
VERTEX
  5
18B7
  8
SAPA_PROFIL
 10
280.35368181710589
 20
84.002767719573512
 30
0.0
  0
VERTEX
  5
18B8
  8
SAPA_PROFIL
 10
278.85033743554669
 20
84.002767719576241
 30
0.0
 42
0.4956073595117196
  0
VERTEX
  5
18B9
  8
SAPA_PROFIL
 10
277.27327561482701
 20
84.216743454091556
 30
0.0
  0
VERTEX
  5
18BA
  8
SAPA_PROFIL
 10
276.21109692187957
 20
83.154564761144229
 30
0.0
 42
0.6681786379165803
  0
VERTEX
  5
18BB
  8
SAPA_PROFIL
 10
276.35681602770438
 20
82.802767719573225
 30
0.0
  0
VERTEX
  5
18BC
  8
SAPA_PROFIL
 10
280.85073809195359
 20
82.802767719573225
 30
0.0
  0
VERTEX
  5
18BD
  8
SAPA_PROFIL
 10
282.92790998109319
 20
84.879939608713343
 30
0.0
 42
-0.2061234514950363
  0
VERTEX
  5
18BE
  8
SAPA_PROFIL
 10
283.29531551895423
 20
85.026194299302915
 30
0.0
  0
VERTEX
  5
18BF
  8
SAPA_PROFIL
 10
298.4338509755616
 20
84.606630809911167
 30
0.0
 42
-0.4061212134723014
  0
VERTEX
  5
18C0
  8
SAPA_PROFIL
 10
301.35073809195347
 20
81.607782322811545
 30
0.0
  0
VERTEX
  5
18C1
  8
SAPA_PROFIL
 10
301.35073809195347
 20
71.302767719575954
 30
0.0
 42
-0.41421356237163
  0
SEQEND
  5
18C2
  8
SAPA_PROFIL
  0
POLYLINE
  5
11A8
  8
SAPA_PROFIL
 66
     1
 10
0.0
 20
0.0
 30
0.0
 70
     1
  0
VERTEX
  5
18C3
  8
SAPA_PROFIL
 10
-20.000000000001009
 20
70.802767620815075
 30
0.0
  0
VERTEX
  5
18C4
  8
SAPA_PROFIL
 10
4.3999999999990811
 20
71.458555748291246
 30
0.0
 42
-0.6681786379237078
  0
VERTEX
  5
18C5
  8
SAPA_PROFIL
 10
4.6121320343521708
 20
70.946423713932973
 30
0.0
  0
VERTEX
  5
18C6
  8
SAPA_PROFIL
 10
2.6121320343549002
 20
68.946423713935246
 30
0.0
 42
-0.733230336258869
  0
VERTEX
  5
18C7
  8
SAPA_PROFIL
 10
2.1045576740956591
 20
69.210650201592884
 30
0.0
  0
VERTEX
  5
18C8
  8
SAPA_PROFIL
 10
2.2096152452671869
 20
69.806461294991323
 30
0.0
 42
0.4663076581593259
  0
VERTEX
  5
18C9
  8
SAPA_PROFIL
 10
1.914172919363764
 20
70.158555748291519
 30
0.0
  0
VERTEX
  5
18CA
  8
SAPA_PROFIL
 10
-20.000000000001009
 20
69.502767620815348
 30
0.0
 42
0.41421356237163
  0
VERTEX
  5
18CB
  8
SAPA_PROFIL
 10
-20.500000000001009
 20
69.002767620817622
 30
0.0
  0
VERTEX
  5
18CC
  8
SAPA_PROFIL
 10
-20.500000000001009
 20
59.800000001970368
 30
0.0
 42
0.4142135623716965
  0
VERTEX
  5
18CD
  8
SAPA_PROFIL
 10
-20.000000000006011
 20
59.300000001970368
 30
0.0
  0
VERTEX
  5
18CE
  8
SAPA_PROFIL
 10
-8.3000000000025551
 20
59.300000001970368
 30
0.0
 42
-0.4142135623729286
  0
VERTEX
  5
18CF
  8
SAPA_PROFIL
 10
-8.0000000000023732
 20
59.000000001970641
 30
0.0
  0
VERTEX
  5
18D0
  8
SAPA_PROFIL
 10
-8.0000000000023732
 20
58.300000001970382
 30
0.0
 42
-0.414213562373206
  0
VERTEX
  5
18D1
  8
SAPA_PROFIL
 10
-8.3000000000025551
 20
58.0000000019702
 30
0.0
  0
VERTEX
  5
18D2
  8
SAPA_PROFIL
 10
-19.70000000001674
 20
58.0000000019702
 30
0.0
 42
0.4142135623732283
  0
VERTEX
  5
18D3
  8
SAPA_PROFIL
 10
-20.20000000001674
 20
57.500000001970193
 30
0.0
  0
VERTEX
  5
18D4
  8
SAPA_PROFIL
 10
-20.200000000015841
 20
56.30000000197083
 30
0.0
 42
-0.4142135623732616
  0
VERTEX
  5
18D5
  8
SAPA_PROFIL
 10
-20.500000000015561
 20
56.000000001970648
 30
0.0
  0
VERTEX
  5
18D6
  8
SAPA_PROFIL
 10
-21.700000000001278
 20
56.000000001970193
 30
0.0
 42
-0.4142135623717076
  0
VERTEX
  5
18D7
  8
SAPA_PROFIL
 10
-22.000000000001009
 20
56.300000001971739
 30
0.0
  0
VERTEX
  5
18D8
  8
SAPA_PROFIL
 10
-22.000000000014651
 20
86.200000001969997
 30
0.0
 42
-0.4142135623732531
  0
VERTEX
  5
18D9
  8
SAPA_PROFIL
 10
-21.700000000014469
 20
86.500000001970193
 30
0.0
  0
VERTEX
  5
18DA
  8
SAPA_PROFIL
 10
-0.2045678985701755
 20
86.500000001970193
 30
0.0
 42
-0.4209196114694233
  0
VERTEX
  5
18DB
  8
SAPA_PROFIL
 10
-0.000000000001009
 20
86.300052173018003
 30
0.0
  0
VERTEX
  5
18DC
  8
SAPA_PROFIL
 10
-0.000000000001009
 20
85.499998722737715
 30
0.0
  0
VERTEX
  5
18DD
  8
SAPA_PROFIL
 10
-0.3000000000007361
 20
85.499998722737715
 30
0.0
 42
0.4142135623730117
  0
VERTEX
  5
18DE
  8
SAPA_PROFIL
 10
-0.500000000001009
 20
85.299998722737897
 30
0.0
  0
VERTEX
  5
18DF
  8
SAPA_PROFIL
 10
-0.500000000001009
 20
85.082820957268027
 30
0.0
 42
0.1988669396405999
  0
VERTEX
  5
18E0
  8
SAPA_PROFIL
 10
-0.4414460740377848
 20
84.941424323151523
 30
0.0
  0
VERTEX
  5
18E1
  8
SAPA_PROFIL
 10
-0.000000000001009
 20
84.499823895662985
 30
0.0
  0
VERTEX
  5
18E2
  8
SAPA_PROFIL
 10
0.4970562748466279
 20
84.002767620815348
 30
0.0
  0
VERTEX
  5
18E3
  8
SAPA_PROFIL
 10
2.0004006564057728
 20
84.002767620818076
 30
0.0
 42
-0.4956073595117196
  0
VERTEX
  5
18E4
  8
SAPA_PROFIL
 10
3.5774624771255641
 20
84.216743355333392
 30
0.0
  0
VERTEX
  5
18E5
  8
SAPA_PROFIL
 10
4.639641170072891
 20
83.154564662386065
 30
0.0
 42
-0.6681786379165803
  0
VERTEX
  5
18E6
  8
SAPA_PROFIL
 10
4.493922064248081
 20
82.802767620815075
 30
0.0
  0
VERTEX
  5
18E7
  8
SAPA_PROFIL
 10
-0.000000000001009
 20
82.802767620815075
 30
0.0
  0
VERTEX
  5
18E8
  8
SAPA_PROFIL
 10
-2.0771718891406721
 20
84.879939509955193
 30
0.0
 42
0.2061234514950363
  0
VERTEX
  5
18E9
  8
SAPA_PROFIL
 10
-2.4445774270017031
 20
85.026194200544751
 30
0.0
  0
VERTEX
  5
18EA
  8
SAPA_PROFIL
 10
-17.583112883609019
 20
84.606630711153002
 30
0.0
 42
0.4061212134723014
  0
VERTEX
  5
18EB
  8
SAPA_PROFIL
 10
-20.500000000001009
 20
81.607782224053395
 30
0.0
  0
VERTEX
  5
18EC
  8
SAPA_PROFIL
 10
-20.500000000001009
 20
71.302767620817804
 30
0.0
 42
0.41421356237163
  0
SEQEND
  5
18ED
  8
SAPA_PROFIL
  0
POLYLINE
  5
11A9
  8
SAPA_PROFIL
 66
     1
 10
0.0
 20
0.0
 30
0.0
  0
VERTEX
  5
18EE
  8
SAPA_PROFIL
 10
93.045463439986804
 20
80.457636517153844
 30
0.0
  0
VERTEX
  5
18EF
  8
SAPA_PROFIL
 10
93.045463439986804
 20
80.457636517153844
 30
0.0
  0
SEQEND
  5
18F0
  8
SAPA_PROFIL
  0
POLYLINE
  5
11AA
  8
SAPA_PROFIL
 66
     1
 10
0.0
 20
0.0
 30
0.0
 70
     1
  0
VERTEX
  5
18F1
  8
SAPA_PROFIL
 10
88.073066082491309
 20
86.291131296796365
 30
0.0
  0
VERTEX
  5
18F2
  8
SAPA_PROFIL
 10
88.073066082491309
 20
84.300000082841237
 30
0.0
 42
-0.4142135623730795
  0
VERTEX
  5
18F3
  8
SAPA_PROFIL
 10
87.073066082491309
 20
83.300000082841208
 30
0.0
  0
VERTEX
  5
18F4
  8
SAPA_PROFIL
 10
86.805521614529056
 20
83.300000082841208
 30
0.0
 42
-0.2896898633034337
  0
VERTEX
  5
18F5
  8
SAPA_PROFIL
 10
85.902013711622914
 20
83.871428654272066
 30
0.0
 42
-0.5507604245854725
  0
VERTEX
  5
18F6
  8
SAPA_PROFIL
 10
86.173066082491331
 20
84.300000082841237
 30
0.0
  0
VERTEX
  5
18F7
  8
SAPA_PROFIL
 10
86.473066082491215
 20
84.300000082841166
 30
0.0
 42
0.4142135623730951
  0
VERTEX
  5
18F8
  8
SAPA_PROFIL
 10
86.673066082491317
 20
84.500000082841211
 30
0.0
  0
VERTEX
  5
18F9
  8
SAPA_PROFIL
 10
86.673066082491317
 20
85.60000008565811
 30
0.0
 42
0.4142135623730863
  0
VERTEX
  5
18FA
  8
SAPA_PROFIL
 10
85.673066082491275
 20
86.600000085658166
 30
0.0
  0
VERTEX
  5
18FB
  8
SAPA_PROFIL
 10
83.373116588830086
 20
86.60000008565811
 30
0.0
 42
0.4142135623730847
  0
VERTEX
  5
18FC
  8
SAPA_PROFIL
 10
82.373116588830086
 20
85.60000008565811
 30
0.0
  0
VERTEX
  5
18FD
  8
SAPA_PROFIL
 10
82.373116588830086
 20
84.500000082841211
 30
0.0
 42
0.4142135623730925
  0
VERTEX
  5
18FE
  8
SAPA_PROFIL
 10
82.573116588830075
 20
84.300000082841237
 30
0.0
  0
VERTEX
  5
18FF
  8
SAPA_PROFIL
 10
82.873066082491206
 20
84.300000082839517
 30
0.0
 42
-0.5507604245854657
  0
VERTEX
  5
1900
  8
SAPA_PROFIL
 10
83.144118453359781
 20
83.871428654271995
 30
0.0
 42
-0.2896898633034307
  0
VERTEX
  5
1901
  8
SAPA_PROFIL
 10
82.240610550453525
 20
83.300000082841208
 30
0.0
  0
VERTEX
  5
1902
  8
SAPA_PROFIL
 10
81.973116588830052
 20
83.300000082841166
 30
0.0
 42
-0.4142135623730951
  0
VERTEX
  5
1903
  8
SAPA_PROFIL
 10
80.973116588830067
 20
84.300000082841237
 30
0.0
  0
VERTEX
  5
1904
  8
SAPA_PROFIL
 10
80.973116588830067
 20
86.000000085658144
 30
0.0
 42
-0.4142135623730871
  0
VERTEX
  5
1905
  8
SAPA_PROFIL
 10
82.973116588830095
 20
88.000000085658201
 30
0.0
  0
VERTEX
  5
1906
  8
SAPA_PROFIL
 10
105.6731165888047
 20
88.000000087647095
 30
0.0
 42
-0.4142135623987623
  0
VERTEX
  5
1907
  8
SAPA_PROFIL
 10
105.973116588831
 20
87.700000087647084
 30
0.0
  0
VERTEX
  5
1908
  8
SAPA_PROFIL
 10
105.973116588831
 20
87.207106868859924
 30
0.0
 42
-0.198912367379658
  0
VERTEX
  5
1909
  8
SAPA_PROFIL
 10
105.8266699794243
 20
86.853553478266619
 30
0.0
  0
VERTEX
  5
190A
  8
SAPA_PROFIL
 10
105.1195631982377
 20
86.146446697080023
 30
0.0
 42
0.1989123673796528
  0
VERTEX
  5
190B
  8
SAPA_PROFIL
 10
104.97311658883091
 20
85.792893306486746
 30
0.0
  0
VERTEX
  5
190C
  8
SAPA_PROFIL
 10
104.97311658883091
 20
84.500000087673314
 30
0.0
 42
0.4142135623730659
  0
VERTEX
  5
190D
  8
SAPA_PROFIL
 10
105.47311658883091
 20
84.0000000876733
 30
0.0
  0
VERTEX
  5
190E
  8
SAPA_PROFIL
 10
107.8571786321874
 20
84.000000087673072
 30
0.0
 42
0.1989123673796822
  0
VERTEX
  5
190F
  8
SAPA_PROFIL
 10
108.2107320227808
 20
84.146446697079796
 30
0.0
  0
VERTEX
  5
1910
  8
SAPA_PROFIL
 10
108.9781418420005
 20
84.913856516299518
 30
0.0
 42
-0.9999999999999998
  0
VERTEX
  5
1911
  8
SAPA_PROFIL
 10
109.9680913356617
 20
83.923907022638332
 30
0.0
  0
VERTEX
  5
1912
  8
SAPA_PROFIL
 10
108.1906310101031
 20
82.146446697079682
 30
0.0
 42
-0.1989123673796822
  0
VERTEX
  5
1913
  8
SAPA_PROFIL
 10
107.8370776195098
 20
82.000000087672944
 30
0.0
  0
VERTEX
  5
1914
  8
SAPA_PROFIL
 10
103.47311658883091
 20
82.000000087673413
 30
0.0
 42
-0.4142135623730639
  0
VERTEX
  5
1915
  8
SAPA_PROFIL
 10
102.97311658883091
 20
82.500000087673413
 30
0.0
  0
VERTEX
  5
1916
  8
SAPA_PROFIL
 10
102.97311658883091
 20
84.500000087673584
 30
0.0
 42
0.414213562373064
  0
VERTEX
  5
1917
  8
SAPA_PROFIL
 10
102.47311658883091
 20
85.000000087673584
 30
0.0
  0
VERTEX
  5
1918
  8
SAPA_PROFIL
 10
98.973116588830791
 20
85.000000087673925
 30
0.0
 42
0.4142135623731263
  0
VERTEX
  5
1919
  8
SAPA_PROFIL
 10
98.473116588830734
 20
84.500000087673925
 30
0.0
  0
VERTEX
  5
191A
  8
SAPA_PROFIL
 10
98.473116588830734
 20
69.781552074163415
 30
0.0
 42
0.3639702342662015
  0
VERTEX
  5
191B
  8
SAPA_PROFIL
 10
99.299468411163815
 20
68.796744321151209
 30
0.0
  0
VERTEX
  5
191C
  8
SAPA_PROFIL
 10
105.1467647664978
 20
67.765708209507522
 30
0.0
 42
-0.3639702342662066
  0
VERTEX
  5
191D
  8
SAPA_PROFIL
 10
105.973116588831
 20
66.78090045649526
 30
0.0
  0
VERTEX
  5
191E
  8
SAPA_PROFIL
 10
105.973116588831
 20
62.920000087672399
 30
0.0
 42
-0.4142135623730951
  0
VERTEX
  5
191F
  8
SAPA_PROFIL
 10
105.47311658883091
 20
62.420000087672399
 30
0.0
  0
VERTEX
  5
1920
  8
SAPA_PROFIL
 10
105.273116588831
 20
62.420000087672399
 30
0.0
 42
-0.4142135623730951
  0
VERTEX
  5
1921
  8
SAPA_PROFIL
 10
104.7731165888309
 20
62.920000087672399
 30
0.0
  0
VERTEX
  5
1922
  8
SAPA_PROFIL
 10
104.7731165888309
 20
63.000000087672561
 30
0.0
 42
0.4142135623730619
  0
VERTEX
  5
1923
  8
SAPA_PROFIL
 10
104.273116588831
 20
63.500000087672547
 30
0.0
  0
VERTEX
  5
1924
  8
SAPA_PROFIL
 10
100.97311658883091
 20
63.500000087672888
 30
0.0
 42
-0.5693809839207964
  0
VERTEX
  5
1925
  8
SAPA_PROFIL
 10
100.7975625432673
 20
63.795816459375537
 30
0.0
  0
VERTEX
  5
1926
  8
SAPA_PROFIL
 10
101.7731165888311
 20
65.400000087672595
 30
0.0
  0
VERTEX
  5
1927
  8
SAPA_PROFIL
 10
101.7731165888313
 20
65.700000087672322
 30
0.0
 42
0.414213562372873
  0
VERTEX
  5
1928
  8
SAPA_PROFIL
 10
101.4731165888312
 20
66.000000087672504
 30
0.0
  0
VERTEX
  5
1929
  8
SAPA_PROFIL
 10
97.473116589668507
 20
66.000000087672504
 30
0.0
 42
-0.2134217652834381
  0
VERTEX
  5
192A
  8
SAPA_PROFIL
 10
97.249509791918385
 20
66.100000087672612
 30
0.0
 42
0.7625858545243276
  0
VERTEX
  5
192B
  8
SAPA_PROFIL
 10
96.919183710901365
 20
65.915420885475115
 30
0.0
  0
VERTEX
  5
192C
  8
SAPA_PROFIL
 10
96.977257347890443
 20
65.724037885481408
 30
0.0
  0
VERTEX
  5
192D
  8
SAPA_PROFIL
 10
98.061821794862212
 20
63.83819419362036
 30
0.0
  0
VERTEX
  5
192E
  8
SAPA_PROFIL
 10
98.383579523080456
 20
63.848755559847348
 30
0.0
 42
-0.577350269189744
  0
VERTEX
  5
192F
  8
SAPA_PROFIL
 10
98.566533263190621
 20
63.5545992595925
 30
0.0
  0
VERTEX
  5
1930
  8
SAPA_PROFIL
 10
98.414399352081873
 20
63.269916976360868
 30
0.0
 42
-0.2216946626430207
  0
VERTEX
  5
1931
  8
SAPA_PROFIL
 10
97.873519520605072
 20
62.864108071206061
 30
0.0
  0
VERTEX
  5
1932
  8
SAPA_PROFIL
 10
96.060289049946832
 20
62.482661475078352
 30
0.0
 42
-0.4769755326981632
  0
VERTEX
  5
1933
  8
SAPA_PROFIL
 10
95.688632175000933
 20
62.784914299584813
 30
0.0
  0
VERTEX
  5
1934
  8
SAPA_PROFIL
 10
95.6887157828846
 20
64.28801538034682
 30
0.0
  0
VERTEX
  5
1935
  8
SAPA_PROFIL
 10
95.736561532883087
 20
64.302533789593923
 30
0.0
 42
0.4142135623730951
  0
VERTEX
  5
1936
  8
SAPA_PROFIL
 10
95.936525577390483
 20
64.676718745069735
 30
0.0
  0
VERTEX
  5
1937
  8
SAPA_PROFIL
 10
95.473116588830891
 20
65.875681527880744
 30
0.0
  0
VERTEX
  5
1938
  8
SAPA_PROFIL
 10
95.473116588830806
 20
73.330384844508501
 30
0.0
  0
VERTEX
  5
1939
  8
SAPA_PROFIL
 10
95.773116588830817
 20
73.850000086779119
 30
0.0
  0
VERTEX
  5
193A
  8
SAPA_PROFIL
 10
95.473116588830734
 20
74.369615329049793
 30
0.0
  0
VERTEX
  5
193B
  8
SAPA_PROFIL
 10
95.473116588830564
 20
85.718615118089076
 30
0.0
 42
0.3955859011959327
  0
VERTEX
  5
193C
  8
SAPA_PROFIL
 10
95.192307968571839
 20
86.018000640357002
 30
0.0
  0
VERTEX
  5
193D
  8
SAPA_PROFIL
 10
88.285860335652259
 20
86.490721644974997
 30
0.0
 42
0.433089857303855
  0
SEQEND
  5
193E
  8
SAPA_PROFIL
  0
POLYLINE
  5
11AB
  8
SAPA_PROFIL
 62
     4
 66
     1
 10
0.0
 20
0.0
 30
0.1
 70
     1
1001
RC_PROFILE
1002
{
1000
Contour
1002
}
  0
VERTEX
  5
193F
  8
SAPA_PROFIL
 62
     4
 10
98.614097346743947
 20
63.543863214206453
 30
0.1
 42
0.5773502691895099
  0
VERTEX
  5
1940
  8
SAPA_PROFIL
 62
     4
 10
98.432232011949253
 20
63.858863214206167
 30
0.1
  0
VERTEX
  5
1941
  8
SAPA_PROFIL
 62
     4
 10
98.165117483736225
 20
63.858863214206167
 30
0.1
  0
VERTEX
  5
1942
  8
SAPA_PROFIL
 62
     4
 10
97.373116589267823
 20
65.240000087622704
 30
0.1
  0
VERTEX
  5
1943
  8
SAPA_PROFIL
 62
     4
 10
97.373116589259183
 20
65.600000087623073
 30
0.1
 42
-0.4142135623731464
  0
VERTEX
  5
1944
  8
SAPA_PROFIL
 62
     4
 10
97.773116589249838
 20
66.000000087632586
 30
0.1
  0
VERTEX
  5
1945
  8
SAPA_PROFIL
 62
     4
 10
101.1731165892498
 20
66.000000087712351
 30
0.1
 42
-0.4142135623728774
  0
VERTEX
  5
1946
  8
SAPA_PROFIL
 62
     4
 10
101.5731165892593
 20
65.600000087722094
 30
0.1
  0
VERTEX
  5
1947
  8
SAPA_PROFIL
 62
     4
 10
101.5731165892678
 20
65.240000087721796
 30
0.1
  0
VERTEX
  5
1948
  8
SAPA_PROFIL
 62
     4
 10
100.6321286803545
 20
63.599051791609149
 30
0.1
 42
0.130905717258469
  0
VERTEX
  5
1949
  8
SAPA_PROFIL
 62
     4
 10
100.4731165893203
 20
63.002106087695893
 30
0.1
  0
VERTEX
  5
194A
  8
SAPA_PROFIL
 62
     4
 10
100.47311658988041
 20
38.997930749416412
 30
0.1
 42
0.1309134860018379
  0
VERTEX
  5
194B
  8
SAPA_PROFIL
 62
     4
 10
100.6321286803545
 20
38.400948383818161
 30
0.1
  0
VERTEX
  5
194C
  8
SAPA_PROFIL
 62
     4
 10
101.5731165892678
 20
36.760000087705748
 30
0.1
  0
VERTEX
  5
194D
  8
SAPA_PROFIL
 62
     4
 10
101.5731165892593
 20
36.400000087705337
 30
0.1
 42
-0.4142135623729619
  0
VERTEX
  5
194E
  8
SAPA_PROFIL
 62
     4
 10
101.1731165892498
 20
36.000000087714973
 30
0.1
  0
VERTEX
  5
194F
  8
SAPA_PROFIL
 62
     4
 10
97.773116589249838
 20
36.000000087794717
 30
0.1
 42
-0.4142135623730782
  0
VERTEX
  5
1950
  8
SAPA_PROFIL
 62
     4
 10
97.373116589259297
 20
36.400000087804301
 30
0.1
  0
VERTEX
  5
1951
  8
SAPA_PROFIL
 62
     4
 10
97.373116589267823
 20
36.760000087804542
 30
0.1
  0
VERTEX
  5
1952
  8
SAPA_PROFIL
 62
     4
 10
98.165117483736225
 20
38.141136961221321
 30
0.1
  0
VERTEX
  5
1953
  8
SAPA_PROFIL
 62
     4
 10
98.432232011949253
 20
38.141136961221207
 30
0.1
 42
0.5773502691896441
  0
VERTEX
  5
1954
  8
SAPA_PROFIL
 62
     4
 10
98.614097346743804
 20
38.456136961220921
 30
0.1
  0
VERTEX
  5
1955
  8
SAPA_PROFIL
 62
     4
 10
98.473116589320369
 20
38.700322795968823
 30
0.1
  0
VERTEX
  5
1956
  8
SAPA_PROFIL
 62
     4
 10
98.473116589320369
 20
63.299677379458608
 30
0.1
  0
SEQEND
  5
1957
  8
SAPA_PROFIL
 62
     4
  0
POLYLINE
  5
11AC
  8
SAPA_PROFIL
  6
CONTINUOUS
 62
     4
 66
     1
 10
0.0
 20
0.0
 30
0.0
 70
     1
  0
VERTEX
  5
1958
  8
SAPA_PROFIL
  6
CONTINUOUS
 62
     4
 10
98.432232011949253
 20
63.858863214206167
 30
0.0
  0
VERTEX
  5
1959
  8
SAPA_PROFIL
  6
CONTINUOUS
 62
     4
 10
98.165117483736225
 20
63.858863214206167
 30
0.0
  0
VERTEX
  5
195A
  8
SAPA_PROFIL
  6
CONTINUOUS
 62
     4
 10
97.373116589267823
 20
65.240000087622704
 30
0.0
  0
VERTEX
  5
195B
  8
SAPA_PROFIL
  6
CONTINUOUS
 62
     4
 10
97.373116589259183
 20
65.600000087623073
 30
0.0
 42
-0.4142135623731473
  0
VERTEX
  5
195C
  8
SAPA_PROFIL
  6
CONTINUOUS
 62
     4
 10
97.773116589249838
 20
66.000000087632586
 30
0.0
  0
VERTEX
  5
195D
  8
SAPA_PROFIL
  6
CONTINUOUS
 62
     4
 10
101.1731165892498
 20
66.000000087712351
 30
0.0
 42
-0.4142135623728817
  0
VERTEX
  5
195E
  8
SAPA_PROFIL
  6
CONTINUOUS
 62
     4
 10
101.5731165892593
 20
65.600000087722094
 30
0.0
  0
VERTEX
  5
195F
  8
SAPA_PROFIL
  6
CONTINUOUS
 62
     4
 10
101.5731165892678
 20
65.240000087721796
 30
0.0
  0
VERTEX
  5
1960
  8
SAPA_PROFIL
  6
CONTINUOUS
 62
     4
 10
100.6321286803545
 20
63.599051791609163
 30
0.0
 42
0.1309057172584687
  0
VERTEX
  5
1961
  8
SAPA_PROFIL
  6
CONTINUOUS
 62
     4
 10
100.4731165893203
 20
63.0021060876959
 30
0.0
  0
VERTEX
  5
1962
  8
SAPA_PROFIL
  6
CONTINUOUS
 62
     4
 10
100.47311658988041
 20
38.997930749416412
 30
0.0
 42
0.1309134860018382
  0
VERTEX
  5
1963
  8
SAPA_PROFIL
  6
CONTINUOUS
 62
     4
 10
100.6321286803545
 20
38.400948383818161
 30
0.0
  0
VERTEX
  5
1964
  8
SAPA_PROFIL
  6
CONTINUOUS
 62
     4
 10
101.5731165892678
 20
36.760000087705748
 30
0.0
  0
VERTEX
  5
1965
  8
SAPA_PROFIL
  6
CONTINUOUS
 62
     4
 10
101.5731165892593
 20
36.400000087705337
 30
0.0
 42
-0.4142135623729598
  0
VERTEX
  5
1966
  8
SAPA_PROFIL
  6
CONTINUOUS
 62
     4
 10
101.1731165892498
 20
36.000000087714973
 30
0.0
  0
VERTEX
  5
1967
  8
SAPA_PROFIL
  6
CONTINUOUS
 62
     4
 10
97.773116589249838
 20
36.000000087794717
 30
0.0
 42
-0.4142135623730795
  0
VERTEX
  5
1968
  8
SAPA_PROFIL
  6
CONTINUOUS
 62
     4
 10
97.373116589259297
 20
36.400000087804301
 30
0.0
  0
VERTEX
  5
1969
  8
SAPA_PROFIL
  6
CONTINUOUS
 62
     4
 10
97.373116589267823
 20
36.760000087804542
 30
0.0
  0
VERTEX
  5
196A
  8
SAPA_PROFIL
  6
CONTINUOUS
 62
     4
 10
98.165117483736225
 20
38.141136961221321
 30
0.0
  0
VERTEX
  5
196B
  8
SAPA_PROFIL
  6
CONTINUOUS
 62
     4
 10
98.432232011949253
 20
38.141136961221207
 30
0.0
 42
0.5773502691896458
  0
VERTEX
  5
196C
  8
SAPA_PROFIL
  6
CONTINUOUS
 62
     4
 10
98.614097346743804
 20
38.456136961220921
 30
0.0
  0
VERTEX
  5
196D
  8
SAPA_PROFIL
  6
CONTINUOUS
 62
     4
 10
98.473116589320369
 20
38.700322795968823
 30
0.0
  0
VERTEX
  5
196E
  8
SAPA_PROFIL
  6
CONTINUOUS
 62
     4
 10
98.473116589320369
 20
63.299677379458622
 30
0.0
  0
VERTEX
  5
196F
  8
SAPA_PROFIL
  6
CONTINUOUS
 62
     4
 10
98.614097346743947
 20
63.543863214206461
 30
0.0
 42
0.5773502691895091
  0
SEQEND
  5
1970
  8
SAPA_PROFIL
  6
CONTINUOUS
 62
     4
  0
POLYLINE
  5
11AD
  8
SAPA_PROFIL
 66
     1
 10
0.0
 20
0.0
 30
0.0
  0
VERTEX
  5
1971
  8
SAPA_PROFIL
 10
97.547232853430629
 20
36.000000087754643
 30
0.0
 42
0.2134217652834216
  0
VERTEX
  5
1972
  8
SAPA_PROFIL
 10
97.323626055680521
 20
35.900000087754513
 30
0.0
 42
-0.7625858545242717
  0
VERTEX
  5
1973
  8
SAPA_PROFIL
 10
96.993299974663501
 20
36.084579289951989
 30
0.0
  0
VERTEX
  5
1974
  8
SAPA_PROFIL
 10
97.051373611652593
 20
36.27596228994571
 30
0.0
  0
VERTEX
  5
1975
  8
SAPA_PROFIL
 10
98.135938058624333
 20
38.161805981806772
 30
0.0
  0
VERTEX
  5
1976
  8
SAPA_PROFIL
 10
98.457695786842606
 20
38.151244615579799
 30
0.0
 42
0.5773502691897205
  0
VERTEX
  5
1977
  8
SAPA_PROFIL
 10
98.640649526952757
 20
38.445400915834632
 30
0.0
  0
VERTEX
  5
1978
  8
SAPA_PROFIL
 10
98.488515615844037
 20
38.730083199066257
 30
0.0
 42
0.2216946626430408
  0
VERTEX
  5
1979
  8
SAPA_PROFIL
 10
97.947635784367222
 20
39.135892104221057
 30
0.0
  0
VERTEX
  5
197A
  8
SAPA_PROFIL
 10
96.134405313708982
 20
39.517338700348773
 30
0.0
 42
0.476975532698107
  0
VERTEX
  5
197B
  8
SAPA_PROFIL
 10
95.762748438763083
 20
39.215085875842313
 30
0.0
  0
VERTEX
  5
197C
  8
SAPA_PROFIL
 10
95.762832046646736
 20
37.711984795080298
 30
0.0
  0
VERTEX
  5
197D
  8
SAPA_PROFIL
 10
95.810677796645223
 20
37.697466385833202
 30
0.0
 42
-0.4142135623731266
  0
VERTEX
  5
197E
  8
SAPA_PROFIL
 10
96.010641841152619
 20
37.32328143035739
 30
0.0
  0
VERTEX
  5
197F
  8
SAPA_PROFIL
 10
95.500019589250087
 20
36.002165329417721
 30
0.0
  0
VERTEX
  5
1980
  8
SAPA_PROFIL
 10
95.500019589250087
 20
29.92059208775402
 30
0.0
  0
VERTEX
  5
1981
  8
SAPA_PROFIL
 10
95.800583589250095
 20
29.400000087753941
 30
0.0
  0
VERTEX
  5
1982
  8
SAPA_PROFIL
 10
95.500019589250087
 20
28.879407087753862
 30
0.0
  0
VERTEX
  5
1983
  8
SAPA_PROFIL
 10
95.500019589250087
 20
24.700000087753551
 30
0.0
 42
-0.4142140000000108
  0
VERTEX
  5
1984
  8
SAPA_PROFIL
 10
95.200019589250019
 20
24.40000008775348
 30
0.0
  0
VERTEX
  5
1985
  8
SAPA_PROFIL
 10
93.700019589249905
 20
24.4000000877536
 30
0.0
 42
0.4142139999998548
  0
VERTEX
  5
1986
  8
SAPA_PROFIL
 10
93.50001958924986
 20
24.200000087753551
 30
0.0
  0
VERTEX
  5
1987
  8
SAPA_PROFIL
 10
93.50001958924986
 20
23.700000087753551
 30
0.0
 42
0.4142140000000309
  0
VERTEX
  5
1988
  8
SAPA_PROFIL
 10
94.500019589249973
 20
22.70000008775332
 30
0.0
  0
VERTEX
  5
1989
  8
SAPA_PROFIL
 10
101.0000195892497
 20
22.70000008775332
 30
0.0
 42
-0.4142135623731031
  0
VERTEX
  5
198A
  8
SAPA_PROFIL
 10
103.0000195892498
 20
20.70000008775332
 30
0.0
  0
VERTEX
  5
198B
  8
SAPA_PROFIL
 10
103.0000195892498
 20
15.00000008775282
 30
0.0
 42
0.4142140000000262
  0
VERTEX
  5
198C
  8
SAPA_PROFIL
 10
104.00001958925
 20
14.000000087752589
 30
0.0
  0
VERTEX
  5
198D
  8
SAPA_PROFIL
 10
105.70001958924981
 20
14.00000008775282
 30
0.0
 42
0.4142139999999169
  0
VERTEX
  5
198E
  8
SAPA_PROFIL
 10
106.0000195892498
 20
14.30000008775278
 30
0.0
  0
VERTEX
  5
198F
  8
SAPA_PROFIL
 10
106.0000195892498
 20
14.75613279394611
 30
0.0
 42
0.2308681911255748
  0
VERTEX
  5
1990
  8
SAPA_PROFIL
 10
105.8078503269127
 20
15.150138170749409
 30
0.0
  0
VERTEX
  5
1991
  8
SAPA_PROFIL
 10
105.19218885158701
 20
15.63419811515814
 30
0.0
 42
-0.2308681911255704
  0
VERTEX
  5
1992
  8
SAPA_PROFIL
 10
105.0000195892498
 20
16.028203491961449
 30
0.0
  0
VERTEX
  5
1993
  8
SAPA_PROFIL
 10
105.0000195892498
 20
18.000000087753051
 30
0.0
 42
-0.4142140000000419
  0
VERTEX
  5
1994
  8
SAPA_PROFIL
 10
105.5000195892498
 20
18.500000087753051
 30
0.0
  0
VERTEX
  5
1995
  8
SAPA_PROFIL
 10
109.5000195892498
 20
18.500000087753051
 30
0.0
 42
0.9999999999999998
  0
VERTEX
  5
1996
  8
SAPA_PROFIL
 10
109.5000195892498
 20
19.900000087753138
 30
0.0
  0
VERTEX
  5
1997
  8
SAPA_PROFIL
 10
106.5000195892502
 20
19.900000087753138
 30
0.0
 42
-0.4142135623731304
  0
VERTEX
  5
1998
  8
SAPA_PROFIL
 10
106.0000195892501
 20
20.400000087753138
 30
0.0
  0
VERTEX
  5
1999
  8
SAPA_PROFIL
 10
106.0000195892501
 20
20.70000008775332
 30
0.0
 42
0.4142135623730951
  0
VERTEX
  5
199A
  8
SAPA_PROFIL
 10
101.0000195892497
 20
25.700000087753661
 30
0.0
  0
VERTEX
  5
199B
  8
SAPA_PROFIL
 10
99.000019589250101
 20
25.700000087753661
 30
0.0
 42
-0.414214000000047
  0
VERTEX
  5
199C
  8
SAPA_PROFIL
 10
98.500019589250087
 20
26.200000087753669
 30
0.0
  0
VERTEX
  5
199D
  8
SAPA_PROFIL
 10
98.500019589250087
 20
32.234775087754201
 30
0.0
 42
-0.363970000000007
  0
VERTEX
  5
199E
  8
SAPA_PROFIL
 10
99.32637158925013
 20
33.219582087754247
 30
0.0
  0
VERTEX
  5
199F
  8
SAPA_PROFIL
 10
105.1736675892506
 20
34.250618087754219
 30
0.0
 42
0.3639700000000089
  0
VERTEX
  5
19A0
  8
SAPA_PROFIL
 10
106.0000195892506
 20
35.235426087754377
 30
0.0
  0
VERTEX
  5
19A1
  8
SAPA_PROFIL
 10
106.0000195892506
 20
39.09632708775473
 30
0.0
 42
0.4142140000000481
  0
VERTEX
  5
19A2
  8
SAPA_PROFIL
 10
105.5000195892506
 20
39.59632708775473
 30
0.0
  0
VERTEX
  5
19A3
  8
SAPA_PROFIL
 10
105.3000195892506
 20
39.59632708775473
 30
0.0
 42
0.4142139999999776
  0
VERTEX
  5
19A4
  8
SAPA_PROFIL
 10
104.8000195892506
 20
39.09632708775473
 30
0.0
  0
VERTEX
  5
19A5
  8
SAPA_PROFIL
 10
104.8000195892506
 20
39.000000087754763
 30
0.0
 42
-0.4142140000000459
  0
VERTEX
  5
19A6
  8
SAPA_PROFIL
 10
104.3000195892505
 20
38.500000087754643
 30
0.0
  0
VERTEX
  5
19A7
  8
SAPA_PROFIL
 10
100.9484445892502
 20
38.500000087754643
 30
0.0
 42
0.5773499999998256
  0
VERTEX
  5
19A8
  8
SAPA_PROFIL
 10
100.77523958925021
 20
38.200000087754688
 30
0.0
  0
VERTEX
  5
19A9
  8
SAPA_PROFIL
 10
101.6990005892503
 20
36.600000087754552
 30
0.0
  0
VERTEX
  5
19AA
  8
SAPA_PROFIL
 10
101.6990005892503
 20
36.300000087754491
 30
0.0
 42
-0.4142139999999518
  0
VERTEX
  5
19AB
  8
SAPA_PROFIL
 10
101.39900058925021
 20
36.000000087754529
 30
0.0
  0
VERTEX
  5
19AC
  8
SAPA_PROFIL
 10
97.547232589250257
 20
36.000000087754529
 30
0.0
  0
SEQEND
  5
19AD
  8
SAPA_PROFIL
  0
POLYLINE
  5
11AE
  8
SAPA_PROFIL
 66
     1
 10
0.0
 20
0.0
 30
0.0
 70
     1
  0
VERTEX
  5
19AE
  8
SAPA_PROFIL
 10
119.9677669529672
 20
68.646446522788864
 30
0.0
 42
-0.1989123673796551
  0
VERTEX
  5
19AF
  8
SAPA_PROFIL
 10
119.614213562374
 20
68.499999913382155
 30
0.0
  0
VERTEX
  5
19B0
  8
SAPA_PROFIL
 10
119.0000000000007
 20
68.499999913382155
 30
0.0
 42
-0.4142135623730951
  0
VERTEX
  5
19B1
  8
SAPA_PROFIL
 10
118.7000000000008
 20
68.799999913382166
 30
0.0
  0
VERTEX
  5
19B2
  8
SAPA_PROFIL
 10
118.7000000000008
 20
69.292893132195474
 30
0.0
 42
-0.1989123673796546
  0
VERTEX
  5
19B3
  8
SAPA_PROFIL
 10
118.84644660940739
 20
69.646446522788764
 30
0.0
  0
VERTEX
  5
19B4
  8
SAPA_PROFIL
 10
123.0535533905941
 20
73.853553303975318
 30
0.0
 42
0.1989123673796781
  0
VERTEX
  5
19B5
  8
SAPA_PROFIL
 10
123.2000000000008
 20
74.207106694568651
 30
0.0
  0
VERTEX
  5
19B6
  8
SAPA_PROFIL
 10
123.1999999999999
 20
85.999999913311996
 30
0.0
 42
0.4142135623736611
  0
VERTEX
  5
19B7
  8
SAPA_PROFIL
 10
122.9000000000006
 20
86.299999913312078
 30
0.0
  0
VERTEX
  5
19B8
  8
SAPA_PROFIL
 10
115.0
 20
86.299999913312078
 30
0.0
 42
-0.414213562373761
  0
VERTEX
  5
19B9
  8
SAPA_PROFIL
 10
114.7000000000008
 20
86.599999913312018
 30
0.0
  0
VERTEX
  5
19BA
  8
SAPA_PROFIL
 10
114.7000000000008
 20
87.699999913311956
 30
0.0
 42
-0.4142135623721627
  0
VERTEX
  5
19BB
  8
SAPA_PROFIL
 10
115.0
 20
87.999999913312067
 30
0.0
  0
VERTEX
  5
19BC
  8
SAPA_PROFIL
 10
265.22650154857467
 20
87.999999913312067
 30
0.0
 42
-0.6675531847388431
  0
VERTEX
  5
19BD
  8
SAPA_PROFIL
 10
265.58066609500941
 20
87.147058736841913
 30
0.0
 42
1.2161320164091849
  0
VERTEX
  5
19BE
  8
SAPA_PROFIL
 10
270.31174354125432
 20
83.984615297926993
 30
0.0
 42
-0.8177283018235058
  0
VERTEX
  5
19BF
  8
SAPA_PROFIL
 10
272.23480811204462
 20
83.604970267820235
 30
0.0
 42
-0.1926855035647558
  0
VERTEX
  5
19C0
  8
SAPA_PROFIL
 10
271.41669703878517
 20
81.531049146545215
 30
0.0
 42
-0.5256733984080475
  0
VERTEX
  5
19C1
  8
SAPA_PROFIL
 10
262.95080866249288
 20
82.841674551406058
 30
0.0
 42
0.5164682151966532
  0
VERTEX
  5
19C2
  8
SAPA_PROFIL
 10
262.14686952172281
 20
82.978081272586209
 30
0.0
  0
VERTEX
  5
19C3
  8
SAPA_PROFIL
 10
260.41523477185649
 20
81.246446522719211
 30
0.0
 42
-0.1989123673798339
  0
VERTEX
  5
19C4
  8
SAPA_PROFIL
 10
260.0616813812623
 20
81.099999913311976
 30
0.0
  0
VERTEX
  5
19C5
  8
SAPA_PROFIL
 10
258.4940018383914
 20
81.099999913312431
 30
0.0
  0
VERTEX
  5
19C6
  8
SAPA_PROFIL
 10
258.08186980403582
 20
80.687867878956439
 30
0.0
 42
-0.4142135623730165
  0
VERTEX
  5
19C7
  8
SAPA_PROFIL
 10
257.65760573532418
 20
80.687867878956339
 30
0.0
  0
VERTEX
  5
19C8
  8
SAPA_PROFIL
 10
257.24547370096758
 20
81.099999913312431
 30
0.0
  0
VERTEX
  5
19C9
  8
SAPA_PROFIL
 10
256.4697377696794
 20
81.099999913312431
 30
0.0
 42
-0.4142135623730951
  0
VERTEX
  5
19CA
  8
SAPA_PROFIL
 10
255.96973776967951
 20
81.599999913312544
 30
0.0
  0
VERTEX
  5
19CB
  8
SAPA_PROFIL
 10
255.96973776967951
 20
82.399999913312271
 30
0.0
 42
-0.4142135623730951
  0
VERTEX
  5
19CC
  8
SAPA_PROFIL
 10
256.4697377696794
 20
82.899999913312257
 30
0.0
  0
VERTEX
  5
19CD
  8
SAPA_PROFIL
 10
259.3160969689917
 20
82.899999913312485
 30
0.0
 42
0.1989123673796284
  0
VERTEX
  5
19CE
  8
SAPA_PROFIL
 10
259.66965035958498
 20
83.046446522719279
 30
0.0
  0
VERTEX
  5
19CF
  8
SAPA_PROFIL
 10
260.8160969689917
 20
84.192893132125505
 30
0.0
 42
0.6681786379192904
  0
VERTEX
  5
19D0
  8
SAPA_PROFIL
 10
260.10899018780498
 20
85.899999913312044
 30
0.0
  0
VERTEX
  5
19D1
  8
SAPA_PROFIL
 10
125.6999999999999
 20
85.899999913317558
 30
0.0
 42
0.4142135623730951
  0
VERTEX
  5
19D2
  8
SAPA_PROFIL
 10
124.6999999999998
 20
84.899999913317544
 30
0.0
  0
VERTEX
  5
19D3
  8
SAPA_PROFIL
 10
124.6999999999998
 20
68.799999913382337
 30
0.0
 42
-0.4142135623740607
  0
VERTEX
  5
19D4
  8
SAPA_PROFIL
 10
124.39999999999969
 20
68.499999913382041
 30
0.0
  0
VERTEX
  5
19D5
  8
SAPA_PROFIL
 10
124.2000000000007
 20
68.499999913382268
 30
0.0
 42
-0.4142135623730951
  0
VERTEX
  5
19D6
  8
SAPA_PROFIL
 10
123.2000000000008
 20
69.499999913382268
 30
0.0
  0
VERTEX
  5
19D7
  8
SAPA_PROFIL
 10
123.2000000000034
 20
70.671572788637306
 30
0.0
 42
0.6681786379201151
  0
VERTEX
  5
19D8
  8
SAPA_PROFIL
 10
122.34644660941019
 20
71.025126179231719
 30
0.0
  0
SEQEND
  5
19D9
  8
SAPA_PROFIL
  0
POLYLINE
  5
11AF
  8
SAPA_PROFIL
 66
     1
 10
0.0
 20
0.0
 30
0.0
 70
     1
  0
VERTEX
  5
19DA
  8
SAPA_PROFIL
 10
278.75276681523991
 20
65.999999907352986
 30
0.0
 42
0.2134217652834296
  0
VERTEX
  5
19DB
  8
SAPA_PROFIL
 10
278.97637361299002
 20
66.099999907353094
 30
0.0
 42
-0.7625858545243358
  0
VERTEX
  5
19DC
  8
SAPA_PROFIL
 10
279.30669969400702
 20
65.915420705155611
 30
0.0
  0
VERTEX
  5
19DD
  8
SAPA_PROFIL
 10
279.24862605701787
 20
65.724037705161891
 30
0.0
  0
VERTEX
  5
19DE
  8
SAPA_PROFIL
 10
278.16406161004619
 20
63.838194013300843
 30
0.0
  0
VERTEX
  5
19DF
  8
SAPA_PROFIL
 10
277.84230388182789
 20
63.84875537952783
 30
0.0
 42
0.5773502691897454
  0
VERTEX
  5
19E0
  8
SAPA_PROFIL
 10
277.65935014171782
 20
63.554599079272982
 30
0.0
  0
VERTEX
  5
19E1
  8
SAPA_PROFIL
 10
277.81148405282647
 20
63.26991679604135
 30
0.0
 42
0.2216946626430121
  0
VERTEX
  5
19E2
  8
SAPA_PROFIL
 10
278.35236388430332
 20
62.864107890886551
 30
0.0
  0
VERTEX
  5
19E3
  8
SAPA_PROFIL
 10
280.16559435496151
 20
62.482661294758827
 30
0.0
 42
0.476975532698164
  0
VERTEX
  5
19E4
  8
SAPA_PROFIL
 10
280.53725122990738
 20
62.784914119265302
 30
0.0
  0
VERTEX
  5
19E5
  8
SAPA_PROFIL
 10
280.53716762202379
 20
64.288015200027303
 30
0.0
  0
VERTEX
  5
19E6
  8
SAPA_PROFIL
 10
280.4893218720253
 20
64.302533609274406
 30
0.0
 42
-0.4142135623731046
  0
VERTEX
  5
19E7
  8
SAPA_PROFIL
 10
280.2893578275179
 20
64.676718564750203
 30
0.0
  0
VERTEX
  5
19E8
  8
SAPA_PROFIL
 10
280.80001958928273
 20
65.997936888252809
 30
0.0
  0
VERTEX
  5
19E9
  8
SAPA_PROFIL
 10
280.80001958928199
 20
68.992484248027054
 30
0.0
 42
0.2596812337297038
  0
VERTEX
  5
19EA
  8
SAPA_PROFIL
 10
280.70532639403439
 20
69.162515059566914
 30
0.0
  0
VERTEX
  5
19EB
  8
SAPA_PROFIL
 10
279.45797979641083
 20
69.955046128635701
 30
0.0
 42
0.5877032589241517
  0
VERTEX
  5
19EC
  8
SAPA_PROFIL
 10
279.00001958928272
 20
69.699999911326159
 30
0.0
  0
VERTEX
  5
19ED
  8
SAPA_PROFIL
 10
279.00001958928448
 20
68.299999911326069
 30
0.0
 42
-0.4142135623735391
  0
VERTEX
  5
19EE
  8
SAPA_PROFIL
 10
278.70001958928339
 20
67.999999911326114
 30
0.0
  0
VERTEX
  5
19EF
  8
SAPA_PROFIL
 10
276.30001958928381
 20
67.999999911326569
 30
0.0
 42
-0.4142135623733169
  0
VERTEX
  5
19F0
  8
SAPA_PROFIL
 10
276.00001958928272
 20
68.299999911326069
 30
0.0
  0
VERTEX
  5
19F1
  8
SAPA_PROFIL
 10
276.00001958928272
 20
85.699999906494014
 30
0.0
 42
-0.4142135623724291
  0
VERTEX
  5
19F2
  8
SAPA_PROFIL
 10
276.30001958928381
 20
85.999999906494224
 30
0.0
  0
VERTEX
  5
19F3
  8
SAPA_PROFIL
 10
278.70001958928339
 20
85.999999906493969
 30
0.0
 42
-0.414213562373761
  0
VERTEX
  5
19F4
  8
SAPA_PROFIL
 10
279.00001958928272
 20
85.699999906494014
 30
0.0
  0
VERTEX
  5
19F5
  8
SAPA_PROFIL
 10
279.00001958928277
 20
84.299999906493923
 30
0.0
 42
0.5877032589248803
  0
VERTEX
  5
19F6
  8
SAPA_PROFIL
 10
279.45797979641083
 20
84.044953689184041
 30
0.0
  0
VERTEX
  5
19F7
  8
SAPA_PROFIL
 10
280.90532639403511
 20
84.941352666426056
 30
0.0
 42
0.2596812337305447
  0
VERTEX
  5
19F8
  8
SAPA_PROFIL
 10
281.00001958928272
 20
85.111383477966484
 30
0.0
  0
VERTEX
  5
19F9
  8
SAPA_PROFIL
 10
281.00001958928272
 20
87.799999911325642
 30
0.0
 42
0.414213562374094
  0
VERTEX
  5
19FA
  8
SAPA_PROFIL
 10
280.80001958928381
 20
87.99999991132546
 30
0.0
  0
VERTEX
  5
19FB
  8
SAPA_PROFIL
 10
268.55001866747727
 20
87.999999911325986
 30
0.0
 42
1.6508817299794341
  0
VERTEX
  5
19FC
  8
SAPA_PROFIL
 10
270.52031415242811
 20
84.229621970030536
 30
0.0
 42
-0.6937302480986617
  0
VERTEX
  5
19FD
  8
SAPA_PROFIL
 10
272.9335932690538
 20
83.613597625540294
 30
0.0
 42
-0.4461690147957503
  0
VERTEX
  5
19FE
  8
SAPA_PROFIL
 10
267.26671601212013
 20
77.299999911325614
 30
0.0
 42
-0.1095178116826789
  0
VERTEX
  5
19FF
  8
SAPA_PROFIL
 10
264.85779192021897
 20
77.834045525214734
 30
0.0
  0
VERTEX
  5
1A00
  8
SAPA_PROFIL
 10
259.88444816514323
 20
80.153153804844038
 30
0.0
 42
0.10951781168314
  0
VERTEX
  5
1A01
  8
SAPA_PROFIL
 10
259.67313903427311
 20
80.199999911325591
 30
0.0
  0
VERTEX
  5
1A02
  8
SAPA_PROFIL
 10
256.76975735895593
 20
80.199999911325705
 30
0.0
 42
0.4142135623730951
  0
VERTEX
  5
1A03
  8
SAPA_PROFIL
 10
256.26975735895593
 20
79.699999911325705
 30
0.0
  0
VERTEX
  5
1A04
  8
SAPA_PROFIL
 10
256.26975735895593
 20
78.199999911325705
 30
0.0
 42
0.4142135623730951
  0
VERTEX
  5
1A05
  8
SAPA_PROFIL
 10
256.76975735895593
 20
77.699999911325705
 30
0.0
  0
VERTEX
  5
1A06
  8
SAPA_PROFIL
 10
259.11890237766522
 20
77.699999911325705
 30
0.0
 42
-0.1095178116836639
  0
VERTEX
  5
1A07
  8
SAPA_PROFIL
 10
259.33021150853631
 20
77.653153804844038
 30
0.0
  0
VERTEX
  5
1A08
  8
SAPA_PROFIL
 10
263.54983934658333
 20
75.685509029397934
 30
0.0
 42
0.2580745690788087
  0
VERTEX
  5
1A09
  8
SAPA_PROFIL
 10
271.48579225169328
 20
75.963214800663849
 30
0.0
 42
-0.5828660187176127
  0
VERTEX
  5
1A0A
  8
SAPA_PROFIL
 10
273.00001958928272
 20
75.105560881372725
 30
0.0
  0
VERTEX
  5
1A0B
  8
SAPA_PROFIL
 10
273.00001958928362
 20
70.299999911324932
 30
0.0
 42
-0.4142135623732865
  0
VERTEX
  5
1A0C
  8
SAPA_PROFIL
 10
271.00001958928272
 20
68.299999911324534
 30
0.0
  0
VERTEX
  5
1A0D
  8
SAPA_PROFIL
 10
115.70001958928189
 20
68.299999911396185
 30
0.0
 42
-0.4142135623729701
  0
VERTEX
  5
1A0E
  8
SAPA_PROFIL
 10
113.7000195892828
 20
70.299999911396242
 30
0.0
  0
VERTEX
  5
1A0F
  8
SAPA_PROFIL
 10
113.7000195892834
 20
87.699999911325676
 30
0.0
 42
0.4142135623719852
  0
VERTEX
  5
1A10
  8
SAPA_PROFIL
 10
113.4000195892841
 20
87.999999911325645
 30
0.0
  0
VERTEX
  5
1A11
  8
SAPA_PROFIL
 10
106.2000195892852
 20
87.999999911325176
 30
0.0
 42
0.414213562373761
  0
VERTEX
  5
1A12
  8
SAPA_PROFIL
 10
106.00001958928451
 20
87.799999911325827
 30
0.0
  0
VERTEX
  5
1A13
  8
SAPA_PROFIL
 10
106.00001958928451
 20
85.094294084037514
 30
0.0
 42
0.2596812337292591
  0
VERTEX
  5
1A14
  8
SAPA_PROFIL
 10
106.09471278453211
 20
84.924263272497015
 30
0.0
  0
VERTEX
  5
1A15
  8
SAPA_PROFIL
 10
107.5420593821564
 20
84.027864295255
 30
0.0
 42
0.587703258924813
  0
VERTEX
  5
1A16
  8
SAPA_PROFIL
 10
108.00001958928451
 20
84.282910512564968
 30
0.0
  0
VERTEX
  5
1A17
  8
SAPA_PROFIL
 10
108.0000195892836
 20
85.682910512565059
 30
0.0
 42
-0.4142135623739831
  0
VERTEX
  5
1A18
  8
SAPA_PROFIL
 10
108.3000195892846
 20
85.98291051256524
 30
0.0
  0
VERTEX
  5
1A19
  8
SAPA_PROFIL
 10
110.7000195892843
 20
85.98291051256524
 30
0.0
 42
-0.4142135623739828
  0
VERTEX
  5
1A1A
  8
SAPA_PROFIL
 10
111.00001958928441
 20
85.682910512565059
 30
0.0
  0
VERTEX
  5
1A1B
  8
SAPA_PROFIL
 10
111.0000195892833
 20
74.524263980037006
 30
0.0
 42
0.1989123673796652
  0
VERTEX
  5
1A1C
  8
SAPA_PROFIL
 10
111.08788755492731
 20
74.312131945681017
 30
0.0
  0
VERTEX
  5
1A1D
  8
SAPA_PROFIL
 10
111.1878875549273
 20
74.212131945680994
 30
0.0
 42
-0.4142135623730165
  0
VERTEX
  5
1A1E
  8
SAPA_PROFIL
 10
111.1878875549274
 20
73.787867876969131
 30
0.0
  0
VERTEX
  5
1A1F
  8
SAPA_PROFIL
 10
111.08788755492721
 20
73.687867876969051
 30
0.0
 42
0.198912367379616
  0
VERTEX
  5
1A20
  8
SAPA_PROFIL
 10
111.0000195892832
 20
73.475735842613105
 30
0.0
  0
VERTEX
  5
1A21
  8
SAPA_PROFIL
 10
111.0000195892826
 20
68.299999911325926
 30
0.0
 42
-0.4142135623735113
  0
VERTEX
  5
1A22
  8
SAPA_PROFIL
 10
110.7000195892834
 20
67.999999911326086
 30
0.0
  0
VERTEX
  5
1A23
  8
SAPA_PROFIL
 10
108.3000195892819
 20
67.999999911325745
 30
0.0
 42
-0.4142135623723181
  0
VERTEX
  5
1A24
  8
SAPA_PROFIL
 10
108.0000195892826
 20
68.299999911325813
 30
0.0
  0
VERTEX
  5
1A25
  8
SAPA_PROFIL
 10
108.00001958928181
 20
69.699999911326017
 30
0.0
 42
0.5877032589242455
  0
VERTEX
  5
1A26
  8
SAPA_PROFIL
 10
107.5420593821555
 20
69.9550461286359
 30
0.0
  0
VERTEX
  5
1A27
  8
SAPA_PROFIL
 10
106.294712784531
 20
69.162515059566644
 30
0.0
 42
0.2596812337295521
  0
VERTEX
  5
1A28
  8
SAPA_PROFIL
 10
106.2000195892834
 20
68.992484248026926
 30
0.0
  0
VERTEX
  5
1A29
  8
SAPA_PROFIL
 10
106.2000195892833
 20
65.997936888291463
 30
0.0
  0
VERTEX
  5
1A2A
  8
SAPA_PROFIL
 10
106.7106813510631
 20
64.676718564750075
 30
0.0
 42
-0.4142135623730872
  0
VERTEX
  5
1A2B
  8
SAPA_PROFIL
 10
106.5107173065557
 20
64.302533609274263
 30
0.0
  0
VERTEX
  5
1A2C
  8
SAPA_PROFIL
 10
106.4628715565572
 20
64.288015200027161
 30
0.0
  0
VERTEX
  5
1A2D
  8
SAPA_PROFIL
 10
106.46278794867359
 20
62.784914119265153
 30
0.0
 42
0.4769755326981637
  0
VERTEX
  5
1A2E
  8
SAPA_PROFIL
 10
106.83444482361941
 20
62.482661294758692
 30
0.0
  0
VERTEX
  5
1A2F
  8
SAPA_PROFIL
 10
108.6476752942777
 20
62.86410789088643
 30
0.0
 42
0.2216946626430137
  0
VERTEX
  5
1A30
  8
SAPA_PROFIL
 10
109.18855512575441
 20
63.269916796041201
 30
0.0
  0
VERTEX
  5
1A31
  8
SAPA_PROFIL
 10
109.3406890368632
 20
63.554599079272833
 30
0.0
 42
0.5773502691897449
  0
VERTEX
  5
1A32
  8
SAPA_PROFIL
 10
109.157735296753
 20
63.848755379527653
 30
0.0
  0
VERTEX
  5
1A33
  8
SAPA_PROFIL
 10
108.8359775685348
 20
63.838194013300694
 30
0.0
  0
VERTEX
  5
1A34
  8
SAPA_PROFIL
 10
107.7514131215631
 20
65.724037705161734
 30
0.0
  0
VERTEX
  5
1A35
  8
SAPA_PROFIL
 10
107.693339484574
 20
65.915420705155469
 30
0.0
 42
-0.7625858545243333
  0
VERTEX
  5
1A36
  8
SAPA_PROFIL
 10
108.023665565591
 20
66.099999907352952
 30
0.0
 42
0.2134217652834287
  0
VERTEX
  5
1A37
  8
SAPA_PROFIL
 10
108.2472723633411
 20
65.999999907352844
 30
0.0
  0
VERTEX
  5
1A38
  8
SAPA_PROFIL
 10
112.10001958928299
 20
65.999999907352276
 30
0.0
 42
-0.4142135623735389
  0
VERTEX
  5
1A39
  8
SAPA_PROFIL
 10
112.40001958928229
 20
65.699999907352534
 30
0.0
  0
VERTEX
  5
1A3A
  8
SAPA_PROFIL
 10
112.40001958928229
 20
65.39999990735248
 30
0.0
  0
VERTEX
  5
1A3B
  8
SAPA_PROFIL
 10
111.4762591585787
 20
63.799999907352799
 30
0.0
 42
0.5773502691899238
  0
VERTEX
  5
1A3C
  8
SAPA_PROFIL
 10
111.6494642393355
 20
63.499999907352617
 30
0.0
  0
VERTEX
  5
1A3D
  8
SAPA_PROFIL
 10
112.8336950775993
 20
63.499999916209873
 30
0.0
 42
0.2679314070828157
  0
VERTEX
  5
1A3E
  8
SAPA_PROFIL
 10
113.699654105265
 20
63.999999914006587
 30
0.0
  0
VERTEX
  5
1A3F
  8
SAPA_PROFIL
 10
114.70921092769559
 20
65.749864744351612
 30
0.0
 42
-0.2680328283025422
  0
VERTEX
  5
1A40
  8
SAPA_PROFIL
 10
115.1423016401925
 20
65.999999911393957
 30
0.0
  0
VERTEX
  5
1A41
  8
SAPA_PROFIL
 10
271.85773753837373
 20
65.999999911393928
 30
0.0
 42
-0.2680328283025004
  0
VERTEX
  5
1A42
  8
SAPA_PROFIL
 10
272.29082825087062
 20
65.749864744351527
 30
0.0
  0
VERTEX
  5
1A43
  8
SAPA_PROFIL
 10
273.3003850733013
 20
63.999999914006509
 30
0.0
 42
0.2679314070828203
  0
VERTEX
  5
1A44
  8
SAPA_PROFIL
 10
274.16634410096702
 20
63.499999916209653
 30
0.0
  0
VERTEX
  5
1A45
  8
SAPA_PROFIL
 10
275.35057493922989
 20
63.499999907352731
 30
0.0
 42
0.5773502691897186
  0
VERTEX
  5
1A46
  8
SAPA_PROFIL
 10
275.5237800199867
 20
63.799999907352721
 30
0.0
  0
VERTEX
  5
1A47
  8
SAPA_PROFIL
 10
274.60001958928308
 20
65.399999907352623
 30
0.0
  0
VERTEX
  5
1A48
  8
SAPA_PROFIL
 10
274.60001958928308
 20
65.699999907352804
 30
0.0
 42
-0.4142135623735392
  0
VERTEX
  5
1A49
  8
SAPA_PROFIL
 10
274.90001958928423
 20
65.999999907352759
 30
0.0
  0
SEQEND
  5
1A4A
  8
SAPA_PROFIL
  0
POLYLINE
  5
11B0
  8
SAPA_PROFIL
 66
     1
 10
0.0
 20
0.0
 30
0.0
 70
     1
  0
VERTEX
  5
1A4B
  8
SAPA_PROFIL
 10
108.24727236328179
 20
35.999999917352881
 30
0.0
 42
0.2134217652834407
  0
VERTEX
  5
1A4C
  8
SAPA_PROFIL
 10
108.0236655655317
 20
35.89999991735278
 30
0.0
 42
-0.7625858545243189
  0
VERTEX
  5
1A4D
  8
SAPA_PROFIL
 10
107.69333948451469
 20
36.084579119550263
 30
0.0
  0
VERTEX
  5
1A4E
  8
SAPA_PROFIL
 10
107.7514131215038
 20
36.275962119543983
 30
0.0
  0
VERTEX
  5
1A4F
  8
SAPA_PROFIL
 10
108.8359775684755
 20
38.161805811405031
 30
0.0
  0
VERTEX
  5
1A50
  8
SAPA_PROFIL
 10
109.1577352966938
 20
38.151244445178008
 30
0.0
 42
0.5773502691897523
  0
VERTEX
  5
1A51
  8
SAPA_PROFIL
 10
109.34068903680399
 20
38.445400745432892
 30
0.0
  0
VERTEX
  5
1A52
  8
SAPA_PROFIL
 10
109.1885551256952
 20
38.730083028664502
 30
0.0
 42
0.2216946626430277
  0
VERTEX
  5
1A53
  8
SAPA_PROFIL
 10
108.6476752942184
 20
39.13589193381933
 30
0.0
  0
VERTEX
  5
1A54
  8
SAPA_PROFIL
 10
106.8344448235602
 20
39.51733852994704
 30
0.0
 42
0.476975532698164
  0
VERTEX
  5
1A55
  8
SAPA_PROFIL
 10
106.46278794861431
 20
39.215085705440572
 30
0.0
  0
VERTEX
  5
1A56
  8
SAPA_PROFIL
 10
106.4628715564979
 20
37.711984624678557
 30
0.0
  0
VERTEX
  5
1A57
  8
SAPA_PROFIL
 10
106.5107173064964
 20
37.697466215431461
 30
0.0
 42
-0.4142135623731023
  0
VERTEX
  5
1A58
  8
SAPA_PROFIL
 10
106.7106813510038
 20
37.32328125995565
 30
0.0
  0
VERTEX
  5
1A59
  8
SAPA_PROFIL
 10
106.20001958924949
 20
36.002062936480321
 30
0.0
  0
VERTEX
  5
1A5A
  8
SAPA_PROFIL
 10
106.2000195892503
 20
33.007515576678692
 30
0.0
 42
0.2596812337298688
  0
VERTEX
  5
1A5B
  8
SAPA_PROFIL
 10
106.2947127844979
 20
32.837484765138839
 30
0.0
  0
VERTEX
  5
1A5C
  8
SAPA_PROFIL
 10
107.5420593821224
 20
32.044953696069939
 30
0.0
 42
0.5877032589253678
  0
VERTEX
  5
1A5D
  8
SAPA_PROFIL
 10
108.0000195892496
 20
32.299999913379601
 30
0.0
  0
VERTEX
  5
1A5E
  8
SAPA_PROFIL
 10
108.0000195892496
 20
33.699999913379692
 30
0.0
 42
-0.4142135623730951
  0
VERTEX
  5
1A5F
  8
SAPA_PROFIL
 10
108.30001958924881
 20
33.999999913379639
 30
0.0
  0
VERTEX
  5
1A60
  8
SAPA_PROFIL
 10
110.7000195892503
 20
33.999999913379639
 30
0.0
 42
-0.4142135623730951
  0
VERTEX
  5
1A61
  8
SAPA_PROFIL
 10
111.0000195892496
 20
33.699999913379692
 30
0.0
  0
VERTEX
  5
1A62
  8
SAPA_PROFIL
 10
111.0000195892496
 20
16.299999918211618
 30
0.0
 42
-0.4142135623730951
  0
VERTEX
  5
1A63
  8
SAPA_PROFIL
 10
110.7000195892503
 20
15.99999991821144
 30
0.0
  0
VERTEX
  5
1A64
  8
SAPA_PROFIL
 10
108.3000195892497
 20
15.99999991821144
 30
0.0
 42
-0.4142135623728732
  0
VERTEX
  5
1A65
  8
SAPA_PROFIL
 10
108.0000195892496
 20
16.299999918211618
 30
0.0
  0
VERTEX
  5
1A66
  8
SAPA_PROFIL
 10
108.0000195892496
 20
17.69999991821172
 30
0.0
 42
0.587703258925294
  0
VERTEX
  5
1A67
  8
SAPA_PROFIL
 10
107.54205938212149
 20
17.955046135521599
 30
0.0
  0
VERTEX
  5
1A68
  8
SAPA_PROFIL
 10
106.0947127844981
 20
17.05864715827968
 30
0.0
 42
0.2596812337300967
  0
VERTEX
  5
1A69
  8
SAPA_PROFIL
 10
106.0000195892496
 20
16.888616346739148
 30
0.0
  0
VERTEX
  5
1A6A
  8
SAPA_PROFIL
 10
106.0000195892496
 20
14.199999913380021
 30
0.0
 42
0.4142135623730951
  0
VERTEX
  5
1A6B
  8
SAPA_PROFIL
 10
106.2000195892503
 20
13.999999913380201
 30
0.0
  0
VERTEX
  5
1A6C
  8
SAPA_PROFIL
 10
280.80001958925072
 20
13.999999913380259
 30
0.0
 42
0.414213562373428
  0
VERTEX
  5
1A6D
  8
SAPA_PROFIL
 10
281.00001958924952
 20
14.199999913380079
 30
0.0
  0
VERTEX
  5
1A6E
  8
SAPA_PROFIL
 10
281.00001958924952
 20
16.888616346739209
 30
0.0
 42
0.2596812337302663
  0
VERTEX
  5
1A6F
  8
SAPA_PROFIL
 10
280.90532639400197
 20
17.05864715827974
 30
0.0
  0
VERTEX
  5
1A70
  8
SAPA_PROFIL
 10
279.45797979637757
 20
17.955046135521648
 30
0.0
 42
0.5877032589250804
  0
VERTEX
  5
1A71
  8
SAPA_PROFIL
 10
279.00001958924958
 20
17.69999991821177
 30
0.0
  0
VERTEX
  5
1A72
  8
SAPA_PROFIL
 10
279.00001958924958
 20
16.299999918211679
 30
0.0
 42
-0.4142135623730951
  0
VERTEX
  5
1A73
  8
SAPA_PROFIL
 10
278.7000195892503
 20
15.9999999182115
 30
0.0
  0
VERTEX
  5
1A74
  8
SAPA_PROFIL
 10
276.30001958925072
 20
15.999999918211479
 30
0.0
 42
-0.414213562372873
  0
VERTEX
  5
1A75
  8
SAPA_PROFIL
 10
276.00001958924958
 20
16.299999918211672
 30
0.0
  0
VERTEX
  5
1A76
  8
SAPA_PROFIL
 10
276.00001958924958
 20
33.699999913379607
 30
0.0
 42
-0.4142135623730951
  0
VERTEX
  5
1A77
  8
SAPA_PROFIL
 10
276.30001958924879
 20
33.999999913379568
 30
0.0
  0
VERTEX
  5
1A78
  8
SAPA_PROFIL
 10
278.7000195892503
 20
33.99999991337959
 30
0.0
 42
-0.4142135623730118
  0
VERTEX
  5
1A79
  8
SAPA_PROFIL
 10
279.00001958925048
 20
33.699999913379862
 30
0.0
  0
VERTEX
  5
1A7A
  8
SAPA_PROFIL
 10
279.00001958924958
 20
32.299999913379537
 30
0.0
 42
0.5877032589252803
  0
VERTEX
  5
1A7B
  8
SAPA_PROFIL
 10
279.45797979637757
 20
32.044953696069662
 30
0.0
  0
VERTEX
  5
1A7C
  8
SAPA_PROFIL
 10
280.70532639400119
 20
32.837484765138782
 30
0.0
 42
0.2596812337298582
  0
VERTEX
  5
1A7D
  8
SAPA_PROFIL
 10
280.80001958930887
 20
33.007515576678742
 30
0.0
  0
VERTEX
  5
1A7E
  8
SAPA_PROFIL
 10
280.80001958930973
 20
36.002062936480712
 30
0.0
  0
VERTEX
  5
1A7F
  8
SAPA_PROFIL
 10
280.28935782755542
 20
37.323281259955714
 30
0.0
 42
-0.4142135623731023
  0
VERTEX
  5
1A80
  8
SAPA_PROFIL
 10
280.48932187206287
 20
37.697466215431518
 30
0.0
  0
VERTEX
  5
1A81
  8
SAPA_PROFIL
 10
280.53716762206142
 20
37.711984624678621
 30
0.0
  0
VERTEX
  5
1A82
  8
SAPA_PROFIL
 10
280.53725122994501
 20
39.215085705440629
 30
0.0
 42
0.4769755326981643
  0
VERTEX
  5
1A83
  8
SAPA_PROFIL
 10
280.1655943549992
 20
39.517338529947097
 30
0.0
  0
VERTEX
  5
1A84
  8
SAPA_PROFIL
 10
278.35236388434089
 20
39.13589193381938
 30
0.0
 42
0.2216946626430272
  0
VERTEX
  5
1A85
  8
SAPA_PROFIL
 10
277.8114840528641
 20
38.730083028664581
 30
0.0
  0
VERTEX
  5
1A86
  8
SAPA_PROFIL
 10
277.65935014175528
 20
38.44540074543292
 30
0.0
 42
0.5773502691897513
  0
VERTEX
  5
1A87
  8
SAPA_PROFIL
 10
277.84230388186552
 20
38.151244445178122
 30
0.0
  0
VERTEX
  5
1A88
  8
SAPA_PROFIL
 10
278.16406161008382
 20
38.161805811405088
 30
0.0
  0
VERTEX
  5
1A89
  8
SAPA_PROFIL
 10
279.2486260570555
 20
36.275962119544033
 30
0.0
  0
VERTEX
  5
1A8A
  8
SAPA_PROFIL
 10
279.30669969404448
 20
36.084579119550312
 30
0.0
 42
-0.7625858545243376
  0
VERTEX
  5
1A8B
  8
SAPA_PROFIL
 10
278.97637361302748
 20
35.899999917352829
 30
0.0
 42
0.2134217652834394
  0
VERTEX
  5
1A8C
  8
SAPA_PROFIL
 10
278.75276681527743
 20
35.999999917352937
 30
0.0
  0
VERTEX
  5
1A8D
  8
SAPA_PROFIL
 10
274.90001958925097
 20
35.999999917352923
 30
0.0
 42
-0.4142135623730117
  0
VERTEX
  5
1A8E
  8
SAPA_PROFIL
 10
274.60001958924988
 20
36.299999917353098
 30
0.0
  0
VERTEX
  5
1A8F
  8
SAPA_PROFIL
 10
274.60001958924988
 20
36.59999991735306
 30
0.0
  0
VERTEX
  5
1A90
  8
SAPA_PROFIL
 10
275.52378001995362
 20
38.199999917352741
 30
0.0
 42
0.5773502691895165
  0
VERTEX
  5
1A91
  8
SAPA_PROFIL
 10
275.3505749391968
 20
38.49999991735293
 30
0.0
  0
VERTEX
  5
1A92
  8
SAPA_PROFIL
 10
274.16634410093383
 20
38.499999908496036
 30
0.0
 42
0.267931407082837
  0
VERTEX
  5
1A93
  8
SAPA_PROFIL
 10
273.30038507326719
 20
37.99999991069906
 30
0.0
  0
VERTEX
  5
1A94
  8
SAPA_PROFIL
 10
272.29082825083788
 20
36.250135080354333
 30
0.0
 42
-0.2680328283026782
  0
VERTEX
  5
1A95
  8
SAPA_PROFIL
 10
271.85773753834093
 20
35.999999913311761
 30
0.0
  0
VERTEX
  5
1A96
  8
SAPA_PROFIL
 10
115.1423016401594
 20
35.999999913311768
 30
0.0
 42
-0.268032828302546
  0
VERTEX
  5
1A97
  8
SAPA_PROFIL
 10
114.7092109276625
 20
36.25013508035412
 30
0.0
  0
VERTEX
  5
1A98
  8
SAPA_PROFIL
 10
113.6996541052319
 20
37.999999910699017
 30
0.0
 42
0.2679314070828031
  0
VERTEX
  5
1A99
  8
SAPA_PROFIL
 10
112.8336950775662
 20
38.499999908496108
 30
0.0
  0
VERTEX
  5
1A9A
  8
SAPA_PROFIL
 10
111.6494642393024
 20
38.499999917353001
 30
0.0
 42
0.5773502691894344
  0
VERTEX
  5
1A9B
  8
SAPA_PROFIL
 10
111.4762591585456
 20
38.199999917352933
 30
0.0
  0
VERTEX
  5
1A9C
  8
SAPA_PROFIL
 10
112.4000195892492
 20
36.599999917353131
 30
0.0
  0
VERTEX
  5
1A9D
  8
SAPA_PROFIL
 10
112.4000195892492
 20
36.299999917352949
 30
0.0
 42
-0.4142135623729841
  0
VERTEX
  5
1A9E
  8
SAPA_PROFIL
 10
112.1000195892494
 20
35.999999917353001
 30
0.0
  0
SEQEND
  5
1A9F
  8
SAPA_PROFIL
  0
POLYLINE
  5
11B1
  8
SAPA_PROFIL
 66
     1
 10
0.0
 20
0.0
 30
0.0
 70
     1
  0
VERTEX
  5
1AA0
  8
SAPA_PROFIL
 10
113.7000195892778
 20
33.699999922118678
 30
0.0
  0
VERTEX
  5
1AA1
  8
SAPA_PROFIL
 10
192.00001958930491
 20
33.699999917803709
 30
0.0
 42
-0.4142135623574117
  0
VERTEX
  5
1AA2
  8
SAPA_PROFIL
 10
192.5000195892774
 20
33.199999917802913
 30
0.0
  0
VERTEX
  5
1AA3
  8
SAPA_PROFIL
 10
192.50001958925131
 20
16.79999991337943
 30
0.0
 42
-0.4142135623726288
  0
VERTEX
  5
1AA4
  8
SAPA_PROFIL
 10
192.0000195892512
 20
16.29999991338023
 30
0.0
  0
VERTEX
  5
1AA5
  8
SAPA_PROFIL
 10
113.7000195892503
 20
16.299999913380269
 30
0.0
 42
-0.4142135623730951
  0
VERTEX
  5
1AA6
  8
SAPA_PROFIL
 10
113.2000195892503
 20
16.799999913380269
 30
0.0
  0
VERTEX
  5
1AA7
  8
SAPA_PROFIL
 10
113.2000195892503
 20
33.199999922118678
 30
0.0
 42
-0.4142135623892446
  0
SEQEND
  5
1AA8
  8
SAPA_PROFIL
  0
POLYLINE
  5
11B2
  8
SAPA_PROFIL
 66
     1
 10
0.0
 20
0.0
 30
0.0
 70
     1
  0
VERTEX
  5
1AA9
  8
SAPA_PROFIL
 10
273.80001958925078
 20
33.199999913323232
 30
0.0
  0
VERTEX
  5
1AAA
  8
SAPA_PROFIL
 10
273.80001958925072
 20
16.799999913380201
 30
0.0
 42
-0.4142135623730951
  0
VERTEX
  5
1AAB
  8
SAPA_PROFIL
 10
273.30001958925072
 20
16.299999913380201
 30
0.0
  0
VERTEX
  5
1AAC
  8
SAPA_PROFIL
 10
195.00001958925131
 20
16.29999991338023
 30
0.0
 42
-0.4142135623735613
  0
VERTEX
  5
1AAD
  8
SAPA_PROFIL
 10
194.50001958925131
 20
16.799999913381029
 30
0.0
  0
VERTEX
  5
1AAE
  8
SAPA_PROFIL
 10
194.5000195892774
 20
33.199999917638984
 30
0.0
 42
-0.4142135623887785
  0
VERTEX
  5
1AAF
  8
SAPA_PROFIL
 10
195.00001958930491
 20
33.699999917638181
 30
0.0
  0
VERTEX
  5
1AB0
  8
SAPA_PROFIL
 10
273.30001958927829
 20
33.699999913323232
 30
0.0
 42
-0.4142135623569788
  0
SEQEND
  5
1AB1
  8
SAPA_PROFIL
  0
POLYLINE
  5
11B3
  8
SAPA_PROFIL
 62
     4
 66
     1
 10
0.0
 20
0.0
 30
0.0
 70
     1
  0
VERTEX
  5
1AB2
  8
SAPA_PROFIL
 62
     4
 10
277.82748533151289
 20
39.037778387904957
 30
0.0
 42
-0.3137019356282051
  0
VERTEX
  5
1AB3
  8
SAPA_PROFIL
 62
     4
 10
278.02511095704642
 20
39.318728171451269
 30
0.0
  0
VERTEX
  5
1AB4
  8
SAPA_PROFIL
 62
     4
 10
280.45794097859039
 20
40.204205884322462
 30
0.0
 42
0.3152987888779321
  0
VERTEX
  5
1AB5
  8
SAPA_PROFIL
 62
     4
 10
280.72113292126011
 20
40.580082932638859
 30
0.0
  0
VERTEX
  5
1AB6
  8
SAPA_PROFIL
 62
     4
 10
280.72113292125999
 20
50.99999991735298
 30
0.0
  0
VERTEX
  5
1AB7
  8
SAPA_PROFIL
 62
     4
 10
280.72113292125999
 20
61.41991690207108
 30
0.0
 42
0.3152987888779395
  0
VERTEX
  5
1AB8
  8
SAPA_PROFIL
 62
     4
 10
280.45794097859027
 20
61.795793950383441
 30
0.0
  0
VERTEX
  5
1AB9
  8
SAPA_PROFIL
 62
     4
 10
278.02511095705461
 20
62.681271663251621
 30
0.0
 42
-0.3138982169096283
  0
VERTEX
  5
1ABA
  8
SAPA_PROFIL
 62
     4
 10
277.82748533151431
 20
62.96222144676581
 30
0.0
 42
-0.0157923906855865
  0
VERTEX
  5
1ABB
  8
SAPA_PROFIL
 62
     4
 10
277.82408220187472
 20
63.313679979104663
 30
0.0
  0
VERTEX
  5
1ABC
  8
SAPA_PROFIL
 62
     4
 10
277.68541244476808
 20
63.553863043886942
 30
0.0
 42
-0.5773502691889272
  0
VERTEX
  5
1ABD
  8
SAPA_PROFIL
 62
     4
 10
277.86727777956293
 20
63.868863043886662
 30
0.0
  0
VERTEX
  5
1ABE
  8
SAPA_PROFIL
 62
     4
 10
278.13439230777578
 20
63.868863043886783
 30
0.0
  0
VERTEX
  5
1ABF
  8
SAPA_PROFIL
 62
     4
 10
278.33061437356008
 20
64.199999917352969
 30
0.0
  0
VERTEX
  5
1AC0
  8
SAPA_PROFIL
 62
     4
 10
278.89825853705759
 20
65.183320055333482
 30
0.0
 42
0.1316524975869703
  0
VERTEX
  5
1AC1
  8
SAPA_PROFIL
 62
     4
 10
278.92639320226209
 20
65.288320055332306
 30
0.0
  0
VERTEX
  5
1AC2
  8
SAPA_PROFIL
 62
     4
 10
278.92639320226232
 20
65.599999917354864
 30
0.0
 42
0.4142135623775584
  0
VERTEX
  5
1AC3
  8
SAPA_PROFIL
 62
     4
 10
278.526393202262
 20
65.999999917352923
 30
0.0
  0
VERTEX
  5
1AC4
  8
SAPA_PROFIL
 62
     4
 10
275.12639320226219
 20
65.99999991735298
 30
0.0
 42
0.4142135623773978
  0
VERTEX
  5
1AC5
  8
SAPA_PROFIL
 62
     4
 10
274.72639320226222
 20
65.599999917352946
 30
0.0
  0
VERTEX
  5
1AC6
  8
SAPA_PROFIL
 62
     4
 10
274.72639320226222
 20
65.288320055329294
 30
0.0
 42
0.1316524975869708
  0
VERTEX
  5
1AC7
  8
SAPA_PROFIL
 62
     4
 10
274.75452786746752
 20
65.183320055332345
 30
0.0
  0
VERTEX
  5
1AC8
  8
SAPA_PROFIL
 62
     4
 10
275.32224801382949
 20
64.199999917352969
 30
0.0
  0
VERTEX
  5
1AC9
  8
SAPA_PROFIL
 62
     4
 10
275.66562368680161
 20
63.605255805682091
 30
0.0
 42
-0.1316524975869772
  0
VERTEX
  5
1ACA
  8
SAPA_PROFIL
 62
     4
 10
275.82639320226212
 20
63.005255805678708
 30
0.0
  0
VERTEX
  5
1ACB
  8
SAPA_PROFIL
 62
     4
 10
275.8263932022619
 20
62.053391472792292
 30
0.0
 42
0.3152987888780149
  0
VERTEX
  5
1ACC
  8
SAPA_PROFIL
 62
     4
 10
276.48437305893628
 20
61.113698852020789
 30
0.0
  0
VERTEX
  5
1ACD
  8
SAPA_PROFIL
 62
     4
 10
278.65794097858998
 20
60.322584827110923
 30
0.0
 42
-0.3152987888779391
  0
VERTEX
  5
1ACE
  8
SAPA_PROFIL
 62
     4
 10
278.9211329212601
 20
59.946707778796402
 30
0.0
  0
VERTEX
  5
1ACF
  8
SAPA_PROFIL
 62
     4
 10
278.9211329212601
 20
50.99999991735298
 30
0.0
  0
VERTEX
  5
1AD0
  8
SAPA_PROFIL
 62
     4
 10
278.9211329212601
 20
42.053292055909488
 30
0.0
 42
-0.3152987888779318
  0
VERTEX
  5
1AD1
  8
SAPA_PROFIL
 62
     4
 10
278.65794097859367
 20
41.677415007596338
 30
0.0
  0
VERTEX
  5
1AD2
  8
SAPA_PROFIL
 62
     4
 10
276.48437305893651
 20
40.886300982685228
 30
0.0
 42
0.3152987888779361
  0
VERTEX
  5
1AD3
  8
SAPA_PROFIL
 62
     4
 10
275.82639320226218
 20
39.946608361884628
 30
0.0
  0
VERTEX
  5
1AD4
  8
SAPA_PROFIL
 62
     4
 10
275.82639320226218
 20
38.994744029027132
 30
0.0
 42
-0.1316524975869766
  0
VERTEX
  5
1AD5
  8
SAPA_PROFIL
 62
     4
 10
275.66562368680741
 20
38.39474402903393
 30
0.0
  0
VERTEX
  5
1AD6
  8
SAPA_PROFIL
 62
     4
 10
275.3263932022623
 20
37.807179594325433
 30
0.0
  0
VERTEX
  5
1AD7
  8
SAPA_PROFIL
 62
     4
 10
274.75452786746752
 20
36.816679779373501
 30
0.0
 42
0.1316524975869832
  0
VERTEX
  5
1AD8
  8
SAPA_PROFIL
 62
     4
 10
274.72639320226227
 20
36.711679779370421
 30
0.0
  0
VERTEX
  5
1AD9
  8
SAPA_PROFIL
 62
     4
 10
274.72639320226222
 20
36.399999917352901
 30
0.0
 42
0.414213562371655
  0
VERTEX
  5
1ADA
  8
SAPA_PROFIL
 62
     4
 10
275.12639320226617
 20
35.999999917352923
 30
0.0
  0
VERTEX
  5
1ADB
  8
SAPA_PROFIL
 62
     4
 10
278.52639320226223
 20
35.999999917352923
 30
0.0
 42
0.4142135623716633
  0
VERTEX
  5
1ADC
  8
SAPA_PROFIL
 62
     4
 10
278.9263932022622
 20
36.399999917354947
 30
0.0
  0
VERTEX
  5
1ADD
  8
SAPA_PROFIL
 62
     4
 10
278.9263932022622
 20
36.711679779373597
 30
0.0
 42
0.1316524975869709
  0
VERTEX
  5
1ADE
  8
SAPA_PROFIL
 62
     4
 10
278.89825853705662
 20
36.816679779374191
 30
0.0
  0
VERTEX
  5
1ADF
  8
SAPA_PROFIL
 62
     4
 10
278.13439230777578
 20
38.131136790819191
 30
0.0
  0
VERTEX
  5
1AE0
  8
SAPA_PROFIL
 62
     4
 10
277.86727777956293
 20
38.131136790819298
 30
0.0
 42
-0.5773502691889269
  0
VERTEX
  5
1AE1
  8
SAPA_PROFIL
 62
     4
 10
277.68541244476808
 20
38.446136790819011
 30
0.0
  0
VERTEX
  5
1AE2
  8
SAPA_PROFIL
 62
     4
 10
277.82408220187472
 20
38.686319855601297
 30
0.0
 42
-0.015792390685586
  0
SEQEND
  5
1AE3
  8
SAPA_PROFIL
 62
     4
  0
POLYLINE
  5
11B4
  8
SAPA_PROFIL
 62
     4
 66
     1
 10
0.0
 20
0.0
 30
0.0
 70
     1
  0
VERTEX
  5
1AE4
  8
SAPA_PROFIL
 62
     4
 10
109.1725146684993
 20
62.962221438786813
 30
0.0
 42
-0.3137019356282051
  0
VERTEX
  5
1AE5
  8
SAPA_PROFIL
 62
     4
 10
108.9748890429658
 20
62.681271655240508
 30
0.0
  0
VERTEX
  5
1AE6
  8
SAPA_PROFIL
 62
     4
 10
106.54205902142181
 20
61.795793942369308
 30
0.0
 42
0.3152987888779321
  0
VERTEX
  5
1AE7
  8
SAPA_PROFIL
 62
     4
 10
106.2788670787521
 20
61.419916894052911
 30
0.0
  0
VERTEX
  5
1AE8
  8
SAPA_PROFIL
 62
     4
 10
106.2788670787521
 20
50.999999909338797
 30
0.0
  0
VERTEX
  5
1AE9
  8
SAPA_PROFIL
 62
     4
 10
106.2788670787522
 20
40.58008292462069
 30
0.0
 42
0.3152987888779395
  0
VERTEX
  5
1AEA
  8
SAPA_PROFIL
 62
     4
 10
106.54205902142191
 20
40.204205876308329
 30
0.0
  0
VERTEX
  5
1AEB
  8
SAPA_PROFIL
 62
     4
 10
108.9748890429576
 20
39.318728163440163
 30
0.0
 42
-0.3138982169096283
  0
VERTEX
  5
1AEC
  8
SAPA_PROFIL
 62
     4
 10
109.1725146684979
 20
39.037778379925967
 30
0.0
 42
-0.0157923906855865
  0
VERTEX
  5
1AED
  8
SAPA_PROFIL
 62
     4
 10
109.1759177981375
 20
38.686319847587122
 30
0.0
  0
VERTEX
  5
1AEE
  8
SAPA_PROFIL
 62
     4
 10
109.3145875552441
 20
38.446136782804828
 30
0.0
 42
-0.5773502691889272
  0
VERTEX
  5
1AEF
  8
SAPA_PROFIL
 62
     4
 10
109.1327222204493
 20
38.131136782805122
 30
0.0
  0
VERTEX
  5
1AF0
  8
SAPA_PROFIL
 62
     4
 10
108.8656076922364
 20
38.131136782805001
 30
0.0
  0
VERTEX
  5
1AF1
  8
SAPA_PROFIL
 62
     4
 10
108.669385626452
 20
37.799999909338808
 30
0.0
  0
VERTEX
  5
1AF2
  8
SAPA_PROFIL
 62
     4
 10
108.10174146295461
 20
36.816679771358302
 30
0.0
 42
0.1316524975869703
  0
VERTEX
  5
1AF3
  8
SAPA_PROFIL
 62
     4
 10
108.07360679775
 20
36.711679771359471
 30
0.0
  0
VERTEX
  5
1AF4
  8
SAPA_PROFIL
 62
     4
 10
108.0736067977499
 20
36.399999909336898
 30
0.0
 42
0.4142135623775584
  0
VERTEX
  5
1AF5
  8
SAPA_PROFIL
 62
     4
 10
108.47360679775031
 20
35.999999909338861
 30
0.0
  0
VERTEX
  5
1AF6
  8
SAPA_PROFIL
 62
     4
 10
111.87360679775
 20
35.999999909338797
 30
0.0
 42
0.4142135623773978
  0
VERTEX
  5
1AF7
  8
SAPA_PROFIL
 62
     4
 10
112.27360679775001
 20
36.399999909338831
 30
0.0
  0
VERTEX
  5
1AF8
  8
SAPA_PROFIL
 62
     4
 10
112.27360679775001
 20
36.711679771362483
 30
0.0
 42
0.1316524975869708
  0
VERTEX
  5
1AF9
  8
SAPA_PROFIL
 62
     4
 10
112.24547213254471
 20
36.816679771359432
 30
0.0
  0
VERTEX
  5
1AFA
  8
SAPA_PROFIL
 62
     4
 10
111.6777519861827
 20
37.799999909338808
 30
0.0
  0
VERTEX
  5
1AFB
  8
SAPA_PROFIL
 62
     4
 10
111.3343763132106
 20
38.394744021009679
 30
0.0
 42
-0.1316524975869772
  0
VERTEX
  5
1AFC
  8
SAPA_PROFIL
 62
     4
 10
111.1736067977501
 20
38.994744021013062
 30
0.0
  0
VERTEX
  5
1AFD
  8
SAPA_PROFIL
 62
     4
 10
111.1736067977503
 20
39.946608353899492
 30
0.0
 42
0.3152987888780149
  0
VERTEX
  5
1AFE
  8
SAPA_PROFIL
 62
     4
 10
110.51562694107589
 20
40.886300974670981
 30
0.0
  0
VERTEX
  5
1AFF
  8
SAPA_PROFIL
 62
     4
 10
108.3420590214222
 20
41.677414999580847
 30
0.0
 42
-0.3152987888779391
  0
VERTEX
  5
1B00
  8
SAPA_PROFIL
 62
     4
 10
108.0788670787521
 20
42.053292047895368
 30
0.0
  0
VERTEX
  5
1B01
  8
SAPA_PROFIL
 62
     4
 10
108.0788670787521
 20
50.999999909338797
 30
0.0
  0
VERTEX
  5
1B02
  8
SAPA_PROFIL
 62
     4
 10
108.078867078752
 20
59.946707770782282
 30
0.0
 42
-0.3152987888779318
  0
VERTEX
  5
1B03
  8
SAPA_PROFIL
 62
     4
 10
108.34205902141851
 20
60.322584819095432
 30
0.0
  0
VERTEX
  5
1B04
  8
SAPA_PROFIL
 62
     4
 10
110.51562694107569
 20
61.113698844006549
 30
0.0
 42
0.3152987888779361
  0
VERTEX
  5
1B05
  8
SAPA_PROFIL
 62
     4
 10
111.17360679775
 20
62.053391464807149
 30
0.0
  0
VERTEX
  5
1B06
  8
SAPA_PROFIL
 62
     4
 10
111.17360679775
 20
63.005255797664638
 30
0.0
 42
-0.1316524975869766
  0
VERTEX
  5
1B07
  8
SAPA_PROFIL
 62
     4
 10
111.3343763132047
 20
63.60525579765784
 30
0.0
  0
VERTEX
  5
1B08
  8
SAPA_PROFIL
 62
     4
 10
111.67360679775
 20
64.192820232366344
 30
0.0
  0
VERTEX
  5
1B09
  8
SAPA_PROFIL
 62
     4
 10
112.24547213254471
 20
65.183320047318276
 30
0.0
 42
0.1316524975869832
  0
VERTEX
  5
1B0A
  8
SAPA_PROFIL
 62
     4
 10
112.27360679774991
 20
65.288320047321363
 30
0.0
  0
VERTEX
  5
1B0B
  8
SAPA_PROFIL
 62
     4
 10
112.27360679775001
 20
65.599999909338877
 30
0.0
 42
0.414213562371655
  0
VERTEX
  5
1B0C
  8
SAPA_PROFIL
 62
     4
 10
111.87360679774601
 20
65.999999909338854
 30
0.0
  0
VERTEX
  5
1B0D
  8
SAPA_PROFIL
 62
     4
 10
108.47360679774999
 20
65.999999909338854
 30
0.0
 42
0.4142135623716633
  0
VERTEX
  5
1B0E
  8
SAPA_PROFIL
 62
     4
 10
108.07360679775
 20
65.59999990933683
 30
0.0
  0
VERTEX
  5
1B0F
  8
SAPA_PROFIL
 62
     4
 10
108.07360679775
 20
65.28832004731818
 30
0.0
 42
0.1316524975869709
  0
VERTEX
  5
1B10
  8
SAPA_PROFIL
 62
     4
 10
108.1017414629556
 20
65.183320047317594
 30
0.0
  0
VERTEX
  5
1B11
  8
SAPA_PROFIL
 62
     4
 10
108.8656076922364
 20
63.868863035872593
 30
0.0
  0
VERTEX
  5
1B12
  8
SAPA_PROFIL
 62
     4
 10
109.1327222204493
 20
63.868863035872479
 30
0.0
 42
-0.5773502691889269
  0
VERTEX
  5
1B13
  8
SAPA_PROFIL
 62
     4
 10
109.3145875552441
 20
63.553863035872773
 30
0.0
  0
VERTEX
  5
1B14
  8
SAPA_PROFIL
 62
     4
 10
109.1759177981375
 20
63.313679971090473
 30
0.0
 42
-0.015792390685586
  0
SEQEND
  5
1B15
  8
SAPA_PROFIL
 62
     4
  0
LINE
  5
11C1
  8
SAPA_GLAS
 10
-15.000000000000959
 20
28.949999922299931
 30
0.0
 11
-15.000000000000959
 21
40.949999922299916
 31
0.0
  0
POLYLINE
  5
11C2
  8
SAPA_GLAS
 66
     1
 10
0.0
 20
0.0
 30
0.0
  0
VERTEX
  5
1B20
  8
SAPA_GLAS
 10
-35.000000000000973
 20
46.949999922299916
 30
0.0
  0
VERTEX
  5
1B21
  8
SAPA_GLAS
 10
-5.0000000000009663
 20
46.949999922299916
 30
0.0
  0
VERTEX
  5
1B22
  8
SAPA_GLAS
 10
-5.0000000000009663
 20
22.949999922299931
 30
0.0
  0
VERTEX
  5
1B23
  8
SAPA_GLAS
 10
-35.000000000000973
 20
22.949999922299931
 30
0.0
  0
SEQEND
  5
1B24
  8
SAPA_GLAS
  0
LINE
  5
11C3
  8
SAPA_GLAS
 10
-35.000000000000973
 20
40.949999922299916
 30
0.0
 11
-5.0000000000009663
 21
40.949999922299916
 31
0.0
  0
LINE
  5
11C4
  8
SAPA_GLAS
 10
-35.000000000000973
 20
28.949999922299931
 30
0.0
 11
-5.0000000000009663
 21
28.949999922299931
 31
0.0
  0
LINE
  5
11C5
  8
SAPA_GLAS
 10
295.85073809195347
 20
28.950000021058031
 30
0.0
 11
295.85073809195347
 21
40.950000021058031
 31
0.0
  0
POLYLINE
  5
11C6
  8
SAPA_GLAS
 66
     1
 10
0.0
 20
0.0
 30
0.0
  0
VERTEX
  5
1B25
  8
SAPA_GLAS
 10
315.85073809195347
 20
46.950000021058017
 30
0.0
  0
VERTEX
  5
1B26
  8
SAPA_GLAS
 10
285.85073809195347
 20
46.950000021058017
 30
0.0
  0
VERTEX
  5
1B27
  8
SAPA_GLAS
 10
285.85073809195347
 20
22.950000021058031
 30
0.0
  0
VERTEX
  5
1B28
  8
SAPA_GLAS
 10
315.85073809195347
 20
22.950000021058031
 30
0.0
  0
SEQEND
  5
1B29
  8
SAPA_GLAS
  0
LINE
  5
11C7
  8
SAPA_GLAS
 10
315.85073809195347
 20
40.950000021058031
 30
0.0
 11
285.85073809195347
 21
40.950000021058031
 31
0.0
  0
LINE
  5
11C8
  8
SAPA_GLAS
 10
315.85073809195347
 20
28.950000021058031
 30
0.0
 11
285.85073809195347
 21
28.950000021058031
 31
0.0
  0
INSERT
  5
11D2
  8
SAPA_ISOLATOR
  6
CONTINUOUS
  2
*X85
 10
0.0
 20
0.0
 30
0.0
1001
ACAD
1000
HATCH
1002
{
1070
    19
1000
ANSI31
1040
0.35
1040
8.6393797973719302
1000
R14_HATCH_DATA
1000
11D2
1011
1.0
1021
0.0
1031
0.0
1021
0.0
1031
0.0
1011
0.0
1021
0.0
1031
0.0
1021
1.0
1031
0.0
1011
0.0
1021
0.0
1031
0.0
1021
0.0
1031
1.0
1040
-0.1
1010
0.0
1020
0.0
1030
1.0
1000
ANSI31
1070
     0
1070
     0
1071
        1
1071
        7
1070
     1
1070
     1
1071
       24
1040
78.5256650421789
1040
38.997893996677632
1040
-0.1309057172584691
1040
78.366652951144772
1040
38.400948292764362
1040
0.0
1040
77.425665042231401
1040
36.759999996651729
1040
0.0
1040
77.425665042239928
1040
36.399999996651431
1040
0.4142135623728775
1040
77.825665042249454
1040
35.999999996661167
1040
0.0
1040
81.225665042249403
1040
35.999999996740918
1040
0.4142135623731472
1040
81.625665042240087
1040
36.399999996750438
1040
0.0
1040
81.625665042231432
1040
36.7599999967508
1040
0.0
1040
80.833664147763031
1040
38.141136870167351
1040
0.0
1040
80.566549619550003
1040
38.141136870167351
1040
-0.5773502691895098
1040
80.384684284755338
1040
38.456136870167072
1040
0.0
1040
80.525665042178915
1040
38.70032270491491
1040
0.0
1040
80.525665042178915
1040
63.299677288404702
1040
0.0
1040
80.384684284755437
1040
63.54386312315259
1040
-0.5773502691896486
1040
80.566549619550017
1040
63.858863123152297
1040
0.0
1040
80.833664147763045
1040
63.85886312315219
1040
0.0
1040
81.625665042231446
1040
65.239999996568969
1040
0.0
1040
81.625665042239973
1040
65.59999999656921
1040
0.4142135623730794
1040
81.225665042249432
1040
65.999999996578794
1040
0.0
1040
77.825665042249454
1040
65.999999996658545
1040
0.4142135623729623
1040
77.425665042239928
1040
65.599999996668174
1040
0.0
1040
77.425665042231401
1040
65.239999996667763
1040
0.0
1040
78.366652951144772
1040
63.59905170055535
1040
-0.1309134860018382
1040
78.525665041618879
1040
63.002069334957099
1040
0.0
1071
        0
1070
     0
1070
     1
1040
8.6393797973719302
1040
0.35
1070
     0
1070
     1
1040
3.1415926535897931
1040
112.4538879128837
1040
90.015999383007767
1040
-0.0000000000000005
1040
-1.111249999999999
1070
     0
1040
0.1003283970076292
1071
        1
1040
79.310728823831894
1040
51.534434599534357
1040
-0.1
1002
}
  0
INSERT
  5
11D3
  8
SAPA_ISOLATOR
  6
CONTINUOUS
  2
*X86
 10
0.0
 20
0.0
 30
0.0
1001
ACAD
1000
HATCH
1002
{
1070
    19
1000
ANSI31
1040
0.35
1040
5.4977871437821371
1000
R14_HATCH_DATA
1000
11D3
1011
1.0
1021
0.0
1031
0.0
1021
0.0
1031
0.0
1011
0.0
1021
0.0
1031
0.0
1021
1.0
1031
0.0
1011
0.0
1021
0.0
1031
0.0
1021
0.0
1031
1.0
1040
0.0
1010
0.0
1020
0.0
1030
1.0
1000
ANSI31
1070
     0
1070
     0
1071
        1
1071
        1
1071
       49
1070
     2
1040
2.871108649342645
1040
39.036257499177061
1040
0.3006817060114675
1040
0.0050584204141675
1040
1.2209764013054469
1070
     1
1070
     1
1040
2.9741608829647181
1040
39.31872825071688
1040
0.5413308614206978
1040
40.204205963588059
1070
     2
1040
0.6781389187535157
1040
40.5800830119042
1040
0.400000000002539
1040
1.919862177198238
1040
3.1415926535904428
1070
     0
1070
     1
1040
0.2781389187509768
1040
40.580083011904463
1040
0.2781389187510053
1040
50.999999996618577
1070
     1
1040
0.2781389187510053
1040
50.999999996618577
1040
0.278138918751063
1040
61.419916981336691
1070
     2
1040
0.6781389187507126
1040
61.419916981334943
1040
0.3999999999996488
1040
3.1415926535941709
1040
4.3633231299864041
1070
     0
1070
     1
1040
0.5413308614207831
1040
61.795794029649038
1040
2.9741608829564758
1040
62.681271742517232
1070
     2
1040
2.8712624400127358
1040
62.963634314664638
1040
0.3005273892841634
1040
5.0618515338339378
1040
6.2784842586649878
1070
     1
1070
     2
1040
-2.388856566512187
1040
63.191810289602941
1040
5.5653807064749881
1040
6.2419205770420829
1040
6.3050848890821518
1070
     1
1070
     1
1040
3.1751896381364251
1040
63.313680058370267
1040
3.3138593952429489
1040
63.553863123152553
1070
     2
1040
3.131994060448049
1040
63.658863123152258
1040
0.2100000000000017
1040
5.7595865315828716
1040
7.8539816339739712
1070
     1
1070
     1
1040
3.1319940604481582
1040
63.868863123152259
1040
2.8648795322352441
1040
63.86886312315238
1070
     1
1040
2.8648795322352432
1040
63.86886312315238
1040
2.668657466450945
1040
64.199999996618573
1070
     1
1040
2.668657466450945
1040
64.199999996618573
1040
2.101013302953497
1040
65.183320134599086
1070
     2
1040
2.2828786377470429
1040
65.288320134597356
1040
0.209999999998109
1040
2.6179938779958061
1040
3.1415926535924319
1070
     0
1070
     1
1040
2.0728786377489361
1040
65.28832013459791
1040
2.0728786377488242
1040
65.599999996620483
1070
     2
1040
2.4728786377449561
1040
65.599999996622387
1040
0.3999999999961332
1040
3.1415926535850138
1040
4.7123889803951498
1070
     0
1070
     1
1040
2.4728786377491412
1040
65.999999996618527
1040
5.8728786377488911
1040
65.999999996618584
1070
     2
1040
5.8728786377517999
1040
65.59999999662152
1040
0.3999999999970676
1040
4.7123889803774146
1040
6.2831853071870016
1070
     0
1070
     1
1040
6.2728786377488683
1040
65.599999996618536
1040
6.2728786377488666
1040
65.288320134594883
1070
     2
1040
6.0628786377539194
1040
65.288320134596546
1040
0.2099999999949489
1040
0.0000000000078835
1040
0.5235987756045111
1070
     0
1070
     1
1040
6.244743972543624
1040
65.183320134597949
1040
5.6770238261815891
1040
64.199999996618573
1070
     1
1040
5.6770238261815891
1040
64.199999996618573
1040
5.3336481532094737
1040
63.605255884947702
1070
     2
1040
6.3728786377598654
1040
63.005255884941583
1040
1.2000000000109059
1040
2.6179938779908598
1040
3.1415926535875132
1070
     1
1070
     1
1040
5.1728786377489593
1040
63.005255884944319
1040
5.1728786377491867
1040
62.053391552057889
1070
     2
1040
4.1728786377569351
1040
62.053391552066898
1040
0.9999999999922533
1040
0.0000000000090097
1040
1.221730476401516
1070
     0
1070
     1
1040
4.5148987810747991
1040
61.113698931286393
1040
2.341330861421107
1040
60.322584906376527
1070
     2
1040
2.478138918752379
1040
59.94670785806106
1040
0.4000000000013905
1040
1.9198621771951729
1040
3.141592653587403
1070
     1
1070
     1
1040
2.0781389187509882
1040
59.946707858062013
1040
2.078138918750986
1040
50.999999996618577
1070
     1
1040
2.0781389187509882
1040
50.999999996618577
1040
2.0781389187509309
1040
42.053292135175099
1070
     2
1040
2.478138918749508
1040
42.053292135174097
1040
0.3999999999985775
1040
3.141592653587308
1040
4.363323129979511
1070
     1
1070
     1
1040
2.3413308614173549
1040
41.677415086861927
1040
4.5148987810745709
1040
40.886301061950832
1070
     2
1040
4.1728786377356908
1040
39.946608441155682
1040
1.000000000013211
1040
5.0614548307928056
1040
6.2831853071850263
1070
     0
1070
     1
1040
5.1728786377489024
1040
39.946608441150232
1040
5.1728786377489024
1040
38.994744108292743
1070
     2
1040
6.3728786377379292
1040
38.994744108289737
1040
1.1999999999890261
1040
3.1415926535872978
1040
3.665191429183948
1070
     1
1070
     1
1040
5.3336481532036188
1040
38.394744108299541
1040
5.6728786377488447
1040
37.807179673591037
1070
     1
1040
5.6728786377488447
1040
37.807179673591037
1040
6.2447439725435681
1040
36.816679858639098
1070
     2
1040
6.0628786377424264
1040
36.711679858637439
1040
0.2100000000063851
1040
5.759586531589667
1040
6.2831853071863426
1070
     0
1070
     1
1040
6.2728786377488106
1040
36.711679858636018
1040
6.2728786377488683
1040
36.399999996618511
1070
     2
1040
5.8728786377459166
1040
36.399999996621482
1040
0.40000000000295
1040
0.0000000000074323
1040
1.570796326797411
1070
     0
1070
     1
1040
5.872878637744912
1040
35.999999996618527
1040
2.4728786377488561
1040
35.999999996618527
1070
     2
1040
2.4728786377508571
1040
36.399999996620508
1040
0.4000000000019782
1040
1.5707963267998979
1040
3.1415926535899059
1070
     0
1070
     1
1040
2.0728786377488788
1040
36.399999996620551
1040
2.0728786377488788
1040
36.711679858639201
1070
     2
1040
2.2828786377507879
1040
36.711679858638732
1040
0.2100000000019078
1040
3.1415926535920451
1040
3.6651914291886731
1070
     0
1070
     1
1040
2.1010133029544642
1040
36.816679858639787
1040
2.8648795322352432
1040
38.131136870084788
1070
     1
1040
2.8648795322352432
1040
38.131136870084788
1040
3.1319940604481569
1040
38.131136870084902
1070
     2
1040
3.1319940604480512
1040
38.341136870084902
1040
0.2100000000000017
1040
4.7123889803851959
1040
6.8067840827762964
1070
     1
1070
     1
1040
3.3138593952429511
1040
38.446136870084608
1040
3.1751896381364269
1040
38.686319934866908
1070
     2
1040
-2.3888565659546921
1040
38.808189703637311
1040
5.5653807059176952
1040
6.2612857252742726
1040
6.3244500373143397
1070
     1
1071
        0
1070
     0
1070
     1
1040
5.4977871437821371
1040
0.35
1070
     0
1070
     1
1040
0.0
1040
0.2781387257307921
1040
35.999999845802762
1040
0.0000000000000003
1040
1.111249999999999
1070
     0
1071
        1
1040
0.2781387257307921
1040
35.999999845802762
1040
0.0
1002
}
  0
INSERT
  5
11D4
  8
SAPA_ISOLATOR
  6
CONTINUOUS
  2
*X87
 10
0.0
 20
0.0
 30
0.0
1001
ACAD
1000
HATCH
1002
{
1070
    19
1000
ANSI31
1040
0.35
1040
5.4977871437821371
1000
R14_HATCH_DATA
1000
11D4
1011
1.0
1021
0.0
1031
0.0
1021
0.0
1031
0.0
1011
0.0
1021
0.0
1031
0.0
1021
1.0
1031
0.0
1011
0.0
1021
0.0
1031
0.0
1021
0.0
1031
1.0
1040
0.0
1010
0.0
1020
0.0
1030
1.0
1000
ANSI31
1070
     0
1070
     0
1071
        1
1071
        7
1070
     1
1070
     1
1071
       24
1040
100.4731165893203
1040
63.002106087695893
1040
-0.1309057172584691
1040
100.6321286803545
1040
63.599051791609149
1040
0.0
1040
101.5731165892678
1040
65.240000087721796
1040
0.0
1040
101.5731165892593
1040
65.600000087722094
1040
0.4142135623728775
1040
101.1731165892498
1040
66.000000087712351
1040
0.0
1040
97.773116589249838
1040
66.000000087632586
1040
0.4142135623731472
1040
97.373116589259183
1040
65.600000087623073
1040
0.0
1040
97.373116589267823
1040
65.240000087622704
1040
0.0
1040
98.165117483736225
1040
63.858863214206167
1040
0.0
1040
98.432232011949253
1040
63.858863214206167
1040
-0.5773502691895098
1040
98.614097346743947
1040
63.543863214206453
1040
0.0
1040
98.473116589320369
1040
63.299677379458608
1040
0.0
1040
98.473116589320369
1040
38.700322795968823
1040
0.0
1040
98.614097346743804
1040
38.456136961220921
1040
-0.5773502691896486
1040
98.432232011949253
1040
38.141136961221207
1040
0.0
1040
98.165117483736225
1040
38.141136961221321
1040
0.0
1040
97.373116589267823
1040
36.760000087804542
1040
0.0
1040
97.373116589259297
1040
36.400000087804301
1040
0.4142135623730794
1040
97.773116589249838
1040
36.000000087794717
1040
0.0
1040
101.1731165892498
1040
36.000000087714973
1040
0.4142135623729623
1040
101.5731165892593
1040
36.400000087705337
1040
0.0
1040
101.5731165892678
1040
36.760000087705748
1040
0.0
1040
100.6321286803545
1040
38.400948383818161
1040
-0.1309134860018382
1040
100.47311658988041
1040
38.997930749416412
1040
0.0
1071
        0
1070
     0
1070
     1
1040
5.4977871437821371
1040
0.35
1070
     0
1070
     1
1040
0.0
1040
66.544893718615555
1040
11.984000701365741
1040
0.0000000000000003
1040
1.111249999999999
1070
     0
1040
0.1003283970076292
1071
        1
1040
99.688052807667376
1040
50.465565484839153
1040
0.0
1002
}
  0
INSERT
  5
11D5
  8
SAPA_ISOLATOR
  6
CONTINUOUS
  2
*X88
 10
0.0
 20
0.0
 30
0.0
1001
ACAD
1000
HATCH
1002
{
1070
    19
1000
ANSI31
1040
0.35
1040
5.4977871437821371
1000
R14_HATCH_DATA
1000
11D5
1011
1.0
1021
0.0
1031
0.0
1021
0.0
1031
0.0
1011
0.0
1021
0.0
1031
0.0
1021
1.0
1031
0.0
1011
0.0
1021
0.0
1031
0.0
1021
0.0
1031
1.0
1040
0.0
1010
0.0
1020
0.0
1030
1.0
1000
ANSI31
1070
     0
1070
     0
1071
        1
1071
        1
1071
       49
1070
     2
1040
278.12816319066837
1040
39.03625741991145
1040
0.3006817060114675
1040
-3.1365342331756252
1040
-1.9206162522843451
1070
     0
1070
     1
1040
278.02511095704642
1040
39.318728171451269
1040
280.45794097859039
1040
40.204205884322462
1070
     2
1040
280.32113292125757
1040
40.580082932638589
1040
0.400000000002539
1040
5.0614548307880307
1040
6.2831853071802364
1070
     1
1070
     1
1040
280.72113292126011
1040
40.580082932638859
1040
280.72113292125999
1040
50.99999991735298
1070
     1
1040
280.72113292125999
1040
50.99999991735298
1040
280.72113292125999
1040
61.41991690207108
1070
     2
1040
280.3211329212603
1040
61.419916902069332
1040
0.3999999999996488
1040
6.2831853071839641
1040
7.5049157835761973
1070
     1
1070
     1
1040
280.45794097859027
1040
61.795793950383441
1040
278.02511095705461
1040
62.681271663251621
1070
     2
1040
278.12800939999829
1040
62.963634235399041
1040
0.3005273892841634
1040
1.9202588802441449
1040
3.1368916050751952
1070
     0
1070
     2
1040
283.38812840652332
1040
63.19181021033733
1040
5.5653807064749881
1040
3.1003279234522898
1040
3.1634922354923591
1070
     0
1070
     1
1040
277.82408220187472
1040
63.313679979104663
1040
277.68541244476808
1040
63.553863043886942
1070
     2
1040
277.86727777956298
1040
63.658863043886662
1040
0.2100000000000017
1040
2.6179938779930789
1040
4.7123889803841781
1070
     0
1070
     1
1040
277.86727777956293
1040
63.868863043886662
1040
278.13439230777578
1040
63.868863043886783
1070
     1
1040
278.13439230777578
1040
63.868863043886783
1040
278.33061437356008
1040
64.199999917352969
1070
     1
1040
278.33061437356008
1040
64.199999917352969
1040
278.89825853705759
1040
65.183320055333482
1070
     2
1040
278.71639320226399
1040
65.288320055331752
1040
0.209999999998109
1040
5.7595865315855992
1040
6.283185307182225
1070
     1
1070
     1
1040
278.92639320226209
1040
65.288320055332306
1040
278.92639320226232
1040
65.599999917354864
1070
     2
1040
278.52639320226621
1040
65.599999917356783
1040
0.3999999999961332
1040
6.2831853071748069
1040
7.8539816339849429
1070
     1
1070
     1
1040
278.526393202262
1040
65.999999917352923
1040
275.12639320226219
1040
65.99999991735298
1070
     2
1040
275.12639320225929
1040
65.599999917355916
1040
0.3999999999970676
1040
7.8539816339672077
1040
9.4247779607767956
1070
     1
1070
     1
1040
274.72639320226222
1040
65.599999917352946
1040
274.72639320226222
1040
65.288320055329294
1070
     2
1040
274.93639320225708
1040
65.288320055330956
1040
0.2099999999949489
1040
3.1415926535976761
1040
3.6651914291943042
1070
     1
1070
     1
1040
274.75452786746752
1040
65.183320055332345
1040
275.32224801382949
1040
64.199999917352969
1070
     1
1040
275.32224801382949
1040
64.199999917352969
1040
275.66562368680161
1040
63.605255805682091
1070
     2
1040
274.62639320225122
1040
63.005255805675972
1040
1.2000000000109059
1040
-0.5235987755989325
1040
-0.0000000000022795
1070
     0
1070
     1
1040
275.82639320226212
1040
63.005255805678708
1040
275.8263932022619
1040
62.053391472792292
1070
     2
1040
276.82639320225411
1040
62.053391472801287
1040
0.9999999999922533
1040
3.1415926535988019
1040
4.3633231299913087
1070
     1
1070
     1
1040
276.48437305893628
1040
61.113698852020789
1040
278.65794097858998
1040
60.322584827110923
1070
     2
1040
278.5211329212587
1040
59.946707778795449
1040
0.4000000000013905
1040
-1.2217304763946191
1040
-0.0000000000023892
1070
     0
1070
     1
1040
278.9211329212601
1040
59.946707778796402
1040
278.9211329212601
1040
50.99999991735298
1070
     1
1040
278.9211329212601
1040
50.99999991735298
1040
278.9211329212601
1040
42.053292055909488
1070
     2
1040
278.5211329212616
1040
42.053292055908493
1040
0.3999999999985775
1040
-0.0000000000024847
1040
1.2217304763897181
1070
     0
1070
     1
1040
278.65794097859367
1040
41.677415007596338
1040
276.48437305893651
1040
40.886300982685228
1070
     2
1040
276.82639320227543
1040
39.946608361890071
1040
1.000000000013211
1040
8.2030474843825996
1040
9.4247779607748186
1070
     1
1070
     1
1040
275.82639320226218
1040
39.946608361884628
1040
275.82639320226218
1040
38.994744029027132
1070
     2
1040
274.62639320227322
1040
38.99474402902414
1040
1.1999999999890261
1040
-0.0000000000024949
1040
0.5235987755941554
1070
     0
1070
     1
1040
275.66562368680741
1040
38.39474402903393
1040
275.3263932022623
1040
37.807179594325433
1070
     1
1040
275.3263932022623
1040
37.807179594325433
1040
274.75452786746752
1040
36.816679779373501
1070
     2
1040
274.93639320226868
1040
36.711679779371842
1040
0.2100000000063851
1040
8.9011791851794602
1040
9.4247779607761366
1070
     1
1070
     1
1040
274.72639320226227
1040
36.711679779370421
1040
274.72639320226222
1040
36.399999917352901
1070
     2
1040
275.12639320226521
1040
36.399999917355871
1040
0.40000000000295
1040
3.1415926535972249
1040
4.7123889803872041
1070
     1
1070
     1
1040
275.12639320226617
1040
35.999999917352923
1040
278.52639320226223
1040
35.999999917352923
1070
     2
1040
278.52639320226018
1040
36.399999917354911
1040
0.4000000000019782
1040
4.712388980389691
1040
6.283185307179699
1070
     1
1070
     1
1040
278.9263932022622
1040
36.399999917354947
1040
278.9263932022622
1040
36.711679779373597
1070
     2
1040
278.71639320226029
1040
36.711679779373121
1040
0.2100000000019078
1040
6.2831853071818378
1040
6.8067840827784662
1070
     1
1070
     1
1040
278.89825853705662
1040
36.816679779374191
1040
278.13439230777578
1040
38.131136790819191
1070
     1
1040
278.13439230777578
1040
38.131136790819191
1040
277.86727777956293
1040
38.131136790819298
1070
     2
1040
277.86727777956298
1040
38.341136790819299
1040
0.2100000000000017
1040
1.570796326795403
1040
3.6651914291865029
1070
     0
1070
     1
1040
277.68541244476808
1040
38.446136790819011
1040
277.82408220187472
1040
38.686319855601297
1070
     2
1040
283.3881284059658
1040
38.808189624371707
1040
5.5653807059176952
1040
3.11969307168448
1040
3.1828573837245471
1070
     0
1071
        0
1070
     0
1070
     1
1040
5.4977871437821371
1040
0.35
1070
     0
1070
     1
1040
3.1415926535897931
1040
280.72113311428029
1040
35.999999766537158
1040
-0.0000000000000003
1040
1.111249999999999
1070
     0
1071
        1
1040
280.72113311428029
1040
35.999999766537158
1040
0.0
1002
}
  0
INSERT
  5
11D6
  8
SAPA_ISOLATOR
  6
CONTINUOUS
  2
*X89
 10
0.0
 20
0.0
 30
0.0
1001
ACAD
1000
HATCH
1002
{
1070
    19
1000
ANSI31
1040
0.35
1040
5.4977871437821371
1000
R14_HATCH_DATA
1000
11D6
1011
1.0
1021
0.0
1031
0.0
1021
0.0
1031
0.0
1011
0.0
1021
0.0
1031
0.0
1021
1.0
1031
0.0
1011
0.0
1021
0.0
1031
0.0
1021
0.0
1031
1.0
1040
0.0
1010
0.0
1020
0.0
1030
1.0
1000
ANSI31
1070
     0
1070
     0
1071
        1
1071
        1
1071
       49
1070
     2
1040
108.8718368093438
1040
62.963742406780327
1040
0.3006817060114675
1040
0.0050584204141674
1040
1.2209764013054469
1070
     0
1070
     1
1040
108.9748890429658
1040
62.681271655240508
1040
106.54205902142181
1040
61.795793942369308
1070
     2
1040
106.67886707875461
1040
61.419916894053181
1040
0.400000000002539
1040
1.919862177198238
1040
3.1415926535904428
1070
     1
1070
     1
1040
106.2788670787521
1040
61.419916894052911
1040
106.2788670787521
1040
50.999999909338797
1070
     1
1040
106.2788670787521
1040
50.999999909338797
1040
106.2788670787522
1040
40.58008292462069
1070
     2
1040
106.67886707875179
1040
40.580082924622438
1040
0.3999999999996488
1040
3.1415926535941709
1040
4.3633231299864041
1070
     1
1070
     1
1040
106.54205902142191
1040
40.204205876308329
1040
108.9748890429576
1040
39.318728163440163
1070
     2
1040
108.8719906000138
1040
39.036365591292743
1040
0.3005273892841634
1040
5.0618515338339378
1040
6.2784842586649878
1070
     0
1070
     2
1040
103.6118715934889
1040
38.808189616354447
1040
5.5653807064749881
1040
6.2419205770420829
1040
6.3050848890821518
1070
     0
1070
     1
1040
109.1759177981375
1040
38.686319847587122
1040
109.3145875552441
1040
38.446136782804828
1070
     2
1040
109.1327222204492
1040
38.341136782805123
1040
0.2100000000000017
1040
5.7595865315828716
1040
7.8539816339739712
1070
     0
1070
     1
1040
109.1327222204493
1040
38.131136782805122
1040
108.8656076922364
1040
38.131136782805001
1070
     1
1040
108.8656076922364
1040
38.131136782805001
1040
108.669385626452
1040
37.799999909338808
1070
     1
1040
108.669385626452
1040
37.799999909338808
1040
108.10174146295461
1040
36.816679771358302
1070
     2
1040
108.28360679774811
1040
36.711679771360032
1040
0.209999999998109
1040
2.6179938779958061
1040
3.1415926535924319
1070
     1
1070
     1
1040
108.07360679775
1040
36.711679771359471
1040
108.0736067977499
1040
36.399999909336898
1070
     2
1040
108.4736067977461
1040
36.399999909334987
1040
0.3999999999961332
1040
3.1415926535850138
1040
4.7123889803951498
1070
     1
1070
     1
1040
108.47360679775031
1040
35.999999909338861
1040
111.87360679775
1040
35.999999909338797
1070
     2
1040
111.8736067977529
1040
36.399999909335861
1040
0.3999999999970676
1040
4.7123889803774146
1040
6.2831853071870016
1070
     1
1070
     1
1040
112.27360679775001
1040
36.399999909338831
1040
112.27360679775001
1040
36.711679771362483
1070
     2
1040
112.063606797755
1040
36.711679771360828
1040
0.2099999999949489
1040
0.0000000000078836
1040
0.5235987756045112
1070
     1
1070
     1
1040
112.24547213254471
1040
36.816679771359432
1040
111.6777519861827
1040
37.799999909338808
1070
     1
1040
111.6777519861827
1040
37.799999909338808
1040
111.3343763132106
1040
38.394744021009679
1070
     2
1040
112.373606797761
1040
38.994744021015798
1040
1.2000000000109059
1040
2.6179938779908598
1040
3.1415926535875132
1070
     0
1070
     1
1040
111.1736067977501
1040
38.994744021013062
1040
111.1736067977503
1040
39.946608353899492
1070
     2
1040
110.173606797758
1040
39.946608353890483
1040
0.9999999999922533
1040
0.0000000000090098
1040
1.221730476401516
1070
     1
1070
     1
1040
110.51562694107589
1040
40.886300974670981
1040
108.3420590214222
1040
41.677414999580847
1070
     2
1040
108.4788670787535
1040
42.053292047896321
1040
0.4000000000013905
1040
1.919862177195172
1040
3.141592653587403
1070
     0
1070
     1
1040
108.0788670787521
1040
42.053292047895368
1040
108.0788670787521
1040
50.999999909338797
1070
     1
1040
108.0788670787521
1040
50.999999909338797
1040
108.078867078752
1040
59.946707770782282
1070
     2
1040
108.4788670787506
1040
59.946707770783277
1040
0.3999999999985775
1040
3.141592653587308
1040
4.363323129979511
1070
     0
1070
     1
1040
108.34205902141851
1040
60.322584819095432
1040
110.51562694107569
1040
61.113698844006549
1070
     2
1040
110.1736067977368
1040
62.053391464801699
1040
1.000000000013211
1040
5.0614548307928056
1040
6.2831853071850263
1070
     1
1070
     1
1040
111.17360679775
1040
62.053391464807149
1040
111.17360679775
1040
63.005255797664638
1070
     2
1040
112.373606797739
1040
63.005255797667637
1040
1.1999999999890261
1040
3.1415926535872978
1040
3.665191429183948
1070
     0
1070
     1
1040
111.3343763132047
1040
63.60525579765784
1040
111.67360679775
1040
64.192820232366344
1070
     1
1040
111.67360679775
1040
64.192820232366344
1040
112.24547213254471
1040
65.183320047318276
1070
     2
1040
112.0636067977435
1040
65.288320047319942
1040
0.2100000000063851
1040
5.759586531589667
1040
6.2831853071863426
1070
     1
1070
     1
1040
112.27360679774991
1040
65.288320047321363
1040
112.27360679775001
1040
65.599999909338877
1070
     2
1040
111.873606797747
1040
65.599999909335907
1040
0.40000000000295
1040
0.0000000000074324
1040
1.5707963267974121
1070
     1
1070
     1
1040
111.87360679774601
1040
65.999999909338854
1040
108.47360679774999
1040
65.999999909338854
1070
     2
1040
108.473606797752
1040
65.599999909336873
1040
0.4000000000019782
1040
1.5707963267998979
1040
3.1415926535899059
1070
     1
1070
     1
1040
108.07360679775
1040
65.59999990933683
1040
108.07360679775
1040
65.28832004731818
1070
     2
1040
108.2836067977519
1040
65.288320047318649
1040
0.2100000000019078
1040
3.1415926535920451
1040
3.6651914291886731
1070
     1
1070
     1
1040
108.1017414629556
1040
65.183320047317594
1040
108.8656076922364
1040
63.868863035872593
1070
     1
1040
108.8656076922364
1040
63.868863035872593
1040
109.1327222204493
1040
63.868863035872479
1070
     2
1040
109.1327222204492
1040
63.658863035872479
1040
0.2100000000000017
1040
4.7123889803851959
1040
6.8067840827762964
1070
     0
1070
     1
1040
109.3145875552441
1040
63.553863035872773
1040
109.1759177981375
1040
63.313679971090473
1070
     2
1040
103.61187159404641
1040
63.19181020232007
1040
5.5653807059176952
1040
6.2612857252742726
1040
6.3244500373143397
1070
     0
1071
        0
1070
     0
1070
     1
1040
5.4977871437821371
1040
0.35
1070
     0
1070
     1
1040
0.0000000000000001
1040
106.2788668857319
1040
66.000000060154619
1040
0.0000000000000005
1040
-1.111249999999999
1070
     0
1071
        1
1040
106.2788668857319
1040
66.000000060154619
1040
0.0
1002
}
  0
POLYLINE
  5
11ED
  8
SAPA_FOGBAND
 66
     1
 10
0.0
 20
0.0
 30
0.0000000195376815
 70
     1
  0
VERTEX
  5
1D84
  8
SAPA_FOGBAND
 10
81.800849112329885
 20
83.283987650654467
 30
0.0000000195376815
  0
VERTEX
  5
1D85
  8
SAPA_FOGBAND
 10
83.194200938995706
 20
83.22945595422982
 30
0.0000000195376815
  0
VERTEX
  5
1D86
  8
SAPA_FOGBAND
 10
83.194200938995706
 20
84.296722499614248
 30
0.0000000195376815
  0
VERTEX
  5
1D87
  8
SAPA_FOGBAND
 10
82.555507431937059
 20
84.357732657708652
 30
0.0000000195376815
 42
-0.4995370695832079
  0
VERTEX
  5
1D88
  8
SAPA_FOGBAND
 10
82.436153763181935
 20
84.654449503142914
 30
0.0000000195376815
  0
VERTEX
  5
1D89
  8
SAPA_FOGBAND
 10
83.142189738417798
 20
85.707107397731875
 30
0.0000000195376815
 42
-0.250021237196914
  0
VERTEX
  5
1D8A
  8
SAPA_FOGBAND
 10
83.972684103152275
 20
86.150080369533597
 30
0.0000000195376815
  0
VERTEX
  5
1D8B
  8
SAPA_FOGBAND
 10
85.041858378762115
 20
86.150080369533597
 30
0.0000000195376815
 42
-0.250021237196914
  0
VERTEX
  5
1D8C
  8
SAPA_FOGBAND
 10
85.872352743496592
 20
85.707107397731875
 30
0.0000000195376815
  0
VERTEX
  5
1D8D
  8
SAPA_FOGBAND
 10
86.578388718730636
 20
84.654449503142914
 30
0.0000000195376815
 42
-0.4995370695831766
  0
VERTEX
  5
1D8E
  8
SAPA_FOGBAND
 10
86.459035049977317
 20
84.357732657708652
 30
0.0000000195376815
  0
VERTEX
  5
1D8F
  8
SAPA_FOGBAND
 10
85.851539833215426
 20
84.292094967528556
 30
0.0000000195376815
  0
VERTEX
  5
1D90
  8
SAPA_FOGBAND
 10
85.851539833215426
 20
83.224828422144114
 30
0.0000000195376815
  0
VERTEX
  5
1D91
  8
SAPA_FOGBAND
 10
86.739840092407377
 20
83.242530860727015
 30
0.0000000195376815
 42
-0.4400105308918379
  0
VERTEX
  5
1D92
  8
SAPA_FOGBAND
 10
86.957271240956089
 20
83.043291921108562
 30
0.0000000195376815
  0
VERTEX
  5
1D93
  8
SAPA_FOGBAND
 10
86.957271240956089
 20
83.008296455698314
 30
0.0000000195376815
 42
-0.3888787318529988
  0
VERTEX
  5
1D94
  8
SAPA_FOGBAND
 10
86.409564686605151
 20
82.410579636843167
 30
0.0000000195376815
  0
VERTEX
  5
1D95
  8
SAPA_FOGBAND
 10
85.575257171479095
 20
82.337587187375334
 30
0.0000000195376815
 42
0.2668174844056302
  0
VERTEX
  5
1D96
  8
SAPA_FOGBAND
 10
85.411785473516645
 20
82.223636934719806
 30
0.0000000195376815
 42
-0.6341045221175712
  0
VERTEX
  5
1D97
  8
SAPA_FOGBAND
 10
83.602757008395926
 20
82.223636934719806
 30
0.0000000195376815
 42
0.2668174844056113
  0
VERTEX
  5
1D98
  8
SAPA_FOGBAND
 10
83.439285310433476
 20
82.337587187375334
 30
0.0000000195376815
  0
VERTEX
  5
1D99
  8
SAPA_FOGBAND
 10
82.609564686605864
 20
82.410178335853857
 30
0.0000000195376815
 42
0.3932191662530252
  0
VERTEX
  5
1D9A
  8
SAPA_FOGBAND
 10
81.857271240957544
 20
81.766611228223724
 30
0.0000000195376815
 42
0.7365260079582157
  0
VERTEX
  5
1D9B
  8
SAPA_FOGBAND
 10
85.290073730214118
 20
80.793830828132059
 30
0.0000000195376815
 42
-1.00000000000107
  0
VERTEX
  5
1D9C
  8
SAPA_FOGBAND
 10
85.774116621559017
 20
80.439285373586699
 30
0.0000000195376815
 42
-0.7363451539893881
  0
VERTEX
  5
1D9D
  8
SAPA_FOGBAND
 10
81.257271240957195
 20
81.766611228223724
 30
0.0000000195376815
  0
VERTEX
  5
1D9E
  8
SAPA_FOGBAND
 10
81.257271240957195
 20
82.785890301608674
 30
0.0000000195376815
 42
-0.4400105308918419
  0
SEQEND
  5
1D9F
  8
SAPA_FOGBAND
  0
CIRCLE
  5
11EE
  8
SAPA_FOGBAND
 10
84.507271240957195
 20
82.650080369533612
 30
0.0000000195376815
 40
0.25
  0
POLYLINE
  5
11EF
  8
SAPA_FOGBAND
 66
     1
 10
0.0
 20
0.0
 30
0.0000000195376815
 70
     1
  0
VERTEX
  5
1DA0
  8
SAPA_FOGBAND
 10
85.307271240956453
 20
83.498608506957325
 30
0.0000000195376815
 42
-0.6341370759941026
  0
VERTEX
  5
1DA1
  8
SAPA_FOGBAND
 10
85.143634877321176
 20
83.421469585373529
 30
0.0000000195376815
 42
0.3592455179659193
  0
VERTEX
  5
1DA2
  8
SAPA_FOGBAND
 10
83.870907604593214
 20
83.421469585373529
 30
0.0000000195376815
 42
-0.6341370759941019
  0
VERTEX
  5
1DA3
  8
SAPA_FOGBAND
 10
83.707271240956103
 20
83.498608506957325
 30
0.0000000195376815
  0
VERTEX
  5
1DA4
  8
SAPA_FOGBAND
 10
83.707271240956103
 20
84.850080369533444
 30
0.0000000195376815
 42
-0.4142135623730951
  0
VERTEX
  5
1DA5
  8
SAPA_FOGBAND
 10
84.207271240956103
 20
85.350080369533416
 30
0.0000000195376815
  0
VERTEX
  5
1DA6
  8
SAPA_FOGBAND
 10
84.807271240956467
 20
85.350080369533416
 30
0.0000000195376815
 42
-0.4142135623730951
  0
VERTEX
  5
1DA7
  8
SAPA_FOGBAND
 10
85.307271240956453
 20
84.850080369533444
 30
0.0000000195376815
  0
SEQEND
  5
1DA8
  8
SAPA_FOGBAND
  0
LINE
  5
11F0
  8
SAPA_FOGBAND
 10
82.173091094816115
 20
83.299999834329356
 30
0.0
 11
82.173091094816115
 21
83.299999834329356
 31
0.0
  0
POLYLINE
  5
11F1
  8
SAPA_FOGBAND
 66
     1
 10
0.0
 20
0.0
 30
0.0
 70
   129
  0
VERTEX
  5
1DA9
  8
SAPA_FOGBAND
 10
-5.5617182862652612
 20
50.584819479376677
 30
0.0
  0
VERTEX
  5
1DAA
  8
SAPA_FOGBAND
 10
-5.6122291129686914
 20
50.821383534827021
 30
0.0
  0
VERTEX
  5
1DAB
  8
SAPA_FOGBAND
 10
-5.7619360001963846
 20
51.049397548951958
 30
0.0
  0
VERTEX
  5
1DAC
  8
SAPA_FOGBAND
 10
-6.0054281509870293
 20
51.260620501196229
 30
0.0
  0
VERTEX
  5
1DAD
  8
SAPA_FOGBAND
 10
-6.3339051245985161
 20
51.447418243729373
 30
0.0
  0
VERTEX
  5
1DAE
  8
SAPA_FOGBAND
 10
-6.7354949073651929
 20
51.60303941943954
 30
0.0
  0
VERTEX
  5
1DAF
  8
SAPA_FOGBAND
 10
-7.19568299820736
 20
51.721859473569623
 30
0.0
  0
VERTEX
  5
1DB0
  8
SAPA_FOGBAND
 10
-7.6978370005127204
 20
51.799583939780909
 30
0.0
  0
VERTEX
  5
1DB1
  8
SAPA_FOGBAND
 10
-8.2238077602879116
 20
51.833403653355219
 30
0.0
  0
VERTEX
  5
1DB2
  8
SAPA_FOGBAND
 10
-8.7545853238726181
 20
51.822096281727738
 30
0.0
  0
VERTEX
  5
1DB3
  8
SAPA_FOGBAND
 10
-9.2709860071900607
 20
51.766070502769757
 30
0.0
  0
VERTEX
  5
1DB4
  8
SAPA_FOGBAND
 10
-9.7543457440770567
 20
51.66735123410723
 30
0.0
  0
VERTEX
  5
1DB5
  8
SAPA_FOGBAND
 10
-10.18719465426153
 20
51.52950644731942
 30
0.0
  0
VERTEX
  5
1DB6
  8
SAPA_FOGBAND
 10
-10.55388845035128
 20
51.357518212152222
 30
0.0
  0
VERTEX
  5
1DB7
  8
SAPA_FOGBAND
 10
-10.84117386314489
 20
51.157602631535667
 30
0.0
  0
VERTEX
  5
1DB8
  8
SAPA_FOGBAND
 10
-11.038667649309049
 20
50.936985175428219
 30
0.0
  0
VERTEX
  5
1DB9
  8
SAPA_FOGBAND
 10
-11.13923186884727
 20
50.70363953350676
 30
0.0
  0
VERTEX
  5
1DBA
  8
SAPA_FOGBAND
 10
-11.13923186884727
 20
50.465999425246359
 30
0.0
  0
VERTEX
  5
1DBB
  8
SAPA_FOGBAND
 10
-11.038667649309049
 20
50.232653783324672
 30
0.0
  0
VERTEX
  5
1DBC
  8
SAPA_FOGBAND
 10
-10.84117386314489
 20
50.012036327217231
 30
0.0
  0
VERTEX
  5
1DBD
  8
SAPA_FOGBAND
 10
-10.55388845035128
 20
49.812120746600669
 30
0.0
  0
VERTEX
  5
1DBE
  8
SAPA_FOGBAND
 10
-10.18719465426153
 20
49.640132511433698
 30
0.0
  0
VERTEX
  5
1DBF
  8
SAPA_FOGBAND
 10
-9.7543457440770567
 20
49.502287724646123
 30
0.0
  0
VERTEX
  5
1DC0
  8
SAPA_FOGBAND
 10
-9.2709860071900607
 20
49.403568455983127
 30
0.0
  0
VERTEX
  5
1DC1
  8
SAPA_FOGBAND
 10
-8.7545853238726181
 20
49.347542677025388
 30
0.0
  0
VERTEX
  5
1DC2
  8
SAPA_FOGBAND
 10
-8.2238077602879116
 20
49.336235305397679
 30
0.0
  0
VERTEX
  5
1DC3
  8
SAPA_FOGBAND
 10
-7.6978370005127204
 20
49.370055018971982
 30
0.0
  0
VERTEX
  5
1DC4
  8
SAPA_FOGBAND
 10
-7.19568299820736
 20
49.447779485183283
 30
0.0
  0
VERTEX
  5
1DC5
  8
SAPA_FOGBAND
 10
-6.7354949073651929
 20
49.56659953931382
 30
0.0
  0
VERTEX
  5
1DC6
  8
SAPA_FOGBAND
 10
-6.3339051245985161
 20
49.72222071502398
 30
0.0
  0
VERTEX
  5
1DC7
  8
SAPA_FOGBAND
 10
-6.0054281509870293
 20
49.909018457557117
 30
0.0
  0
VERTEX
  5
1DC8
  8
SAPA_FOGBAND
 10
-5.7619360001963846
 20
50.12024140980116
 30
0.0
  0
VERTEX
  5
1DC9
  8
SAPA_FOGBAND
 10
-5.6122291129686914
 20
50.348255423926098
 30
0.0
  0
SEQEND
  5
1DCA
  8
SAPA_FOGBAND
  0
POLYLINE
  5
11F2
  8
SAPA_FOGBAND
 66
     1
 10
0.0
 20
0.0
 30
0.0
 70
     1
  0
VERTEX
  5
1DCB
  8
SAPA_FOGBAND
 10
-8.8195353507022105
 20
46.949999922299916
 30
0.0
  0
VERTEX
  5
1DCC
  8
SAPA_FOGBAND
 10
-22.50000000000097
 20
46.949999922299916
 30
0.0
 42
-0.427966335106886
  0
VERTEX
  5
1DCD
  8
SAPA_FOGBAND
 10
-22.799672567720851
 20
47.264012493659322
 30
0.0
  0
VERTEX
  5
1DCE
  8
SAPA_FOGBAND
 10
-22.313372659641178
 20
55.664012493658952
 30
0.0
 42
-0.4005932428724212
  0
VERTEX
  5
1DCF
  8
SAPA_FOGBAND
 10
-22.01370009192129
 20
55.949999922299916
 30
0.0
  0
VERTEX
  5
1DD0
  8
SAPA_FOGBAND
 10
-20.200000000000792
 20
55.949999922299916
 30
0.0
  0
VERTEX
  5
1DD1
  8
SAPA_FOGBAND
 10
-20.200000000000792
 20
57.649999922299742
 30
0.0
 42
-0.4142135623730951
  0
VERTEX
  5
1DD2
  8
SAPA_FOGBAND
 10
-19.900000000000599
 20
57.949999922299931
 30
0.0
  0
VERTEX
  5
1DD3
  8
SAPA_FOGBAND
 10
-12.481219236375241
 20
57.949999922299931
 30
0.0
 42
-0.1379343940649207
  0
VERTEX
  5
1DD4
  8
SAPA_FOGBAND
 10
-11.96000092732635
 20
57.803423307445023
 30
0.0
  0
VERTEX
  5
1DD5
  8
SAPA_FOGBAND
 10
-0.0393908454767029
 20
50.996205069536757
 30
0.0
 42
-0.2613472755167645
  0
VERTEX
  5
1DD6
  8
SAPA_FOGBAND
 10
0.1999999999988517
 20
50.569493376964203
 30
0.0
  0
VERTEX
  5
1DD7
  8
SAPA_FOGBAND
 10
0.1999999999988517
 20
48.774796759801177
 30
0.0
 42
-0.3915187749346393
  0
VERTEX
  5
1DD8
  8
SAPA_FOGBAND
 10
-0.7219776997745271
 20
47.777845145795759
 30
0.0
  0
VERTEX
  5
1DD9
  8
SAPA_FOGBAND
 10
-8.7805242005888982
 20
46.951524115297211
 30
0.0
 42
-0.0195279011117891
  0
SEQEND
  5
1DDA
  8
SAPA_FOGBAND
  0
POLYLINE
  5
11F3
  8
SAPA_FOGBAND
 66
     1
 10
0.0
 20
0.0
 30
0.0
 70
   129
  0
VERTEX
  5
1DDB
  8
SAPA_FOGBAND
 10
-13.286377803037849
 20
52.429565315006187
 30
0.0
  0
VERTEX
  5
1DDC
  8
SAPA_FOGBAND
 10
-13.33688862974128
 20
52.666129370456531
 30
0.0
  0
VERTEX
  5
1DDD
  8
SAPA_FOGBAND
 10
-13.48659551696897
 20
52.894143384581469
 30
0.0
  0
VERTEX
  5
1DDE
  8
SAPA_FOGBAND
 10
-13.730087667759619
 20
53.105366336825732
 30
0.0
  0
VERTEX
  5
1DDF
  8
SAPA_FOGBAND
 10
-14.058564641371101
 20
53.292164079358876
 30
0.0
  0
VERTEX
  5
1DE0
  8
SAPA_FOGBAND
 10
-14.46015442413778
 20
53.44778525506905
 30
0.0
  0
VERTEX
  5
1DE1
  8
SAPA_FOGBAND
 10
-14.92034251497995
 20
53.56660530919914
 30
0.0
  0
VERTEX
  5
1DE2
  8
SAPA_FOGBAND
 10
-15.42249651728531
 20
53.644329775410419
 30
0.0
  0
VERTEX
  5
1DE3
  8
SAPA_FOGBAND
 10
-15.9484672770605
 20
53.678149488984729
 30
0.0
  0
VERTEX
  5
1DE4
  8
SAPA_FOGBAND
 10
-16.479244840645212
 20
53.666842117357248
 30
0.0
  0
VERTEX
  5
1DE5
  8
SAPA_FOGBAND
 10
-16.995645523962651
 20
53.610816338399268
 30
0.0
  0
VERTEX
  5
1DE6
  8
SAPA_FOGBAND
 10
-17.47900526084964
 20
53.51209706973674
 30
0.0
  0
VERTEX
  5
1DE7
  8
SAPA_FOGBAND
 10
-17.911854171034118
 20
53.37425228294893
 30
0.0
  0
VERTEX
  5
1DE8
  8
SAPA_FOGBAND
 10
-18.27854796712387
 20
53.202264047781739
 30
0.0
  0
VERTEX
  5
1DE9
  8
SAPA_FOGBAND
 10
-18.565833379917478
 20
53.00234846716517
 30
0.0
  0
VERTEX
  5
1DEA
  8
SAPA_FOGBAND
 10
-18.763327166081641
 20
52.78173101105773
 30
0.0
  0
VERTEX
  5
1DEB
  8
SAPA_FOGBAND
 10
-18.863891385619858
 20
52.54838536913627
 30
0.0
  0
VERTEX
  5
1DEC
  8
SAPA_FOGBAND
 10
-18.863891385619858
 20
52.310745260875883
 30
0.0
  0
VERTEX
  5
1DED
  8
SAPA_FOGBAND
 10
-18.763327166081641
 20
52.077399618954189
 30
0.0
  0
VERTEX
  5
1DEE
  8
SAPA_FOGBAND
 10
-18.565833379917478
 20
51.856782162846741
 30
0.0
  0
VERTEX
  5
1DEF
  8
SAPA_FOGBAND
 10
-18.27854796712387
 20
51.65686658223018
 30
0.0
  0
VERTEX
  5
1DF0
  8
SAPA_FOGBAND
 10
-17.911854171034118
 20
51.484878347063223
 30
0.0
  0
VERTEX
  5
1DF1
  8
SAPA_FOGBAND
 10
-17.47900526084964
 20
51.347033560275626
 30
0.0
  0
VERTEX
  5
1DF2
  8
SAPA_FOGBAND
 10
-16.995645523962651
 20
51.248314291612651
 30
0.0
  0
VERTEX
  5
1DF3
  8
SAPA_FOGBAND
 10
-16.479244840645212
 20
51.192288512654891
 30
0.0
  0
VERTEX
  5
1DF4
  8
SAPA_FOGBAND
 10
-15.9484672770605
 20
51.180981141027189
 30
0.0
  0
VERTEX
  5
1DF5
  8
SAPA_FOGBAND
 10
-15.42249651728531
 20
51.214800854601492
 30
0.0
  0
VERTEX
  5
1DF6
  8
SAPA_FOGBAND
 10
-14.92034251497995
 20
51.292525320812778
 30
0.0
  0
VERTEX
  5
1DF7
  8
SAPA_FOGBAND
 10
-14.46015442413778
 20
51.411345374943323
 30
0.0
  0
VERTEX
  5
1DF8
  8
SAPA_FOGBAND
 10
-14.058564641371101
 20
51.56696655065349
 30
0.0
  0
VERTEX
  5
1DF9
  8
SAPA_FOGBAND
 10
-13.730087667759619
 20
51.753764293186642
 30
0.0
  0
VERTEX
  5
1DFA
  8
SAPA_FOGBAND
 10
-13.48659551696897
 20
51.964987245430677
 30
0.0
  0
VERTEX
  5
1DFB
  8
SAPA_FOGBAND
 10
-13.33688862974128
 20
52.193001259555622
 30
0.0
  0
SEQEND
  5
1DFC
  8
SAPA_FOGBAND
  0
POLYLINE
  5
11F4
  8
SAPA_FOGBAND
 66
     1
 10
0.0
 20
0.0
 30
0.0
  0
VERTEX
  5
1DFD
  8
SAPA_FOGBAND
 10
-20.056372436893131
 20
18.44999992229992
 30
0.0
 42
-0.285714285714282
  0
VERTEX
  5
1DFE
  8
SAPA_FOGBAND
 10
-17.256372436892939
 20
18.44999992229992
 30
0.0
  0
VERTEX
  5
1DFF
  8
SAPA_FOGBAND
 10
-15.182592267505299
 20
18.449999922300378
 30
0.0
 42
0.3882600129940275
  0
VERTEX
  5
1E00
  8
SAPA_FOGBAND
 10
-14.883790770163669
 20
18.723210648579929
 30
0.0
  0
VERTEX
  5
1E01
  8
SAPA_FOGBAND
 10
-14.417580846237399
 20
22.623210648580031
 30
0.0
 42
0.4406523138893894
  0
VERTEX
  5
1E02
  8
SAPA_FOGBAND
 10
-14.716382343579481
 20
22.949999922299931
 30
0.0
  0
VERTEX
  5
1E03
  8
SAPA_FOGBAND
 10
-16.426174340499578
 20
22.949999922299931
 30
0.0
 42
0.3394542588634375
  0
VERTEX
  5
1E04
  8
SAPA_FOGBAND
 10
-16.715952088386128
 20
22.727645635830928
 30
0.0
  0
VERTEX
  5
1E05
  8
SAPA_FOGBAND
 10
-16.918331816317789
 20
22.510059853663339
 30
0.0
 42
-0.3394542588633663
  0
VERTEX
  5
1E06
  8
SAPA_FOGBAND
 10
-17.208109564204332
 20
22.28770556719434
 30
0.0
  0
VERTEX
  5
1E07
  8
SAPA_FOGBAND
 10
-20.104635309582189
 20
22.28770556719434
 30
0.0
 42
-0.3394542588634373
  0
VERTEX
  5
1E08
  8
SAPA_FOGBAND
 10
-20.394413057468739
 20
22.510059853663339
 30
0.0
  0
VERTEX
  5
1E09
  8
SAPA_FOGBAND
 10
-20.596792785399941
 20
22.727645635830928
 30
0.0
 42
0.3394542588633662
  0
VERTEX
  5
1E0A
  8
SAPA_FOGBAND
 10
-20.886570533286939
 20
22.949999922299931
 30
0.0
  0
VERTEX
  5
1E0B
  8
SAPA_FOGBAND
 10
-22.596362530207049
 20
22.949999922299931
 30
0.0
 42
0.4406523138893994
  0
VERTEX
  5
1E0C
  8
SAPA_FOGBAND
 10
-22.895164027548681
 20
22.623210648580031
 30
0.0
  0
VERTEX
  5
1E0D
  8
SAPA_FOGBAND
 10
-22.428954103622399
 20
18.723210648579929
 30
0.0
 42
0.3882600129940462
  0
VERTEX
  5
1E0E
  8
SAPA_FOGBAND
 10
-22.13015260628077
 20
18.44999992229992
 30
0.0
  0
VERTEX
  5
1E0F
  8
SAPA_FOGBAND
 10
-20.067964813743458
 20
18.44999992229992
 30
0.0
  0
SEQEND
  5
1E10
  8
SAPA_FOGBAND
  0
POLYLINE
  5
11F5
  8
SAPA_FOGBAND
 66
     1
 10
0.0
 20
0.0
 30
0.0
  0
VERTEX
  5
1E11
  8
SAPA_FOGBAND
 10
-20.067964813743458
 20
18.44999992229992
 30
0.0
  0
VERTEX
  5
1E12
  8
SAPA_FOGBAND
 10
-19.875606393750839
 20
17.35908111214718
 30
0.0
  0
VERTEX
  5
1E13
  8
SAPA_FOGBAND
 10
-20.307402953652911
 20
17.243381572627239
 30
0.0
 42
0.4430158954262519
  0
VERTEX
  5
1E14
  8
SAPA_FOGBAND
 10
-20.44288000119656
 20
16.97990514452027
 30
0.0
  0
VERTEX
  5
1E15
  8
SAPA_FOGBAND
 10
-19.96593180797759
 20
15.709417396602079
 30
0.0
 42
0.3125358528825162
  0
VERTEX
  5
1E16
  8
SAPA_FOGBAND
 10
-19.591450094848419
 20
15.44999992230038
 30
0.0
  0
VERTEX
  5
1E17
  8
SAPA_FOGBAND
 10
-17.721294778938098
 20
15.44999992229992
 30
0.0
 42
0.3125358528825104
  0
VERTEX
  5
1E18
  8
SAPA_FOGBAND
 10
-17.346813065808469
 20
15.709417396602079
 30
0.0
  0
VERTEX
  5
1E19
  8
SAPA_FOGBAND
 10
-16.86986487258951
 20
16.97990514452027
 30
0.0
 42
0.4430158954262519
  0
VERTEX
  5
1E1A
  8
SAPA_FOGBAND
 10
-17.00534192013362
 20
17.243381572627239
 30
0.0
  0
VERTEX
  5
1E1B
  8
SAPA_FOGBAND
 10
-17.43713848003523
 20
17.35908111214718
 30
0.0
  0
VERTEX
  5
1E1C
  8
SAPA_FOGBAND
 10
-17.247994623692701
 20
18.43176922591471
 30
0.0
  0
SEQEND
  5
1E1D
  8
SAPA_FOGBAND
  0
POLYLINE
  5
11F6
  8
SAPA_FOGBAND
 66
     1
 10
0.0
 20
0.0
 30
0.0
 70
     1
  0
VERTEX
  5
1E1E
  8
SAPA_FOGBAND
 10
286.41245637821783
 20
50.584819578134777
 30
0.0
  0
VERTEX
  5
1E1F
  8
SAPA_FOGBAND
 10
286.4629672049212
 20
50.821383633585128
 30
0.0
  0
VERTEX
  5
1E20
  8
SAPA_FOGBAND
 10
286.61267409214889
 20
51.049397647710073
 30
0.0
  0
VERTEX
  5
1E21
  8
SAPA_FOGBAND
 10
286.85616624293959
 20
51.260620599954329
 30
0.0
  0
VERTEX
  5
1E22
  8
SAPA_FOGBAND
 10
287.18464321655102
 20
51.447418342487481
 30
0.0
  0
VERTEX
  5
1E23
  8
SAPA_FOGBAND
 10
287.5862329993177
 20
51.603039518197647
 30
0.0
  0
VERTEX
  5
1E24
  8
SAPA_FOGBAND
 10
288.04642109015992
 20
51.72185957232773
 30
0.0
  0
VERTEX
  5
1E25
  8
SAPA_FOGBAND
 10
288.54857509246523
 20
51.799584038539017
 30
0.0
  0
VERTEX
  5
1E26
  8
SAPA_FOGBAND
 10
289.07454585224042
 20
51.833403752113327
 30
0.0
  0
VERTEX
  5
1E27
  8
SAPA_FOGBAND
 10
289.60532341582513
 20
51.822096380485839
 30
0.0
  0
VERTEX
  5
1E28
  8
SAPA_FOGBAND
 10
290.12172409914263
 20
51.766070601527872
 30
0.0
  0
VERTEX
  5
1E29
  8
SAPA_FOGBAND
 10
290.60508383602962
 20
51.66735133286533
 30
0.0
  0
VERTEX
  5
1E2A
  8
SAPA_FOGBAND
 10
291.03793274621398
 20
51.529506546077528
 30
0.0
  0
VERTEX
  5
1E2B
  8
SAPA_FOGBAND
 10
291.40462654230379
 20
51.357518310910343
 30
0.0
  0
VERTEX
  5
1E2C
  8
SAPA_FOGBAND
 10
291.6919119550974
 20
51.157602730293767
 30
0.0
  0
VERTEX
  5
1E2D
  8
SAPA_FOGBAND
 10
291.8894057412615
 20
50.936985274186327
 30
0.0
  0
VERTEX
  5
1E2E
  8
SAPA_FOGBAND
 10
291.98996996079978
 20
50.703639632264867
 30
0.0
  0
VERTEX
  5
1E2F
  8
SAPA_FOGBAND
 10
291.98996996079978
 20
50.465999524004467
 30
0.0
  0
VERTEX
  5
1E30
  8
SAPA_FOGBAND
 10
291.8894057412615
 20
50.232653882082793
 30
0.0
  0
VERTEX
  5
1E31
  8
SAPA_FOGBAND
 10
291.6919119550974
 20
50.012036425975339
 30
0.0
  0
VERTEX
  5
1E32
  8
SAPA_FOGBAND
 10
291.40462654230379
 20
49.812120845358777
 30
0.0
  0
VERTEX
  5
1E33
  8
SAPA_FOGBAND
 10
291.03793274621398
 20
49.640132610191813
 30
0.0
  0
VERTEX
  5
1E34
  8
SAPA_FOGBAND
 10
290.60508383602962
 20
49.502287823404231
 30
0.0
  0
VERTEX
  5
1E35
  8
SAPA_FOGBAND
 10
290.12172409914263
 20
49.403568554741241
 30
0.0
  0
VERTEX
  5
1E36
  8
SAPA_FOGBAND
 10
289.60532341582513
 20
49.347542775783488
 30
0.0
  0
VERTEX
  5
1E37
  8
SAPA_FOGBAND
 10
289.07454585224042
 20
49.336235404155779
 30
0.0
  0
VERTEX
  5
1E38
  8
SAPA_FOGBAND
 10
288.54857509246523
 20
49.370055117730082
 30
0.0
  0
VERTEX
  5
1E39
  8
SAPA_FOGBAND
 10
288.04642109015992
 20
49.447779583941383
 30
0.0
  0
VERTEX
  5
1E3A
  8
SAPA_FOGBAND
 10
287.5862329993177
 20
49.566599638071921
 30
0.0
  0
VERTEX
  5
1E3B
  8
SAPA_FOGBAND
 10
287.18464321655102
 20
49.722220813782087
 30
0.0
  0
VERTEX
  5
1E3C
  8
SAPA_FOGBAND
 10
286.85616624293959
 20
49.909018556315232
 30
0.0
  0
VERTEX
  5
1E3D
  8
SAPA_FOGBAND
 10
286.61267409214889
 20
50.120241508559282
 30
0.0
  0
VERTEX
  5
1E3E
  8
SAPA_FOGBAND
 10
286.4629672049212
 20
50.348255522684212
 30
0.0
  0
SEQEND
  5
1E3F
  8
SAPA_FOGBAND
  0
POLYLINE
  5
11F7
  8
SAPA_FOGBAND
 66
     1
 10
0.0
 20
0.0
 30
0.0
 70
     1
  0
VERTEX
  5
1E40
  8
SAPA_FOGBAND
 10
289.67027344265472
 20
46.950000021058017
 30
0.0
  0
VERTEX
  5
1E41
  8
SAPA_FOGBAND
 10
303.35073809195347
 20
46.950000021058017
 30
0.0
 42
0.427966335106886
  0
VERTEX
  5
1E42
  8
SAPA_FOGBAND
 10
303.6504106596733
 20
47.264012592417423
 30
0.0
  0
VERTEX
  5
1E43
  8
SAPA_FOGBAND
 10
303.16411075159368
 20
55.664012592417073
 30
0.0
 42
0.4005932428724212
  0
VERTEX
  5
1E44
  8
SAPA_FOGBAND
 10
302.8644381838738
 20
55.950000021058031
 30
0.0
  0
VERTEX
  5
1E45
  8
SAPA_FOGBAND
 10
301.05073809195329
 20
55.950000021058031
 30
0.0
  0
VERTEX
  5
1E46
  8
SAPA_FOGBAND
 10
301.05073809195329
 20
57.650000021057849
 30
0.0
 42
0.4142135623730951
  0
VERTEX
  5
1E47
  8
SAPA_FOGBAND
 10
300.75073809195311
 20
57.950000021058031
 30
0.0
  0
VERTEX
  5
1E48
  8
SAPA_FOGBAND
 10
293.33195732832769
 20
57.950000021058031
 30
0.0
 42
0.1379343940649207
  0
VERTEX
  5
1E49
  8
SAPA_FOGBAND
 10
292.8107390192788
 20
57.803423406203137
 30
0.0
  0
VERTEX
  5
1E4A
  8
SAPA_FOGBAND
 10
280.89012893742921
 20
50.996205168294857
 30
0.0
 42
0.2613472755167645
  0
VERTEX
  5
1E4B
  8
SAPA_FOGBAND
 10
280.65073809195371
 20
50.569493475722311
 30
0.0
  0
VERTEX
  5
1E4C
  8
SAPA_FOGBAND
 10
280.65073809195371
 20
48.774796858559277
 30
0.0
 42
0.3915187749346393
  0
VERTEX
  5
1E4D
  8
SAPA_FOGBAND
 10
281.57271579172698
 20
47.777845244553873
 30
0.0
  0
VERTEX
  5
1E4E
  8
SAPA_FOGBAND
 10
289.63126229254141
 20
46.951524214055318
 30
0.0
 42
0.0195279011117891
  0
SEQEND
  5
1E4F
  8
SAPA_FOGBAND
  0
POLYLINE
  5
11F8
  8
SAPA_FOGBAND
 66
     1
 10
0.0
 20
0.0
 30
0.0
 70
     1
  0
VERTEX
  5
1E50
  8
SAPA_FOGBAND
 10
294.13711589499042
 20
52.429565413764287
 30
0.0
  0
VERTEX
  5
1E51
  8
SAPA_FOGBAND
 10
294.18762672169379
 20
52.666129469214638
 30
0.0
  0
VERTEX
  5
1E52
  8
SAPA_FOGBAND
 10
294.33733360892148
 20
52.894143483339569
 30
0.0
  0
VERTEX
  5
1E53
  8
SAPA_FOGBAND
 10
294.58082575971213
 20
53.105366435583854
 30
0.0
  0
VERTEX
  5
1E54
  8
SAPA_FOGBAND
 10
294.90930273332361
 20
53.292164178116991
 30
0.0
  0
VERTEX
  5
1E55
  8
SAPA_FOGBAND
 10
295.31089251609029
 20
53.44778535382715
 30
0.0
  0
VERTEX
  5
1E56
  8
SAPA_FOGBAND
 10
295.77108060693251
 20
53.56660540795724
 30
0.0
  0
VERTEX
  5
1E57
  8
SAPA_FOGBAND
 10
296.27323460923782
 20
53.644329874168527
 30
0.0
  0
VERTEX
  5
1E58
  8
SAPA_FOGBAND
 10
296.79920536901301
 20
53.678149587742837
 30
0.0
  0
VERTEX
  5
1E59
  8
SAPA_FOGBAND
 10
297.32998293259772
 20
53.666842216115349
 30
0.0
  0
VERTEX
  5
1E5A
  8
SAPA_FOGBAND
 10
297.84638361591522
 20
53.610816437157382
 30
0.0
  0
VERTEX
  5
1E5B
  8
SAPA_FOGBAND
 10
298.32974335280221
 20
53.512097168494847
 30
0.0
  0
VERTEX
  5
1E5C
  8
SAPA_FOGBAND
 10
298.76259226298657
 20
53.374252381707038
 30
0.0
  0
VERTEX
  5
1E5D
  8
SAPA_FOGBAND
 10
299.12928605907638
 20
53.202264146539839
 30
0.0
  0
VERTEX
  5
1E5E
  8
SAPA_FOGBAND
 10
299.41657147186999
 20
53.002348565923292
 30
0.0
  0
VERTEX
  5
1E5F
  8
SAPA_FOGBAND
 10
299.61406525803409
 20
52.78173110981583
 30
0.0
  0
VERTEX
  5
1E60
  8
SAPA_FOGBAND
 10
299.71462947757237
 20
52.548385467894377
 30
0.0
  0
VERTEX
  5
1E61
  8
SAPA_FOGBAND
 10
299.71462947757237
 20
52.310745359633977
 30
0.0
  0
VERTEX
  5
1E62
  8
SAPA_FOGBAND
 10
299.61406525803409
 20
52.077399717712289
 30
0.0
  0
VERTEX
  5
1E63
  8
SAPA_FOGBAND
 10
299.41657147186999
 20
51.856782261604849
 30
0.0
  0
VERTEX
  5
1E64
  8
SAPA_FOGBAND
 10
299.12928605907638
 20
51.65686668098828
 30
0.0
  0
VERTEX
  5
1E65
  8
SAPA_FOGBAND
 10
298.76259226298657
 20
51.484878445821323
 30
0.0
  0
VERTEX
  5
1E66
  8
SAPA_FOGBAND
 10
298.32974335280221
 20
51.347033659033741
 30
0.0
  0
VERTEX
  5
1E67
  8
SAPA_FOGBAND
 10
297.84638361591522
 20
51.248314390370751
 30
0.0
  0
VERTEX
  5
1E68
  8
SAPA_FOGBAND
 10
297.32998293259772
 20
51.192288611413012
 30
0.0
  0
VERTEX
  5
1E69
  8
SAPA_FOGBAND
 10
296.79920536901301
 20
51.180981239785297
 30
0.0
  0
VERTEX
  5
1E6A
  8
SAPA_FOGBAND
 10
296.27323460923782
 20
51.2148009533596
 30
0.0
  0
VERTEX
  5
1E6B
  8
SAPA_FOGBAND
 10
295.77108060693251
 20
51.2925254195709
 30
0.0
  0
VERTEX
  5
1E6C
  8
SAPA_FOGBAND
 10
295.31089251609029
 20
51.411345473701431
 30
0.0
  0
VERTEX
  5
1E6D
  8
SAPA_FOGBAND
 10
294.90930273332361
 20
51.566966649411597
 30
0.0
  0
VERTEX
  5
1E6E
  8
SAPA_FOGBAND
 10
294.58082575971213
 20
51.753764391944742
 30
0.0
  0
VERTEX
  5
1E6F
  8
SAPA_FOGBAND
 10
294.33733360892148
 20
51.964987344188778
 30
0.0
  0
VERTEX
  5
1E70
  8
SAPA_FOGBAND
 10
294.18762672169379
 20
52.193001358313722
 30
0.0
  0
SEQEND
  5
1E71
  8
SAPA_FOGBAND
  0
POLYLINE
  5
11F9
  8
SAPA_FOGBAND
 66
     1
 10
0.0
 20
0.0
 30
0.0
  0
VERTEX
  5
1E72
  8
SAPA_FOGBAND
 10
300.90711052884558
 20
18.450000021058031
 30
0.0
 42
0.285714285714282
  0
VERTEX
  5
1E73
  8
SAPA_FOGBAND
 10
298.1071105288454
 20
18.450000021058031
 30
0.0
  0
VERTEX
  5
1E74
  8
SAPA_FOGBAND
 10
296.03333035945781
 20
18.450000021058479
 30
0.0
 42
-0.3882600129940275
  0
VERTEX
  5
1E75
  8
SAPA_FOGBAND
 10
295.73452886211618
 20
18.72321074733804
 30
0.0
  0
VERTEX
  5
1E76
  8
SAPA_FOGBAND
 10
295.26831893818991
 20
22.623210747338131
 30
0.0
 42
-0.4406523138893894
  0
VERTEX
  5
1E77
  8
SAPA_FOGBAND
 10
295.56712043553199
 20
22.950000021058031
 30
0.0
  0
VERTEX
  5
1E78
  8
SAPA_FOGBAND
 10
297.27691243245209
 20
22.950000021058031
 30
0.0
 42
-0.3394542588634375
  0
VERTEX
  5
1E79
  8
SAPA_FOGBAND
 10
297.56669018033858
 20
22.727645734589029
 30
0.0
  0
VERTEX
  5
1E7A
  8
SAPA_FOGBAND
 10
297.7690699082703
 20
22.51005995242144
 30
0.0
 42
0.3394542588633663
  0
VERTEX
  5
1E7B
  8
SAPA_FOGBAND
 10
298.05884765615679
 20
22.287705665952441
 30
0.0
  0
VERTEX
  5
1E7C
  8
SAPA_FOGBAND
 10
300.9553734015347
 20
22.287705665952441
 30
0.0
 42
0.3394542588634373
  0
VERTEX
  5
1E7D
  8
SAPA_FOGBAND
 10
301.2451511494213
 20
22.51005995242144
 30
0.0
  0
VERTEX
  5
1E7E
  8
SAPA_FOGBAND
 10
301.44753087735239
 20
22.727645734589029
 30
0.0
 42
-0.3394542588633662
  0
VERTEX
  5
1E7F
  8
SAPA_FOGBAND
 10
301.73730862523951
 20
22.950000021058031
 30
0.0
  0
VERTEX
  5
1E80
  8
SAPA_FOGBAND
 10
303.44710062215961
 20
22.950000021058031
 30
0.0
 42
-0.4406523138893994
  0
VERTEX
  5
1E81
  8
SAPA_FOGBAND
 10
303.74590211950118
 20
22.623210747338131
 30
0.0
  0
VERTEX
  5
1E82
  8
SAPA_FOGBAND
 10
303.27969219557491
 20
18.72321074733804
 30
0.0
 42
-0.3882600129940462
  0
VERTEX
  5
1E83
  8
SAPA_FOGBAND
 10
302.98089069823328
 20
18.450000021058031
 30
0.0
  0
VERTEX
  5
1E84
  8
SAPA_FOGBAND
 10
300.91870290569602
 20
18.450000021058031
 30
0.0
  0
SEQEND
  5
1E85
  8
SAPA_FOGBAND
  0
POLYLINE
  5
11FA
  8
SAPA_FOGBAND
 66
     1
 10
0.0
 20
0.0
 30
0.0
  0
VERTEX
  5
1E86
  8
SAPA_FOGBAND
 10
300.91870290569602
 20
18.450000021058031
 30
0.0
  0
VERTEX
  5
1E87
  8
SAPA_FOGBAND
 10
300.72634448570329
 20
17.359081210905291
 30
0.0
  0
VERTEX
  5
1E88
  8
SAPA_FOGBAND
 10
301.15814104560542
 20
17.24338167138535
 30
0.0
 42
-0.4430158954262519
  0
VERTEX
  5
1E89
  8
SAPA_FOGBAND
 10
301.29361809314901
 20
16.979905243278381
 30
0.0
  0
VERTEX
  5
1E8A
  8
SAPA_FOGBAND
 10
300.8166698999301
 20
15.70941749536018
 30
0.0
 42
-0.3125358528825162
  0
VERTEX
  5
1E8B
  8
SAPA_FOGBAND
 10
300.44218818680088
 20
15.45000002105848
 30
0.0
  0
VERTEX
  5
1E8C
  8
SAPA_FOGBAND
 10
298.57203287089061
 20
15.450000021058029
 30
0.0
 42
-0.3125358528825104
  0
VERTEX
  5
1E8D
  8
SAPA_FOGBAND
 10
298.19755115776098
 20
15.70941749536018
 30
0.0
  0
VERTEX
  5
1E8E
  8
SAPA_FOGBAND
 10
297.72060296454202
 20
16.979905243278381
 30
0.0
 42
-0.4430158954262519
  0
VERTEX
  5
1E8F
  8
SAPA_FOGBAND
 10
297.85608001208612
 20
17.24338167138535
 30
0.0
  0
VERTEX
  5
1E90
  8
SAPA_FOGBAND
 10
298.28787657198779
 20
17.359081210905291
 30
0.0
  0
VERTEX
  5
1E91
  8
SAPA_FOGBAND
 10
298.09873271564521
 20
18.43176932467281
 30
0.0
  0
SEQEND
  5
1E92
  8
SAPA_FOGBAND
  0
CIRCLE
  5
11FB
  8
SAPA_FOGBAND
 10
94.465117193996434
 20
19.349919459976601
 30
0.0000000195376815
 40
0.25
  0
POLYLINE
  5
11FC
  8
SAPA_FOGBAND
 66
     1
 10
0.0
 20
0.0
 30
0.0000000195376815
 70
     1
  0
VERTEX
  5
1E93
  8
SAPA_FOGBAND
 10
93.665117193996252
 20
18.50139132255288
 30
0.0000000195376815
 42
-0.6341370759941026
  0
VERTEX
  5
1E94
  8
SAPA_FOGBAND
 10
93.828753557632453
 20
18.57853024413669
 30
0.0000000195376815
 42
0.3592455179659193
  0
VERTEX
  5
1E95
  8
SAPA_FOGBAND
 10
95.101480830359947
 20
18.57853024413669
 30
0.0000000195376815
 42
-0.6341370759941019
  0
VERTEX
  5
1E96
  8
SAPA_FOGBAND
 10
95.265117193996616
 20
18.50139132255288
 30
0.0000000195376815
  0
VERTEX
  5
1E97
  8
SAPA_FOGBAND
 10
95.265117193996616
 20
17.149919459976779
 30
0.0000000195376815
 42
-0.4142135623730951
  0
VERTEX
  5
1E98
  8
SAPA_FOGBAND
 10
94.765117193996616
 20
16.649919459976779
 30
0.0000000195376815
  0
VERTEX
  5
1E99
  8
SAPA_FOGBAND
 10
94.165117193996252
 20
16.649919459976779
 30
0.0000000195376815
 42
-0.4142135623730951
  0
VERTEX
  5
1E9A
  8
SAPA_FOGBAND
 10
93.665117193996252
 20
17.149919459976779
 30
0.0000000195376815
  0
SEQEND
  5
1E9B
  8
SAPA_FOGBAND
  0
POLYLINE
  5
11FD
  8
SAPA_FOGBAND
 66
     1
 10
0.0
 20
0.0
 30
0.0000000195376815
 70
     1
  0
VERTEX
  5
1E9C
  8
SAPA_FOGBAND
 10
97.171539322622834
 20
18.716012178855749
 30
0.0000000195376815
  0
VERTEX
  5
1E9D
  8
SAPA_FOGBAND
 10
95.778187495957923
 20
18.770543875280389
 30
0.0000000195376815
  0
VERTEX
  5
1E9E
  8
SAPA_FOGBAND
 10
95.778187495957923
 20
17.703277329895968
 30
0.0000000195376815
  0
VERTEX
  5
1E9F
  8
SAPA_FOGBAND
 10
96.41688100301657
 20
17.64226717180156
 30
0.0000000195376815
 42
-0.4995370695832079
  0
VERTEX
  5
1EA0
  8
SAPA_FOGBAND
 10
96.536234671770785
 20
17.345550326367292
 30
0.0000000195376815
  0
VERTEX
  5
1EA1
  8
SAPA_FOGBAND
 10
95.830198696536286
 20
16.292892431778341
 30
0.0000000195376815
 42
-0.250021237196914
  0
VERTEX
  5
1EA2
  8
SAPA_FOGBAND
 10
94.999704331801354
 20
15.849919459976601
 30
0.0000000195376815
  0
VERTEX
  5
1EA3
  8
SAPA_FOGBAND
 10
93.930530056191515
 20
15.849919459976601
 30
0.0000000195376815
 42
-0.250021237196914
  0
VERTEX
  5
1EA4
  8
SAPA_FOGBAND
 10
93.100035691456114
 20
16.292892431778341
 30
0.0000000195376815
  0
VERTEX
  5
1EA5
  8
SAPA_FOGBAND
 10
92.393999716222083
 20
17.345550326367292
 30
0.0000000195376815
 42
-0.4995370695831766
  0
VERTEX
  5
1EA6
  8
SAPA_FOGBAND
 10
92.513353384975858
 20
17.64226717180156
 30
0.0000000195376815
  0
VERTEX
  5
1EA7
  8
SAPA_FOGBAND
 10
93.120848601738203
 20
17.70790486198166
 30
0.0000000195376815
  0
VERTEX
  5
1EA8
  8
SAPA_FOGBAND
 10
93.120848601738203
 20
18.775171407366091
 30
0.0000000195376815
  0
VERTEX
  5
1EA9
  8
SAPA_FOGBAND
 10
92.232548342546224
 20
18.757468968783201
 30
0.0000000195376815
 42
-0.4400105308918379
  0
VERTEX
  5
1EAA
  8
SAPA_FOGBAND
 10
92.015117193996616
 20
18.956707908401651
 30
0.0000000195376815
  0
VERTEX
  5
1EAB
  8
SAPA_FOGBAND
 10
92.015117193996616
 20
18.991703373811902
 30
0.0000000195376815
 42
-0.3888787318529988
  0
VERTEX
  5
1EAC
  8
SAPA_FOGBAND
 10
92.562823748347569
 20
19.589420192667031
 30
0.0000000195376815
  0
VERTEX
  5
1EAD
  8
SAPA_FOGBAND
 10
93.397131263473625
 20
19.662412642134878
 30
0.0000000195376815
 42
0.2668174844056302
  0
VERTEX
  5
1EAE
  8
SAPA_FOGBAND
 10
93.560602961436075
 20
19.776362894790388
 30
0.0000000195376815
 42
-0.6341045221175712
  0
VERTEX
  5
1EAF
  8
SAPA_FOGBAND
 10
95.369631426556793
 20
19.776362894790388
 30
0.0000000195376815
 42
0.2668174844056113
  0
VERTEX
  5
1EB0
  8
SAPA_FOGBAND
 10
95.533103124519243
 20
19.662412642134878
 30
0.0000000195376815
  0
VERTEX
  5
1EB1
  8
SAPA_FOGBAND
 10
96.362823748347765
 20
19.589821493656359
 30
0.0000000195376815
 42
0.3932191662530252
  0
VERTEX
  5
1EB2
  8
SAPA_FOGBAND
 10
97.115117193996085
 20
20.233388601286489
 30
0.0000000195376815
 42
0.7365260079582157
  0
VERTEX
  5
1EB3
  8
SAPA_FOGBAND
 10
93.682314704738573
 20
21.2061690013781
 30
0.0000000195376815
 42
-1.00000000000107
  0
VERTEX
  5
1EB4
  8
SAPA_FOGBAND
 10
93.198271813394186
 20
21.56071445592346
 30
0.0000000195376815
 42
-0.7363451539893881
  0
VERTEX
  5
1EB5
  8
SAPA_FOGBAND
 10
97.715117193996434
 20
20.233388601286489
 30
0.0000000195376815
  0
VERTEX
  5
1EB6
  8
SAPA_FOGBAND
 10
97.715117193996434
 20
19.214109527901542
 30
0.0000000195376815
 42
-0.4400105308918419
  0
SEQEND
  5
1EB7
  8
SAPA_FOGBAND
  0
LINE
  5
11FE
  8
SAPA_FOGBAND
 10
96.799297340137514
 20
18.69999999518086
 30
0.0
 11
96.799297340136604
 21
18.69999999518086
 31
0.0
  0
TEXT
  5
121D
  8
SAPA_MATT
 62
     2
 10
137.3501838406265
 20
-23.696278589245392
 30
0.0
 40
3.0
  1
325
  7
ISO
  0
TEXT
  5
121E
  8
SAPA_MATT
 62
     2
 10
199.84999999797731
 20
-5.000000086619778
 30
0.0
 40
3.0
  1
200
  7
ISO
  0
TEXT
  5
121F
  8
SAPA_MATT
 62
     2
 10
99.449999997977784
 20
-5.000000086619778
 30
0.0
 40
3.0
  1
5
  7
ISO
  0
TEXT
  5
1220
  8
SAPA_MATT
 62
     2
 10
35.150000000015979
 20
-5.0000000866197762
 30
0.0
 40
3.0
  1
120
  7
ISO
  0
SOLID
  5
1221
  8
SAPA_MATT
 10
95.000000000000099
 20
-5.5000000866197762
 30
0.0
 11
95.000000000000099
 21
-6.5000000866197762
 31
0.0
 12
98.000000000000114
 22
-6.0000000866197762
 32
0.0
 13
98.000000000000114
 23
-6.0000000866197762
 33
0.0
  0
SOLID
  5
1222
  8
SAPA_MATT
 10
-18.999999999968161
 20
-5.5000000866197762
 30
0.0
 11
-18.999999999968161
 21
-6.5000000866197762
 31
0.0
 12
-21.999999999968161
 22
-6.0000000866197762
 32
0.0
 13
-21.999999999968161
 23
-6.0000000866197762
 33
0.0
  0
LINE
  5
1223
  8
SAPA_MATT
 10
-18.999999999968161
 20
-6.0000000866197762
 30
0.0
 11
95.000000000000099
 21
-6.0000000866197762
 31
0.0
  0
LINE
  5
1224
  8
SAPA_MATT
 10
98.000000000000114
 20
14.499998458958739
 30
0.0
 11
98.000000000000114
 21
-7.500000086619778
 31
0.0
  0
LINE
  5
1225
  8
SAPA_MATT
 10
-21.999999999968161
 20
12.999999999680901
 30
0.0
 11
-21.999999999968161
 21
-7.5000000866197762
 31
0.0
  0
SOLID
  5
1226
  8
SAPA_MATT
 10
105.99999999595541
 20
-5.500000086619778
 30
0.0
 11
105.99999999595541
 21
-6.500000086619778
 31
0.0
 12
102.99999999595541
 22
-6.000000086619778
 32
0.0
 13
102.99999999595541
 23
-6.000000086619778
 33
0.0
  0
SOLID
  5
1227
  8
SAPA_MATT
 10
95.000000000000099
 20
-5.500000086619778
 30
0.0
 11
95.000000000000099
 21
-6.500000086619778
 31
0.0
 12
98.000000000000114
 22
-6.000000086619778
 32
0.0
 13
98.000000000000114
 23
-6.000000086619778
 33
0.0
  0
LINE
  5
1228
  8
SAPA_MATT
 10
98.000000000000114
 20
-6.000000086619778
 30
0.0
 11
102.99999999595541
 21
-6.000000086619778
 31
0.0
  0
LINE
  5
1229
  8
SAPA_MATT
 10
105.99999999595541
 20
-6.000000086619778
 30
0.0
 11
108.99999999595541
 21
-6.000000086619778
 31
0.0
  0
LINE
  5
122A
  8
SAPA_MATT
 10
95.000000000000099
 20
-6.000000086619778
 30
0.0
 11
92.000000000000085
 21
-6.000000086619778
 31
0.0
  0
LINE
  5
122B
  8
SAPA_MATT
 10
102.99999999595541
 20
13.50000008644899
 30
0.0
 11
102.99999999595541
 21
-7.5000000866197762
 31
0.0
  0
LINE
  5
122C
  8
SAPA_MATT
 10
98.000000000000114
 20
14.499998458958739
 30
0.0
 11
98.000000000000114
 21
-7.5000000866197762
 31
0.0
  0
SOLID
  5
122D
  8
SAPA_MATT
 10
299.9999999999992
 20
-5.500000086619778
 30
0.0
 11
299.9999999999992
 21
-6.500000086619778
 31
0.0
 12
302.99999999999909
 22
-6.000000086619778
 32
0.0
 13
302.99999999999909
 23
-6.000000086619778
 33
0.0
  0
SOLID
  5
122E
  8
SAPA_MATT
 10
105.99999999595541
 20
-5.500000086619778
 30
0.0
 11
105.99999999595541
 21
-6.500000086619778
 31
0.0
 12
102.99999999595541
 22
-6.000000086619778
 32
0.0
 13
102.99999999595541
 23
-6.000000086619778
 33
0.0
  0
LINE
  5
122F
  8
SAPA_MATT
 10
105.99999999595541
 20
-6.000000086619778
 30
0.0
 11
299.9999999999992
 21
-6.000000086619778
 31
0.0
  0
LINE
  5
1230
  8
SAPA_MATT
 10
302.99999999999909
 20
12.79994752389903
 30
0.0
 11
302.99999999999909
 21
-7.500000086619778
 31
0.0
  0
LINE
  5
1231
  8
SAPA_MATT
 10
102.99999999595541
 20
13.50000008644899
 30
0.0
 11
102.99999999595541
 21
-7.500000086619778
 31
0.0
  0
SOLID
  5
1232
  8
SAPA_MATT
 10
300.00036767659577
 20
-24.196278589245399
 30
0.0
 11
300.00036767659577
 21
-25.196278589245399
 31
0.0
 12
303.00036767659577
 22
-24.696278589245392
 32
0.0
 13
303.00036767659577
 23
-24.696278589245392
 33
0.0
  0
SOLID
  5
1233
  8
SAPA_MATT
 10
-18.999999995342701
 20
-24.196278589245399
 30
0.0
 11
-18.999999995342701
 21
-25.196278589245399
 31
0.0
 12
-21.999999995342701
 22
-24.696278589245392
 32
0.0
 13
-21.999999995342701
 23
-24.696278589245392
 33
0.0
  0
LINE
  5
1234
  8
SAPA_MATT
 10
-18.999999995342701
 20
-24.696278589245392
 30
0.0
 11
300.00036767659577
 21
-24.696278589245392
 31
0.0
  0
LINE
  5
1235
  8
SAPA_MATT
 10
303.00036767659577
 20
14.79324465998161
 30
0.0
 11
303.00036767659577
 21
-26.196278589245399
 31
0.0
  0
LINE
  5
1236
  8
SAPA_MATT
 10
-21.999999995342701
 20
14.849999996533549
 30
0.0
 11
-21.999999995342701
 21
-26.196278589245399
 31
0.0
  0
VIEWPORT
  5
C4
 67
     1
  8
0
 10
143.06236603067589
 20
116.00969601843509
 30
0.0
 40
369.98580003443811
 41
256.8421457311839
 68
     1
 69
     1
1001
ACAD
1000
MVIEW
1002
{
1070
    16
1010
0.0
1020
0.0
1030
0.0
1010
0.0
1020
0.0
1030
1.0
1040
0.0
1040
256.8421457311839
1040
99.112914085388169
1040
143.07606935501099
1040
50.0
1040
0.0
1040
0.0
1070
     0
1070
     0
1070
     1
1070
     1
1070
     0
1070
     0
1070
     0
1070
     0
1040
0.0
1040
0.0
1040
0.0
1040
10.0
1040
10.0
1040
10.0
1040
10.0
1070
     0
1002
{
1002
}
1002
}
  0
ENDSEC
  0
EOF
