  0
SECTION
  2
HEADER
  9
$ACADVER
  1
AC1009
  9
$INSBASE
 10
79.692364681612617
 20
75.552687180480575
 30
0.0
  9
$EXTMIN
 10
-19.50255774430558
 20
-20.94508212926695
 30
0.0
  9
$EXTMAX
 10
94.300991092966981
 20
131.92154689222309
 30
0.0
  9
$LIMMIN
 10
0.0
 20
0.0
  9
$LIMMAX
 10
420.0
 20
297.0
  9
$ORTHOMODE
 70
     1
  9
$REGENMODE
 70
     1
  9
$FILLMODE
 70
     1
  9
$QTEXTMODE
 70
     0
  9
$MIRRTEXT
 70
     1
  9
$DRAGMODE
 70
     2
  9
$LTSCALE
 40
7.0
  9
$OSMODE
 70
    37
  9
$ATTMODE
 70
     1
  9
$TEXTSIZE
 40
7.0
  9
$TRACEWID
 40
0.05
  9
$TEXTSTYLE
  7
ISO
  9
$CLAYER
  8
0
  9
$CELTYPE
  6
BYLAYER
  9
$CECOLOR
 62
   256
  9
$DIMSCALE
 40
0.0
  9
$DIMASZ
 40
3.0
  9
$DIMEXO
 40
1.5
  9
$DIMDLI
 40
10.0
  9
$DIMRND
 40
0.0
  9
$DIMDLE
 40
0.0
  9
$DIMEXE
 40
1.5
  9
$DIMTP
 40
0.0
  9
$DIMTM
 40
0.0
  9
$DIMTXT
 40
3.0
  9
$DIMCEN
 40
-5.0
  9
$DIMTSZ
 40
0.0
  9
$DIMTOL
 70
     0
  9
$DIMLIM
 70
     0
  9
$DIMTIH
 70
     0
  9
$DIMTOH
 70
     1
  9
$DIMSE1
 70
     0
  9
$DIMSE2
 70
     0
  9
$DIMTAD
 70
     1
  9
$DIMZIN
 70
     8
  9
$DIMBLK
  1

  9
$DIMASO
 70
     1
  9
$DIMSHO
 70
     1
  9
$DIMPOST
  1

  9
$DIMAPOST
  1

  9
$DIMALT
 70
     0
  9
$DIMALTD
 70
     0
  9
$DIMALTF
 40
25.399999999999999
  9
$DIMLFAC
 40
-1.0
  9
$DIMTOFL
 70
     1
  9
$DIMTVP
 40
0.0
  9
$DIMTIX
 70
     0
  9
$DIMSOXD
 70
     0
  9
$DIMSAH
 70
     0
  9
$DIMBLK1
  1

  9
$DIMBLK2
  1

  9
$DIMSTYLE
  2
MASKIN
  9
$DIMCLRD
 70
   256
  9
$DIMCLRE
 70
   256
  9
$DIMCLRT
 70
     2
  9
$DIMTFAC
 40
1.0
  9
$DIMGAP
 40
1.0
  9
$LUNITS
 70
     2
  9
$LUPREC
 70
     2
  9
$SKETCHINC
 40
0.1
  9
$FILLETRAD
 40
0.0
  9
$AUNITS
 70
     0
  9
$AUPREC
 70
     0
  9
$MENU
  1
ACAD
  9
$ELEVATION
 40
0.0
  9
$PELEVATION
 40
0.0
  9
$THICKNESS
 40
0.0
  9
$LIMCHECK
 70
     0
  9
$BLIPMODE
 70
     0
  9
$CHAMFERA
 40
0.0
  9
$CHAMFERB
 40
0.0
  9
$SKPOLY
 70
     0
  9
$TDCREATE
 40
2449499.4117318289
  9
$TDUPDATE
 40
2455520.4915970722
  9
$TDINDWG
 40
0.1667095602
  9
$TDUSRTIMER
 40
0.1667095602
  9
$USRTIMER
 70
     1
  9
$ANGBASE
 50
0.0
  9
$ANGDIR
 70
     0
  9
$PDMODE
 70
     3
  9
$PDSIZE
 40
0.0
  9
$PLINEWID
 40
0.0
  9
$COORDS
 70
     1
  9
$SPLFRAME
 70
     0
  9
$SPLINETYPE
 70
     6
  9
$SPLINESEGS
 70
     8
  9
$ATTDIA
 70
     0
  9
$ATTREQ
 70
     1
  9
$HANDLING
 70
     1
  9
$HANDSEED
  5
16BC
  9
$SURFTAB1
 70
     6
  9
$SURFTAB2
 70
     6
  9
$SURFTYPE
 70
     6
  9
$SURFU
 70
     6
  9
$SURFV
 70
     6
  9
$UCSNAME
  2

  9
$UCSORG
 10
0.0
 20
0.0
 30
0.0
  9
$UCSXDIR
 10
1.0
 20
0.0
 30
0.0
  9
$UCSYDIR
 10
0.0
 20
1.0
 30
0.0
  9
$PUCSNAME
  2

  9
$PUCSORG
 10
0.0
 20
0.0
 30
0.0
  9
$PUCSXDIR
 10
1.0
 20
0.0
 30
0.0
  9
$PUCSYDIR
 10
0.0
 20
1.0
 30
0.0
  9
$USERI1
 70
     0
  9
$USERI2
 70
     0
  9
$USERI3
 70
     0
  9
$USERI4
 70
     0
  9
$USERI5
 70
     0
  9
$USERR1
 40
0.0
  9
$USERR2
 40
0.0
  9
$USERR3
 40
0.0
  9
$USERR4
 40
0.0
  9
$USERR5
 40
0.0
  9
$WORLDVIEW
 70
     1
  9
$SHADEDGE
 70
     1
  9
$SHADEDIF
 70
    70
  9
$TILEMODE
 70
     1
  9
$MAXACTVP
 70
    16
  9
$PLIMCHECK
 70
     0
  9
$PEXTMIN
 10
1.0543213182295681
 20
1.5591901034359701
 30
-0.0000000000112498
  9
$PEXTMAX
 10
9.4899902593926413
 20
14.039351885846539
 30
0.0000000000002956
  9
$PLIMMIN
 10
0.0
 20
0.0
  9
$PLIMMAX
 10
12.0
 20
9.0
  9
$UNITMODE
 70
     0
  9
$VISRETAIN
 70
     1
  9
$PLINEGEN
 70
     0
  9
$PSLTSCALE
 70
     1
  0
ENDSEC
  0
SECTION
  2
TABLES
  0
TABLE
  2
VPORT
 70
     1
  0
VPORT
  2
*ACTIVE
 70
     0
 10
0.0
 20
0.0
 11
1.0
 21
1.0
 12
42.996548224812102
 22
78.893716185436119
 13
0.0
 23
0.0
 14
5.0
 24
5.0
 15
10.0
 25
10.0
 16
0.0
 26
0.0
 36
1.0
 17
0.0
 27
0.0
 37
0.0
 40
200.9003146800984
 41
1.87750556792873
 42
50.0
 43
0.0
 44
0.0
 50
0.0
 51
0.0
 71
     0
 72
   100
 73
     1
 74
     0
 75
     0
 76
     0
 77
     0
 78
     0
  0
ENDTAB
  0
TABLE
  2
LTYPE
 70
    15
  0
LTYPE
  2
CONTINUOUS
 70
     0
  3
Solid line
 72
    65
 73
     0
 40
0.0
  0
LTYPE
  2
BYGG-014538$0$NEWDOT
 70
     0
  3
____ . ____ . ____ . ____ . ____ . ____ . ____
 72
    65
 73
     4
 40
2.0
 49
1.0
 49
-0.5
 49
0.0
 49
-0.5
  0
LTYPE
  2
BYGG-021997$0$NEWDOT
 70
     0
  3
____ . ____ . ____ . ____ . ____ . ____ . ____
 72
    65
 73
     4
 40
2.0
 49
1.0
 49
-0.5
 49
0.0
 49
-0.5
  0
LTYPE
  2
BYGG-021997$0$DASHDOT
 70
     0
  3
__ . __ . __ . __ . __ . __ . __ . __ . __ . __
 72
    65
 73
     4
 40
1.0
 49
0.5
 49
-0.25
 49
0.0
 49
-0.25
  0
LTYPE
  2
BYGG-021997$0$DASHED
 70
     0
  3
__ __ __ __ __ __ __ __ __ __ __ __ __ __ __
 72
    65
 73
     2
 40
0.75
 49
0.5
 49
-0.25
  0
LTYPE
  2
BYGG-021997$0$PHANTOM
 70
     0
  3
Phantom ______  __  __  ______  __  __  ______
 72
    65
 73
     6
 40
63.5
 49
31.75
 49
-6.3499999999999988
 49
6.3499999999999988
 49
-6.3499999999999988
 49
6.3499999999999988
 49
-6.3499999999999988
  0
LTYPE
  2
BYGG-012142$0$DASHDOT
 70
     0
  3
__ . __ . __ . __ . __ . __ . __ . __ . __ . __
 72
    65
 73
     4
 40
1.0
 49
0.5
 49
-0.25
 49
0.0
 49
-0.25
  0
LTYPE
  2
BYGG-022322$0$NEWDOT
 70
     0
  3
____ . ____ . ____ . ____ . ____ . ____ . ____
 72
    65
 73
     4
 40
2.0
 49
1.0
 49
-0.5
 49
0.0
 49
-0.5
  0
LTYPE
  2
BYGG-022322$0$DASHDOT
 70
     0
  3
__ . __ . __ . __ . __ . __ . __ . __ . __ . __
 72
    65
 73
     4
 40
1.0
 49
0.5
 49
-0.25
 49
0.0
 49
-0.25
  0
LTYPE
  2
BYGG-022322$0$DASHED
 70
     0
  3
__ __ __ __ __ __ __ __ __ __ __ __ __ __ __
 72
    65
 73
     2
 40
0.75
 49
0.5
 49
-0.25
  0
LTYPE
  2
BYGG-022322$0$PHANTOM
 70
     0
  3
Phantom ______  __  __  ______  __  __  ______
 72
    65
 73
     6
 40
63.5
 49
31.75
 49
-6.3499999999999988
 49
6.3499999999999988
 49
-6.3499999999999988
 49
6.3499999999999988
 49
-6.3499999999999988
  0
LTYPE
  2
BYGG-014203$0$ZIGZAG
 70
     0
  3
Zig zag /\/\/\/\/\/\/\/\/\/\/\/\/\/\/\/\/\/\/\/\/\/\/\/
 72
    65
 73
     4
 40
20.32254
 49
0.00254
 49
-5.0800000000000001
 49
-10.16
 49
-5.0800000000000001
  0
LTYPE
  2
BYGG-014203$0$NEWDOT
 70
     0
  3
____ . ____ . ____ . ____ . ____ . ____ . ____
 72
    65
 73
     4
 40
2.0
 49
1.0
 49
-0.5
 49
0.0
 49
-0.5
  0
LTYPE
  2
BYGG-014538$0$ZIGZAG
 70
     0
  3
Zig zag /\/\/\/\/\/\/\/\/\/\/\/\/\/\/\/\/\/\/\/\/\/\/\/
 72
    65
 73
     4
 40
20.32254
 49
0.00254
 49
-5.0800000000000001
 49
-10.16
 49
-5.0800000000000001
  0
LTYPE
  2
BYGG-026357$0$DASHDOT
 70
     0
  3
__ . __ . __ . __ . __ . __ . __ . __ . __ . __
 72
    65
 73
     4
 40
1.0
 49
0.5
 49
-0.25
 49
0.0
 49
-0.25
  0
ENDTAB
  0
TABLE
  2
LAYER
 70
   106
  0
LAYER
  2
0
 70
     0
 62
     7
  6
CONTINUOUS
  0
LAYER
  2
SAPA_ARTIKELNR
 70
     0
 62
     4
  6
CONTINUOUS
  0
LAYER
  2
SAPA_ANSLUTNING
 70
     0
 62
     6
  6
CONTINUOUS
  0
LAYER
  2
SAPA_LIGHT
 70
     1
 62
     1
  6
CONTINUOUS
  0
LAYER
  2
SAPA_MATT
 70
     0
 62
     1
  6
CONTINUOUS
  0
LAYER
  2
SAPA_GLAS
 70
     0
 62
     4
  6
CONTINUOUS
  0
LAYER
  2
SAPA_FOGBAND
 70
     0
 62
     2
  6
CONTINUOUS
  0
LAYER
  2
SAPA_PROFIL
 70
     0
 62
     7
  6
CONTINUOUS
  0
ENDTAB
  0
TABLE
  2
STYLE
 70
    20
  0
STYLE
  2
STANDARD
 70
     0
 40
0.0
 41
1.0
 50
0.0
 71
     0
 42
0.2
  3
txt
  4

  0
STYLE
  2
ISO
 70
     0
 40
0.0
 41
1.0
 50
0.0
 71
     0
 42
7.0
  3
isocp3.shx
  4

  0
STYLE
  2

 70
     1
 40
0.0
 41
1.0
 50
0.0
 71
     0
 42
0.2
  3
ltypeshp.shx
  4

  0
STYLE
  2
BYGG-021997$0$STANDARD
 70
     0
 40
0.0
 41
1.0
 50
0.0
 71
     0
 42
0.2
  3
txt
  4

  0
STYLE
  2
BYGG-021997$0$ISO
 70
     0
 40
0.0
 41
1.0
 50
0.0
 71
     0
 42
3.5
  3
txt
  4

  0
STYLE
  2
BYGG-014203$0$STANDARD
 70
     0
 40
0.0
 41
1.0
 50
0.0
 71
     0
 42
0.2
  3
txt
  4

  0
STYLE
  2
BYGG-014203$0$ISO
 70
     0
 40
0.0
 41
1.0
 50
0.0
 71
     0
 42
3.5
  3
isocp3.shx
  4

  0
STYLE
  2
BYGG-022322$0$STANDARD
 70
     0
 40
0.0
 41
1.0
 50
0.0
 71
     0
 42
0.2
  3
txt
  4

  0
STYLE
  2
BYGG-022322$0$ISO
 70
     0
 40
0.0
 41
1.0
 50
0.0
 71
     0
 42
3.5
  3
txt
  4

  0
STYLE
  2
BYGG-014538$0$STANDARD
 70
     0
 40
0.0
 41
1.0
 50
0.0
 71
     0
 42
0.2
  3
txt
  4

  0
STYLE
  2
BYGG-014538$0$ISO
 70
     0
 40
0.0
 41
1.0
 50
0.0
 71
     0
 42
2.5
  3
isocp3.shx
  4

  0
STYLE
  2
BYGG-022372$0$STANDARD
 70
     0
 40
0.0
 41
1.0
 50
0.0
 71
     0
 42
0.2
  3
txt
  4

  0
STYLE
  2
BYGG-022372$0$ISO
 70
     0
 40
0.0
 41
1.0
 50
0.0
 71
     0
 42
3.5
  3
txt
  4

  0
STYLE
  2
BYGG-022372$0$ANNOTATIVE
 70
     0
 40
0.0
 41
1.0
 50
0.0
 71
     0
 42
0.2
  3
txt
  4

  0
STYLE
  2
BYGG-012142$0$STANDARD
 70
     0
 40
0.0
 41
1.0
 50
0.0
 71
     0
 42
0.2
  3
txt
  4

  0
STYLE
  2
BYGG-012142$0$ISO
 70
     0
 40
0.0
 41
1.0
 50
0.0
 71
     0
 42
3.5
  3
isocp3.shx
  4

  0
STYLE
  2
BYGG-026358$0$STANDARD
 70
     0
 40
0.0
 41
1.0
 50
0.0
 71
     0
 42
0.2
  3
txt
  4

  0
STYLE
  2
BYGG-026358$0$ISO
 70
     0
 40
0.0
 41
1.0
 50
0.0
 71
     0
 42
3.5
  3
txt
  4

  0
STYLE
  2
BYGG-026357$0$STANDARD
 70
     0
 40
0.0
 41
1.0
 50
0.0
 71
     0
 42
0.2
  3
txt
  4

  0
STYLE
  2
BYGG-026357$0$ISO
 70
     0
 40
0.0
 41
1.0
 50
0.0
 71
     0
 42
3.5
  3
txt
  4

  0
ENDTAB
  0
TABLE
  2
VIEW
 70
     0
  0
ENDTAB
  0
TABLE
  2
UCS
 70
     0
  0
ENDTAB
  0
TABLE
  2
APPID
 70
    23
  0
APPID
  2
ACAD
 70
     0
  0
APPID
  2
ACAECLAYERSTANDARD
 70
     0
  0
APPID
  2
ACAD_PSEXT
 70
     0
  0
APPID
  2
ACAD_MLEADERVER
 70
     0
  0
APPID
  2
ACAD_DSTYLE_DIMTEXT_FILL
 70
     0
  0
APPID
  2
ACAD_DSTYLE_DIMEXT_LENGTH
 70
     0
  0
APPID
  2
ACAD_DSTYLE_DIMEXT_ENABLED
 70
     0
  0
APPID
  2
ACAD_DSTYLE_DIM_LINETYPE
 70
     0
  0
APPID
  2
ACAD_DSTYLE_DIM_EXT1_LINETYPE
 70
     0
  0
APPID
  2
ACAD_DSTYLE_DIM_EXT2_LINETYPE
 70
     0
  0
APPID
  2
ACAD_DSTYLE_DIMJOGGED_JOGA
 70
     0
  0
APPID
  2
ACAD_DSTYLE_DIMARC_LENGTH_
 70
     0
  0
APPID
  2
AMG_ARCHIVE11
 70
     0
  0
APPID
  2
ACAD_EXEMPT_FROM_CAD_STANDARDS
 70
     0
  0
APPID
  2
ACADANNOTATIVE
 70
     0
  0
APPID
  2
ACAD_DSTYLE_DIMJAG
 70
     0
  0
APPID
  2
ACAD_DSTYLE_DIMTALN
 70
     0
  0
APPID
  2
ACAUTHENVIRON
 70
     0
  0
APPID
  2
ACDBDYNAMICBLOCKTRUENAME
 70
     0
  0
APPID
  2
ACDBDYNAMICBLOCKGUID
 70
     0
  0
APPID
  2
ACDBBLOCKREPETAG
 70
     0
  0
APPID
  2
ACAD_DSTYLE_DIMRADIAL_EXTENSION
 70
     0
  0
APPID
  2
AEC_XDATA_BOUND_SPACE
 70
     0
  0
ENDTAB
  0
TABLE
  2
DIMSTYLE
 70
    18
  0
DIMSTYLE
  2
MASKIN
 70
     0
  3

  4

  5

  6

  7

 40
0.0
 41
3.0
 42
1.5
 43
10.0
 44
1.5
 45
0.0
 46
0.0
 47
0.0
 48
0.0
140
3.0
141
-5.0
142
0.0
143
25.399999999999999
144
-1.0
145
0.0
146
1.0
147
1.0
 71
     0
 72
     0
 73
     0
 74
     1
 75
     0
 76
     0
 77
     1
 78
     8
170
     0
171
     0
172
     1
173
     0
174
     0
175
     0
176
   256
177
   256
178
     2
  0
DIMSTYLE
  2
STANDARD
 70
     0
  3

  4

  5

  6

  7

 40
1.0
 41
0.18
 42
0.0625
 43
0.38
 44
0.18
 45
0.0
 46
0.0
 47
0.0
 48
0.0
140
0.18
141
0.09
142
0.0
143
25.399999999999999
144
1.0
145
0.0
146
1.0
147
0.09
 71
     0
 72
     0
 73
     1
 74
     1
 75
     0
 76
     0
 77
     0
 78
     0
170
     0
171
     2
172
     0
173
     0
174
     0
175
     0
176
     0
177
     0
178
     0
  0
DIMSTYLE
  2
BYGG-021997$0$STANDARD
 70
     0
  3

  4

  5

  6

  7

 40
1.0
 41
0.18
 42
0.0625
 43
0.38
 44
0.18
 45
0.0
 46
0.0
 47
0.0
 48
0.0
140
0.18
141
0.09
142
0.0
143
25.399999999999999
144
1.0
145
0.0
146
1.0
147
0.09
 71
     0
 72
     0
 73
     1
 74
     1
 75
     0
 76
     0
 77
     0
 78
     0
170
     0
171
     2
172
     0
173
     0
174
     0
175
     0
176
     0
177
     0
178
     0
  0
DIMSTYLE
  2
BYGG-021997$0$MASKIN
 70
     0
  3

  4

  5

  6

  7

 40
0.0
 41
3.0
 42
1.5
 43
10.0
 44
1.5
 45
0.0
 46
0.0
 47
0.0
 48
0.0
140
3.0
141
-5.0
142
0.0
143
25.399999999999999
144
-1.0
145
0.0
146
1.0
147
1.0
 71
     0
 72
     0
 73
     0
 74
     0
 75
     0
 76
     0
 77
     1
 78
     8
170
     0
171
     0
172
     1
173
     0
174
     0
175
     0
176
   256
177
   256
178
     2
  0
DIMSTYLE
  2
BYGG-014203$0$STANDARD
 70
     0
  3

  4

  5

  6

  7

 40
1.0
 41
0.18
 42
0.0625
 43
0.38
 44
0.18
 45
0.0
 46
0.0
 47
0.0
 48
0.0
140
0.18
141
0.09
142
0.0
143
25.399999999999999
144
1.0
145
0.0
146
1.0
147
0.09
 71
     0
 72
     0
 73
     1
 74
     1
 75
     0
 76
     0
 77
     0
 78
     0
170
     0
171
     2
172
     0
173
     0
174
     0
175
     0
176
     0
177
     0
178
     0
  0
DIMSTYLE
  2
BYGG-014203$0$MASKIN
 70
     0
  3

  4

  5

  6

  7

 40
0.0
 41
3.0
 42
1.5
 43
10.0
 44
1.5
 45
0.0
 46
0.0
 47
0.0
 48
0.0
140
3.0
141
-5.0
142
0.0
143
25.399999999999999
144
-1.0
145
0.0
146
1.0
147
1.0
 71
     0
 72
     0
 73
     0
 74
     0
 75
     0
 76
     0
 77
     1
 78
     8
170
     0
171
     0
172
     1
173
     0
174
     0
175
     0
176
   256
177
   256
178
   256
  0
DIMSTYLE
  2
BYGG-022322$0$STANDARD
 70
     0
  3

  4

  5

  6

  7

 40
1.0
 41
0.18
 42
0.0625
 43
0.38
 44
0.18
 45
0.0
 46
0.0
 47
0.0
 48
0.0
140
0.18
141
0.09
142
0.0
143
25.399999999999999
144
1.0
145
0.0
146
1.0
147
0.09
 71
     0
 72
     0
 73
     1
 74
     1
 75
     0
 76
     0
 77
     0
 78
     0
170
     0
171
     2
172
     0
173
     0
174
     0
175
     0
176
     0
177
     0
178
     0
  0
DIMSTYLE
  2
BYGG-022322$0$MASKIN
 70
     0
  3

  4

  5

  6

  7

 40
0.0
 41
3.0
 42
1.5
 43
10.0
 44
1.5
 45
0.0
 46
0.0
 47
0.0
 48
0.0
140
3.0
141
-5.0
142
0.0
143
25.399999999999999
144
-1.0
145
0.0
146
1.0
147
1.0
 71
     0
 72
     0
 73
     0
 74
     0
 75
     0
 76
     0
 77
     1
 78
     8
170
     0
171
     0
172
     1
173
     0
174
     0
175
     0
176
   256
177
   256
178
     2
  0
DIMSTYLE
  2
BYGG-014538$0$STANDARD
 70
     0
  3

  4

  5

  6

  7

 40
1.0
 41
0.18
 42
0.0625
 43
0.38
 44
0.18
 45
0.0
 46
0.0
 47
0.0
 48
0.0
140
0.18
141
0.09
142
0.0
143
25.399999999999999
144
1.0
145
0.0
146
1.0
147
0.09
 71
     0
 72
     0
 73
     1
 74
     1
 75
     0
 76
     0
 77
     0
 78
     0
170
     0
171
     2
172
     0
173
     0
174
     0
175
     0
176
     0
177
     0
178
     0
  0
DIMSTYLE
  2
BYGG-014538$0$MASKIN
 70
     0
  3

  4

  5

  6

  7

 40
0.0
 41
3.0
 42
1.5
 43
10.0
 44
1.5
 45
0.0
 46
0.0
 47
0.0
 48
0.0
140
3.0
141
-5.0
142
0.0
143
25.399999999999999
144
-1.0
145
0.0
146
1.0
147
1.0
 71
     0
 72
     0
 73
     0
 74
     1
 75
     0
 76
     0
 77
     1
 78
     8
170
     0
171
     0
172
     1
173
     0
174
     0
175
     0
176
   256
177
   256
178
     2
  0
DIMSTYLE
  2
BYGG-022372$0$STANDARD
 70
     0
  3

  4

  5

  6

  7

 40
1.0
 41
0.18
 42
0.0625
 43
0.38
 44
0.18
 45
0.0
 46
0.0
 47
0.0
 48
0.0
140
0.18
141
0.09
142
0.0
143
25.399999999999999
144
1.0
145
0.0
146
1.0
147
0.09
 71
     0
 72
     0
 73
     1
 74
     1
 75
     0
 76
     0
 77
     0
 78
     0
170
     0
171
     2
172
     0
173
     0
174
     0
175
     0
176
     0
177
     0
178
     0
  0
DIMSTYLE
  2
BYGG-022372$0$MASKIN
 70
     0
  3

  4

  5

  6

  7

 40
0.0
 41
3.0
 42
1.5
 43
10.0
 44
1.5
 45
0.0
 46
0.0
 47
0.0
 48
0.0
140
3.0
141
-5.0
142
0.0
143
25.399999999999999
144
-1.0
145
0.0
146
1.0
147
1.0
 71
     0
 72
     0
 73
     0
 74
     0
 75
     0
 76
     0
 77
     1
 78
     8
170
     0
171
     0
172
     1
173
     0
174
     0
175
     0
176
   256
177
   256
178
     2
  0
DIMSTYLE
  2
BYGG-022372$0$ANNOTATIVE
 70
     0
  3

  4

  5

  6

  7

 40
1.0
 41
0.18
 42
0.0625
 43
0.38
 44
0.18
 45
0.0
 46
0.0
 47
0.0
 48
0.0
140
0.18
141
0.09
142
0.0
143
25.399999999999999
144
1.0
145
0.0
146
1.0
147
0.09
 71
     0
 72
     0
 73
     1
 74
     1
 75
     0
 76
     0
 77
     0
 78
     0
170
     0
171
     2
172
     0
173
     0
174
     0
175
     0
176
     0
177
     0
178
     0
  0
DIMSTYLE
  2
BYGG-012142$0$MASKIN
 70
     0
  3

  4

  5

  6

  7

 40
0.0
 41
3.0
 42
1.5
 43
10.0
 44
1.5
 45
0.0
 46
0.0
 47
0.0
 48
0.0
140
3.0
141
-5.0
142
0.0
143
25.399999999999999
144
-1.0
145
0.0
146
1.0
147
1.0
 71
     0
 72
     0
 73
     0
 74
     0
 75
     0
 76
     0
 77
     1
 78
     8
170
     0
171
     0
172
     1
173
     0
174
     0
175
     0
176
   256
177
   256
178
     2
  0
DIMSTYLE
  2
BYGG-026358$0$STANDARD
 70
     0
  3

  4

  5

  6

  7

 40
1.0
 41
0.18
 42
0.0625
 43
0.38
 44
0.18
 45
0.0
 46
0.0
 47
0.0
 48
0.0
140
0.18
141
0.09
142
0.0
143
25.399999999999999
144
1.0
145
0.0
146
1.0
147
0.09
 71
     0
 72
     0
 73
     1
 74
     1
 75
     0
 76
     0
 77
     0
 78
     0
170
     0
171
     2
172
     0
173
     0
174
     0
175
     0
176
     0
177
     0
178
     0
  0
DIMSTYLE
  2
BYGG-026358$0$MASKIN
 70
     0
  3

  4

  5

  6

  7

 40
0.0
 41
3.0
 42
1.5
 43
10.0
 44
1.5
 45
0.0
 46
0.0
 47
0.0
 48
0.0
140
3.0
141
-5.0
142
0.0
143
25.399999999999999
144
-1.0
145
0.0
146
1.0
147
1.0
 71
     0
 72
     0
 73
     0
 74
     0
 75
     0
 76
     0
 77
     1
 78
     8
170
     0
171
     0
172
     1
173
     0
174
     0
175
     0
176
   256
177
   256
178
     2
  0
DIMSTYLE
  2
BYGG-026357$0$STANDARD
 70
     0
  3

  4

  5

  6

  7

 40
1.0
 41
0.18
 42
0.0625
 43
0.38
 44
0.18
 45
0.0
 46
0.0
 47
0.0
 48
0.0
140
0.18
141
0.09
142
0.0
143
25.399999999999999
144
1.0
145
0.0
146
1.0
147
0.09
 71
     0
 72
     0
 73
     1
 74
     1
 75
     0
 76
     0
 77
     0
 78
     0
170
     0
171
     2
172
     0
173
     0
174
     0
175
     0
176
     0
177
     0
178
     0
  0
DIMSTYLE
  2
BYGG-026357$0$MASKIN
 70
     0
  3

  4

  5

  6

  7

 40
0.0
 41
3.0
 42
1.5
 43
10.0
 44
1.5
 45
0.0
 46
0.0
 47
0.0
 48
0.0
140
3.0
141
-5.0
142
0.0
143
25.399999999999999
144
-1.0
145
0.0
146
1.0
147
1.0
 71
     0
 72
     0
 73
     0
 74
     0
 75
     0
 76
     0
 77
     1
 78
     8
170
     0
171
     0
172
     1
173
     0
174
     0
175
     0
176
   256
177
   256
178
     2
  0
ENDTAB
  0
ENDSEC
  0
SECTION
  2
BLOCKS
  0
BLOCK
  8
0
  2
$MODEL_SPACE
 70
     0
 10
0.0
 20
0.0
 30
0.0
  3
$MODEL_SPACE
  1

  0
ENDBLK
  5
D
  8
0
  0
BLOCK
 67
     1
  8
0
  2
$PAPER_SPACE
 70
     0
 10
0.0
 20
0.0
 30
0.0
  3
$PAPER_SPACE
  1

  0
ENDBLK
  5
13
 67
     1
  8
0
  0
BLOCK
  8
0
  2
*U52
 70
     1
 10
0.0
 20
0.0
 30
0.0
  3
*U52
  1

  0
TEXT
  5
ED0
  8
0
 62
     2
 10
40.131232015421283
 20
-8.5687513615894773
 30
0.0
 40
3.0
  1
50
  7
ISO
  0
ENDBLK
  5
ED2
  8
0
  0
BLOCK
  8
0
  2
*U53
 70
     1
 10
0.0
 20
0.0
 30
0.0
  3
*U53
  1

  0
TEXT
  5
ED4
  8
0
 62
     2
 10
-3.6763466838924641
 20
23.393739770995229
 30
0.0
 40
3.0
  1
5
 50
90.0
  7
ISO
  0
ENDBLK
  5
ED6
  8
0
  0
BLOCK
  8
0
  2
*U54
 70
     1
 10
0.0
 20
0.0
 30
0.0
  3
*U54
  1

  0
TEXT
  5
ED8
  8
0
 62
     2
 10
-16.651107667246521
 20
58.548481586848837
 30
0.0
 40
3.0
  1
109
 50
90.0
  7
ISO
  0
ENDBLK
  5
EDA
  8
0
  0
BLOCK
  8
0
  2
*U55
 70
     1
 10
0.0
 20
0.0
 30
0.0
  3
*U55
  1

  0
TEXT
  5
EDC
  8
0
 62
     2
 10
-3.676346683892465
 20
12.64373977057801
 30
0.0
 40
3.0
  1
15
 50
90.0
  7
ISO
  0
ENDBLK
  5
EDE
  8
0
  0
BLOCK
  8
0
  2
*U56
 70
     1
 10
0.0
 20
0.0
 30
0.0
  3
*U56
  1

  0
TEXT
  5
EE0
  8
0
 62
     2
 10
-3.6763466838924619
 20
69.298481587265996
 30
0.0
 40
3.0
  1
89
 50
90.0
  7
ISO
  0
ENDBLK
  5
EE2
  8
0
  0
BLOCK
  8
0
  2
*U57
 70
     1
 10
0.0
 20
0.0
 30
0.0
  3
*U57
  1

  0
TEXT
  5
EE4
  8
0
 62
     2
 10
44.52060890353723
 20
-18.44508212926695
 30
0.0
 40
3.0
  1
59
  7
ISO
  0
ENDBLK
  5
EE6
  8
0
  0
BLOCK
  8
0
  2
*U58
 70
     1
 10
0.0
 20
0.0
 30
0.0
  3
*U58
  1

  0
TEXT
  5
1065
  8
0
 62
     2
 10
35.937092481322942
 20
506.99537380256612
 30
0.0
 40
3.0
  1
50
 50
90.0
  7
BYGG-014538$0$ISO
  0
ENDBLK
  5
1067
  8
0
  0
BLOCK
  8
0
  2
*U59
 70
     1
 10
0.0
 20
0.0
 30
0.0
  3
*U59
  1

  0
TEXT
  5
1069
  8
0
 62
     2
 10
-39.742398541509722
 20
472.3739396733103
 30
0.0
 40
3.0
  1
67
  7
BYGG-014538$0$ISO
  0
ENDBLK
  5
106B
  8
0
  0
BLOCK
  8
0
  2
*U60
 70
     1
 10
0.0
 20
0.0
 30
0.0
  3
*U60
  1

  0
TEXT
  5
10B6
  8
0
 10
270.93920250063343
 20
387.08892739371998
 30
0.0
 40
3.0
  1
22
 50
90.0
  7
BYGG-014203$0$ISO
  0
ENDBLK
  5
10B8
  8
0
  0
BLOCK
  8
0
  2
*U61
 70
     1
 10
0.0
 20
0.0
 30
0.0
  3
*U61
  1

  0
TEXT
  5
10BA
  8
0
 10
243.50583563664401
 20
408.3346351471406
 30
0.0
 40
3.0
  1
29
  7
BYGG-014203$0$ISO
  0
ENDBLK
  5
10BC
  8
0
  0
BLOCK
  8
0
  2
*U62
 70
     1
 10
0.0
 20
0.0
 30
0.0
  3
*U62
  1

  0
TEXT
  5
10BF
  8
0
 62
     2
 10
-748.87278654340025
 20
419.67005951163628
 30
0.0
 40
1.5
  1
22
 50
90.0
  7
BYGG-012142$0$ISO
  0
ENDBLK
  5
10C1
  8
0
  0
BLOCK
  8
0
  2
*U63
 70
     1
 10
0.0
 20
0.0
 30
0.0
  3
*U63
  1

  0
TEXT
  5
10C3
  8
0
 62
     2
 10
-784.30493047104744
 20
401.73271112579431
 30
0.0
 40
1.5
  1
48
  7
BYGG-012142$0$ISO
  0
ENDBLK
  5
10C5
  8
0
  0
BLOCK
  8
0
  2
*U64
 70
     1
 10
0.0
 20
0.0
 30
0.0
  3
*U64
  1

  0
TEXT
  5
1233
  8
0
 62
     2
 10
77.117371668098755
 20
-4.9539190547532144
 30
0.0
 40
3.0
  1
59
  7
BYGG-026357$0$ISO
  0
ENDBLK
  5
1235
  8
0
  0
BLOCK
  8
0
  2
*U65
 70
     1
 10
0.0
 20
0.0
 30
0.0
  3
*U65
  1

  0
TEXT
  5
1237
  8
0
 62
     2
 10
36.144379697171637
 20
17.323743980656829
 30
0.0
 40
3.0
  1
15
 50
90.0
  7
BYGG-026357$0$ISO
  0
ENDBLK
  5
1239
  8
0
  0
BLOCK
  8
0
  2
*U66
 70
     1
 10
0.0
 20
0.0
 30
0.0
  3
*U66
  1

  0
TEXT
  5
1279
  8
0
 10
77.993885199959223
 20
103.12089453039469
 30
0.0
 40
3.0
  1
22
 50
90.0
  7
BYGG-014203$0$ISO
  0
ENDBLK
  5
127B
  8
0
  0
BLOCK
  8
0
  2
*U67
 70
     1
 10
0.0
 20
0.0
 30
0.0
  3
*U67
  1

  0
TEXT
  5
127D
  8
0
 10
50.560518335969931
 20
124.3666022838153
 30
0.0
 40
3.0
  1
29
  7
BYGG-014203$0$ISO
  0
ENDBLK
  5
127F
  8
0
  0
BLOCK
  8
0
  2
*U68
 70
     1
 10
0.0
 20
0.0
 30
0.0
  3
*U68
  1

  0
TEXT
  5
1281
  8
0
 62
     2
 10
48.82799912203987
 20
-11.57179123047605
 30
0.0
 40
3.0
  1
59
 50
180.0
  7
BYGG-026357$0$ISO
  0
ENDBLK
  5
1283
  8
0
  0
BLOCK
  8
0
  2
*U69
 70
     1
 10
0.0
 20
0.0
 30
0.0
  3
*U69
  1

  0
TEXT
  5
1285
  8
0
 62
     2
 10
89.800991092966981
 20
16.305871804934
 30
0.0
 40
3.0
  1
15
 50
270.0
  7
BYGG-026357$0$ISO
  0
ENDBLK
  5
1287
  8
0
  0
BLOCK
  8
0
  2
*U70
 70
     1
 10
0.0
 20
0.0
 30
0.0
  3
*U70
  1

  0
TEXT
  5
1289
  8
0
 62
     2
 10
6.9252691901358281
 20
39.081870821516702
 30
0.0
 40
1.5
  1
22
 50
270.0
  7
BYGG-012142$0$ISO
  0
ENDBLK
  5
128B
  8
0
  0
BLOCK
  8
0
  2
*U71
 70
     1
 10
0.0
 20
0.0
 30
0.0
  3
*U71
  1

  0
TEXT
  5
128D
  8
0
 62
     2
 10
42.357413117783153
 20
17.992524404178479
 30
0.0
 40
1.5
  1
48
 50
180.0
  7
BYGG-012142$0$ISO
  0
ENDBLK
  5
128F
  8
0
  0
BLOCK
  8
0
  2
*U72
 70
     1
 10
0.0
 20
0.0
 30
0.0
  3
*U72
  1

  0
TEXT
  5
15E1
  8
0
 62
     2
 10
40.131232015420998
 20
8.8366170034084401
 30
0.0
 40
3.0
  1
50
  7
BYGG-014538$0$ISO
  0
ENDBLK
  5
15E3
  8
0
  0
BLOCK
  8
0
  2
*U73
 70
     1
 10
0.0
 20
0.0
 30
0.0
  3
*U73
  1

  0
TEXT
  5
15E5
  8
0
 62
     2
 10
3.5097978861652002
 20
80.495635585296299
 30
0.0
 40
3.0
  1
67
 50
90.0
  7
BYGG-014538$0$ISO
  0
ENDBLK
  5
15E7
  8
0
  0
ENDSEC
  0
SECTION
  2
ENTITIES
  0
TEXT
  5
6C
  8
SAPA_ARTIKELNR
 10
73.973407390683008
 20
97.297310970556083
 30
0.0
 40
3.5
  1
42077
 50
90.0
  7
ISO
  0
TEXT
  5
6E
  8
SAPA_ARTIKELNR
 10
73.973407390683008
 20
59.109351623001231
 30
0.0
 40
3.5
  1
68014
 50
90.0
  7
ISO
  0
LINE
  5
D5
  8
SAPA_ANSLUTNING
 10
13.145245491506101
 20
7.0058718049341211
 30
0.0
 11
80.310752752573634
 21
7.0058718049341211
 31
0.0
  0
TEXT
  5
3F8
  8
SAPA_ARTIKELNR
 10
81.008761016748963
 20
8.7799368907619453
 30
0.0
 40
3.5
  1
68096
 50
90.0
  7
ISO
  0
POLYLINE
  5
72C
  8
SAPA_LIGHT
 66
     1
 10
0.0
 20
0.0
 30
0.0
  0
VERTEX
  5
EBE
  8
SAPA_LIGHT
 10
25.660490697164509
 20
116.0058718698423
 30
0.0
  0
VERTEX
  5
EBF
  8
SAPA_LIGHT
 10
17.232413117783381
 20
116.0058718698423
 30
0.0
  0
VERTEX
  5
EC0
  8
SAPA_LIGHT
 10
17.232413117783381
 20
27.005871869842409
 30
0.0
  0
VERTEX
  5
EC1
  8
SAPA_LIGHT
 10
67.232413117783267
 20
27.00587180576867
 30
0.0
  0
VERTEX
  5
EC2
  8
SAPA_LIGHT
 10
67.232413117783381
 20
116.0058718698423
 30
0.0
  0
VERTEX
  5
EC3
  8
SAPA_LIGHT
 10
31.660490697164501
 20
116.0058718698423
 30
0.0
  0
SEQEND
  5
EC4
  8
SAPA_LIGHT
  0
POLYLINE
  5
72D
  8
SAPA_LIGHT
 66
     1
 10
0.0
 20
0.0
 30
0.0
 70
     1
  0
VERTEX
  5
EC5
  8
SAPA_LIGHT
 10
25.632413117783472
 20
99.005871869840121
 30
0.0
  0
VERTEX
  5
EC6
  8
SAPA_LIGHT
 10
31.632413117783472
 20
99.005871869840121
 30
0.0
  0
VERTEX
  5
EC7
  8
SAPA_LIGHT
 10
31.632413117783472
 20
131.92154689222309
 30
0.0
  0
VERTEX
  5
EC8
  8
SAPA_LIGHT
 10
25.632413117783472
 20
131.92154689222309
 30
0.0
  0
SEQEND
  5
EC9
  8
SAPA_LIGHT
  0
POLYLINE
  5
72E
  8
SAPA_LIGHT
 66
     1
 10
0.0
 20
0.0
 30
0.0
 70
     1
  0
VERTEX
  5
ECA
  8
SAPA_LIGHT
 10
17.227999122039879
 20
22.005871804933818
 30
0.0
  0
VERTEX
  5
ECB
  8
SAPA_LIGHT
 10
76.227999122039876
 20
22.00587180493385
 30
0.0
  0
VERTEX
  5
ECC
  8
SAPA_LIGHT
 10
76.227999122039876
 20
7.0058718049341087
 30
0.0
  0
VERTEX
  5
ECD
  8
SAPA_LIGHT
 10
17.227999122039868
 20
7.0058718049341318
 30
0.0
  0
SEQEND
  5
ECE
  8
SAPA_LIGHT
  0
LINE
  5
730
  8
SAPA_LIGHT
 10
12.437528534024381
 20
7.0058718049341211
 30
0.0
 11
81.018469710055371
 21
7.0058718049341211
 31
0.0
  0
POLYLINE
  5
E15
  8
SAPA_PROFIL
 66
     1
 10
0.0
 20
0.0
 30
0.0
 70
     1
  0
VERTEX
  5
1438
  8
SAPA_PROFIL
 10
60.532413117782539
 20
29.00587180576861
 30
0.0
 42
-0.4142135623730675
  0
VERTEX
  5
1439
  8
SAPA_PROFIL
 10
60.23241311778235
 20
29.305871805768621
 30
0.0
  0
VERTEX
  5
143A
  8
SAPA_PROFIL
 10
60.232413117781903
 20
35.505871805769011
 30
0.0
 42
0.4142135623731284
  0
VERTEX
  5
143B
  8
SAPA_PROFIL
 10
59.732413117781903
 20
36.005871805768841
 30
0.0
  0
VERTEX
  5
143C
  8
SAPA_PROFIL
 10
56.832413117782501
 20
36.005871805768997
 30
0.0
 42
0.4142135623730951
  0
VERTEX
  5
143D
  8
SAPA_PROFIL
 10
56.332413117782487
 20
35.505871805769011
 30
0.0
  0
VERTEX
  5
143E
  8
SAPA_PROFIL
 10
56.332413117783169
 20
29.305871805768621
 30
0.0
 42
-0.4142135623730673
  0
VERTEX
  5
143F
  8
SAPA_PROFIL
 10
56.032413117783221
 20
29.00587180576861
 30
0.0
  0
VERTEX
  5
1440
  8
SAPA_PROFIL
 10
55.882413117783358
 20
29.00587180576861
 30
0.0
 42
0.4142135623730951
  0
VERTEX
  5
1441
  8
SAPA_PROFIL
 10
55.582413117783169
 20
28.705871805768599
 30
0.0
  0
VERTEX
  5
1442
  8
SAPA_PROFIL
 10
55.582413117783169
 20
28.105871805768629
 30
0.0
 42
0.41421356237308
  0
VERTEX
  5
1443
  8
SAPA_PROFIL
 10
55.882413117783358
 20
27.805871805768621
 30
0.0
  0
VERTEX
  5
1444
  8
SAPA_PROFIL
 10
56.532413117782312
 20
27.805871805768561
 30
0.0
 42
-0.4142135623731498
  0
VERTEX
  5
1445
  8
SAPA_PROFIL
 10
56.932413117782403
 20
27.40587180576842
 30
0.0
  0
VERTEX
  5
1446
  8
SAPA_PROFIL
 10
56.932413117782403
 20
27.40587180576842
 30
0.0
 42
-0.4142135623730349
  0
VERTEX
  5
1447
  8
SAPA_PROFIL
 10
56.532413117782312
 20
27.00587180576855
 30
0.0
  0
VERTEX
  5
1448
  8
SAPA_PROFIL
 10
55.032413117782767
 20
27.005871805768781
 30
0.0
 42
-0.4142135623730951
  0
VERTEX
  5
1449
  8
SAPA_PROFIL
 10
54.532413117782987
 20
27.50587180576867
 30
0.0
  0
VERTEX
  5
144A
  8
SAPA_PROFIL
 10
54.532413117782987
 20
36.605871805768572
 30
0.0
 42
0.4142135623730951
  0
VERTEX
  5
144B
  8
SAPA_PROFIL
 10
53.532413117782987
 20
37.605871805768579
 30
0.0
  0
VERTEX
  5
144C
  8
SAPA_PROFIL
 10
47.832413117783183
 20
37.605871805768579
 30
0.0
 42
-0.1316524975873767
  0
VERTEX
  5
144D
  8
SAPA_PROFIL
 10
47.682413117783078
 20
37.646064184633254
 30
0.0
  0
VERTEX
  5
144E
  8
SAPA_PROFIL
 10
47.23241311778304
 20
37.905871805768527
 30
0.0
  0
VERTEX
  5
144F
  8
SAPA_PROFIL
 10
46.782413117782987
 20
37.64606418463319
 30
0.0
 42
-0.1316524975873767
  0
VERTEX
  5
1450
  8
SAPA_PROFIL
 10
46.63241311778313
 20
37.605871805768523
 30
0.0
  0
VERTEX
  5
1451
  8
SAPA_PROFIL
 10
42.832413117783183
 20
37.605871805768579
 30
0.0
 42
-0.1316524975873749
  0
VERTEX
  5
1452
  8
SAPA_PROFIL
 10
42.682413117783078
 20
37.646064184633254
 30
0.0
  0
VERTEX
  5
1453
  8
SAPA_PROFIL
 10
42.23241311778304
 20
37.905871805768527
 30
0.0
  0
VERTEX
  5
1454
  8
SAPA_PROFIL
 10
41.782413117782987
 20
37.64606418463319
 30
0.0
 42
-0.1316524975873846
  0
VERTEX
  5
1455
  8
SAPA_PROFIL
 10
41.63241311778313
 20
37.605871805768523
 30
0.0
  0
VERTEX
  5
1456
  8
SAPA_PROFIL
 10
32.332413117783183
 20
37.605871805768857
 30
0.0
 42
0.4142135623731229
  0
VERTEX
  5
1457
  8
SAPA_PROFIL
 10
32.032413117782987
 20
37.305871805768852
 30
0.0
  0
VERTEX
  5
1458
  8
SAPA_PROFIL
 10
32.032413117782987
 20
27.505871805768379
 30
0.0
 42
-0.4142135623730951
  0
VERTEX
  5
1459
  8
SAPA_PROFIL
 10
31.532413117783001
 20
27.005871805768379
 30
0.0
  0
VERTEX
  5
145A
  8
SAPA_PROFIL
 10
30.032413117784358
 20
27.00587180576855
 30
0.0
 42
-0.4142135623730349
  0
VERTEX
  5
145B
  8
SAPA_PROFIL
 10
29.632413117784271
 20
27.40587180576842
 30
0.0
  0
VERTEX
  5
145C
  8
SAPA_PROFIL
 10
29.632413117784271
 20
27.40587180576847
 30
0.0
 42
-0.4142135623731497
  0
VERTEX
  5
145D
  8
SAPA_PROFIL
 10
30.032413117784131
 20
27.805871805768621
 30
0.0
  0
VERTEX
  5
145E
  8
SAPA_PROFIL
 10
30.682413117783319
 20
27.805871805768621
 30
0.0
 42
0.41421356237308
  0
VERTEX
  5
145F
  8
SAPA_PROFIL
 10
30.98241311778327
 20
28.105871805768629
 30
0.0
  0
VERTEX
  5
1460
  8
SAPA_PROFIL
 10
30.98241311778327
 20
28.705871805768599
 30
0.0
 42
0.4142135623730951
  0
VERTEX
  5
1461
  8
SAPA_PROFIL
 10
30.682413117783319
 20
29.00587180576861
 30
0.0
  0
VERTEX
  5
1462
  8
SAPA_PROFIL
 10
30.532413117783449
 20
29.00587180576861
 30
0.0
 42
-0.4142135623730675
  0
VERTEX
  5
1463
  8
SAPA_PROFIL
 10
30.232413117783491
 20
29.305871805768621
 30
0.0
  0
VERTEX
  5
1464
  8
SAPA_PROFIL
 10
30.23241311778418
 20
35.505871805769011
 30
0.0
 42
0.4142135623730951
  0
VERTEX
  5
1465
  8
SAPA_PROFIL
 10
29.73241311778418
 20
36.005871805768997
 30
0.0
  0
VERTEX
  5
1466
  8
SAPA_PROFIL
 10
26.832413117784771
 20
36.005871805768841
 30
0.0
 42
0.4142135623731284
  0
VERTEX
  5
1467
  8
SAPA_PROFIL
 10
26.332413117784771
 20
35.505871805769011
 30
0.0
  0
VERTEX
  5
1468
  8
SAPA_PROFIL
 10
26.332413117784089
 20
29.305871805768621
 30
0.0
 42
-0.4142135623730673
  0
VERTEX
  5
1469
  8
SAPA_PROFIL
 10
26.032413117784131
 20
29.00587180576861
 30
0.0
  0
VERTEX
  5
146A
  8
SAPA_PROFIL
 10
25.782413117784131
 20
29.00587180576855
 30
0.0
 42
0.4142135623730395
  0
VERTEX
  5
146B
  8
SAPA_PROFIL
 10
25.582413117784309
 20
28.805871805768561
 30
0.0
  0
VERTEX
  5
146C
  8
SAPA_PROFIL
 10
25.582413117784309
 20
28.00587180576855
 30
0.0
 42
0.4142135623730951
  0
VERTEX
  5
146D
  8
SAPA_PROFIL
 10
25.782413117784131
 20
27.805871805768561
 30
0.0
  0
VERTEX
  5
146E
  8
SAPA_PROFIL
 10
26.532413117783449
 20
27.805871805768621
 30
0.0
 42
-0.4142135623732521
  0
VERTEX
  5
146F
  8
SAPA_PROFIL
 10
26.932413117783319
 20
27.405871805769269
 30
0.0
 42
-0.4142135623726998
  0
VERTEX
  5
1470
  8
SAPA_PROFIL
 10
26.53241311778368
 20
27.00587180576952
 30
0.0
  0
VERTEX
  5
1471
  8
SAPA_PROFIL
 10
18.23241311778327
 20
27.00587180576866
 30
0.0
 42
-0.4142135623730951
  0
VERTEX
  5
1472
  8
SAPA_PROFIL
 10
17.23241311778326
 20
28.00587180576867
 30
0.0
  0
VERTEX
  5
1473
  8
SAPA_PROFIL
 10
17.23241311778326
 20
48.505871805768663
 30
0.0
 42
-0.4142135623730951
  0
VERTEX
  5
1474
  8
SAPA_PROFIL
 10
17.73241311778327
 20
49.00587180576867
 30
0.0
  0
VERTEX
  5
1475
  8
SAPA_PROFIL
 10
18.132413117781311
 20
49.00587180576867
 30
0.0
 42
-0.4142135623730617
  0
VERTEX
  5
1476
  8
SAPA_PROFIL
 10
18.6324131177829
 20
48.505871805768663
 30
0.0
 42
0.4142135623730951
  0
VERTEX
  5
1477
  8
SAPA_PROFIL
 10
19.1324131177829
 20
48.005871805768663
 30
0.0
  0
VERTEX
  5
1478
  8
SAPA_PROFIL
 10
23.3824131177829
 20
48.005871805768663
 30
0.0
 42
-0.9999999999999998
  0
VERTEX
  5
1479
  8
SAPA_PROFIL
 10
23.3824131177829
 20
46.605871805768572
 30
0.0
  0
VERTEX
  5
147A
  8
SAPA_PROFIL
 10
19.1324131177829
 20
46.605871805768572
 30
0.0
 42
0.4142135623730951
  0
VERTEX
  5
147B
  8
SAPA_PROFIL
 10
18.6324131177829
 20
46.105871805768572
 30
0.0
  0
VERTEX
  5
147C
  8
SAPA_PROFIL
 10
18.6324131177829
 20
28.90587180576853
 30
0.0
 42
0.4142135623730951
  0
VERTEX
  5
147D
  8
SAPA_PROFIL
 10
19.1324131177829
 20
28.40587180576853
 30
0.0
  0
VERTEX
  5
147E
  8
SAPA_PROFIL
 10
23.532413117783221
 20
28.40587180576853
 30
0.0
 42
0.4142135623730951
  0
VERTEX
  5
147F
  8
SAPA_PROFIL
 10
24.532413117783221
 20
29.40587180576853
 30
0.0
  0
VERTEX
  5
1480
  8
SAPA_PROFIL
 10
24.532413117783221
 20
36.405871805768641
 30
0.0
 42
-0.4142135623730951
  0
VERTEX
  5
1481
  8
SAPA_PROFIL
 10
25.532413117783221
 20
37.405871805768641
 30
0.0
  0
VERTEX
  5
1482
  8
SAPA_PROFIL
 10
29.73241311778327
 20
37.405871805768641
 30
0.0
 42
0.4142135623730951
  0
VERTEX
  5
1483
  8
SAPA_PROFIL
 10
30.23241311778327
 20
37.905871805768641
 30
0.0
  0
VERTEX
  5
1484
  8
SAPA_PROFIL
 10
30.23241311778327
 20
40.755871805768663
 30
0.0
 42
-0.9999999999999998
  0
VERTEX
  5
1485
  8
SAPA_PROFIL
 10
31.73241311778327
 20
40.755871805768663
 30
0.0
  0
VERTEX
  5
1486
  8
SAPA_PROFIL
 10
31.73241311778327
 20
39.505871805768443
 30
0.0
 42
0.4142135623730951
  0
VERTEX
  5
1487
  8
SAPA_PROFIL
 10
32.232413117783267
 20
39.005871805768443
 30
0.0
  0
VERTEX
  5
1488
  8
SAPA_PROFIL
 10
50.98241311778304
 20
39.005871805768443
 30
0.0
 42
0.4142135623730951
  0
VERTEX
  5
1489
  8
SAPA_PROFIL
 10
51.48241311778304
 20
39.505871805768443
 30
0.0
  0
VERTEX
  5
148A
  8
SAPA_PROFIL
 10
51.48241311778304
 20
40.755871805768663
 30
0.0
 42
-0.9999999999999998
  0
VERTEX
  5
148B
  8
SAPA_PROFIL
 10
52.98241311778304
 20
40.755871805768663
 30
0.0
  0
VERTEX
  5
148C
  8
SAPA_PROFIL
 10
52.98241311778304
 20
39.505871805768663
 30
0.0
 42
0.4142135623730951
  0
VERTEX
  5
148D
  8
SAPA_PROFIL
 10
53.48241311778304
 20
39.00587180576867
 30
0.0
  0
VERTEX
  5
148E
  8
SAPA_PROFIL
 10
55.23241311778304
 20
39.00587180576867
 30
0.0
 42
-0.4142135623730951
  0
VERTEX
  5
148F
  8
SAPA_PROFIL
 10
56.23241311778304
 20
38.00587180576867
 30
0.0
  0
VERTEX
  5
1490
  8
SAPA_PROFIL
 10
56.23241311778304
 20
37.705871805768773
 30
0.0
 42
0.4142135623731505
  0
VERTEX
  5
1491
  8
SAPA_PROFIL
 10
56.532413117782987
 20
37.405871805768761
 30
0.0
  0
VERTEX
  5
1492
  8
SAPA_PROFIL
 10
61.032413117782312
 20
37.405871805768811
 30
0.0
 42
-0.414213562373078
  0
VERTEX
  5
1493
  8
SAPA_PROFIL
 10
62.032413117782312
 20
36.405871805768868
 30
0.0
  0
VERTEX
  5
1494
  8
SAPA_PROFIL
 10
62.032413117782767
 20
31.205871805768599
 30
0.0
 42
0.4142135623730953
  0
VERTEX
  5
1495
  8
SAPA_PROFIL
 10
62.332413117782721
 20
30.90587180576858
 30
0.0
  0
VERTEX
  5
1496
  8
SAPA_PROFIL
 10
64.532413117782994
 20
30.90587180576858
 30
0.0
 42
-0.4142135623730909
  0
VERTEX
  5
1497
  8
SAPA_PROFIL
 10
65.23241311778304
 20
30.205871805768648
 30
0.0
  0
VERTEX
  5
1498
  8
SAPA_PROFIL
 10
65.23241311778304
 20
30.205871805768648
 30
0.0
 42
-0.4142135623731193
  0
VERTEX
  5
1499
  8
SAPA_PROFIL
 10
64.532413117782994
 20
29.50587180576866
 30
0.0
  0
VERTEX
  5
149A
  8
SAPA_PROFIL
 10
62.532413117783001
 20
29.50587180576866
 30
0.0
 42
0.4142135623730951
  0
VERTEX
  5
149B
  8
SAPA_PROFIL
 10
62.032413117782987
 20
29.00587180576867
 30
0.0
  0
VERTEX
  5
149C
  8
SAPA_PROFIL
 10
62.032413117782987
 20
27.50587180576867
 30
0.0
 42
-0.4142135623730951
  0
VERTEX
  5
149D
  8
SAPA_PROFIL
 10
61.532413117782987
 20
27.00587180576866
 30
0.0
  0
VERTEX
  5
149E
  8
SAPA_PROFIL
 10
60.032413117783001
 20
27.00587180576952
 30
0.0
 42
-0.4142135623726999
  0
VERTEX
  5
149F
  8
SAPA_PROFIL
 10
59.632413117783358
 20
27.405871805769269
 30
0.0
  0
VERTEX
  5
14A0
  8
SAPA_PROFIL
 10
59.632413117783358
 20
27.405871805769269
 30
0.0
 42
-0.4142135623732522
  0
VERTEX
  5
14A1
  8
SAPA_PROFIL
 10
60.032413117783221
 20
27.805871805768621
 30
0.0
  0
VERTEX
  5
14A2
  8
SAPA_PROFIL
 10
60.782413117782312
 20
27.805871805768561
 30
0.0
 42
0.4142135623730951
  0
VERTEX
  5
14A3
  8
SAPA_PROFIL
 10
60.98241311778235
 20
28.00587180576855
 30
0.0
  0
VERTEX
  5
14A4
  8
SAPA_PROFIL
 10
60.98241311778235
 20
28.805871805768561
 30
0.0
 42
0.4142135623730395
  0
VERTEX
  5
14A5
  8
SAPA_PROFIL
 10
60.782413117782312
 20
29.00587180576855
 30
0.0
  0
SEQEND
  5
14A6
  8
SAPA_PROFIL
  0
POLYLINE
  5
E16
  8
SAPA_PROFIL
 66
     1
 10
0.0
 20
0.0
 30
0.0
  0
VERTEX
  5
14A7
  8
SAPA_PROFIL
 10
41.177999122039857
 20
21.50587180493384
 30
0.0
  0
VERTEX
  5
14A8
  8
SAPA_PROFIL
 10
41.708383879769208
 20
21.50587180493384
 30
0.0
  0
VERTEX
  5
14A9
  8
SAPA_PROFIL
 10
41.177999122039857
 20
21.50587180493384
 30
0.0
 42
-0.4142135623730951
  0
VERTEX
  5
14AA
  8
SAPA_PROFIL
 10
40.977999122039861
 20
21.705871804933839
 30
0.0
  0
VERTEX
  5
14AB
  8
SAPA_PROFIL
 10
40.97799912203984
 20
21.80587180493384
 30
0.0
 42
0.4142135623730951
  0
VERTEX
  5
14AC
  8
SAPA_PROFIL
 10
40.777999122039837
 20
22.00587180493384
 30
0.0
  0
VERTEX
  5
14AD
  8
SAPA_PROFIL
 10
38.677999122039871
 20
22.00587180493384
 30
0.0
 42
0.4142135623730956
  0
VERTEX
  5
14AE
  8
SAPA_PROFIL
 10
38.477999122039861
 20
21.80587180493384
 30
0.0
  0
VERTEX
  5
14AF
  8
SAPA_PROFIL
 10
38.477999122039883
 20
21.705871804933839
 30
0.0
 42
-0.4142135623730951
  0
VERTEX
  5
14B0
  8
SAPA_PROFIL
 10
38.277999122039873
 20
21.50587180493384
 30
0.0
  0
VERTEX
  5
14B1
  8
SAPA_PROFIL
 10
36.177999122039878
 20
21.50587180493384
 30
0.0
 42
-0.4142135623730951
  0
VERTEX
  5
14B2
  8
SAPA_PROFIL
 10
35.977999122039883
 20
21.705871804933839
 30
0.0
  0
VERTEX
  5
14B3
  8
SAPA_PROFIL
 10
35.977999122039861
 20
21.80587180493384
 30
0.0
 42
0.4142135623730951
  0
VERTEX
  5
14B4
  8
SAPA_PROFIL
 10
35.777999122039859
 20
22.00587180493384
 30
0.0
  0
VERTEX
  5
14B5
  8
SAPA_PROFIL
 10
33.677999122039878
 20
22.00587180493384
 30
0.0
 42
0.4142135623730956
  0
VERTEX
  5
14B6
  8
SAPA_PROFIL
 10
33.477999122039883
 20
21.80587180493384
 30
0.0
  0
VERTEX
  5
14B7
  8
SAPA_PROFIL
 10
33.47799912203989
 20
21.705871804933839
 30
0.0
 42
-0.4142135623730951
  0
VERTEX
  5
14B8
  8
SAPA_PROFIL
 10
33.277999122039887
 20
21.50587180493384
 30
0.0
  0
VERTEX
  5
14B9
  8
SAPA_PROFIL
 10
31.177999122039889
 20
21.50587180493384
 30
0.0
 42
-0.4142135623730951
  0
VERTEX
  5
14BA
  8
SAPA_PROFIL
 10
30.97799912203989
 20
21.705871804933839
 30
0.0
  0
VERTEX
  5
14BB
  8
SAPA_PROFIL
 10
30.977999122039879
 20
21.80587180493384
 30
0.0
 42
0.4142135623730951
  0
VERTEX
  5
14BC
  8
SAPA_PROFIL
 10
30.77799912203988
 20
22.00587180493384
 30
0.0
  0
VERTEX
  5
14BD
  8
SAPA_PROFIL
 10
28.677999122039889
 20
22.00587180493384
 30
0.0
 42
0.4142135623730956
  0
VERTEX
  5
14BE
  8
SAPA_PROFIL
 10
28.47799912203989
 20
21.80587180493384
 30
0.0
  0
VERTEX
  5
14BF
  8
SAPA_PROFIL
 10
28.477999122039911
 20
21.705871804933839
 30
0.0
 42
-0.4142135623730951
  0
VERTEX
  5
14C0
  8
SAPA_PROFIL
 10
28.277999122039901
 20
21.50587180493384
 30
0.0
  0
VERTEX
  5
14C1
  8
SAPA_PROFIL
 10
26.17799912203991
 20
21.50587180493384
 30
0.0
 42
-0.4142135623730951
  0
VERTEX
  5
14C2
  8
SAPA_PROFIL
 10
25.977999122039911
 20
21.705871804933839
 30
0.0
  0
VERTEX
  5
14C3
  8
SAPA_PROFIL
 10
25.97799912203989
 20
21.80587180493384
 30
0.0
 42
0.4142135623730951
  0
VERTEX
  5
14C4
  8
SAPA_PROFIL
 10
25.777999122039891
 20
22.00587180493384
 30
0.0
  0
VERTEX
  5
14C5
  8
SAPA_PROFIL
 10
17.72799912203989
 20
22.005871804933818
 30
0.0
 42
0.4142135623730947
  0
VERTEX
  5
14C6
  8
SAPA_PROFIL
 10
17.22799912203989
 20
21.505871804933829
 30
0.0
  0
VERTEX
  5
14C7
  8
SAPA_PROFIL
 10
17.227999122039868
 20
7.5058718049341318
 30
0.0
 42
0.4142135623730948
  0
VERTEX
  5
14C8
  8
SAPA_PROFIL
 10
17.727999122039868
 20
7.0058718049341318
 30
0.0
  0
VERTEX
  5
14C9
  8
SAPA_PROFIL
 10
75.727999122039876
 20
7.0058718049341229
 30
0.0
 42
0.4142135623730956
  0
VERTEX
  5
14CA
  8
SAPA_PROFIL
 10
76.227999122039876
 20
7.5058718049341229
 30
0.0
  0
VERTEX
  5
14CB
  8
SAPA_PROFIL
 10
76.227999122039876
 20
21.50587180493385
 30
0.0
 42
0.414213562373095
  0
VERTEX
  5
14CC
  8
SAPA_PROFIL
 10
75.727999122039876
 20
22.005871804933861
 30
0.0
  0
VERTEX
  5
14CD
  8
SAPA_PROFIL
 10
68.677999122039793
 20
22.00587180493384
 30
0.0
 42
0.4142135623730951
  0
VERTEX
  5
14CE
  8
SAPA_PROFIL
 10
68.47799912203979
 20
21.80587180493384
 30
0.0
  0
VERTEX
  5
14CF
  8
SAPA_PROFIL
 10
68.47799912203979
 20
21.705871804933839
 30
0.0
 42
-0.4142135623730951
  0
VERTEX
  5
14D0
  8
SAPA_PROFIL
 10
68.277999122039773
 20
21.50587180493384
 30
0.0
  0
VERTEX
  5
14D1
  8
SAPA_PROFIL
 10
66.177999122039793
 20
21.50587180493384
 30
0.0
 42
-0.4142135623730951
  0
VERTEX
  5
14D2
  8
SAPA_PROFIL
 10
65.97799912203979
 20
21.705871804933839
 30
0.0
  0
VERTEX
  5
14D3
  8
SAPA_PROFIL
 10
65.977999122039805
 20
21.80587180493384
 30
0.0
 42
0.4142135623730951
  0
VERTEX
  5
14D4
  8
SAPA_PROFIL
 10
65.777999122039802
 20
22.00587180493384
 30
0.0
  0
VERTEX
  5
14D5
  8
SAPA_PROFIL
 10
63.677999122039807
 20
22.00587180493384
 30
0.0
 42
0.4142135623730951
  0
VERTEX
  5
14D6
  8
SAPA_PROFIL
 10
63.477999122039797
 20
21.80587180493384
 30
0.0
  0
VERTEX
  5
14D7
  8
SAPA_PROFIL
 10
63.477999122039797
 20
21.705871804933839
 30
0.0
 42
-0.4142135623730951
  0
VERTEX
  5
14D8
  8
SAPA_PROFIL
 10
63.277999122039802
 20
21.50587180493384
 30
0.0
  0
VERTEX
  5
14D9
  8
SAPA_PROFIL
 10
61.177999122039807
 20
21.50587180493384
 30
0.0
 42
-0.4142135623730951
  0
VERTEX
  5
14DA
  8
SAPA_PROFIL
 10
60.977999122039797
 20
21.705871804933839
 30
0.0
  0
VERTEX
  5
14DB
  8
SAPA_PROFIL
 10
60.97799912203979
 20
21.80587180493384
 30
0.0
 42
0.4142135623730951
  0
VERTEX
  5
14DC
  8
SAPA_PROFIL
 10
60.77799912203978
 20
22.00587180493384
 30
0.0
  0
VERTEX
  5
14DD
  8
SAPA_PROFIL
 10
58.677999122039807
 20
22.00587180493384
 30
0.0
 42
0.4142135623730951
  0
VERTEX
  5
14DE
  8
SAPA_PROFIL
 10
58.477999122039797
 20
21.80587180493384
 30
0.0
  0
VERTEX
  5
14DF
  8
SAPA_PROFIL
 10
58.477999122039812
 20
21.705871804933839
 30
0.0
 42
-0.4142135623730951
  0
VERTEX
  5
14E0
  8
SAPA_PROFIL
 10
58.277999122039823
 20
21.50587180493384
 30
0.0
  0
VERTEX
  5
14E1
  8
SAPA_PROFIL
 10
56.177999122039822
 20
21.50587180493384
 30
0.0
 42
-0.4142135623730951
  0
VERTEX
  5
14E2
  8
SAPA_PROFIL
 10
55.977999122039812
 20
21.705871804933839
 30
0.0
  0
VERTEX
  5
14E3
  8
SAPA_PROFIL
 10
55.977999122039797
 20
21.80587180493384
 30
0.0
 42
0.4142135623730951
  0
VERTEX
  5
14E4
  8
SAPA_PROFIL
 10
55.777999122039802
 20
22.00587180493384
 30
0.0
  0
VERTEX
  5
14E5
  8
SAPA_PROFIL
 10
53.677999122039822
 20
22.00587180493384
 30
0.0
 42
0.4142135623730951
  0
VERTEX
  5
14E6
  8
SAPA_PROFIL
 10
53.477999122039812
 20
21.80587180493384
 30
0.0
  0
VERTEX
  5
14E7
  8
SAPA_PROFIL
 10
53.477999122039833
 20
21.705871804933839
 30
0.0
 42
-0.4142135623730951
  0
VERTEX
  5
14E8
  8
SAPA_PROFIL
 10
53.27799912203983
 20
21.50587180493384
 30
0.0
  0
VERTEX
  5
14E9
  8
SAPA_PROFIL
 10
51.177999122039843
 20
21.50587180493384
 30
0.0
 42
-0.4142135623730951
  0
VERTEX
  5
14EA
  8
SAPA_PROFIL
 10
50.977999122039833
 20
21.705871804933839
 30
0.0
  0
VERTEX
  5
14EB
  8
SAPA_PROFIL
 10
50.977999122039812
 20
21.80587180493384
 30
0.0
 42
0.4142135623730951
  0
VERTEX
  5
14EC
  8
SAPA_PROFIL
 10
50.777999122039823
 20
22.00587180493384
 30
0.0
  0
VERTEX
  5
14ED
  8
SAPA_PROFIL
 10
48.677999122039843
 20
22.00587180493384
 30
0.0
 42
0.4142135623730951
  0
VERTEX
  5
14EE
  8
SAPA_PROFIL
 10
48.477999122039833
 20
21.80587180493384
 30
0.0
  0
VERTEX
  5
14EF
  8
SAPA_PROFIL
 10
48.477999122039847
 20
21.705871804933839
 30
0.0
 42
-0.4142135623730951
  0
VERTEX
  5
14F0
  8
SAPA_PROFIL
 10
48.277999122039837
 20
21.50587180493384
 30
0.0
  0
VERTEX
  5
14F1
  8
SAPA_PROFIL
 10
46.17799912203985
 20
21.50587180493384
 30
0.0
 42
-0.4142135623730951
  0
VERTEX
  5
14F2
  8
SAPA_PROFIL
 10
45.97799912203984
 20
21.705871804933839
 30
0.0
  0
VERTEX
  5
14F3
  8
SAPA_PROFIL
 10
45.977999122039861
 20
21.80587180493384
 30
0.0
 42
0.4142135623730955
  0
VERTEX
  5
14F4
  8
SAPA_PROFIL
 10
45.777999122039851
 20
22.00587180493384
 30
0.0
  0
VERTEX
  5
14F5
  8
SAPA_PROFIL
 10
43.677999122039857
 20
22.00587180493384
 30
0.0
 42
0.4142135623730951
  0
VERTEX
  5
14F6
  8
SAPA_PROFIL
 10
43.477999122039861
 20
21.80587180493384
 30
0.0
  0
VERTEX
  5
14F7
  8
SAPA_PROFIL
 10
43.477999122039861
 20
21.705871804933839
 30
0.0
 42
-0.4142135623730951
  0
VERTEX
  5
14F8
  8
SAPA_PROFIL
 10
43.277999122039851
 20
21.50587180493384
 30
0.0
  0
VERTEX
  5
14F9
  8
SAPA_PROFIL
 10
42.747614364310508
 20
21.50587180493384
 30
0.0
  0
VERTEX
  5
14FA
  8
SAPA_PROFIL
 10
42.227999122039861
 20
21.205871804933839
 30
0.0
  0
VERTEX
  5
14FB
  8
SAPA_PROFIL
 10
41.708383879769229
 20
21.50587180493384
 30
0.0
  0
SEQEND
  5
14FC
  8
SAPA_PROFIL
  0
POLYLINE
  5
E17
  8
SAPA_PROFIL
 66
     1
 10
0.0
 20
0.0
 30
0.0
 70
     1
  0
VERTEX
  5
14FD
  8
SAPA_PROFIL
 10
33.72799912203989
 20
19.00587180493384
 30
0.0
 42
0.4142135623730951
  0
VERTEX
  5
14FE
  8
SAPA_PROFIL
 10
32.72799912203989
 20
18.00587180493384
 30
0.0
  0
VERTEX
  5
14FF
  8
SAPA_PROFIL
 10
32.72799912204016
 20
15.505871804934371
 30
0.0
 42
-0.2058827205105217
  0
VERTEX
  5
1500
  8
SAPA_PROFIL
 10
31.323622001057021
 20
12.23981623423323
 30
0.0
 42
-0.9999999999999992
  0
VERTEX
  5
1501
  8
SAPA_PROFIL
 10
30.15416446898395
 20
13.473659449831439
 30
0.0
 42
0.0229716368799849
  0
VERTEX
  5
1502
  8
SAPA_PROFIL
 10
30.33247922665214
 20
13.658938268151649
 30
0.0
 42
0.2952415708714066
  0
VERTEX
  5
1503
  8
SAPA_PROFIL
 10
30.379934734992059
 20
13.981347906233671
 30
0.0
 42
-0.5153025549751089
  0
VERTEX
  5
1504
  8
SAPA_PROFIL
 10
30.624243356462831
 20
14.40450285267713
 30
0.0
 42
0.295241570871426
  0
VERTEX
  5
1505
  8
SAPA_PROFIL
 10
30.879730538746632
 20
14.606805348184929
 30
0.0
 42
0.4528750153922882
  0
VERTEX
  5
1506
  8
SAPA_PROFIL
 10
28.775250439156299
 20
18.251871804190468
 30
0.0
 42
0.2952415708714172
  0
VERTEX
  5
1507
  8
SAPA_PROFIL
 10
28.472307747655719
 20
18.131764661745109
 30
0.0
 42
-0.5153025549751044
  0
VERTEX
  5
1508
  8
SAPA_PROFIL
 10
27.98369050356327
 20
18.13176466240931
 30
0.0
 42
0.2952415708714064
  0
VERTEX
  5
1509
  8
SAPA_PROFIL
 10
27.680747812389249
 20
18.25187180567827
 30
0.0
 42
0.4528750162115449
  0
VERTEX
  5
150A
  8
SAPA_PROFIL
 10
25.576267705334232
 20
14.60680534818332
 30
0.0
 42
0.2952415708714232
  0
VERTEX
  5
150B
  8
SAPA_PROFIL
 10
25.83175488761816
 20
14.40450285267567
 30
0.0
 42
-0.5153025549751061
  0
VERTEX
  5
150C
  8
SAPA_PROFIL
 10
26.07606350908917
 20
13.981347906232379
 30
0.0
 42
0.2952415708714069
  0
VERTEX
  5
150D
  8
SAPA_PROFIL
 10
26.123519017429231
 20
13.658938268150241
 30
0.0
 42
0.0229716368798394
  0
VERTEX
  5
150E
  8
SAPA_PROFIL
 10
26.30183377509627
 20
13.47365944983124
 30
0.0
 42
-0.9999999999999987
  0
VERTEX
  5
150F
  8
SAPA_PROFIL
 10
25.132376243023369
 20
12.23981623423297
 30
0.0
 42
-0.2058827205105434
  0
VERTEX
  5
1510
  8
SAPA_PROFIL
 10
23.727999122039911
 20
15.50587180493434
 30
0.0
  0
VERTEX
  5
1511
  8
SAPA_PROFIL
 10
23.727999122039918
 20
18.00587180493384
 30
0.0
 42
0.4142135623730951
  0
VERTEX
  5
1512
  8
SAPA_PROFIL
 10
22.727999122039918
 20
19.00587180493384
 30
0.0
  0
VERTEX
  5
1513
  8
SAPA_PROFIL
 10
20.227999122039961
 20
19.00587180493384
 30
0.0
 42
0.4142135623730951
  0
VERTEX
  5
1514
  8
SAPA_PROFIL
 10
19.227999122039961
 20
18.00587180493384
 30
0.0
  0
VERTEX
  5
1515
  8
SAPA_PROFIL
 10
19.227999122039961
 20
9.8058718049340872
 30
0.0
 42
0.4574223581375933
  0
VERTEX
  5
1516
  8
SAPA_PROFIL
 10
20.22799912204005
 20
9.0058718049341042
 30
0.0
  0
VERTEX
  5
1517
  8
SAPA_PROFIL
 10
73.227999122039876
 20
9.0058718049340847
 30
0.0
 42
0.4142135623730951
  0
VERTEX
  5
1518
  8
SAPA_PROFIL
 10
74.227999122039876
 20
10.005871804934079
 30
0.0
  0
VERTEX
  5
1519
  8
SAPA_PROFIL
 10
74.227999122039876
 20
18.005871804933669
 30
0.0
 42
0.4142135623730951
  0
VERTEX
  5
151A
  8
SAPA_PROFIL
 10
73.227999122039876
 20
19.005871804933669
 30
0.0
  0
VERTEX
  5
151B
  8
SAPA_PROFIL
 10
61.72799912203984
 20
19.00587180493368
 30
0.0
 42
0.4142135623730951
  0
VERTEX
  5
151C
  8
SAPA_PROFIL
 10
60.727999122039833
 20
18.00587180493384
 30
0.0
  0
VERTEX
  5
151D
  8
SAPA_PROFIL
 10
60.727999122039847
 20
15.50587180493434
 30
0.0
 42
-0.2058827205105427
  0
VERTEX
  5
151E
  8
SAPA_PROFIL
 10
59.323622001056378
 20
12.239816234232981
 30
0.0
 42
-0.9999999999999992
  0
VERTEX
  5
151F
  8
SAPA_PROFIL
 10
58.154164468983481
 20
13.47365944983124
 30
0.0
 42
0.0229716368798386
  0
VERTEX
  5
1520
  8
SAPA_PROFIL
 10
58.332479226650513
 20
13.658938268150241
 30
0.0
 42
0.295241570871409
  0
VERTEX
  5
1521
  8
SAPA_PROFIL
 10
58.379934734990577
 20
13.981347906232379
 30
0.0
 42
-0.5153025549751064
  0
VERTEX
  5
1522
  8
SAPA_PROFIL
 10
58.624243356461591
 20
14.40450285267567
 30
0.0
 42
0.2952415708714239
  0
VERTEX
  5
1523
  8
SAPA_PROFIL
 10
58.87973053874552
 20
14.606805348183331
 30
0.0
 42
0.4528750162115419
  0
VERTEX
  5
1524
  8
SAPA_PROFIL
 10
56.775250431690552
 20
18.25187180567826
 30
0.0
 42
0.2952415708714069
  0
VERTEX
  5
1525
  8
SAPA_PROFIL
 10
56.47230774051647
 20
18.13176466240931
 30
0.0
 42
-0.5153025549751016
  0
VERTEX
  5
1526
  8
SAPA_PROFIL
 10
55.983690496424032
 20
18.131764661745109
 30
0.0
 42
0.2952415708714184
  0
VERTEX
  5
1527
  8
SAPA_PROFIL
 10
55.680747804923449
 20
18.251871804190468
 30
0.0
 42
0.4528750153922855
  0
VERTEX
  5
1528
  8
SAPA_PROFIL
 10
53.576267705333137
 20
14.60680534818492
 30
0.0
 42
0.295241570871427
  0
VERTEX
  5
1529
  8
SAPA_PROFIL
 10
53.831754887616917
 20
14.40450285267713
 30
0.0
 42
-0.5153025549751096
  0
VERTEX
  5
152A
  8
SAPA_PROFIL
 10
54.076063509087689
 20
13.981347906233671
 30
0.0
 42
0.295241570871406
  0
VERTEX
  5
152B
  8
SAPA_PROFIL
 10
54.123519017427611
 20
13.658938268151649
 30
0.0
 42
0.0229716368799829
  0
VERTEX
  5
152C
  8
SAPA_PROFIL
 10
54.301833775095801
 20
13.47365944983143
 30
0.0
 42
-0.9999999999999998
  0
VERTEX
  5
152D
  8
SAPA_PROFIL
 10
53.132376243022733
 20
12.23981623423323
 30
0.0
 42
-0.2058827205105223
  0
VERTEX
  5
152E
  8
SAPA_PROFIL
 10
51.727999122039591
 20
15.505871804934371
 30
0.0
  0
VERTEX
  5
152F
  8
SAPA_PROFIL
 10
51.727999122039861
 20
18.00587180493384
 30
0.0
 42
0.4142135623730951
  0
VERTEX
  5
1530
  8
SAPA_PROFIL
 10
50.727999122039861
 20
19.00587180493384
 30
0.0
  0
VERTEX
  5
1531
  8
SAPA_PROFIL
 10
42.227999122039861
 20
19.00587180493384
 30
0.0
  0
SEQEND
  5
1532
  8
SAPA_PROFIL
  0
POLYLINE
  5
E18
  8
SAPA_PROFIL
 66
     1
 10
0.0
 20
0.0
 30
0.0
 70
     1
  0
VERTEX
  5
1533
  8
SAPA_PROFIL
 10
63.232413117783153
 20
93.005871805768663
 30
0.0
  0
VERTEX
  5
1534
  8
SAPA_PROFIL
 10
63.232413117783153
 20
92.005871805768663
 30
0.0
  0
VERTEX
  5
1535
  8
SAPA_PROFIL
 10
65.432413117783199
 20
92.005871805768663
 30
0.0
  0
VERTEX
  5
1536
  8
SAPA_PROFIL
 10
65.432413117783199
 20
89.005871805768678
 30
0.0
  0
VERTEX
  5
1537
  8
SAPA_PROFIL
 10
46.73241311778326
 20
89.005871805768678
 30
0.0
  0
VERTEX
  5
1538
  8
SAPA_PROFIL
 10
46.73241311778326
 20
92.005871805768692
 30
0.0
  0
VERTEX
  5
1539
  8
SAPA_PROFIL
 10
49.23241311778326
 20
92.005871805768692
 30
0.0
  0
VERTEX
  5
153A
  8
SAPA_PROFIL
 10
49.23241311778326
 20
93.005871805768692
 30
0.0
  0
VERTEX
  5
153B
  8
SAPA_PROFIL
 10
48.432413117783199
 20
93.805871805768646
 30
0.0
  0
VERTEX
  5
153C
  8
SAPA_PROFIL
 10
42.752028360053828
 20
93.805871805768646
 30
0.0
  0
VERTEX
  5
153D
  8
SAPA_PROFIL
 10
42.23241311778326
 20
93.505871805768692
 30
0.0
  0
VERTEX
  5
153E
  8
SAPA_PROFIL
 10
41.712797875512592
 20
93.80587180576876
 30
0.0
  0
VERTEX
  5
153F
  8
SAPA_PROFIL
 10
36.032413117783221
 20
93.80587180576876
 30
0.0
  0
VERTEX
  5
1540
  8
SAPA_PROFIL
 10
35.232413117783267
 20
93.005871805768692
 30
0.0
  0
VERTEX
  5
1541
  8
SAPA_PROFIL
 10
35.232413117783267
 20
92.005871805768692
 30
0.0
  0
VERTEX
  5
1542
  8
SAPA_PROFIL
 10
37.732413117783267
 20
92.005871805768692
 30
0.0
  0
VERTEX
  5
1543
  8
SAPA_PROFIL
 10
37.732413117783267
 20
89.005871805768678
 30
0.0
  0
VERTEX
  5
1544
  8
SAPA_PROFIL
 10
19.032413117783221
 20
89.005871805768678
 30
0.0
  0
VERTEX
  5
1545
  8
SAPA_PROFIL
 10
19.032413117783221
 20
92.005871805768692
 30
0.0
  0
VERTEX
  5
1546
  8
SAPA_PROFIL
 10
21.23241311778327
 20
92.005871805768692
 30
0.0
  0
VERTEX
  5
1547
  8
SAPA_PROFIL
 10
21.23241311778327
 20
93.005871805768692
 30
0.0
  0
VERTEX
  5
1548
  8
SAPA_PROFIL
 10
20.23241311778327
 20
94.005871805768678
 30
0.0
  0
VERTEX
  5
1549
  8
SAPA_PROFIL
 10
19.032413117783221
 20
94.005871805768678
 30
0.0
  0
VERTEX
  5
154A
  8
SAPA_PROFIL
 10
19.032413117783221
 20
104.00587180576871
 30
0.0
 42
-0.4142135623730951
  0
VERTEX
  5
154B
  8
SAPA_PROFIL
 10
19.532413117783221
 20
104.50587180576871
 30
0.0
  0
VERTEX
  5
154C
  8
SAPA_PROFIL
 10
20.742413117783261
 20
104.50587180576871
 30
0.0
 42
0.4142135623730951
  0
VERTEX
  5
154D
  8
SAPA_PROFIL
 10
21.73241311778327
 20
105.4958718057687
 30
0.0
  0
VERTEX
  5
154E
  8
SAPA_PROFIL
 10
21.73241311778327
 20
106.0158718057687
 30
0.0
 42
0.4142135623730951
  0
VERTEX
  5
154F
  8
SAPA_PROFIL
 10
20.742413117783261
 20
107.00587180576871
 30
0.0
  0
VERTEX
  5
1550
  8
SAPA_PROFIL
 10
20.73241311778327
 20
107.00587180576871
 30
0.0
  0
VERTEX
  5
1551
  8
SAPA_PROFIL
 10
20.73241311778327
 20
105.75587180576871
 30
0.0
  0
VERTEX
  5
1552
  8
SAPA_PROFIL
 10
19.23241311778326
 20
105.75587180576871
 30
0.0
 42
-0.4142135623730951
  0
VERTEX
  5
1553
  8
SAPA_PROFIL
 10
18.73241311778327
 20
106.25587180576871
 30
0.0
  0
VERTEX
  5
1554
  8
SAPA_PROFIL
 10
18.73241311778327
 20
114.25587180576871
 30
0.0
 42
-0.4142135623730951
  0
VERTEX
  5
1555
  8
SAPA_PROFIL
 10
19.23241311778326
 20
114.75587180576871
 30
0.0
  0
VERTEX
  5
1556
  8
SAPA_PROFIL
 10
20.73241311778327
 20
114.75587180576871
 30
0.0
  0
VERTEX
  5
1557
  8
SAPA_PROFIL
 10
20.73241311778327
 20
113.50587180576871
 30
0.0
  0
VERTEX
  5
1558
  8
SAPA_PROFIL
 10
20.742413117783261
 20
113.50587180576871
 30
0.0
 42
0.4142135623730951
  0
VERTEX
  5
1559
  8
SAPA_PROFIL
 10
21.73241311778327
 20
114.4958718057687
 30
0.0
  0
VERTEX
  5
155A
  8
SAPA_PROFIL
 10
21.73241311778327
 20
115.70587180576869
 30
0.0
 42
0.4142135623730673
  0
VERTEX
  5
155B
  8
SAPA_PROFIL
 10
21.432413117783199
 20
116.00587180576871
 30
0.0
  0
VERTEX
  5
155C
  8
SAPA_PROFIL
 10
17.532413117783221
 20
116.00587180576881
 30
0.0
 42
0.4142135623731227
  0
VERTEX
  5
155D
  8
SAPA_PROFIL
 10
17.23241311778326
 20
115.70587180576879
 30
0.0
  0
VERTEX
  5
155E
  8
SAPA_PROFIL
 10
17.23241311778326
 20
49.505871805768692
 30
0.0
 42
0.4142135623730951
  0
VERTEX
  5
155F
  8
SAPA_PROFIL
 10
17.73241311778327
 20
49.005871805768692
 30
0.0
  0
VERTEX
  5
1560
  8
SAPA_PROFIL
 10
23.227426525475501
 20
49.005871805768678
 30
0.0
 42
-0.4142135623730951
  0
VERTEX
  5
1561
  8
SAPA_PROFIL
 10
24.227426525475501
 20
48.005871805768692
 30
0.0
  0
VERTEX
  5
1562
  8
SAPA_PROFIL
 10
24.227426525475501
 20
40.384852821161381
 30
0.0
 42
0.4142135623730951
  0
VERTEX
  5
1563
  8
SAPA_PROFIL
 10
25.22742652547549
 20
39.384852821161381
 30
0.0
  0
VERTEX
  5
1564
  8
SAPA_PROFIL
 10
25.427426525475429
 20
39.384852821161381
 30
0.0
 42
0.4142135623730951
  0
VERTEX
  5
1565
  8
SAPA_PROFIL
 10
25.927426525475418
 20
39.884852821161381
 30
0.0
  0
VERTEX
  5
1566
  8
SAPA_PROFIL
 10
25.932413117783199
 20
41.005871805768678
 30
0.0
 42
-0.4142135623730951
  0
VERTEX
  5
1567
  8
SAPA_PROFIL
 10
26.432413117783199
 20
41.505871805768678
 30
0.0
  0
VERTEX
  5
1568
  8
SAPA_PROFIL
 10
64.932413117783312
 20
41.50587180576867
 30
0.0
 42
-0.4142135623730951
  0
VERTEX
  5
1569
  8
SAPA_PROFIL
 10
65.432413117783312
 20
41.005871805768678
 30
0.0
  0
VERTEX
  5
156A
  8
SAPA_PROFIL
 10
65.432413117783312
 20
38.994358079063389
 30
0.0
 42
-0.4142135623730951
  0
VERTEX
  5
156B
  8
SAPA_PROFIL
 10
64.932413117783312
 20
38.494358079063389
 30
0.0
  0
VERTEX
  5
156C
  8
SAPA_PROFIL
 10
63.722413117783383
 20
38.494358079063389
 30
0.0
 42
0.4142135623731035
  0
VERTEX
  5
156D
  8
SAPA_PROFIL
 10
62.732413117783267
 20
37.504358079063437
 30
0.0
  0
VERTEX
  5
156E
  8
SAPA_PROFIL
 10
62.732413117783381
 20
36.984358079063398
 30
0.0
 42
0.4142135623730698
  0
VERTEX
  5
156F
  8
SAPA_PROFIL
 10
63.722413117783283
 20
35.994358079063453
 30
0.0
  0
VERTEX
  5
1570
  8
SAPA_PROFIL
 10
63.73241311778326
 20
35.994358079063389
 30
0.0
  0
VERTEX
  5
1571
  8
SAPA_PROFIL
 10
63.73241311778326
 20
37.244358079063389
 30
0.0
  0
VERTEX
  5
1572
  8
SAPA_PROFIL
 10
65.232413117783267
 20
37.244358079063389
 30
0.0
 42
-0.4142135623730951
  0
VERTEX
  5
1573
  8
SAPA_PROFIL
 10
65.732413117783267
 20
36.744358079063389
 30
0.0
  0
VERTEX
  5
1574
  8
SAPA_PROFIL
 10
65.732413117783267
 20
28.755871805768681
 30
0.0
 42
-0.4142135623730951
  0
VERTEX
  5
1575
  8
SAPA_PROFIL
 10
65.232413117783267
 20
28.255871805768681
 30
0.0
  0
VERTEX
  5
1576
  8
SAPA_PROFIL
 10
63.73241311778326
 20
28.255871805768681
 30
0.0
  0
VERTEX
  5
1577
  8
SAPA_PROFIL
 10
63.73241311778326
 20
29.505871805768681
 30
0.0
  0
VERTEX
  5
1578
  8
SAPA_PROFIL
 10
63.722413117783283
 20
29.505871805768681
 30
0.0
 42
0.4142135623730951
  0
VERTEX
  5
1579
  8
SAPA_PROFIL
 10
62.732413117783267
 20
28.515871805768668
 30
0.0
  0
VERTEX
  5
157A
  8
SAPA_PROFIL
 10
62.732413117783381
 20
27.305871805768749
 30
0.0
 42
0.4142135623731505
  0
VERTEX
  5
157B
  8
SAPA_PROFIL
 10
63.032413117783328
 20
27.005871805768681
 30
0.0
  0
VERTEX
  5
157C
  8
SAPA_PROFIL
 10
66.932413117783312
 20
27.005871805768681
 30
0.0
 42
0.4142135623730395
  0
VERTEX
  5
157D
  8
SAPA_PROFIL
 10
67.232413117783267
 20
27.305871805768749
 30
0.0
  0
VERTEX
  5
157E
  8
SAPA_PROFIL
 10
67.232413117783153
 20
94.005871805768678
 30
0.0
  0
VERTEX
  5
157F
  8
SAPA_PROFIL
 10
64.232413117783153
 20
94.005871805768678
 30
0.0
  0
SEQEND
  5
1580
  8
SAPA_PROFIL
  0
POLYLINE
  5
E19
  8
SAPA_PROFIL
 66
     1
 10
0.0
 20
0.0
 30
0.0
 70
     1
  0
VERTEX
  5
1581
  8
SAPA_PROFIL
 10
43.832413117783169
 20
87.710871805768605
 30
0.0
 42
-0.4142135623730951
  0
VERTEX
  5
1582
  8
SAPA_PROFIL
 10
44.327413117783173
 20
88.205871805768624
 30
0.0
  0
VERTEX
  5
1583
  8
SAPA_PROFIL
 10
44.487413117783262
 20
88.205871805768624
 30
0.0
 42
0.4142135623730783
  0
VERTEX
  5
1584
  8
SAPA_PROFIL
 10
44.98241311778326
 20
88.700871805768628
 30
0.0
  0
VERTEX
  5
1585
  8
SAPA_PROFIL
 10
44.98241311778326
 20
89.505871805768692
 30
0.0
 42
0.3747564601179709
  0
VERTEX
  5
1586
  8
SAPA_PROFIL
 10
42.606808161019437
 20
92.230266849003073
 30
0.0
  0
VERTEX
  5
1587
  8
SAPA_PROFIL
 10
42.23241311778326
 20
91.85587180576826
 30
0.0
  0
VERTEX
  5
1588
  8
SAPA_PROFIL
 10
41.858018074546749
 20
92.230266849004778
 30
0.0
 42
0.3747564601179668
  0
VERTEX
  5
1589
  8
SAPA_PROFIL
 10
39.482413117783267
 20
89.505871805768805
 30
0.0
  0
VERTEX
  5
158A
  8
SAPA_PROFIL
 10
39.482413117783267
 20
88.700871805768742
 30
0.0
 42
0.4142135623730824
  0
VERTEX
  5
158B
  8
SAPA_PROFIL
 10
39.977413117783271
 20
88.205871805768737
 30
0.0
  0
VERTEX
  5
158C
  8
SAPA_PROFIL
 10
40.13741311778324
 20
88.205871805768737
 30
0.0
 42
-0.4142135623730951
  0
VERTEX
  5
158D
  8
SAPA_PROFIL
 10
40.632413117783237
 20
87.710871805768733
 30
0.0
  0
VERTEX
  5
158E
  8
SAPA_PROFIL
 10
40.632413117783237
 20
87.700871805768742
 30
0.0
 42
-0.4142135623730951
  0
VERTEX
  5
158F
  8
SAPA_PROFIL
 10
40.13741311778324
 20
87.205871805768737
 30
0.0
  0
VERTEX
  5
1590
  8
SAPA_PROFIL
 10
19.032413117783221
 20
87.205871805768737
 30
0.0
  0
VERTEX
  5
1591
  8
SAPA_PROFIL
 10
19.032413117783221
 20
51.305871805768639
 30
0.0
 42
0.4142135623730951
  0
VERTEX
  5
1592
  8
SAPA_PROFIL
 10
19.532413117783221
 20
50.805871805768639
 30
0.0
  0
VERTEX
  5
1593
  8
SAPA_PROFIL
 10
24.932413117783199
 20
50.805871805768639
 30
0.0
 42
-0.4142135623730951
  0
VERTEX
  5
1594
  8
SAPA_PROFIL
 10
25.932413117783199
 20
49.805871805768639
 30
0.0
  0
VERTEX
  5
1595
  8
SAPA_PROFIL
 10
25.932413117783309
 20
43.805871805768753
 30
0.0
 42
0.4142135623730951
  0
VERTEX
  5
1596
  8
SAPA_PROFIL
 10
26.432413117783309
 20
43.305871805768753
 30
0.0
  0
VERTEX
  5
1597
  8
SAPA_PROFIL
 10
29.212797875512589
 20
43.305871805768753
 30
0.0
  0
VERTEX
  5
1598
  8
SAPA_PROFIL
 10
29.73241311778327
 20
43.005871805768678
 30
0.0
  0
VERTEX
  5
1599
  8
SAPA_PROFIL
 10
30.252028360053941
 20
43.305871805768753
 30
0.0
  0
VERTEX
  5
159A
  8
SAPA_PROFIL
 10
33.732413117783267
 20
43.305871805768639
 30
0.0
  0
VERTEX
  5
159B
  8
SAPA_PROFIL
 10
33.732413117783267
 20
43.315871805768509
 30
0.0
  0
VERTEX
  5
159C
  8
SAPA_PROFIL
 10
34.422413117783208
 20
44.00587180576845
 30
0.0
  0
VERTEX
  5
159D
  8
SAPA_PROFIL
 10
41.712797875512592
 20
44.005871805768571
 30
0.0
  0
VERTEX
  5
159E
  8
SAPA_PROFIL
 10
42.23241311778326
 20
43.705871805768503
 30
0.0
  0
VERTEX
  5
159F
  8
SAPA_PROFIL
 10
42.752028360053927
 20
44.005871805768571
 30
0.0
  0
VERTEX
  5
15A0
  8
SAPA_PROFIL
 10
50.042413117783212
 20
44.005871805768571
 30
0.0
  0
VERTEX
  5
15A1
  8
SAPA_PROFIL
 10
50.732413117783267
 20
43.31587180576863
 30
0.0
  0
VERTEX
  5
15A2
  8
SAPA_PROFIL
 10
50.732413117783267
 20
43.305871805768639
 30
0.0
  0
VERTEX
  5
15A3
  8
SAPA_PROFIL
 10
55.712797875512699
 20
43.305871805768632
 30
0.0
  0
VERTEX
  5
15A4
  8
SAPA_PROFIL
 10
56.232413117783381
 20
43.005871805768678
 30
0.0
  0
VERTEX
  5
15A5
  8
SAPA_PROFIL
 10
56.752028360053941
 20
43.305871805768632
 30
0.0
  0
VERTEX
  5
15A6
  8
SAPA_PROFIL
 10
64.932413117783312
 20
43.305871805768632
 30
0.0
 42
0.4142135623730951
  0
VERTEX
  5
15A7
  8
SAPA_PROFIL
 10
65.432413117783312
 20
43.805871805768632
 30
0.0
  0
VERTEX
  5
15A8
  8
SAPA_PROFIL
 10
65.432413117783199
 20
87.205871805768609
 30
0.0
  0
VERTEX
  5
15A9
  8
SAPA_PROFIL
 10
44.327413117783173
 20
87.205871805768609
 30
0.0
 42
-0.4142135623730951
  0
VERTEX
  5
15AA
  8
SAPA_PROFIL
 10
43.832413117783169
 20
87.700871805768628
 30
0.0
  0
SEQEND
  5
15AB
  8
SAPA_PROFIL
  0
POLYLINE
  5
E1A
  8
SAPA_PROFIL
 66
     1
 10
0.0
 20
0.0
 30
0.0
  0
VERTEX
  5
15AC
  8
SAPA_PROFIL
 10
50.910857937149807
 20
96.884608791392125
 30
0.0
  0
VERTEX
  5
15AD
  8
SAPA_PROFIL
 10
50.229818003291513
 20
114.00587186984239
 30
0.0
 42
-0.4142135623730951
  0
VERTEX
  5
15AE
  8
SAPA_PROFIL
 10
50.729818003291513
 20
114.50587186984239
 30
0.0
  0
VERTEX
  5
15AF
  8
SAPA_PROFIL
 10
62.529431486300233
 20
114.50587186984239
 30
0.0
 42
-0.4076767287637263
  0
VERTEX
  5
15B0
  8
SAPA_PROFIL
 10
65.528681318689792
 20
111.57297551902541
 30
0.0
  0
VERTEX
  5
15B1
  8
SAPA_PROFIL
 10
65.683120540800587
 20
96.884608791392125
 30
0.0
 42
-0.4182129759575463
  0
VERTEX
  5
15B2
  8
SAPA_PROFIL
 10
65.187608819943421
 20
96.373447679336621
 30
0.0
  0
VERTEX
  5
15B3
  8
SAPA_PROFIL
 10
62.712961063824046
 20
96.360620077810907
 30
0.0
  0
VERTEX
  5
15B4
  8
SAPA_PROFIL
 10
61.086903107630491
 20
94.705931480187076
 30
0.0
  0
VERTEX
  5
15B5
  8
SAPA_PROFIL
 10
61.086903107630491
 20
90.156855445898884
 30
0.0
 42
0.4293387945586749
  0
VERTEX
  5
15B6
  8
SAPA_PROFIL
 10
61.405014243619831
 20
89.860128924814376
 30
0.0
  0
VERTEX
  5
15B7
  8
SAPA_PROFIL
 10
62.486469968890297
 20
89.932768600942097
 30
0.0
 42
0.4883397947196161
  0
VERTEX
  5
15B8
  8
SAPA_PROFIL
 10
62.265847034692086
 20
91.494490426950435
 30
0.0
  0
VERTEX
  5
15B9
  8
SAPA_PROFIL
 10
62.265847034692086
 20
94.193571702984855
 30
0.0
  0
VERTEX
  5
15BA
  8
SAPA_PROFIL
 10
63.22047025488996
 20
95.165003349360973
 30
0.0
  0
VERTEX
  5
15BB
  8
SAPA_PROFIL
 10
65.719596397775035
 20
95.165003349360973
 30
0.0
  0
VERTEX
  5
15BC
  8
SAPA_PROFIL
 10
65.719596397775035
 20
94.69122768284609
 30
0.0
  0
VERTEX
  5
15BD
  8
SAPA_PROFIL
 10
67.232413117783267
 20
94.69122768284609
 30
0.0
  0
VERTEX
  5
15BE
  8
SAPA_PROFIL
 10
67.232413117783381
 20
115.7085125765345
 30
0.0
 42
0.4116378201539302
  0
VERTEX
  5
15BF
  8
SAPA_PROFIL
 10
66.932424640113027
 20
116.00587186984239
 30
0.0
  0
VERTEX
  5
15C0
  8
SAPA_PROFIL
 10
38.529818003291517
 20
116.00587186984239
 30
0.0
 42
0.414213562373095
  0
VERTEX
  5
15C1
  8
SAPA_PROFIL
 10
38.229818003291449
 20
115.7058718698424
 30
0.0
  0
VERTEX
  5
15C2
  8
SAPA_PROFIL
 10
38.229818003291513
 20
114.4958718698424
 30
0.0
 42
0.4142135623731037
  0
VERTEX
  5
15C3
  8
SAPA_PROFIL
 10
39.219818003291472
 20
113.50587186984239
 30
0.0
  0
VERTEX
  5
15C4
  8
SAPA_PROFIL
 10
39.229818003291513
 20
113.50587186984239
 30
0.0
  0
VERTEX
  5
15C5
  8
SAPA_PROFIL
 10
39.229818003291513
 20
114.75587186984239
 30
0.0
  0
VERTEX
  5
15C6
  8
SAPA_PROFIL
 10
40.729818003291513
 20
114.75587186984239
 30
0.0
 42
-0.4142135623730951
  0
VERTEX
  5
15C7
  8
SAPA_PROFIL
 10
41.229818003291513
 20
114.25587186984239
 30
0.0
  0
VERTEX
  5
15C8
  8
SAPA_PROFIL
 10
41.229818003291513
 20
106.25587186984239
 30
0.0
 42
-0.4142135623730951
  0
VERTEX
  5
15C9
  8
SAPA_PROFIL
 10
40.729818003291513
 20
105.75587186984239
 30
0.0
  0
VERTEX
  5
15CA
  8
SAPA_PROFIL
 10
39.229818003291513
 20
105.75587186984239
 30
0.0
  0
VERTEX
  5
15CB
  8
SAPA_PROFIL
 10
39.229818003291513
 20
107.00587186984239
 30
0.0
  0
VERTEX
  5
15CC
  8
SAPA_PROFIL
 10
39.219818003291472
 20
107.00587186984239
 30
0.0
 42
0.414213562373095
  0
VERTEX
  5
15CD
  8
SAPA_PROFIL
 10
38.229818003291449
 20
106.0158718698424
 30
0.0
  0
VERTEX
  5
15CE
  8
SAPA_PROFIL
 10
38.229818003291513
 20
105.50587186984239
 30
0.0
 42
0.4142135623730953
  0
VERTEX
  5
15CF
  8
SAPA_PROFIL
 10
39.229818003291513
 20
104.50587186984239
 30
0.0
  0
VERTEX
  5
15D0
  8
SAPA_PROFIL
 10
40.729818003291513
 20
104.50587186984239
 30
0.0
 42
0.4142135623730951
  0
VERTEX
  5
15D1
  8
SAPA_PROFIL
 10
42.429818003291487
 20
106.2058718698424
 30
0.0
  0
VERTEX
  5
15D2
  8
SAPA_PROFIL
 10
42.429818003291558
 20
114.00587186984239
 30
0.0
 42
-0.414213562373095
  0
VERTEX
  5
15D3
  8
SAPA_PROFIL
 10
42.929818003291551
 20
114.50587186984239
 30
0.0
  0
VERTEX
  5
15D4
  8
SAPA_PROFIL
 10
48.429818003291551
 20
114.50587186984239
 30
0.0
 42
-0.4142135623730951
  0
VERTEX
  5
15D5
  8
SAPA_PROFIL
 10
48.929818003291558
 20
114.00587186984239
 30
0.0
  0
VERTEX
  5
15D6
  8
SAPA_PROFIL
 10
49.60102764975786
 20
96.884608791392125
 30
0.0
  0
VERTEX
  5
15D7
  8
SAPA_PROFIL
 10
50.257966100487209
 20
91.481662027642415
 30
0.0
 42
-0.4666505291506209
  0
VERTEX
  5
15D8
  8
SAPA_PROFIL
 10
49.99613456944266
 20
91.201860461723641
 30
0.0
  0
VERTEX
  5
15D9
  8
SAPA_PROFIL
 10
49.273478475883707
 20
91.241403355641964
 30
0.0
 42
0.7332303362618522
  0
VERTEX
  5
15DA
  8
SAPA_PROFIL
 10
49.073303887313521
 20
90.705327332989654
 30
0.0
  0
VERTEX
  5
15DB
  8
SAPA_PROFIL
 10
51.183411226851227
 20
89.934417215485254
 30
0.0
 42
0.668178637919333
  0
VERTEX
  5
15DC
  8
SAPA_PROFIL
 10
51.665759078942052
 20
90.207583410679547
 30
0.0
  0
VERTEX
  5
15DD
  8
SAPA_PROFIL
 10
50.910857937149807
 20
96.884608791392125
 30
0.0
  0
VERTEX
  5
15DE
  8
SAPA_PROFIL
 10
50.920391389312918
 20
96.884608791392125
 30
0.0
  0
SEQEND
  5
15DF
  8
SAPA_PROFIL
  0
POLYLINE
  5
E32
  8
SAPA_GLAS
 66
     1
 10
0.0
 20
0.0
 30
0.0
  0
VERTEX
  5
15ED
  8
SAPA_GLAS
 10
25.632413117783489
 20
127.8058718698402
 30
0.0
  0
VERTEX
  5
15EE
  8
SAPA_GLAS
 10
25.632413117783489
 20
99.005871869840121
 30
0.0
  0
VERTEX
  5
15EF
  8
SAPA_GLAS
 10
31.632413117783479
 20
99.005871869840121
 30
0.0
  0
VERTEX
  5
15F0
  8
SAPA_GLAS
 10
31.63241311778371
 20
127.8058718698402
 30
0.0
  0
SEQEND
  5
15F1
  8
SAPA_GLAS
  0
POLYLINE
  5
E45
  8
SAPA_FOGBAND
 66
     1
 10
0.0
 20
0.0
 30
0.0
 70
     1
  0
VERTEX
  5
1657
  8
SAPA_FOGBAND
 10
38.221664379988411
 20
105.49926971018949
 30
0.0
  0
VERTEX
  5
1658
  8
SAPA_FOGBAND
 10
38.221664379988411
 20
106.6992697101896
 30
0.0
 42
-0.4142135623730951
  0
VERTEX
  5
1659
  8
SAPA_FOGBAND
 10
38.521664379988373
 20
106.99926971018949
 30
0.0
  0
VERTEX
  5
165A
  8
SAPA_FOGBAND
 10
39.421664379988457
 20
106.99926971018949
 30
0.0
  0
VERTEX
  5
165B
  8
SAPA_FOGBAND
 10
39.421664379988457
 20
106.6492697101896
 30
0.0
 42
0.6681786379192988
  0
VERTEX
  5
165C
  8
SAPA_FOGBAND
 10
39.933796414344457
 20
106.4371376758336
 30
0.0
  0
VERTEX
  5
165D
  8
SAPA_FOGBAND
 10
40.787349804937563
 20
107.2906910664269
 30
0.0
 42
0.1989123673796552
  0
VERTEX
  5
165E
  8
SAPA_FOGBAND
 10
41.021664379988358
 20
107.856376491376
 30
0.0
  0
VERTEX
  5
165F
  8
SAPA_FOGBAND
 10
41.021664379988358
 20
108.0190716137958
 30
0.0
 42
0.3394542588633746
  0
VERTEX
  5
1660
  8
SAPA_FOGBAND
 10
40.799310093519139
 20
108.3088493616826
 30
0.0
  0
VERTEX
  5
1661
  8
SAPA_FOGBAND
 10
39.444018666457637
 20
108.6719986050725
 30
0.0
 42
-0.3394542588633746
  0
VERTEX
  5
1662
  8
SAPA_FOGBAND
 10
39.221664379988411
 20
108.9617763529593
 30
0.0
  0
VERTEX
  5
1663
  8
SAPA_FOGBAND
 10
39.221664379988411
 20
111.5367630674197
 30
0.0
 42
-0.3394542588633746
  0
VERTEX
  5
1664
  8
SAPA_FOGBAND
 10
39.444018666457637
 20
111.8265408153065
 30
0.0
  0
VERTEX
  5
1665
  8
SAPA_FOGBAND
 10
40.799310093519139
 20
112.1896900586967
 30
0.0
 42
0.3394542588633744
  0
VERTEX
  5
1666
  8
SAPA_FOGBAND
 10
41.021664379988358
 20
112.4794678065832
 30
0.0
  0
VERTEX
  5
1667
  8
SAPA_FOGBAND
 10
41.021664379988358
 20
112.64216292900321
 30
0.0
 42
0.1989123673796526
  0
VERTEX
  5
1668
  8
SAPA_FOGBAND
 10
40.787349804937563
 20
113.2078483539524
 30
0.0
  0
VERTEX
  5
1669
  8
SAPA_FOGBAND
 10
39.933796414344457
 20
114.06140174454571
 30
0.0
 42
0.6681786379193474
  0
VERTEX
  5
166A
  8
SAPA_FOGBAND
 10
39.421664379988457
 20
113.8492697101896
 30
0.0
  0
VERTEX
  5
166B
  8
SAPA_FOGBAND
 10
39.421664379988457
 20
113.49926971018949
 30
0.0
  0
VERTEX
  5
166C
  8
SAPA_FOGBAND
 10
38.521664379988373
 20
113.49926971018949
 30
0.0
 42
-0.4142135623730951
  0
VERTEX
  5
166D
  8
SAPA_FOGBAND
 10
38.221664379988411
 20
113.79926971018971
 30
0.0
  0
VERTEX
  5
166E
  8
SAPA_FOGBAND
 10
38.221664379988411
 20
115.8992697101896
 30
0.0
 42
-0.4142135623730951
  0
VERTEX
  5
166F
  8
SAPA_FOGBAND
 10
38.521664379988373
 20
116.1992697101896
 30
0.0
  0
VERTEX
  5
1670
  8
SAPA_FOGBAND
 10
39.921664379988457
 20
116.1992697101896
 30
0.0
 42
0.7754026414786132
  0
VERTEX
  5
1671
  8
SAPA_FOGBAND
 10
40.066372248294343
 20
116.7620617055972
 30
0.0
 42
-0.1086822875051356
  0
VERTEX
  5
1672
  8
SAPA_FOGBAND
 10
32.138289858157592
 20
120.9121098641881
 30
0.0
 42
0.8680589103334746
  0
VERTEX
  5
1673
  8
SAPA_FOGBAND
 10
31.78144995549566
 20
120.4371858344243
 30
0.0
  0
VERTEX
  5
1674
  8
SAPA_FOGBAND
 10
34.609250276639628
 20
116.46715043727269
 30
0.0
 42
-0.1989123673796536
  0
VERTEX
  5
1675
  8
SAPA_FOGBAND
 10
34.902143495452961
 20
115.760043656086
 30
0.0
  0
VERTEX
  5
1676
  8
SAPA_FOGBAND
 10
34.902143495452961
 20
112.92672469166629
 30
0.0
 42
-0.577350269189628
  0
VERTEX
  5
1677
  8
SAPA_FOGBAND
 10
34.452143495453143
 20
112.6669170705311
 30
0.0
  0
VERTEX
  5
1678
  8
SAPA_FOGBAND
 10
32.147389392098852
 20
114.8050457669428
 30
0.0
 42
0.8769764629927301
  0
VERTEX
  5
1679
  8
SAPA_FOGBAND
 10
31.785257357742701
 20
114.3331061114515
 30
0.0
  0
VERTEX
  5
167A
  8
SAPA_FOGBAND
 10
34.609250276639628
 20
110.3668781165468
 30
0.0
 42
-0.198912367379658
  0
VERTEX
  5
167B
  8
SAPA_FOGBAND
 10
34.902143495452961
 20
109.65977133536011
 30
0.0
  0
VERTEX
  5
167C
  8
SAPA_FOGBAND
 10
34.902143495452961
 20
107.4274969731386
 30
0.0
 42
-0.5773502691896441
  0
VERTEX
  5
167D
  8
SAPA_FOGBAND
 10
34.452143495453143
 20
107.16768935200319
 30
0.0
  0
VERTEX
  5
167E
  8
SAPA_FOGBAND
 10
32.148258145279229
 20
109.3053164735324
 30
0.0
 42
0.87697646299276
  0
VERTEX
  5
167F
  8
SAPA_FOGBAND
 10
31.786126110923089
 20
108.8333768180412
 30
0.0
  0
VERTEX
  5
1680
  8
SAPA_FOGBAND
 10
34.685104923953318
 20
104.7921629290031
 30
0.0
 42
0.198912367379658
  0
VERTEX
  5
1681
  8
SAPA_FOGBAND
 10
35.392211705139758
 20
104.49926971018949
 30
0.0
  0
VERTEX
  5
1682
  8
SAPA_FOGBAND
 10
37.221664379988411
 20
104.49926971018949
 30
0.0
  0
VERTEX
  5
1683
  8
SAPA_FOGBAND
 10
37.211732589675208
 20
104.49926971018949
 30
0.0
  0
SEQEND
  5
1684
  8
SAPA_FOGBAND
  0
POLYLINE
  5
E46
  8
SAPA_FOGBAND
 66
     1
 10
0.0
 20
0.0
 30
0.0
 70
     1
  0
VERTEX
  5
1685
  8
SAPA_FOGBAND
 10
22.729987446644841
 20
104.4992764575295
 30
0.0
 42
-0.4142135623730951
  0
VERTEX
  5
1686
  8
SAPA_FOGBAND
 10
21.729987446644841
 20
105.4992764575295
 30
0.0
  0
VERTEX
  5
1687
  8
SAPA_FOGBAND
 10
21.729987446644841
 20
106.69927645752951
 30
0.0
 42
0.4142135623730951
  0
VERTEX
  5
1688
  8
SAPA_FOGBAND
 10
21.42998744664488
 20
106.9992764575295
 30
0.0
  0
VERTEX
  5
1689
  8
SAPA_FOGBAND
 10
20.52998744664502
 20
106.9992764575295
 30
0.0
  0
VERTEX
  5
168A
  8
SAPA_FOGBAND
 10
20.52998744664502
 20
106.6492764575293
 30
0.0
 42
-0.6681786379193472
  0
VERTEX
  5
168B
  8
SAPA_FOGBAND
 10
20.01785541228902
 20
106.43714442317351
 30
0.0
  0
VERTEX
  5
168C
  8
SAPA_FOGBAND
 10
19.164302021695679
 20
107.2906978137667
 30
0.0
 42
-0.1989123673796526
  0
VERTEX
  5
168D
  8
SAPA_FOGBAND
 10
18.92998744664488
 20
107.85638323871601
 30
0.0
  0
VERTEX
  5
168E
  8
SAPA_FOGBAND
 10
18.92998744664488
 20
108.0190783611358
 30
0.0
 42
-0.3394542588633746
  0
VERTEX
  5
168F
  8
SAPA_FOGBAND
 10
19.15234173311411
 20
108.3088561090226
 30
0.0
  0
VERTEX
  5
1690
  8
SAPA_FOGBAND
 10
20.507633160175839
 20
108.6720053524125
 30
0.0
 42
0.3394542588633744
  0
VERTEX
  5
1691
  8
SAPA_FOGBAND
 10
20.729987446644841
 20
108.9617831002992
 30
0.0
  0
VERTEX
  5
1692
  8
SAPA_FOGBAND
 10
20.729987446644841
 20
111.53676981475969
 30
0.0
 42
0.3394542588633746
  0
VERTEX
  5
1693
  8
SAPA_FOGBAND
 10
20.507633160175839
 20
111.8265475626465
 30
0.0
  0
VERTEX
  5
1694
  8
SAPA_FOGBAND
 10
19.15234173311411
 20
112.18969680603639
 30
0.0
 42
-0.3394542588633747
  0
VERTEX
  5
1695
  8
SAPA_FOGBAND
 10
18.92998744664488
 20
112.4794745539231
 30
0.0
  0
VERTEX
  5
1696
  8
SAPA_FOGBAND
 10
18.92998744664488
 20
112.6421696763429
 30
0.0
 42
-0.1989123673796526
  0
VERTEX
  5
1697
  8
SAPA_FOGBAND
 10
19.164302021695679
 20
113.2078551012923
 30
0.0
  0
VERTEX
  5
1698
  8
SAPA_FOGBAND
 10
20.01785541228902
 20
114.0614084918854
 30
0.0
 42
-0.6681786379193474
  0
VERTEX
  5
1699
  8
SAPA_FOGBAND
 10
20.52998744664502
 20
113.8492764575296
 30
0.0
  0
VERTEX
  5
169A
  8
SAPA_FOGBAND
 10
20.52998744664502
 20
113.4992764575295
 30
0.0
  0
VERTEX
  5
169B
  8
SAPA_FOGBAND
 10
21.42998744664488
 20
113.4992764575295
 30
0.0
 42
0.4142135623730951
  0
VERTEX
  5
169C
  8
SAPA_FOGBAND
 10
21.729987446644841
 20
113.7992764575294
 30
0.0
  0
VERTEX
  5
169D
  8
SAPA_FOGBAND
 10
21.729987446644841
 20
115.8992764575296
 30
0.0
 42
0.4142135623730951
  0
VERTEX
  5
169E
  8
SAPA_FOGBAND
 10
21.429987446644891
 20
116.19927645752951
 30
0.0
  0
VERTEX
  5
169F
  8
SAPA_FOGBAND
 10
20.02998744664502
 20
116.19927645752951
 30
0.0
 42
-0.7754026414785753
  0
VERTEX
  5
16A0
  8
SAPA_FOGBAND
 10
19.885279578339141
 20
116.7620684529372
 30
0.0
  0
VERTEX
  5
16A1
  8
SAPA_FOGBAND
 10
25.155943376779781
 20
120.2817709634826
 30
0.0
 42
-0.8680589103334742
  0
VERTEX
  5
16A2
  8
SAPA_FOGBAND
 10
25.512783279441479
 20
119.806846933719
 30
0.0
  0
VERTEX
  5
16A3
  8
SAPA_FOGBAND
 10
23.522880665458398
 20
116.4671571846127
 30
0.0
 42
0.198912367379658
  0
VERTEX
  5
16A4
  8
SAPA_FOGBAND
 10
23.229987446644841
 20
115.76005040342601
 30
0.0
  0
VERTEX
  5
16A5
  8
SAPA_FOGBAND
 10
23.229987446644841
 20
112.9267314390063
 30
0.0
 42
0.5773502691896282
  0
VERTEX
  5
16A6
  8
SAPA_FOGBAND
 10
23.67998744664488
 20
112.66692381787099
 30
0.0
  0
VERTEX
  5
16A7
  8
SAPA_FOGBAND
 10
25.146843842838749
 20
114.1747068662373
 30
0.0
 42
-0.8769764629927299
  0
VERTEX
  5
16A8
  8
SAPA_FOGBAND
 10
25.508975877194651
 20
113.702767210746
 30
0.0
  0
VERTEX
  5
16A9
  8
SAPA_FOGBAND
 10
23.522880665458398
 20
110.3668848638867
 30
0.0
 42
0.198912367379658
  0
VERTEX
  5
16AA
  8
SAPA_FOGBAND
 10
23.229987446644841
 20
109.6597780827001
 30
0.0
  0
VERTEX
  5
16AB
  8
SAPA_FOGBAND
 10
23.229987446644841
 20
107.4275037204785
 30
0.0
 42
0.5773502691896282
  0
VERTEX
  5
16AC
  8
SAPA_FOGBAND
 10
23.67998744664488
 20
107.1676960993432
 30
0.0
  0
VERTEX
  5
16AD
  8
SAPA_FOGBAND
 10
25.145975089658361
 20
108.6749775728269
 30
0.0
 42
-0.8769764629927299
  0
VERTEX
  5
16AE
  8
SAPA_FOGBAND
 10
25.50810712401427
 20
108.20303791733561
 30
0.0
  0
VERTEX
  5
16AF
  8
SAPA_FOGBAND
 10
23.447026018144712
 20
104.79216967634299
 30
0.0
 42
-0.198912367379658
  0
VERTEX
  5
16B0
  8
SAPA_FOGBAND
 10
22.739919236958041
 20
104.4992764575295
 30
0.0
  0
SEQEND
  5
16B1
  8
SAPA_FOGBAND
  0
LINE
  5
E47
  8
SAPA_FOGBAND
 10
28.786998366551799
 20
28.259630158812989
 30
0.0
 11
29.98152960960072
 21
21.710169221912761
 31
0.0
  0
POLYLINE
  5
E48
  8
SAPA_FOGBAND
 66
     1
 10
0.0
 20
0.0
 30
0.0
 70
     1
  0
VERTEX
  5
16B2
  8
SAPA_FOGBAND
 10
25.984524465627761
 20
28.259630158812989
 30
0.0
  0
VERTEX
  5
16B3
  8
SAPA_FOGBAND
 10
30.580301769938998
 20
28.259630158812989
 30
0.0
  0
VERTEX
  5
16B4
  8
SAPA_FOGBAND
 10
30.580301769938998
 20
28.466493242329051
 30
0.0
  0
VERTEX
  5
16B5
  8
SAPA_FOGBAND
 10
25.984524465627761
 20
28.466493242329051
 30
0.0
  0
SEQEND
  5
16B6
  8
SAPA_FOGBAND
  0
LINE
  5
E49
  8
SAPA_FOGBAND
 10
27.865290802226738
 20
28.259630158812989
 30
0.0
 11
26.511717744845491
 21
21.641214860740739
 31
0.0
  0
LINE
  5
E4A
  8
SAPA_FOGBAND
 10
28.038048093207109
 20
28.259630158812989
 30
0.0
 11
27.31597877310007
 21
21.664199647798089
 31
0.0
  0
LINE
  5
E4B
  8
SAPA_FOGBAND
 10
28.49650696994097
 20
28.259630158812989
 30
0.0
 11
29.0164163756953
 21
21.710169221912761
 31
0.0
  0
LINE
  5
E4C
  8
SAPA_FOGBAND
 10
28.28171678788879
 20
28.259630158812989
 30
0.0
 11
28.281092007005491
 21
21.7331540089701
 31
0.0
  0
POLYLINE
  5
E4D
  8
SAPA_FOGBAND
 66
     1
 10
0.0
 20
0.0
 30
0.0
 70
     1
  0
VERTEX
  5
16B7
  8
SAPA_FOGBAND
 10
55.984524465627423
 20
28.259630158812769
 30
0.0
  0
VERTEX
  5
16B8
  8
SAPA_FOGBAND
 10
60.580301769938657
 20
28.259630158812769
 30
0.0
  0
VERTEX
  5
16B9
  8
SAPA_FOGBAND
 10
60.580301769938657
 20
28.466493242328831
 30
0.0
  0
VERTEX
  5
16BA
  8
SAPA_FOGBAND
 10
55.984524465627423
 20
28.466493242328831
 30
0.0
  0
SEQEND
  5
16BB
  8
SAPA_FOGBAND
  0
LINE
  5
E4E
  8
SAPA_FOGBAND
 10
57.86529080222639
 20
28.259630158812769
 30
0.0
 11
56.511717744845143
 21
21.641214860740519
 31
0.0
  0
LINE
  5
E4F
  8
SAPA_FOGBAND
 10
58.038048093206768
 20
28.259630158812769
 30
0.0
 11
57.315978773099722
 21
21.664199647797862
 31
0.0
  0
LINE
  5
E50
  8
SAPA_FOGBAND
 10
58.786998366551458
 20
28.259630158812769
 30
0.0
 11
59.981529609600372
 21
21.71016922191254
 31
0.0
  0
LINE
  5
E51
  8
SAPA_FOGBAND
 10
58.496506969940619
 20
28.259630158812769
 30
0.0
 11
59.016416375694959
 21
21.71016922191254
 31
0.0
  0
LINE
  5
E52
  8
SAPA_FOGBAND
 10
58.281716787888442
 20
28.259630158812769
 30
0.0
 11
58.281092007005142
 21
21.73315400896988
 31
0.0
  0
TEXT
  5
E7D
  8
SAPA_MATT
 62
     2
 10
44.52060890353723
 20
-18.44508212926695
 30
0.0
 40
3.0
  1
59
  7
ISO
  0
TEXT
  5
E7E
  8
SAPA_MATT
 62
     2
 10
-3.6763466838924619
 20
69.298481587265996
 30
0.0
 40
3.0
  1
89
 50
90.0
  7
ISO
  0
TEXT
  5
E7F
  8
SAPA_MATT
 62
     2
 10
-3.676346683892465
 20
12.64373977057801
 30
0.0
 40
3.0
  1
15
 50
90.0
  7
ISO
  0
TEXT
  5
E80
  8
SAPA_MATT
 62
     2
 10
-16.651107667246521
 20
58.548481586848837
 30
0.0
 40
3.0
  1
109
 50
90.0
  7
ISO
  0
TEXT
  5
E81
  8
SAPA_MATT
 62
     2
 10
-3.6763466838924641
 20
23.393739770995229
 30
0.0
 40
3.0
  1
5
 50
90.0
  7
ISO
  0
TEXT
  5
E82
  8
SAPA_MATT
 62
     2
 10
40.131232015421283
 20
-8.5687513615894773
 30
0.0
 40
3.0
  1
50
  7
ISO
  0
SOLID
  5
E83
  8
SAPA_MATT
 10
64.232413117783494
 20
-9.0687513615894773
 30
0.0
 11
64.232413117783494
 21
-10.068751361589481
 31
0.0
 12
67.232413117783494
 22
-9.5687513615894773
 32
0.0
 13
67.232413117783494
 23
-9.5687513615894773
 33
0.0
  0
SOLID
  5
E84
  8
SAPA_MATT
 10
20.232413117783491
 20
-9.0687513615894773
 30
0.0
 11
20.232413117783491
 21
-10.068751361589481
 31
0.0
 12
17.232413117783491
 22
-9.5687513615894773
 32
0.0
 13
17.232413117783491
 23
-9.5687513615894773
 33
0.0
  0
LINE
  5
E85
  8
SAPA_MATT
 10
20.232413117783491
 20
-9.5687513615894773
 30
0.0
 11
64.232413117783494
 21
-9.5687513615894773
 31
0.0
  0
LINE
  5
E86
  8
SAPA_MATT
 10
67.232413117783494
 20
1.0058718057687199
 30
0.0
 11
67.232413117783494
 21
-11.06875136158947
 31
0.0
  0
LINE
  5
E87
  8
SAPA_MATT
 10
17.232413117783491
 20
1.0058718057687199
 30
0.0
 11
17.232413117783491
 21
-11.06875136158947
 31
0.0
  0
SOLID
  5
E88
  8
SAPA_MATT
 10
-3.1763466838924592
 20
30.00587180576856
 30
0.0
 11
-2.1763466838924592
 21
30.00587180576856
 31
0.0
 12
-2.6763466838924601
 22
27.00587180576856
 32
0.0
 13
-2.6763466838924601
 23
27.00587180576856
 33
0.0
  0
SOLID
  5
E89
  8
SAPA_MATT
 10
-3.176346683892461
 20
19.005871804933829
 30
0.0
 11
-2.176346683892461
 21
19.005871804933829
 31
0.0
 12
-2.676346683892461
 22
22.005871804933829
 32
0.0
 13
-2.676346683892461
 23
22.005871804933829
 33
0.0
  0
LINE
  5
E8A
  8
SAPA_MATT
 10
-2.676346683892461
 20
22.005871804933829
 30
0.0
 11
-2.6763466838924601
 21
27.00587180576856
 31
0.0
  0
LINE
  5
E8B
  8
SAPA_MATT
 10
-2.6763466838924592
 20
30.00587180576856
 30
0.0
 11
-2.6763466838924579
 21
33.005871805768557
 31
0.0
  0
LINE
  5
E8C
  8
SAPA_MATT
 10
-2.676346683892461
 20
19.005871804933829
 30
0.0
 11
-2.6763466838924619
 21
16.005871804933829
 31
0.0
  0
LINE
  5
E8D
  8
SAPA_MATT
 10
16.227999122039879
 20
27.00587180576855
 30
0.0
 11
-4.1763466838924579
 21
27.00587180576856
 31
0.0
  0
LINE
  5
E8E
  8
SAPA_MATT
 10
16.22799912203989
 20
22.005871804933818
 30
0.0
 11
-4.1763466838924588
 21
22.005871804933829
 31
0.0
  0
SOLID
  5
E8F
  8
SAPA_MATT
 10
-16.151107667246489
 20
113.00587180576881
 30
0.0
 11
-15.151107667246491
 21
113.00587180576881
 31
0.0
 12
-15.651107667246491
 22
116.00587180576881
 32
0.0
 13
-15.651107667246491
 23
116.00587180576881
 33
0.0
  0
SOLID
  5
E90
  8
SAPA_MATT
 10
-16.151107667246521
 20
10.00587180493414
 30
0.0
 11
-15.151107667246521
 21
10.00587180493414
 31
0.0
 12
-15.651107667246521
 22
7.0058718049341397
 32
0.0
 13
-15.651107667246521
 23
7.0058718049341397
 33
0.0
  0
LINE
  5
E91
  8
SAPA_MATT
 10
-15.651107667246521
 20
10.00587180493414
 30
0.0
 11
-15.651107667246491
 21
113.00587180576881
 31
0.0
  0
LINE
  5
E92
  8
SAPA_MATT
 10
16.22799912204146
 20
116.00587180576881
 30
0.0
 11
-17.151107667246489
 21
116.00587180576881
 31
0.0
  0
LINE
  5
E93
  8
SAPA_MATT
 10
16.227999122039868
 20
7.0058718049341309
 30
0.0
 11
-17.151107667246521
 21
7.0058718049341397
 31
0.0
  0
SOLID
  5
E94
  8
SAPA_MATT
 10
-3.176346683892461
 20
19.005871804933818
 30
0.0
 11
-2.176346683892461
 21
19.005871804933818
 31
0.0
 12
-2.676346683892461
 22
22.005871804933818
 32
0.0
 13
-2.676346683892461
 23
22.005871804933818
 33
0.0
  0
SOLID
  5
E95
  8
SAPA_MATT
 10
-3.1763466838924641
 20
10.00587180493414
 30
0.0
 11
-2.1763466838924641
 21
10.00587180493414
 31
0.0
 12
-2.6763466838924641
 22
7.0058718049341371
 32
0.0
 13
-2.6763466838924641
 23
7.0058718049341371
 33
0.0
  0
LINE
  5
E96
  8
SAPA_MATT
 10
-2.6763466838924641
 20
10.00587180493414
 30
0.0
 11
-2.676346683892461
 21
19.005871804933818
 31
0.0
  0
LINE
  5
E97
  8
SAPA_MATT
 10
15.727999122039879
 20
22.005871804933818
 30
0.0
 11
-4.1763466838924588
 21
22.005871804933818
 31
0.0
  0
LINE
  5
E98
  8
SAPA_MATT
 10
15.72799912203987
 20
7.0058718049341318
 30
0.0
 11
-4.1763466838924632
 21
7.0058718049341371
 31
0.0
  0
SOLID
  5
E99
  8
SAPA_MATT
 10
-3.176346683892441
 20
113.00587180576881
 30
0.0
 11
-2.176346683892441
 21
113.00587180576881
 31
0.0
 12
-2.6763466838924401
 22
116.00587180576881
 32
0.0
 13
-2.6763466838924401
 23
116.00587180576881
 33
0.0
  0
SOLID
  5
E9A
  8
SAPA_MATT
 10
-3.1763466838924592
 20
30.00587180576845
 30
0.0
 11
-2.1763466838924592
 21
30.00587180576845
 31
0.0
 12
-2.6763466838924601
 22
27.00587180576845
 32
0.0
 13
-2.6763466838924601
 23
27.00587180576845
 33
0.0
  0
LINE
  5
E9B
  8
SAPA_MATT
 10
-2.6763466838924592
 20
30.00587180576845
 30
0.0
 11
-2.676346683892441
 21
113.00587180576881
 31
0.0
  0
LINE
  5
E9C
  8
SAPA_MATT
 10
15.73241311778323
 20
116.00587180576881
 30
0.0
 11
-4.1763466838924392
 21
116.00587180576881
 31
0.0
  0
LINE
  5
E9D
  8
SAPA_MATT
 10
15.73241311778326
 20
27.00587180576845
 30
0.0
 11
-4.1763466838924579
 21
27.00587180576845
 31
0.0
  0
SOLID
  5
E9E
  8
SAPA_MATT
 10
73.227999122039876
 20
-18.94508212926695
 30
0.0
 11
73.227999122039876
 21
-19.94508212926695
 31
0.0
 12
76.227999122039876
 22
-19.44508212926695
 32
0.0
 13
76.227999122039876
 23
-19.44508212926695
 33
0.0
  0
SOLID
  5
E9F
  8
SAPA_MATT
 10
20.227999122039868
 20
-18.94508212926695
 30
0.0
 11
20.227999122039868
 21
-19.94508212926695
 31
0.0
 12
17.227999122039868
 22
-19.44508212926695
 32
0.0
 13
17.227999122039868
 23
-19.44508212926695
 33
0.0
  0
LINE
  5
EA0
  8
SAPA_MATT
 10
20.227999122039868
 20
-19.44508212926695
 30
0.0
 11
73.227999122039876
 21
-19.44508212926695
 31
0.0
  0
LINE
  5
EA1
  8
SAPA_MATT
 10
76.227999122039876
 20
5.5058718049341087
 30
0.0
 11
76.227999122039876
 21
-20.94508212926695
 31
0.0
  0
LINE
  5
EA2
  8
SAPA_MATT
 10
17.227999122039868
 20
5.5058718049341211
 30
0.0
 11
17.227999122039868
 21
-20.94508212926695
 31
0.0
  0
ENDSEC
  0
EOF
