  0
SECTION
  2
HEADER
  9
$ACADVER
  1
AC1009
  9
$INSBASE
 10
38.163526022609261
 20
444.14249232610922
 30
0.0
  9
$EXTMIN
 10
-10.04059152309531
 20
-10.99999999999994
 30
0.0
  9
$EXTMAX
 10
77.659408476904616
 20
116.57585048885581
 30
0.0
  9
$LIMMIN
 10
0.0
 20
0.0
  9
$LIMMAX
 10
998.0
 20
710.0
  9
$ORTHOMODE
 70
     1
  9
$REGENMODE
 70
     1
  9
$FILLMODE
 70
     1
  9
$QTEXTMODE
 70
     0
  9
$MIRRTEXT
 70
     1
  9
$DRAGMODE
 70
     2
  9
$LTSCALE
 40
7.0
  9
$OSMODE
 70
   167
  9
$ATTMODE
 70
     1
  9
$TEXTSIZE
 40
6.0
  9
$TRACEWID
 40
0.05
  9
$TEXTSTYLE
  7
ISO
  9
$CLAYER
  8
0
  9
$CELTYPE
  6
BYLAYER
  9
$CECOLOR
 62
   256
  9
$DIMSCALE
 40
0.0
  9
$DIMASZ
 40
3.0
  9
$DIMEXO
 40
1.5
  9
$DIMDLI
 40
10.0
  9
$DIMRND
 40
0.0
  9
$DIMDLE
 40
0.0
  9
$DIMEXE
 40
1.5
  9
$DIMTP
 40
0.0
  9
$DIMTM
 40
0.0
  9
$DIMTXT
 40
3.0
  9
$DIMCEN
 40
-5.0
  9
$DIMTSZ
 40
0.0
  9
$DIMTOL
 70
     0
  9
$DIMLIM
 70
     0
  9
$DIMTIH
 70
     0
  9
$DIMTOH
 70
     1
  9
$DIMSE1
 70
     0
  9
$DIMSE2
 70
     0
  9
$DIMTAD
 70
     1
  9
$DIMZIN
 70
     8
  9
$DIMBLK
  1

  9
$DIMASO
 70
     1
  9
$DIMSHO
 70
     1
  9
$DIMPOST
  1

  9
$DIMAPOST
  1

  9
$DIMALT
 70
     0
  9
$DIMALTD
 70
     0
  9
$DIMALTF
 40
25.399999999999999
  9
$DIMLFAC
 40
-1.0
  9
$DIMTOFL
 70
     1
  9
$DIMTVP
 40
0.0
  9
$DIMTIX
 70
     0
  9
$DIMSOXD
 70
     0
  9
$DIMSAH
 70
     0
  9
$DIMBLK1
  1

  9
$DIMBLK2
  1

  9
$DIMSTYLE
  2
MASKIN
  9
$DIMCLRD
 70
   256
  9
$DIMCLRE
 70
   256
  9
$DIMCLRT
 70
     2
  9
$DIMTFAC
 40
1.0
  9
$DIMGAP
 40
1.0
  9
$LUNITS
 70
     2
  9
$LUPREC
 70
     2
  9
$SKETCHINC
 40
0.1
  9
$FILLETRAD
 40
0.0
  9
$AUNITS
 70
     0
  9
$AUPREC
 70
     2
  9
$MENU
  1
ACAD
  9
$ELEVATION
 40
0.0
  9
$PELEVATION
 40
0.0
  9
$THICKNESS
 40
0.0
  9
$LIMCHECK
 70
     0
  9
$BLIPMODE
 70
     0
  9
$CHAMFERA
 40
0.0
  9
$CHAMFERB
 40
0.0
  9
$SKPOLY
 70
     0
  9
$TDCREATE
 40
2450345.6217337959
  9
$TDUPDATE
 40
2454966.6491090162
  9
$TDINDWG
 40
0.3743894444
  9
$TDUSRTIMER
 40
0.3743894444
  9
$USRTIMER
 70
     1
  9
$ANGBASE
 50
0.0
  9
$ANGDIR
 70
     0
  9
$PDMODE
 70
     3
  9
$PDSIZE
 40
0.0
  9
$PLINEWID
 40
0.0
  9
$COORDS
 70
     1
  9
$SPLFRAME
 70
     0
  9
$SPLINETYPE
 70
     6
  9
$SPLINESEGS
 70
     8
  9
$ATTDIA
 70
     0
  9
$ATTREQ
 70
     1
  9
$HANDLING
 70
     1
  9
$HANDSEED
  5
B13
  9
$SURFTAB1
 70
     6
  9
$SURFTAB2
 70
     6
  9
$SURFTYPE
 70
     6
  9
$SURFU
 70
     6
  9
$SURFV
 70
     6
  9
$UCSNAME
  2

  9
$UCSORG
 10
0.0
 20
0.0
 30
0.0
  9
$UCSXDIR
 10
1.0
 20
0.0
 30
0.0
  9
$UCSYDIR
 10
0.0
 20
1.0
 30
0.0
  9
$PUCSNAME
  2

  9
$PUCSORG
 10
0.0
 20
0.0
 30
0.0
  9
$PUCSXDIR
 10
1.0
 20
0.0
 30
0.0
  9
$PUCSYDIR
 10
0.0
 20
1.0
 30
0.0
  9
$USERI1
 70
     0
  9
$USERI2
 70
     0
  9
$USERI3
 70
     0
  9
$USERI4
 70
     0
  9
$USERI5
 70
     0
  9
$USERR1
 40
0.0
  9
$USERR2
 40
0.0
  9
$USERR3
 40
0.0
  9
$USERR4
 40
0.0
  9
$USERR5
 40
0.0
  9
$WORLDVIEW
 70
     1
  9
$SHADEDGE
 70
     1
  9
$SHADEDIF
 70
    70
  9
$TILEMODE
 70
     1
  9
$MAXACTVP
 70
    16
  9
$PLIMCHECK
 70
     0
  9
$PEXTMIN
 10
1.0000000000000000E+020
 20
1.0000000000000000E+020
 30
1.0000000000000000E+020
  9
$PEXTMAX
 10
-1.0000000000000000E+020
 20
-1.0000000000000000E+020
 30
-1.0000000000000000E+020
  9
$PLIMMIN
 10
-0.1666668268639272
 20
-0.166666657905879
  9
$PLIMMAX
 10
10.833332932840181
 20
8.3333331017982317
  9
$UNITMODE
 70
     0
  9
$VISRETAIN
 70
     1
  9
$PLINEGEN
 70
     0
  9
$PSLTSCALE
 70
     1
  0
ENDSEC
  0
SECTION
  2
TABLES
  0
TABLE
  2
VPORT
 70
     1
  0
VPORT
  2
*ACTIVE
 70
     0
 10
0.0
 20
0.0
 11
1.0
 21
1.0
 12
99.765667970441072
 22
67.863609704912676
 13
0.0
 23
0.0
 14
5.0
 24
5.0
 15
10.0
 25
10.0
 16
0.0
 26
0.0
 36
1.0
 17
0.0
 27
0.0
 37
0.0
 40
205.80384626256679
 41
2.362776025236593
 42
50.0
 43
0.0
 44
0.0
 50
0.0
 51
0.0
 71
     0
 72
   100
 73
     1
 74
     0
 75
     0
 76
     0
 77
     0
 78
     2
  0
ENDTAB
  0
TABLE
  2
LTYPE
 70
     2
  0
LTYPE
  2
CONTINUOUS
 70
     0
  3
Solid line
 72
    65
 73
     0
 40
0.0
  0
LTYPE
  2
BYGG-014554$0$NEWDOT
 70
     0
  3
____ . ____ . ____ . ____ . ____ . ____ . ____
 72
    65
 73
     4
 40
2.0
 49
1.0
 49
-0.5
 49
0.0
 49
-0.5
  0
ENDTAB
  0
TABLE
  2
LAYER
 70
    27
  0
LAYER
  2
0
 70
     0
 62
     7
  6
CONTINUOUS
  0
LAYER
  2
SAPA_ANSLUTNING
 70
     0
 62
     6
  6
CONTINUOUS
  0
LAYER
  2
SAPA_PROFIL
 70
     0
 62
     7
  6
CONTINUOUS
  0
ENDTAB
  0
TABLE
  2
STYLE
 70
     6
  0
STYLE
  2
STANDARD
 70
     0
 40
0.0
 41
1.0
 50
0.0
 71
     0
 42
0.2
  3
txt
  4

  0
STYLE
  2
ISO
 70
     0
 40
0.0
 41
1.0
 50
0.0
 71
     0
 42
6.0
  3
isocp3.shx
  4

  0
STYLE
  2
BYGG-023642$0$STANDARD
 70
     0
 40
0.0
 41
1.0
 50
0.0
 71
     0
 42
0.2
  3
txt
  4

  0
STYLE
  2
BYGG-023642$0$ISO
 70
     0
 40
0.0
 41
1.0
 50
0.0
 71
     0
 42
3.5
  3
txt
  4

  0
STYLE
  2
BYGG-014554$0$STANDARD
 70
     0
 40
0.0
 41
1.0
 50
0.0
 71
     0
 42
0.2
  3
txt
  4

  0
STYLE
  2
BYGG-014554$0$ISO
 70
     0
 40
0.0
 41
1.0
 50
0.0
 71
     0
 42
2.5
  3
isocp3.shx
  4

  0
ENDTAB
  0
TABLE
  2
VIEW
 70
     0
  0
ENDTAB
  0
TABLE
  2
UCS
 70
     0
  0
ENDTAB
  0
TABLE
  2
APPID
 70
    18
  0
APPID
  2
ACAD
 70
     0
  0
APPID
  2
ACAD_PSEXT
 70
     0
  0
APPID
  2
ACAECLAYERSTANDARD
 70
     0
  0
APPID
  2
ACAD_MLEADERVER
 70
     0
  0
APPID
  2
ACAD_DSTYLE_DIMTEXT_FILL
 70
     0
  0
APPID
  2
ACAD_DSTYLE_DIMEXT_LENGTH
 70
     0
  0
APPID
  2
ACAD_DSTYLE_DIMEXT_ENABLED
 70
     0
  0
APPID
  2
ACAD_DSTYLE_DIM_LINETYPE
 70
     0
  0
APPID
  2
ACAD_DSTYLE_DIM_EXT1_LINETYPE
 70
     0
  0
APPID
  2
ACAD_DSTYLE_DIM_EXT2_LINETYPE
 70
     0
  0
APPID
  2
ACAD_DSTYLE_DIMJOGGED_JOGA
 70
     0
  0
APPID
  2
ACAD_DSTYLE_DIMARC_LENGTH_
 70
     0
  0
APPID
  2
AMG_ARCHIVE11
 70
     0
  0
APPID
  2
ACAD_EXEMPT_FROM_CAD_STANDARDS
 70
     0
  0
APPID
  2
ACDBBLOCKREPETAG
 70
     0
  0
APPID
  2
ACAD_DSTYLE_DIMJAG
 70
     0
  0
APPID
  2
ACAD_DSTYLE_DIMTALN
 70
     0
  0
APPID
  2
ACADANNOTATIVE
 70
     0
  0
ENDTAB
  0
TABLE
  2
DIMSTYLE
 70
     4
  0
DIMSTYLE
  2
MASKIN
 70
     0
  3

  4

  5

  6

  7

 40
0.0
 41
3.0
 42
1.5
 43
10.0
 44
1.5
 45
0.0
 46
0.0
 47
0.0
 48
0.0
140
3.0
141
-5.0
142
0.0
143
25.399999999999999
144
-1.0
145
0.0
146
1.0
147
1.0
 71
     0
 72
     0
 73
     0
 74
     1
 75
     0
 76
     0
 77
     1
 78
     8
170
     0
171
     0
172
     1
173
     0
174
     0
175
     0
176
   256
177
   256
178
     2
  0
DIMSTYLE
  2
BYGG-023642$0$MASKIN
 70
     0
  3

  4

  5

  6

  7

 40
0.0
 41
3.0
 42
1.5
 43
10.0
 44
1.5
 45
0.0
 46
0.0
 47
0.0
 48
0.0
140
3.0
141
-5.0
142
0.0
143
25.399999999999999
144
-1.0
145
0.0
146
1.0
147
1.0
 71
     0
 72
     0
 73
     0
 74
     0
 75
     0
 76
     0
 77
     1
 78
     8
170
     0
171
     0
172
     1
173
     0
174
     0
175
     0
176
   256
177
   256
178
     2
  0
DIMSTYLE
  2
BYGG-014554$0$STANDARD
 70
     0
  3

  4

  5

  6

  7

 40
1.0
 41
0.18
 42
0.0625
 43
0.38
 44
0.18
 45
0.0
 46
0.0
 47
0.0
 48
0.0
140
0.18
141
0.09
142
0.0
143
25.399999999999999
144
1.0
145
0.0
146
1.0
147
0.09
 71
     0
 72
     0
 73
     1
 74
     1
 75
     0
 76
     0
 77
     0
 78
     0
170
     0
171
     2
172
     0
173
     0
174
     0
175
     0
176
     0
177
     0
178
     0
  0
DIMSTYLE
  2
BYGG-014554$0$MASKIN
 70
     0
  3

  4

  5

  6

  7

 40
0.0
 41
3.0
 42
1.5
 43
10.0
 44
1.5
 45
0.0
 46
0.0
 47
0.0
 48
0.0
140
3.0
141
-5.0
142
0.0
143
25.399999999999999
144
-1.0
145
0.0
146
1.0
147
1.0
 71
     0
 72
     0
 73
     0
 74
     1
 75
     0
 76
     0
 77
     1
 78
     8
170
     0
171
     0
172
     1
173
     0
174
     0
175
     0
176
   256
177
   256
178
     2
  0
ENDTAB
  0
ENDSEC
  0
SECTION
  2
BLOCKS
  0
BLOCK
  8
0
  2
$MODEL_SPACE
 70
     0
 10
0.0
 20
0.0
 30
0.0
  3
$MODEL_SPACE
  1

  0
ENDBLK
  5
D
  8
0
  0
BLOCK
 67
     1
  8
0
  2
$PAPER_SPACE
 70
     0
 10
0.0
 20
0.0
 30
0.0
  3
$PAPER_SPACE
  1

  0
ENDBLK
  5
12
 67
     1
  8
0
  0
BLOCK
  8
0
  2
*X7
 70
     1
 10
0.0
 20
0.0
 30
0.0
  3
*X7
  1

  0
LINE
  5
969
  8
0
 62
     0
 10
-9.7146700802605768
 20
80.406337941085511
 30
0.0
 11
-7.8083321391750689
 21
78.5
 31
0.0
  0
LINE
  5
96A
  8
0
 62
     0
 10
-9.7146700802605732
 20
84.896466001620084
 30
0.0
 11
-3.318204078640492
 21
78.5
 31
0.0
  0
LINE
  5
96B
  8
0
 62
     0
 10
-9.7146700802605679
 20
89.386594062154657
 30
0.0
 11
1.1719239818940821
 21
78.5
 31
0.0
  0
LINE
  5
96C
  8
0
 62
     0
 10
-9.7146700802605643
 20
93.876722122689216
 30
0.0
 11
5.6620520424286598
 21
78.5
 31
0.0
  0
LINE
  5
96D
  8
0
 62
     0
 10
-9.7146700802605697
 20
98.366850183223804
 30
0.0
 11
10.15218010296323
 21
78.499999999999986
 31
0.0
  0
LINE
  5
96E
  8
0
 62
     0
 10
-9.7146700802605679
 20
102.85697824375831
 30
0.0
 11
14.64230816349782
 21
78.499999999999986
 31
0.0
  0
LINE
  5
96F
  8
0
 62
     0
 10
-9.7146700802605608
 20
107.34710630429289
 30
0.0
 11
19.132436224032389
 21
78.499999999999986
 31
0.0
  0
LINE
  5
970
  8
0
 62
     0
 10
-9.7146700802605608
 20
111.83723436482749
 30
0.0
 11
23.62256428456697
 21
78.499999999999986
 31
0.0
  0
LINE
  5
971
  8
0
 62
     0
 10
-9.7146700802605537
 20
116.3273624253621
 30
0.0
 11
28.11269234510155
 21
78.499999999999986
 31
0.0
  0
LINE
  5
972
  8
0
 62
     0
 10
-5.4730300832196512
 20
116.57585048885581
 30
0.0
 11
32.60282040563613
 21
78.499999999999986
 31
0.0
  0
LINE
  5
973
  8
0
 62
     0
 10
-0.9829020226850779
 20
116.57585048885581
 30
0.0
 11
37.092948466170697
 21
78.499999999999986
 31
0.0
  0
LINE
  5
974
  8
0
 62
     0
 10
3.5072260378494948
 20
116.57585048885581
 30
0.0
 11
41.58307652670527
 21
78.5
 31
0.0
  0
LINE
  5
975
  8
0
 62
     0
 10
7.9973540983840676
 20
116.57585048885581
 30
0.0
 11
46.07320458723985
 21
78.499999999999986
 31
0.0
  0
LINE
  5
976
  8
0
 62
     0
 10
12.48748215891864
 20
116.57585048885581
 30
0.0
 11
50.563332647774423
 21
78.499999999999986
 31
0.0
  0
LINE
  5
977
  8
0
 62
     0
 10
16.977610219453211
 20
116.57585048885581
 30
0.0
 11
55.05346070830899
 21
78.5
 31
0.0
  0
LINE
  5
978
  8
0
 62
     0
 10
21.467738279987799
 20
116.57585048885581
 30
0.0
 11
59.543588768843577
 21
78.499999999999986
 31
0.0
  0
LINE
  5
979
  8
0
 62
     0
 10
25.957866340522379
 20
116.57585048885571
 30
0.0
 11
64.033716829378164
 21
78.499999999999972
 31
0.0
  0
LINE
  5
97A
  8
0
 62
     0
 10
30.447994401056949
 20
116.57585048885571
 30
0.0
 11
68.523844889912723
 21
78.499999999999972
 31
0.0
  0
LINE
  5
97B
  8
0
 62
     0
 10
34.938122461591533
 20
116.57585048885581
 30
0.0
 11
73.013972950447311
 21
78.499999999999986
 31
0.0
  0
LINE
  5
97C
  8
0
 62
     0
 10
39.428250522126099
 20
116.57585048885581
 30
0.0
 11
77.504101010981884
 21
78.499999999999986
 31
0.0
  0
LINE
  5
97D
  8
0
 62
     0
 10
43.918378582660672
 20
116.57585048885581
 30
0.0
 11
77.659408476904574
 21
82.834820594611855
 31
0.0
  0
LINE
  5
97E
  8
0
 62
     0
 10
48.408506643195253
 20
116.57585048885581
 30
0.0
 11
77.659408476904602
 21
87.324948655146429
 31
0.0
  0
LINE
  5
97F
  8
0
 62
     0
 10
52.898634703729819
 20
116.57585048885581
 30
0.0
 11
77.659408476904602
 21
91.815076715681002
 31
0.0
  0
LINE
  5
980
  8
0
 62
     0
 10
57.388762764264399
 20
116.57585048885581
 30
0.0
 11
77.659408476904602
 21
96.305204776215575
 31
0.0
  0
LINE
  5
981
  8
0
 62
     0
 10
61.87889082479898
 20
116.57585048885571
 30
0.0
 11
77.659408476904602
 21
100.79533283675011
 31
0.0
  0
LINE
  5
982
  8
0
 62
     0
 10
66.36901888533356
 20
116.57585048885571
 30
0.0
 11
77.659408476904602
 21
105.28546089728469
 31
0.0
  0
LINE
  5
983
  8
0
 62
     0
 10
70.859146945868147
 20
116.57585048885571
 30
0.0
 11
77.659408476904616
 21
109.77558895781929
 31
0.0
  0
LINE
  5
984
  8
0
 62
     0
 10
75.349275006402706
 20
116.57585048885581
 30
0.0
 11
77.659408476904616
 21
114.2657170183539
 31
0.0
  0
ENDBLK
  5
986
  8
0
  0
BLOCK
  8
0
  2
*U8
 70
     1
 10
0.0
 20
0.0
 30
0.0
  3
*U8
  1

  0
TEXT
  5
A18
  8
0
 62
     2
 10
223.25694460060811
 20
742.68797400912399
 30
0.0
 40
3.0
  1
50
 50
90.0
  7
BYGG-014554$0$ISO
  0
ENDBLK
  5
A1A
  8
0
  0
BLOCK
  8
0
  2
*U9
 70
     1
 10
0.0
 20
0.0
 30
0.0
  3
*U9
  1

  0
TEXT
  5
A1C
  8
0
 62
     2
 10
176.95869673732579
 20
712.16043879070753
 30
0.0
 40
3.0
  1
67
  7
BYGG-014554$0$ISO
  0
ENDBLK
  5
A1E
  8
0
  0
BLOCK
  8
0
  2
*U10
 70
     1
 10
0.0
 20
0.0
 30
0.0
  3
*U10
  1

  0
TEXT
  5
A48
  8
0
 62
     2
 10
35.951181102362114
 20
69.28801164280992
 30
0.0
 40
3.0
  1
50
 50
180.0
  7
BYGG-014554$0$ISO
  0
ENDBLK
  5
A4A
  8
0
  0
BLOCK
  8
0
  2
*U11
 70
     1
 10
0.0
 20
0.0
 30
0.0
  3
*U11
  1

  0
TEXT
  5
A4C
  8
0
 62
     2
 10
-0.7787163207788042
 20
22.989763779527571
 30
0.0
 40
3.0
  1
67
 50
90.000000000000028
  7
BYGG-014554$0$ISO
  0
ENDBLK
  5
A4E
  8
0
  0
ENDSEC
  0
SECTION
  2
ENTITIES
  0
LINE
  5
609
  8
SAPA_ANSLUTNING
 62
     7
 10
77.659408476904602
 20
78.499999999999972
 30
0.0
 11
-10.04059152309531
 21
78.5
 31
0.0
  0
INSERT
  5
7D1
  8
SAPA_ANSLUTNING
  6
CONTINUOUS
 62
     7
  2
*X7
 10
0.0
 20
0.0
 30
0.0
1001
ACAD
1000
HATCH
1002
{
1070
    19
1000
ANSI31
1040
1.0
1040
-1.5707963267948959
1000
R14_HATCH_DATA
1000
7D1
1011
1.0
1021
0.0
1031
0.0
1021
0.0
1031
0.0
1011
0.0
1021
0.0
1031
0.0
1021
1.0
1031
0.0
1011
0.0
1021
0.0
1031
0.0
1021
0.0
1031
1.0
1040
0.0
1010
0.0
1020
0.0
1030
1.0
1000
ANSI31
1070
     0
1070
     0
1071
        1
1071
        7
1070
     0
1070
     1
1071
        4
1040
-9.7146700802605643
1040
116.57585048885581
1040
-9.7146700802605732
1040
78.5
1040
77.659408476904602
1040
78.499999999999972
1040
77.659408476904616
1040
116.57585048885581
1071
        0
1070
     0
1070
     1
1040
-1.5707963267948959
1040
1.0
1070
     0
1070
     1
1040
5.4977871437821371
1040
-1.2787163207788581
1040
58.50000000000005
1040
2.245064030267288
1040
2.2450640302672871
1070
     0
1040
0.2755176818000343
1071
        1
1040
42.358171868986759
1040
100.3128282156583
1040
0.0
1002
}
  0
POLYLINE
  5
885
  8
SAPA_ANSLUTNING
 66
     1
 10
0.0
 20
0.0
 30
0.0
  0
VERTEX
  5
987
  8
SAPA_ANSLUTNING
 10
11.40315694085271
 20
58.50000000000005
 30
0.0
  0
VERTEX
  5
988
  8
SAPA_ANSLUTNING
 10
11.403156940852471
 20
76.550052736249512
 30
0.0
 42
-0.9999989466455055
  0
VERTEX
  5
989
  8
SAPA_ANSLUTNING
 10
15.403156940848151
 20
76.55005694966971
 30
0.0
  0
VERTEX
  5
98A
  8
SAPA_ANSLUTNING
 10
15.40315694084814
 20
55.601273374753283
 30
0.0
 42
0.9999999999999998
  0
VERTEX
  5
98B
  8
SAPA_ANSLUTNING
 10
19.403156940848142
 20
55.601273374753283
 30
0.0
  0
VERTEX
  5
98C
  8
SAPA_ANSLUTNING
 10
19.403156940848032
 20
76.550059581447925
 30
0.0
 42
-0.9999974985601646
  0
VERTEX
  5
98D
  8
SAPA_ANSLUTNING
 10
23.40315694083553
 20
76.550059581447925
 30
0.0
  0
VERTEX
  5
98E
  8
SAPA_ANSLUTNING
 10
23.403156940835451
 20
55.500000000000071
 30
0.0
 42
0.9999999999999998
  0
VERTEX
  5
98F
  8
SAPA_ANSLUTNING
 10
27.40315694083549
 20
55.500000000000071
 30
0.0
  0
VERTEX
  5
990
  8
SAPA_ANSLUTNING
 10
27.40315694083549
 20
56.500000000000043
 30
0.0
  0
SEQEND
  5
991
  8
SAPA_ANSLUTNING
  0
POLYLINE
  5
88B
  8
SAPA_ANSLUTNING
 66
     1
 10
0.0
 20
0.0
 30
0.0
  0
VERTEX
  5
992
  8
SAPA_ANSLUTNING
 10
39.403156940826321
 20
56.50000000000005
 30
0.0
  0
VERTEX
  5
993
  8
SAPA_ANSLUTNING
 10
39.403156940826321
 20
55.543752209991993
 30
0.0
 42
0.9999999999999998
  0
VERTEX
  5
994
  8
SAPA_ANSLUTNING
 10
43.403156940826321
 20
55.543752209991993
 30
0.0
  0
VERTEX
  5
995
  8
SAPA_ANSLUTNING
 10
43.403156940826207
 20
76.550059581447925
 30
0.0
 42
-0.9999974985601646
  0
VERTEX
  5
996
  8
SAPA_ANSLUTNING
 10
47.403156940813687
 20
76.550059581447925
 30
0.0
  0
VERTEX
  5
997
  8
SAPA_ANSLUTNING
 10
47.403156940813609
 20
55.500000000000043
 30
0.0
 42
0.9999999999999998
  0
VERTEX
  5
998
  8
SAPA_ANSLUTNING
 10
51.403156940813652
 20
55.500000000000043
 30
0.0
  0
VERTEX
  5
999
  8
SAPA_ANSLUTNING
 10
51.403156940813581
 20
76.55005694966971
 30
0.0
 42
-0.9999989466455052
  0
VERTEX
  5
99A
  8
SAPA_ANSLUTNING
 10
55.403156940809268
 20
76.550052736249512
 30
0.0
  0
VERTEX
  5
99B
  8
SAPA_ANSLUTNING
 10
55.403156940809041
 20
60.215281983936478
 30
0.0
 42
0.2635240997481427
  0
VERTEX
  5
99C
  8
SAPA_ANSLUTNING
 10
56.37465914519499
 20
58.499999999999979
 30
0.0
  0
SEQEND
  5
99D
  8
SAPA_ANSLUTNING
  0
POLYLINE
  5
88C
  8
SAPA_ANSLUTNING
 66
     1
 10
0.0
 20
0.0
 30
0.0
  0
VERTEX
  5
99E
  8
SAPA_ANSLUTNING
 10
27.40315694083548
 20
58.05315694083567
 30
0.0
  0
VERTEX
  5
99F
  8
SAPA_ANSLUTNING
 10
27.403156940835419
 20
76.55005694966971
 30
0.0
 42
-0.9999989466455052
  0
VERTEX
  5
9A0
  8
SAPA_ANSLUTNING
 10
31.403156940831089
 20
76.550052736249512
 30
0.0
  0
VERTEX
  5
9A1
  8
SAPA_ANSLUTNING
 10
31.403156940830868
 20
60.215281983936478
 30
0.0
 42
0.9999999999999998
  0
VERTEX
  5
9A2
  8
SAPA_ANSLUTNING
 10
35.403156940830868
 20
60.215281983936478
 30
0.0
  0
VERTEX
  5
9A3
  8
SAPA_ANSLUTNING
 10
35.403156940830641
 20
76.550052736249512
 30
0.0
 42
-0.9999989466455055
  0
VERTEX
  5
9A4
  8
SAPA_ANSLUTNING
 10
39.403156940826321
 20
76.55005694966971
 30
0.0
  0
VERTEX
  5
9A5
  8
SAPA_ANSLUTNING
 10
39.403156940826321
 20
58.300000000000011
 30
0.0
  0
SEQEND
  5
9A6
  8
SAPA_ANSLUTNING
  0
POLYLINE
  5
898
  8
SAPA_ANSLUTNING
 62
     7
 66
     1
 10
0.0
 20
0.0
 30
0.0
 70
     1
  0
VERTEX
  5
9A7
  8
SAPA_ANSLUTNING
 62
     7
 10
59.090933740430351
 20
76.484024859920396
 30
0.0
  0
VERTEX
  5
9A8
  8
SAPA_ANSLUTNING
 62
     7
 10
59.09093374043033
 20
35.635058408452487
 30
0.0
  0
VERTEX
  5
9A9
  8
SAPA_ANSLUTNING
 62
     7
 10
60.59093374043033
 20
35.635058408452487
 30
0.0
  0
VERTEX
  5
9AA
  8
SAPA_ANSLUTNING
 62
     7
 10
60.590933740430337
 20
75.227592292173313
 30
0.0
  0
VERTEX
  5
9AB
  8
SAPA_ANSLUTNING
 62
     7
 10
70.09535394129405
 20
76.920494140254277
 30
0.0
  0
VERTEX
  5
9AC
  8
SAPA_ANSLUTNING
 62
     7
 10
69.832317894815844
 20
78.397251411525758
 30
0.0
  0
SEQEND
  5
9AD
  8
SAPA_ANSLUTNING
 62
     7
  0
POLYLINE
  5
899
  8
SAPA_ANSLUTNING
 62
     7
 66
     1
 10
0.0
 20
0.0
 30
0.0
 70
     1
  0
VERTEX
  5
9AE
  8
SAPA_ANSLUTNING
 62
     7
 10
8.6090662595693885
 20
76.484024859920396
 30
0.0
  0
VERTEX
  5
9AF
  8
SAPA_ANSLUTNING
 62
     7
 10
8.6090662595693814
 20
35.635058408452501
 30
0.0
  0
VERTEX
  5
9B0
  8
SAPA_ANSLUTNING
 62
     7
 10
7.1090662595693814
 20
35.635058408452501
 30
0.0
  0
VERTEX
  5
9B1
  8
SAPA_ANSLUTNING
 62
     7
 10
7.1090662595693876
 20
75.227592292173313
 30
0.0
  0
VERTEX
  5
9B2
  8
SAPA_ANSLUTNING
 62
     7
 10
-2.3953539412943168
 20
76.920494140254277
 30
0.0
  0
VERTEX
  5
9B3
  8
SAPA_ANSLUTNING
 62
     7
 10
-2.1323178948161252
 20
78.397251411525758
 30
0.0
  0
SEQEND
  5
9B4
  8
SAPA_ANSLUTNING
 62
     7
  0
POLYLINE
  5
954
  8
SAPA_PROFIL
 66
     1
 10
0.0
 20
0.0
 30
0.0
 70
     1
  0
VERTEX
  5
AB1
  8
SAPA_PROFIL
 10
13.049999999999731
 20
-8.4999999999999432
 30
0.0
 42
0.4142135623730951
  0
VERTEX
  5
AB2
  8
SAPA_PROFIL
 10
13.34999999999979
 20
-8.1999999999999886
 30
0.0
  0
VERTEX
  5
AB3
  8
SAPA_PROFIL
 10
13.349999999999911
 20
-6.9899999999999523
 30
0.0
 42
0.4142135623730951
  0
VERTEX
  5
AB4
  8
SAPA_PROFIL
 10
12.3599999999999
 20
-5.9999999999999432
 30
0.0
  0
VERTEX
  5
AB5
  8
SAPA_PROFIL
 10
12.349999999999911
 20
-5.9999999999999432
 30
0.0
  0
VERTEX
  5
AB6
  8
SAPA_PROFIL
 10
12.349999999999911
 20
-7.2499999999999432
 30
0.0
  0
VERTEX
  5
AB7
  8
SAPA_PROFIL
 10
10.849999999999911
 20
-7.2499999999999432
 30
0.0
 42
-0.4142135623730951
  0
VERTEX
  5
AB8
  8
SAPA_PROFIL
 10
10.349999999999911
 20
-6.7499999999999432
 30
0.0
  0
VERTEX
  5
AB9
  8
SAPA_PROFIL
 10
10.349999999999911
 20
1.250000000000056
 30
0.0
 42
-0.4142135623730951
  0
VERTEX
  5
ABA
  8
SAPA_PROFIL
 10
10.849999999999911
 20
1.750000000000056
 30
0.0
  0
VERTEX
  5
ABB
  8
SAPA_PROFIL
 10
12.349999999999911
 20
1.750000000000056
 30
0.0
  0
VERTEX
  5
ABC
  8
SAPA_PROFIL
 10
12.349999999999911
 20
0.500000000000057
 30
0.0
  0
VERTEX
  5
ABD
  8
SAPA_PROFIL
 10
12.3599999999999
 20
0.500000000000057
 30
0.0
 42
0.4142135623730951
  0
VERTEX
  5
ABE
  8
SAPA_PROFIL
 10
13.349999999999911
 20
1.4900000000000651
 30
0.0
  0
VERTEX
  5
ABF
  8
SAPA_PROFIL
 10
13.349999999999911
 20
2.0100000000000469
 30
0.0
 42
0.4142135623730951
  0
VERTEX
  5
AC0
  8
SAPA_PROFIL
 10
12.3599999999999
 20
3.000000000000056
 30
0.0
  0
VERTEX
  5
AC1
  8
SAPA_PROFIL
 10
11.14999999999986
 20
3.0
 30
0.0
 42
-0.4142135623730951
  0
VERTEX
  5
AC2
  8
SAPA_PROFIL
 10
10.64999999999986
 20
3.5
 30
0.0
  0
VERTEX
  5
AC3
  8
SAPA_PROFIL
 10
10.64999999999986
 20
5.500000000000056
 30
0.0
 42
-0.4142135623730951
  0
VERTEX
  5
AC4
  8
SAPA_PROFIL
 10
11.14999999999986
 20
6.000000000000056
 30
0.0
  0
VERTEX
  5
AC5
  8
SAPA_PROFIL
 10
49.649999999999856
 20
6.0
 30
0.0
 42
-0.4142135623730951
  0
VERTEX
  5
AC6
  8
SAPA_PROFIL
 10
50.149999999999856
 20
5.5
 30
0.0
  0
VERTEX
  5
AC7
  8
SAPA_PROFIL
 10
50.149999999999856
 20
4.0
 30
0.0
 42
0.4142135623730951
  0
VERTEX
  5
AC8
  8
SAPA_PROFIL
 10
50.649999999999871
 20
3.5
 30
0.0
  0
VERTEX
  5
AC9
  8
SAPA_PROFIL
 10
50.849999999999788
 20
3.5
 30
0.0
 42
0.4142135623730951
  0
VERTEX
  5
ACA
  8
SAPA_PROFIL
 10
51.849999999999802
 20
4.5
 30
0.0
  0
VERTEX
  5
ACB
  8
SAPA_PROFIL
 10
51.849999999999802
 20
12.5
 30
0.0
 42
-0.4142135623730951
  0
VERTEX
  5
ACC
  8
SAPA_PROFIL
 10
52.849999999999788
 20
13.5
 30
0.0
  0
VERTEX
  5
ACD
  8
SAPA_PROFIL
 10
58.349999999999788
 20
13.5
 30
0.0
 42
0.4142135623730951
  0
VERTEX
  5
ACE
  8
SAPA_PROFIL
 10
58.849999999999802
 20
14.0
 30
0.0
  0
VERTEX
  5
ACF
  8
SAPA_PROFIL
 10
58.849999999999902
 20
58.5
 30
0.0
  0
VERTEX
  5
AD0
  8
SAPA_PROFIL
 10
55.849999999999909
 20
58.5
 30
0.0
  0
VERTEX
  5
AD1
  8
SAPA_PROFIL
 10
54.849999999999909
 20
57.5
 30
0.0
  0
VERTEX
  5
AD2
  8
SAPA_PROFIL
 10
54.849999999999909
 20
56.5
 30
0.0
  0
VERTEX
  5
AD3
  8
SAPA_PROFIL
 10
57.049999999999841
 20
56.5
 30
0.0
  0
VERTEX
  5
AD4
  8
SAPA_PROFIL
 10
57.049999999999841
 20
53.5
 30
0.0
  0
VERTEX
  5
AD5
  8
SAPA_PROFIL
 10
38.349999999999909
 20
53.50000000000005
 30
0.0
  0
VERTEX
  5
AD6
  8
SAPA_PROFIL
 10
38.349999999999909
 20
56.50000000000005
 30
0.0
  0
VERTEX
  5
AD7
  8
SAPA_PROFIL
 10
40.849999999999909
 20
56.50000000000005
 30
0.0
  0
VERTEX
  5
AD8
  8
SAPA_PROFIL
 10
40.849999999999909
 20
57.500000000000057
 30
0.0
  0
VERTEX
  5
AD9
  8
SAPA_PROFIL
 10
40.049999999999827
 20
58.300000000000011
 30
0.0
  0
VERTEX
  5
ADA
  8
SAPA_PROFIL
 10
34.369615242270577
 20
58.300000000000011
 30
0.0
  0
VERTEX
  5
ADB
  8
SAPA_PROFIL
 10
33.849999999999909
 20
58.000000000000057
 30
0.0
  0
VERTEX
  5
ADC
  8
SAPA_PROFIL
 10
33.330384757729227
 20
58.300000000000011
 30
0.0
  0
VERTEX
  5
ADD
  8
SAPA_PROFIL
 10
27.64999999999986
 20
58.300000000000011
 30
0.0
  0
VERTEX
  5
ADE
  8
SAPA_PROFIL
 10
26.849999999999909
 20
57.500000000000057
 30
0.0
  0
VERTEX
  5
ADF
  8
SAPA_PROFIL
 10
26.849999999999909
 20
56.50000000000005
 30
0.0
  0
VERTEX
  5
AE0
  8
SAPA_PROFIL
 10
29.349999999999909
 20
56.50000000000005
 30
0.0
  0
VERTEX
  5
AE1
  8
SAPA_PROFIL
 10
29.349999999999909
 20
53.50000000000005
 30
0.0
  0
VERTEX
  5
AE2
  8
SAPA_PROFIL
 10
10.64999999999986
 20
53.50000000000005
 30
0.0
  0
VERTEX
  5
AE3
  8
SAPA_PROFIL
 10
10.64999999999986
 20
56.50000000000005
 30
0.0
  0
VERTEX
  5
AE4
  8
SAPA_PROFIL
 10
12.849999999999911
 20
56.50000000000005
 30
0.0
  0
VERTEX
  5
AE5
  8
SAPA_PROFIL
 10
12.849999999999911
 20
57.500000000000057
 30
0.0
  0
VERTEX
  5
AE6
  8
SAPA_PROFIL
 10
11.849999999999911
 20
58.50000000000005
 30
0.0
  0
VERTEX
  5
AE7
  8
SAPA_PROFIL
 10
8.8499999999999091
 20
58.50000000000005
 30
0.0
  0
VERTEX
  5
AE8
  8
SAPA_PROFIL
 10
8.8499999999997954
 20
-8.1999999999999886
 30
0.0
 42
0.4142135623730951
  0
VERTEX
  5
AE9
  8
SAPA_PROFIL
 10
9.1499999999998636
 20
-8.5
 30
0.0
  0
SEQEND
  5
AEA
  8
SAPA_PROFIL
  0
POLYLINE
  5
955
  8
SAPA_PROFIL
 66
     1
 10
0.0
 20
0.0
 30
0.0
 70
     1
  0
VERTEX
  5
AEB
  8
SAPA_PROFIL
 10
25.63671927563928
 20
51.000000000000028
 30
0.0
  0
VERTEX
  5
AEC
  8
SAPA_PROFIL
 10
31.649999999999871
 20
51.00000000000005
 30
0.0
 42
0.4142135623730941
  0
VERTEX
  5
AED
  8
SAPA_PROFIL
 10
32.249999999999893
 20
51.600000000000051
 30
0.0
  0
VERTEX
  5
AEE
  8
SAPA_PROFIL
 10
32.249999999999893
 20
52.100000000000023
 30
0.0
 42
0.4142135623730951
  0
VERTEX
  5
AEF
  8
SAPA_PROFIL
 10
31.649999999999871
 20
52.700000000000017
 30
0.0
  0
VERTEX
  5
AF0
  8
SAPA_PROFIL
 10
31.5949999999998
 20
52.699999999999989
 30
0.0
 42
-0.4142135623730866
  0
VERTEX
  5
AF1
  8
SAPA_PROFIL
 10
31.099999999999909
 20
53.194999999999993
 30
0.0
  0
VERTEX
  5
AF2
  8
SAPA_PROFIL
 10
31.099999999999909
 20
54.00000000000005
 30
0.0
 42
-0.3747564601179694
  0
VERTEX
  5
AF3
  8
SAPA_PROFIL
 10
33.475604956763391
 20
56.724395043236143
 30
0.0
  0
VERTEX
  5
AF4
  8
SAPA_PROFIL
 10
33.849999999999909
 20
56.349999999999618
 30
0.0
  0
VERTEX
  5
AF5
  8
SAPA_PROFIL
 10
34.224395043236093
 20
56.724395043234438
 30
0.0
 42
-0.374756460117968
  0
VERTEX
  5
AF6
  8
SAPA_PROFIL
 10
36.599999999999909
 20
54.00000000000005
 30
0.0
  0
VERTEX
  5
AF7
  8
SAPA_PROFIL
 10
36.599999999999909
 20
53.194999999999993
 30
0.0
 42
-0.4142135623730866
  0
VERTEX
  5
AF8
  8
SAPA_PROFIL
 10
36.104999999999912
 20
52.699999999999989
 30
0.0
  0
VERTEX
  5
AF9
  8
SAPA_PROFIL
 10
36.049999999999947
 20
52.69999999999996
 30
0.0
 42
0.4142135623730951
  0
VERTEX
  5
AFA
  8
SAPA_PROFIL
 10
35.449999999999932
 20
52.099999999999973
 30
0.0
  0
VERTEX
  5
AFB
  8
SAPA_PROFIL
 10
35.449999999999932
 20
51.600000000000051
 30
0.0
 42
0.414213562373096
  0
VERTEX
  5
AFC
  8
SAPA_PROFIL
 10
36.049999999999947
 20
51.00000000000005
 30
0.0
  0
VERTEX
  5
AFD
  8
SAPA_PROFIL
 10
42.063280724360531
 20
51.000000000000078
 30
0.0
  0
VERTEX
  5
AFE
  8
SAPA_PROFIL
 10
42.324999999999932
 20
51.69999999999996
 30
0.0
  0
VERTEX
  5
AFF
  8
SAPA_PROFIL
 10
47.330384757729227
 20
51.699999999999932
 30
0.0
  0
VERTEX
  5
B00
  8
SAPA_PROFIL
 10
47.849999999999909
 20
51.999999999999943
 30
0.0
  0
VERTEX
  5
B01
  8
SAPA_PROFIL
 10
48.369615242270577
 20
51.699999999999932
 30
0.0
  0
VERTEX
  5
B02
  8
SAPA_PROFIL
 10
56.049999999999841
 20
51.699999999999932
 30
0.0
 42
-0.4142135623730951
  0
VERTEX
  5
B03
  8
SAPA_PROFIL
 10
57.049999999999841
 20
50.699999999999932
 30
0.0
  0
VERTEX
  5
B04
  8
SAPA_PROFIL
 10
57.049999999999841
 20
15.799999999999949
 30
0.0
 42
-0.4142135623730951
  0
VERTEX
  5
B05
  8
SAPA_PROFIL
 10
56.549999999999841
 20
15.299999999999949
 30
0.0
  0
VERTEX
  5
B06
  8
SAPA_PROFIL
 10
51.149999999999856
 20
15.299999999999949
 30
0.0
 42
0.4142135623730951
  0
VERTEX
  5
B07
  8
SAPA_PROFIL
 10
50.149999999999856
 20
14.299999999999949
 30
0.0
  0
VERTEX
  5
B08
  8
SAPA_PROFIL
 10
50.14999999999975
 20
9.4999999999998863
 30
0.0
 42
-0.4142135623730951
  0
VERTEX
  5
B09
  8
SAPA_PROFIL
 10
49.14999999999975
 20
8.4999999999998863
 30
0.0
  0
VERTEX
  5
B0A
  8
SAPA_PROFIL
 10
11.64999999999986
 20
8.4999999999999432
 30
0.0
 42
-0.4142135623730951
  0
VERTEX
  5
B0B
  8
SAPA_PROFIL
 10
10.64999999999986
 20
9.4999999999999432
 30
0.0
  0
VERTEX
  5
B0C
  8
SAPA_PROFIL
 10
10.64999999999986
 20
50.699999999999989
 30
0.0
 42
-0.4142135623730951
  0
VERTEX
  5
B0D
  8
SAPA_PROFIL
 10
11.64999999999986
 20
51.699999999999989
 30
0.0
  0
VERTEX
  5
B0E
  8
SAPA_PROFIL
 10
19.330384757729121
 20
51.699999999999989
 30
0.0
  0
VERTEX
  5
B0F
  8
SAPA_PROFIL
 10
19.849999999999909
 20
52.000000000000057
 30
0.0
  0
VERTEX
  5
B10
  8
SAPA_PROFIL
 10
20.36961524227058
 20
51.699999999999989
 30
0.0
  0
VERTEX
  5
B11
  8
SAPA_PROFIL
 10
25.37499999999989
 20
51.699999999999989
 30
0.0
  0
SEQEND
  5
B12
  8
SAPA_PROFIL
  0
ENDSEC
  0
EOF
