  0
SECTION
  2
HEADER
  9
$ACADVER
  1
AC1009
  9
$INSBASE
 10
325.0438727847577
 20
257.13229787049647
 30
0.0
  9
$EXTMIN
 10
528.72338132707864
 20
145.0938617678396
 30
0.0
  9
$EXTMAX
 10
684.22331106326942
 20
380.43079633433132
 30
0.0
  9
$LIMMIN
 10
0.0
 20
0.0
  9
$LIMMAX
 10
790.0
 20
790.0
  9
$ORTHOMODE
 70
     0
  9
$REGENMODE
 70
     1
  9
$FILLMODE
 70
     1
  9
$QTEXTMODE
 70
     0
  9
$MIRRTEXT
 70
     1
  9
$DRAGMODE
 70
     2
  9
$LTSCALE
 40
4.0
  9
$OSMODE
 70
   167
  9
$ATTMODE
 70
     1
  9
$TEXTSIZE
 40
3.5
  9
$TRACEWID
 40
0.05
  9
$TEXTSTYLE
  7
ISO
  9
$CLAYER
  8
0
  9
$CELTYPE
  6
BYLAYER
  9
$CECOLOR
 62
   256
  9
$DIMSCALE
 40
0.0
  9
$DIMASZ
 40
3.0
  9
$DIMEXO
 40
1.5
  9
$DIMDLI
 40
10.0
  9
$DIMRND
 40
0.0
  9
$DIMDLE
 40
0.0
  9
$DIMEXE
 40
1.5
  9
$DIMTP
 40
0.0
  9
$DIMTM
 40
0.0
  9
$DIMTXT
 40
3.0
  9
$DIMCEN
 40
-5.0
  9
$DIMTSZ
 40
0.0
  9
$DIMTOL
 70
     0
  9
$DIMLIM
 70
     0
  9
$DIMTIH
 70
     0
  9
$DIMTOH
 70
     1
  9
$DIMSE1
 70
     0
  9
$DIMSE2
 70
     0
  9
$DIMTAD
 70
     1
  9
$DIMZIN
 70
     8
  9
$DIMBLK
  1

  9
$DIMASO
 70
     1
  9
$DIMSHO
 70
     1
  9
$DIMPOST
  1

  9
$DIMAPOST
  1

  9
$DIMALT
 70
     0
  9
$DIMALTD
 70
     0
  9
$DIMALTF
 40
25.399999999999999
  9
$DIMLFAC
 40
-1.0
  9
$DIMTOFL
 70
     1
  9
$DIMTVP
 40
0.0
  9
$DIMTIX
 70
     0
  9
$DIMSOXD
 70
     0
  9
$DIMSAH
 70
     0
  9
$DIMBLK1
  1

  9
$DIMBLK2
  1

  9
$DIMSTYLE
  2
MASKIN
  9
$DIMCLRD
 70
   256
  9
$DIMCLRE
 70
   256
  9
$DIMCLRT
 70
     2
  9
$DIMTFAC
 40
1.0
  9
$DIMGAP
 40
1.0
  9
$LUNITS
 70
     2
  9
$LUPREC
 70
     8
  9
$SKETCHINC
 40
0.1
  9
$FILLETRAD
 40
0.0
  9
$AUNITS
 70
     0
  9
$AUPREC
 70
     8
  9
$MENU
  1
ACAD
  9
$ELEVATION
 40
0.0
  9
$PELEVATION
 40
0.0
  9
$THICKNESS
 40
0.0
  9
$LIMCHECK
 70
     0
  9
$BLIPMODE
 70
     0
  9
$CHAMFERA
 40
0.0
  9
$CHAMFERB
 40
0.0
  9
$SKPOLY
 70
     0
  9
$TDCREATE
 40
2451935.3855527202
  9
$TDUPDATE
 40
2454868.431179815
  9
$TDINDWG
 40
0.2213275926
  9
$TDUSRTIMER
 40
0.2213275926
  9
$USRTIMER
 70
     1
  9
$ANGBASE
 50
0.0
  9
$ANGDIR
 70
     0
  9
$PDMODE
 70
     0
  9
$PDSIZE
 40
0.0
  9
$PLINEWID
 40
0.0
  9
$COORDS
 70
     1
  9
$SPLFRAME
 70
     0
  9
$SPLINETYPE
 70
     6
  9
$SPLINESEGS
 70
     8
  9
$ATTDIA
 70
     0
  9
$ATTREQ
 70
     1
  9
$HANDLING
 70
     1
  9
$HANDSEED
  5
14F3
  9
$SURFTAB1
 70
     6
  9
$SURFTAB2
 70
     6
  9
$SURFTYPE
 70
     6
  9
$SURFU
 70
     6
  9
$SURFV
 70
     6
  9
$UCSNAME
  2

  9
$UCSORG
 10
0.0
 20
0.0
 30
0.0
  9
$UCSXDIR
 10
1.0
 20
0.0
 30
0.0
  9
$UCSYDIR
 10
0.0
 20
1.0
 30
0.0
  9
$PUCSNAME
  2

  9
$PUCSORG
 10
0.0
 20
0.0
 30
0.0
  9
$PUCSXDIR
 10
1.0
 20
0.0
 30
0.0
  9
$PUCSYDIR
 10
0.0
 20
1.0
 30
0.0
  9
$USERI1
 70
     0
  9
$USERI2
 70
     0
  9
$USERI3
 70
     0
  9
$USERI4
 70
     0
  9
$USERI5
 70
     0
  9
$USERR1
 40
0.0
  9
$USERR2
 40
0.0
  9
$USERR3
 40
0.0
  9
$USERR4
 40
0.0
  9
$USERR5
 40
0.0
  9
$WORLDVIEW
 70
     1
  9
$SHADEDGE
 70
     3
  9
$SHADEDIF
 70
    70
  9
$TILEMODE
 70
     1
  9
$MAXACTVP
 70
    16
  9
$PLIMCHECK
 70
     0
  9
$PEXTMIN
 10
0.0
 20
0.0
 30
0.0
  9
$PEXTMAX
 10
0.0
 20
0.0
 30
0.0
  9
$PLIMMIN
 10
0.0
 20
0.0
  9
$PLIMMAX
 10
12.0
 20
9.0
  9
$UNITMODE
 70
     0
  9
$VISRETAIN
 70
     1
  9
$PLINEGEN
 70
     0
  9
$PSLTSCALE
 70
     1
  0
ENDSEC
  0
SECTION
  2
TABLES
  0
TABLE
  2
VPORT
 70
     1
  0
VPORT
  2
*ACTIVE
 70
     0
 10
0.0
 20
0.0
 11
1.0
 21
1.0
 12
659.31880416886645
 22
263.36548020174439
 13
0.0
 23
0.0
 14
1.0
 24
1.0
 15
0.0
 25
0.0
 16
0.0
 26
0.0
 36
1.0
 17
0.0
 27
0.0
 37
0.0
 40
236.04528116368201
 41
1.995238095238095
 42
50.0
 43
0.0
 44
0.0
 50
0.0
 51
0.0
 71
     0
 72
   100
 73
     1
 74
     1
 75
     0
 76
     0
 77
     0
 78
     0
  0
ENDTAB
  0
TABLE
  2
LTYPE
 70
    17
  0
LTYPE
  2
CONTINUOUS
 70
     0
  3
Solid line
 72
    65
 73
     0
 40
0.0
  0
LTYPE
  2
BYGG-022120$0$NEWDOT
 70
     0
  3
____ . ____ . ____ . ____ . ____ . ____ . ____
 72
    65
 73
     4
 40
2.0
 49
1.0
 49
-0.5
 49
0.0
 49
-0.5
  0
LTYPE
  2
BYGG-022120$0$DASHDOT
 70
     0
  3
__ . __ . __ . __ . __ . __ . __ . __ . __ . __
 72
    65
 73
     4
 40
1.0
 49
0.5
 49
-0.25
 49
0.0
 49
-0.25
  0
LTYPE
  2
BYGG-022120$0$DASHED
 70
     0
  3
__ __ __ __ __ __ __ __ __ __ __ __ __ __ __
 72
    65
 73
     2
 40
0.75
 49
0.5
 49
-0.25
  0
LTYPE
  2
BYGG-022120$0$PHANTOM
 70
     0
  3
Phantom ______  __  __  ______  __  __  ______
 72
    65
 73
     6
 40
63.5
 49
31.75
 49
-6.3499999999999988
 49
6.3499999999999988
 49
-6.3499999999999988
 49
6.3499999999999988
 49
-6.3499999999999988
  0
LTYPE
  2
BYGG-01457801$0$NEWDOT
 70
     0
  3
____ . ____ . ____ . ____ . ____ . ____ . ____
 72
    65
 73
     4
 40
2.0
 49
1.0
 49
-0.5
 49
0.0
 49
-0.5
  0
LTYPE
  2
BYGG-021997$0$NEWDOT
 70
     0
  3
____ . ____ . ____ . ____ . ____ . ____ . ____
 72
    65
 73
     4
 40
2.0
 49
1.0
 49
-0.5
 49
0.0
 49
-0.5
  0
LTYPE
  2
BYGG-021997$0$DASHDOT
 70
     0
  3
__ . __ . __ . __ . __ . __ . __ . __ . __ . __
 72
    65
 73
     4
 40
1.0
 49
0.5
 49
-0.25
 49
0.0
 49
-0.25
  0
LTYPE
  2
BYGG-021997$0$DASHED
 70
     0
  3
__ __ __ __ __ __ __ __ __ __ __ __ __ __ __
 72
    65
 73
     2
 40
0.75
 49
0.5
 49
-0.25
  0
LTYPE
  2
BYGG-021997$0$PHANTOM
 70
     0
  3
Phantom ______  __  __  ______  __  __  ______
 72
    65
 73
     6
 40
63.5
 49
31.75
 49
-6.3499999999999988
 49
6.3499999999999988
 49
-6.3499999999999988
 49
6.3499999999999988
 49
-6.3499999999999988
  0
LTYPE
  2
BYGG-014203$0$DASHDOT
 70
     0
  3
__ . __ . __ . __ . __ . __ . __ . __ . __ . __
 72
    65
 73
     4
 40
1.0
 49
0.5
 49
-0.25
 49
0.0
 49
-0.25
  0
LTYPE
  2
BYGG-020605$0$NEWDOT
 70
     0
  3
____ . ____ . ____ . ____ . ____ . ____ . ____
 72
    65
 73
     4
 40
2.0
 49
1.0
 49
-0.5
 49
0.0
 49
-0.5
  0
LTYPE
  2
BYGG-020605$0$DASHDOT
 70
     0
  3
__ . __ . __ . __ . __ . __ . __ . __ . __ . __
 72
    65
 73
     4
 40
1.0
 49
0.5
 49
-0.25
 49
0.0
 49
-0.25
  0
LTYPE
  2
BYGG-020605$0$DASHED
 70
     0
  3
__ __ __ __ __ __ __ __ __ __ __ __ __ __ __
 72
    65
 73
     2
 40
0.75
 49
0.5
 49
-0.25
  0
LTYPE
  2
BYGG-020605$0$PHANTOM
 70
     0
  3
Phantom ______  __  __  ______  __  __  ______
 72
    65
 73
     6
 40
63.5
 49
31.75
 49
-6.3499999999999988
 49
6.3499999999999988
 49
-6.3499999999999988
 49
6.3499999999999988
 49
-6.3499999999999988
  0
LTYPE
  2
BYGG-014223$0$NEWDOT
 70
     0
  3
____ . ____ . ____ . ____ . ____ . ____ . ____
 72
    65
 73
     4
 40
2.0
 49
1.0
 49
-0.5
 49
0.0
 49
-0.5
  0
LTYPE
  2
BYGG-014223$0$DASHDOT
 70
     0
  3
__ . __ . __ . __ . __ . __ . __ . __ . __ . __
 72
    65
 73
     4
 40
1.0
 49
0.5
 49
-0.25
 49
0.0
 49
-0.25
  0
ENDTAB
  0
TABLE
  2
LAYER
 70
   123
  0
LAYER
  2
0
 70
     0
 62
     7
  6
CONTINUOUS
  0
LAYER
  2
SAPA_ARTIKELNR
 70
     0
 62
     4
  6
CONTINUOUS
  0
LAYER
  2
SAPA_LIGHT
 70
     1
 62
     1
  6
CONTINUOUS
  0
LAYER
  2
SAPA_ANSLUTNING
 70
     0
 62
     6
  6
CONTINUOUS
  0
LAYER
  2
SAPA_MATT
 70
     0
 62
     1
  6
CONTINUOUS
  0
LAYER
  2
SAPA_GLAS
 70
     0
 62
     4
  6
CONTINUOUS
  0
LAYER
  2
SAPA_FOGBAND
 70
     0
 62
     2
  6
CONTINUOUS
  0
LAYER
  2
SAPA_PROFIL
 70
     0
 62
     7
  6
CONTINUOUS
  0
ENDTAB
  0
TABLE
  2
STYLE
 70
    20
  0
STYLE
  2
STANDARD
 70
     0
 40
0.0
 41
1.0
 50
0.0
 71
     0
 42
0.2
  3
txt
  4

  0
STYLE
  2
ISO
 70
     0
 40
0.0
 41
1.0
 50
0.0
 71
     0
 42
3.5
  3
isocp3.shx
  4

  0
STYLE
  2
ANNOTATIVE
 70
     0
 40
0.0
 41
1.0
 50
0.0
 71
     0
 42
0.2
  3
txt
  4

  0
STYLE
  2
BYGG-022120$0$STANDARD
 70
     0
 40
0.0
 41
1.0
 50
0.0
 71
     0
 42
0.2
  3
txt
  4

  0
STYLE
  2
BYGG-022120$0$ISO
 70
     0
 40
0.0
 41
1.0
 50
0.0
 71
     0
 42
3.5
  3
txt
  4

  0
STYLE
  2
BYGG-01457801$0$STANDARD
 70
     0
 40
0.0
 41
1.0
 50
0.0
 71
     0
 42
0.2
  3
txt
  4

  0
STYLE
  2
BYGG-01457801$0$ISO
 70
     0
 40
0.0
 41
1.0
 50
0.0
 71
     0
 42
2.5
  3
isocp3.shx
  4

  0
STYLE
  2
BYGG-01457801$0$ANNOTATIVE
 70
     0
 40
0.0
 41
1.0
 50
0.0
 71
     0
 42
0.2
  3
txt
  4

  0
STYLE
  2
BYGG-021997$0$STANDARD
 70
     0
 40
0.0
 41
1.0
 50
0.0
 71
     0
 42
0.2
  3
txt
  4

  0
STYLE
  2
BYGG-021997$0$ISO
 70
     0
 40
0.0
 41
1.0
 50
0.0
 71
     0
 42
3.5
  3
txt
  4

  0
STYLE
  2
BYGG-014203$0$STANDARD
 70
     0
 40
0.0
 41
1.0
 50
0.0
 71
     0
 42
0.2
  3
txt
  4

  0
STYLE
  2
BYGG-014203$0$ISO
 70
     0
 40
0.0
 41
1.0
 50
0.0
 71
     0
 42
3.5
  3
isocp3.shx
  4

  0
STYLE
  2
BYGG-020617$0$STANDARD
 70
     0
 40
0.0
 41
1.0
 50
0.0
 71
     0
 42
0.2
  3
txt
  4

  0
STYLE
  2
BYGG-020617$0$ISO
 70
     0
 40
0.0
 41
1.0
 50
0.0
 71
     0
 42
3.5
  3
txt
  4

  0
STYLE
  2
BYGG-020605$0$STANDARD
 70
     0
 40
0.0
 41
1.0
 50
0.0
 71
     0
 42
0.2
  3
txt
  4

  0
STYLE
  2
BYGG-020605$0$ISO
 70
     0
 40
0.0
 41
1.0
 50
0.0
 71
     0
 42
3.5
  3
isocp3.shx
  4

  0
STYLE
  2
BYGG-022716$0$STANDARD
 70
     0
 40
0.0
 41
1.0
 50
0.0
 71
     0
 42
0.2
  3
txt
  4

  0
STYLE
  2
BYGG-022716$0$ISO
 70
     0
 40
0.0
 41
1.0
 50
0.0
 71
     0
 42
3.5
  3
txt
  4

  0
STYLE
  2
BYGG-014223$0$STANDARD
 70
     0
 40
0.0
 41
1.0
 50
0.0
 71
     0
 42
0.2
  3
txt
  4

  0
STYLE
  2
BYGG-014223$0$ISO
 70
     0
 40
0.0
 41
1.0
 50
0.0
 71
     0
 42
3.5
  3
isocp3.shx
  4

  0
ENDTAB
  0
TABLE
  2
VIEW
 70
     0
  0
ENDTAB
  0
TABLE
  2
UCS
 70
     0
  0
ENDTAB
  0
TABLE
  2
APPID
 70
    17
  0
APPID
  2
ACAD
 70
     0
  0
APPID
  2
ACAD_PSEXT
 70
     0
  0
APPID
  2
ACAECLAYERSTANDARD
 70
     0
  0
APPID
  2
ACAD_MLEADERVER
 70
     0
  0
APPID
  2
ACAD_DSTYLE_DIMTEXT_FILL
 70
     0
  0
APPID
  2
ACAD_DSTYLE_DIMEXT_LENGTH
 70
     0
  0
APPID
  2
ACAD_DSTYLE_DIMEXT_ENABLED
 70
     0
  0
APPID
  2
ACAD_DSTYLE_DIM_LINETYPE
 70
     0
  0
APPID
  2
ACAD_DSTYLE_DIM_EXT1_LINETYPE
 70
     0
  0
APPID
  2
ACAD_DSTYLE_DIM_EXT2_LINETYPE
 70
     0
  0
APPID
  2
ACAD_DSTYLE_DIMJOGGED_JOGA
 70
     0
  0
APPID
  2
ACAD_DSTYLE_DIMARC_LENGTH_
 70
     0
  0
APPID
  2
ACAD_EXEMPT_FROM_CAD_STANDARDS
 70
     0
  0
APPID
  2
ACADANNOTATIVE
 70
     0
  0
APPID
  2
AMG_ARCHIVE11
 70
     0
  0
APPID
  2
ACAD_DSTYLE_DIMJAG
 70
     0
  0
APPID
  2
ACAD_DSTYLE_DIMTALN
 70
     0
  0
ENDTAB
  0
TABLE
  2
DIMSTYLE
 70
    20
  0
DIMSTYLE
  2
MASKIN
 70
     0
  3

  4

  5

  6

  7

 40
0.0
 41
3.0
 42
1.5
 43
10.0
 44
1.5
 45
0.0
 46
0.0
 47
0.0
 48
0.0
140
3.0
141
-5.0
142
0.0
143
25.399999999999999
144
-1.0
145
0.0
146
1.0
147
1.0
 71
     0
 72
     0
 73
     0
 74
     1
 75
     0
 76
     0
 77
     1
 78
     8
170
     0
171
     0
172
     1
173
     0
174
     0
175
     0
176
   256
177
   256
178
     2
  0
DIMSTYLE
  2
STANDARD
 70
     0
  3

  4

  5

  6

  7

 40
1.0
 41
0.18
 42
0.0625
 43
0.38
 44
0.18
 45
0.0
 46
0.0
 47
0.0
 48
0.0
140
0.18
141
0.09
142
0.0
143
25.399999999999999
144
1.0
145
0.0
146
1.0
147
0.09
 71
     0
 72
     0
 73
     1
 74
     1
 75
     0
 76
     0
 77
     0
 78
     0
170
     0
171
     2
172
     0
173
     0
174
     0
175
     0
176
     0
177
     0
178
     0
  0
DIMSTYLE
  2
ANNOTATIVE
 70
     0
  3

  4

  5

  6

  7

 40
1.0
 41
0.18
 42
0.0625
 43
0.38
 44
0.18
 45
0.0
 46
0.0
 47
0.0
 48
0.0
140
0.18
141
0.09
142
0.0
143
25.399999999999999
144
1.0
145
0.0
146
1.0
147
0.09
 71
     0
 72
     0
 73
     1
 74
     1
 75
     0
 76
     0
 77
     0
 78
     0
170
     0
171
     2
172
     0
173
     0
174
     0
175
     0
176
     0
177
     0
178
     0
  0
DIMSTYLE
  2
BYGG-022120$0$STANDARD
 70
     0
  3

  4

  5

  6

  7

 40
1.0
 41
0.18
 42
0.0625
 43
0.38
 44
0.18
 45
0.0
 46
0.0
 47
0.0
 48
0.0
140
0.18
141
0.09
142
0.0
143
25.399999999999999
144
1.0
145
0.0
146
1.0
147
0.09
 71
     0
 72
     0
 73
     1
 74
     1
 75
     0
 76
     0
 77
     0
 78
     0
170
     0
171
     2
172
     0
173
     0
174
     0
175
     0
176
     0
177
     0
178
     0
  0
DIMSTYLE
  2
BYGG-022120$0$MASKIN
 70
     0
  3

  4

  5

  6

  7

 40
0.0
 41
3.0
 42
1.5
 43
10.0
 44
1.5
 45
0.0
 46
0.0
 47
0.0
 48
0.0
140
3.0
141
-5.0
142
0.0
143
25.399999999999999
144
-1.0
145
0.0
146
1.0
147
1.0
 71
     0
 72
     0
 73
     0
 74
     0
 75
     0
 76
     0
 77
     1
 78
     8
170
     0
171
     0
172
     1
173
     0
174
     0
175
     0
176
   256
177
   256
178
     2
  0
DIMSTYLE
  2
BYGG-01457801$0$STANDARD
 70
     0
  3

  4

  5

  6

  7

 40
1.0
 41
0.18
 42
0.0625
 43
0.38
 44
0.18
 45
0.0
 46
0.0
 47
0.0
 48
0.0
140
0.18
141
0.09
142
0.0
143
25.399999999999999
144
1.0
145
0.0
146
1.0
147
0.09
 71
     0
 72
     0
 73
     1
 74
     1
 75
     0
 76
     0
 77
     0
 78
     0
170
     0
171
     2
172
     0
173
     0
174
     0
175
     0
176
     0
177
     0
178
     0
  0
DIMSTYLE
  2
BYGG-01457801$0$MASKIN
 70
     0
  3

  4

  5

  6

  7

 40
0.0
 41
3.0
 42
1.5
 43
10.0
 44
1.5
 45
0.0
 46
0.0
 47
0.0
 48
0.0
140
3.0
141
-5.0
142
0.0
143
25.399999999999999
144
-1.0
145
0.0
146
1.0
147
1.0
 71
     0
 72
     0
 73
     0
 74
     1
 75
     0
 76
     0
 77
     1
 78
     8
170
     0
171
     0
172
     1
173
     0
174
     0
175
     0
176
   256
177
   256
178
     2
  0
DIMSTYLE
  2
BYGG-01457801$0$ANNOTATIVE
 70
     0
  3

  4

  5

  6

  7

 40
1.0
 41
0.18
 42
0.0625
 43
0.38
 44
0.18
 45
0.0
 46
0.0
 47
0.0
 48
0.0
140
0.18
141
0.09
142
0.0
143
25.399999999999999
144
1.0
145
0.0
146
1.0
147
0.09
 71
     0
 72
     0
 73
     1
 74
     1
 75
     0
 76
     0
 77
     0
 78
     0
170
     0
171
     2
172
     0
173
     0
174
     0
175
     0
176
     0
177
     0
178
     0
  0
DIMSTYLE
  2
BYGG-021997$0$STANDARD
 70
     0
  3

  4

  5

  6

  7

 40
1.0
 41
0.18
 42
0.0625
 43
0.38
 44
0.18
 45
0.0
 46
0.0
 47
0.0
 48
0.0
140
0.18
141
0.09
142
0.0
143
25.399999999999999
144
1.0
145
0.0
146
1.0
147
0.09
 71
     0
 72
     0
 73
     1
 74
     1
 75
     0
 76
     0
 77
     0
 78
     0
170
     0
171
     2
172
     0
173
     0
174
     0
175
     0
176
     0
177
     0
178
     0
  0
DIMSTYLE
  2
BYGG-021997$0$MASKIN
 70
     0
  3

  4

  5

  6

  7

 40
0.0
 41
3.0
 42
1.5
 43
10.0
 44
1.5
 45
0.0
 46
0.0
 47
0.0
 48
0.0
140
3.0
141
-5.0
142
0.0
143
25.399999999999999
144
-1.0
145
0.0
146
1.0
147
1.0
 71
     0
 72
     0
 73
     0
 74
     0
 75
     0
 76
     0
 77
     1
 78
     8
170
     0
171
     0
172
     1
173
     0
174
     0
175
     0
176
   256
177
   256
178
     2
  0
DIMSTYLE
  2
BYGG-014203$0$STANDARD
 70
     0
  3

  4

  5

  6

  7

 40
1.0
 41
0.18
 42
0.0625
 43
0.38
 44
0.18
 45
0.0
 46
0.0
 47
0.0
 48
0.0
140
0.18
141
0.09
142
0.0
143
25.399999999999999
144
1.0
145
0.0
146
1.0
147
0.09
 71
     0
 72
     0
 73
     1
 74
     1
 75
     0
 76
     0
 77
     0
 78
     0
170
     0
171
     2
172
     0
173
     0
174
     0
175
     0
176
     0
177
     0
178
     0
  0
DIMSTYLE
  2
BYGG-014203$0$MASKIN
 70
     0
  3

  4

  5

  6

  7

 40
0.0
 41
3.0
 42
1.5
 43
10.0
 44
1.5
 45
0.0
 46
0.0
 47
0.0
 48
0.0
140
3.0
141
-5.0
142
0.0
143
25.399999999999999
144
-1.0
145
0.0
146
1.0
147
1.0
 71
     0
 72
     0
 73
     0
 74
     0
 75
     0
 76
     0
 77
     1
 78
     8
170
     0
171
     0
172
     1
173
     0
174
     0
175
     0
176
   256
177
   256
178
   256
  0
DIMSTYLE
  2
BYGG-020617$0$STANDARD
 70
     0
  3

  4

  5

  6

  7

 40
1.0
 41
0.18
 42
0.0625
 43
0.38
 44
0.18
 45
0.0
 46
0.0
 47
0.0
 48
0.0
140
0.18
141
0.09
142
0.0
143
25.399999999999999
144
1.0
145
0.0
146
1.0
147
0.09
 71
     0
 72
     0
 73
     1
 74
     1
 75
     0
 76
     0
 77
     0
 78
     0
170
     0
171
     2
172
     0
173
     0
174
     0
175
     0
176
     0
177
     0
178
     0
  0
DIMSTYLE
  2
BYGG-020617$0$MASKIN
 70
     0
  3

  4

  5

  6

  7

 40
0.0
 41
3.0
 42
1.5
 43
10.0
 44
1.5
 45
0.0
 46
0.0
 47
0.0
 48
0.0
140
3.0
141
-5.0
142
0.0
143
25.399999999999999
144
-1.0
145
0.0
146
1.0
147
1.0
 71
     0
 72
     0
 73
     0
 74
     0
 75
     0
 76
     0
 77
     1
 78
     8
170
     0
171
     0
172
     1
173
     0
174
     0
175
     0
176
   256
177
   256
178
     2
  0
DIMSTYLE
  2
BYGG-020605$0$STANDARD
 70
     0
  3

  4

  5

  6

  7

 40
1.0
 41
0.18
 42
0.0625
 43
0.38
 44
0.18
 45
0.0
 46
0.0
 47
0.0
 48
0.0
140
0.18
141
0.09
142
0.0
143
25.399999999999999
144
1.0
145
0.0
146
1.0
147
0.09
 71
     0
 72
     0
 73
     1
 74
     1
 75
     0
 76
     0
 77
     0
 78
     0
170
     0
171
     2
172
     0
173
     0
174
     0
175
     0
176
     0
177
     0
178
     0
  0
DIMSTYLE
  2
BYGG-020605$0$MASKIN
 70
     0
  3

  4

  5

  6

  7

 40
0.0
 41
3.0
 42
1.5
 43
10.0
 44
1.5
 45
0.0
 46
0.0
 47
0.0
 48
0.0
140
3.0
141
-5.0
142
0.0
143
25.399999999999999
144
-1.0
145
0.0
146
1.0
147
1.0
 71
     0
 72
     0
 73
     0
 74
     0
 75
     0
 76
     0
 77
     1
 78
     8
170
     0
171
     0
172
     1
173
     0
174
     0
175
     0
176
   256
177
   256
178
     2
  0
DIMSTYLE
  2
BYGG-022716$0$STANDARD
 70
     0
  3

  4

  5

  6

  7

 40
1.0
 41
0.18
 42
0.0625
 43
0.38
 44
0.18
 45
0.0
 46
0.0
 47
0.0
 48
0.0
140
0.18
141
0.09
142
0.0
143
25.399999999999999
144
1.0
145
0.0
146
1.0
147
0.09
 71
     0
 72
     0
 73
     1
 74
     1
 75
     0
 76
     0
 77
     0
 78
     0
170
     0
171
     2
172
     0
173
     0
174
     0
175
     0
176
     0
177
     0
178
     0
  0
DIMSTYLE
  2
BYGG-022716$0$MASKIN
 70
     0
  3

  4

  5

  6

  7

 40
0.0
 41
3.0
 42
1.5
 43
10.0
 44
1.5
 45
0.0
 46
0.0
 47
0.0
 48
0.0
140
3.0
141
-5.0
142
0.0
143
25.399999999999999
144
-1.0
145
0.0
146
1.0
147
1.0
 71
     0
 72
     0
 73
     0
 74
     0
 75
     0
 76
     0
 77
     1
 78
     8
170
     0
171
     0
172
     1
173
     0
174
     0
175
     0
176
   256
177
   256
178
     2
  0
DIMSTYLE
  2
BYGG-014223$0$STANDARD
 70
     0
  3

  4

  5

  6

  7

 40
1.0
 41
0.18
 42
0.0625
 43
0.38
 44
0.18
 45
0.0
 46
0.0
 47
0.0
 48
0.0
140
0.18
141
0.09
142
0.0
143
25.399999999999999
144
1.0
145
0.0
146
1.0
147
0.09
 71
     0
 72
     0
 73
     1
 74
     1
 75
     0
 76
     0
 77
     0
 78
     0
170
     0
171
     2
172
     0
173
     0
174
     0
175
     0
176
     0
177
     0
178
     0
  0
DIMSTYLE
  2
BYGG-014223$0$MASKIN
 70
     0
  3

  4

  5

  6

  7

 40
0.0
 41
3.0
 42
1.5
 43
10.0
 44
1.5
 45
0.0
 46
0.0
 47
0.0
 48
0.0
140
3.0
141
-5.0
142
0.0
143
25.399999999999999
144
-1.0
145
0.0
146
1.0
147
1.0
 71
     0
 72
     0
 73
     0
 74
     0
 75
     0
 76
     0
 77
     1
 78
     8
170
     0
171
     0
172
     1
173
     0
174
     0
175
     0
176
   256
177
   256
178
   256
  0
ENDTAB
  0
ENDSEC
  0
SECTION
  2
BLOCKS
  0
BLOCK
  8
0
  2
$MODEL_SPACE
 70
     0
 10
0.0
 20
0.0
 30
0.0
  3
$MODEL_SPACE
  1

  0
ENDBLK
  5
D
  8
0
  0
BLOCK
 67
     1
  8
0
  2
$PAPER_SPACE
 70
     0
 10
0.0
 20
0.0
 30
0.0
  3
$PAPER_SPACE
  1

  0
ENDBLK
  5
13
 67
     1
  8
0
  0
BLOCK
  8
0
  2
*U60
 70
     1
 10
0.0
 20
0.0
 30
0.0
  3
*U60
  1

  0
TEXT
  5
6D0
  8
0
 62
     2
 10
609.52338132707735
 20
257.07408281469088
 30
0.0
 40
3.0
  1
4
  7
ISO
  0
ENDBLK
  5
6D2
  8
0
  0
BLOCK
  8
0
  2
*U61
 70
     1
 10
0.0
 20
0.0
 30
0.0
  3
*U61
  1

  0
TEXT
  5
6D4
  8
0
 62
     2
 10
635.62220022471399
 20
257.07408281469088
 30
0.0
 40
3.0
  1
50
  7
ISO
  0
ENDBLK
  5
6D6
  8
0
  0
BLOCK
  8
0
  2
*U62
 70
     1
 10
0.0
 20
0.0
 30
0.0
  3
*U62
  1

  0
TEXT
  5
6D8
  8
0
 62
     2
 10
681.72331106326931
 20
194.9938617678385
 30
0.0
 40
3.0
  1
78
 50
90.0
  7
ISO
  0
ENDBLK
  5
6DA
  8
0
  0
BLOCK
  8
0
  2
*X63
 70
     1
 10
0.0
 20
0.0
 30
0.0
  3
*X63
  1

  0
LINE
  5
6DC
  8
0
 62
     0
 10
602.8166637129417
 20
373.89683722064922
 30
0.0
 11
602.61963916575132
 21
374.0938617678396
 31
0.0
  0
LINE
  5
6DD
  8
0
 62
     0
 10
602.26525442818547
 20
372.20318247513819
 30
0.0
 11
600.37457513548395
 21
374.09386176783971
 31
0.0
  0
LINE
  5
6DE
  8
0
 62
     0
 10
601.93774261277872
 20
370.28563026027769
 30
0.0
 11
598.12951110521681
 21
374.0938617678396
 31
0.0
  0
LINE
  5
6DF
  8
0
 62
     0
 10
601.92450496120455
 20
368.0538038815846
 30
0.0
 11
595.88444707494955
 21
374.0938617678396
 31
0.0
  0
LINE
  5
6E0
  8
0
 62
     0
 10
602.46770411549824
 20
365.2655406970236
 30
0.0
 11
598.64529978511644
 21
369.0879450274054
 31
0.0
  0
LINE
  5
6E1
  8
0
 62
     0
 10
601.39048133682184
 20
364.0976994454328
 30
0.0
 11
598.8690373467083
 21
366.61914343554622
 31
0.0
  0
LINE
  5
6E2
  8
0
 62
     0
 10
599.43439931681633
 20
363.80871743517099
 30
0.0
 11
598.7155691432414
 21
364.52754760874581
 31
0.0
  0
LINE
  5
6E3
  8
0
 62
     0
 10
602.72338132707819
 20
363.9711412412878
 30
0.0
 11
602.88288044783053
 21
364.13064036204008
 31
0.0
  0
LINE
  5
6E4
  8
0
 62
     0
 10
600.60487550095581
 20
364.0976994454328
 30
0.0
 11
602.31175945514394
 21
365.80458339962081
 31
0.0
  0
LINE
  5
6E5
  8
0
 62
     0
 10
598.70223314206066
 20
364.4401211168049
 30
0.0
 11
601.95865716503647
 21
367.69654513978071
 31
0.0
  0
LINE
  5
6E6
  8
0
 62
     0
 10
598.86674015402491
 20
366.84969215903641
 30
0.0
 11
601.90694616825522
 21
369.88989817326672
 31
0.0
  0
LINE
  5
6E7
  8
0
 62
     0
 10
598.67713059969424
 20
368.90514663497311
 30
0.0
 11
602.37106717726624
 21
372.59908321254522
 31
0.0
  0
LINE
  5
6E8
  8
0
 62
     0
 10
598.22532832181605
 20
370.69840838736218
 30
0.0
 11
601.62078170229347
 21
374.0938617678396
 31
0.0
  0
LINE
  5
6E9
  8
0
 62
     0
 10
597.50052110683873
 20
372.21866520265201
 30
0.0
 11
599.3757176720261
 21
374.0938617678396
 31
0.0
  0
LINE
  5
6EA
  8
0
 62
     0
 10
596.45356666913153
 20
373.41677479521218
 30
0.0
 11
597.13065364175895
 21
374.0938617678396
 31
0.0
  0
ENDBLK
  5
6EC
  8
0
  0
BLOCK
  8
0
  2
*X64
 70
     1
 10
0.0
 20
0.0
 30
0.0
  3
*X64
  1

  0
LINE
  5
6EE
  8
0
 62
     0
 10
562.13221173644001
 20
359.59419782612292
 30
0.0
 11
562.32594380760315
 21
359.9297516164329
 31
0.0
  0
LINE
  5
6EF
  8
0
 62
     0
 10
561.9290690920991
 20
361.99197444494069
 30
0.0
 11
562.32594409209923
 21
362.67938210919459
 31
0.0
  0
LINE
  5
6F0
  8
0
 62
     0
 10
560.73844409209914
 20
359.929751452179
 30
0.0
 11
561.13531909209917
 21
360.6171591164329
 31
0.0
  0
LINE
  5
6F1
  8
0
 62
     0
 10
561.92906937659529
 20
364.74160493770239
 30
0.0
 11
562.3259443765952
 21
365.42901260195629
 31
0.0
  0
LINE
  5
6F2
  8
0
 62
     0
 10
560.73844437659523
 20
362.6793819449407
 30
0.0
 11
561.13531937659525
 21
363.3667896091946
 31
0.0
  0
LINE
  5
6F3
  8
0
 62
     0
 10
559.54781937659504
 20
360.61715895217901
 30
0.0
 11
559.94469437659507
 21
361.30456661643291
 31
0.0
  0
LINE
  5
6F4
  8
0
 62
     0
 10
561.92906966109149
 20
367.49123543046397
 30
0.0
 11
562.32594466109163
 21
368.17864309471793
 31
0.0
  0
LINE
  5
6F5
  8
0
 62
     0
 10
560.73844466109153
 20
365.42901243770228
 30
0.0
 11
561.13531966109144
 21
366.11642010195618
 31
0.0
  0
LINE
  5
6F6
  8
0
 62
     0
 10
559.54781966109147
 20
363.36678944494059
 30
0.0
 11
559.94469466109149
 21
364.05419710919449
 31
0.0
  0
LINE
  5
6F7
  8
0
 62
     0
 10
558.3571946610914
 20
361.3045664521789
 30
0.0
 11
558.75406966109142
 21
361.9919741164328
 31
0.0
  0
LINE
  5
6F8
  8
0
 62
     0
 10
557.36971287442429
 20
359.59419782612292
 30
0.0
 11
557.56344466109135
 21
359.92975112367111
 31
0.0
  0
LINE
  5
6F9
  8
0
 62
     0
 10
561.92906994558757
 20
370.24086592322573
 30
0.0
 11
562.32594494558759
 21
370.92827358747962
 31
0.0
  0
LINE
  5
6FA
  8
0
 62
     0
 10
560.73844494558762
 20
368.17864293046398
 30
0.0
 11
561.13531994558764
 21
368.86605059471788
 31
0.0
  0
LINE
  5
6FB
  8
0
 62
     0
 10
559.54781994558755
 20
366.1164199377024
 30
0.0
 11
559.94469494558757
 21
366.80382760195619
 31
0.0
  0
LINE
  5
6FC
  8
0
 62
     0
 10
558.35719494558737
 20
364.05419694494071
 30
0.0
 11
558.7540699455875
 21
364.74160460919461
 31
0.0
  0
LINE
  5
6FD
  8
0
 62
     0
 10
557.20136381440636
 20
362.05223870076537
 30
0.0
 11
557.56344494558743
 21
362.67938161643292
 31
0.0
  0
LINE
  5
6FE
  8
0
 62
     0
 10
555.97594494558734
 20
359.92975095941728
 30
0.0
 11
556.37281994558748
 21
360.61715862367117
 31
0.0
  0
LINE
  5
6FF
  8
0
 62
     0
 10
561.92907023008388
 20
372.99049641598742
 30
0.0
 11
562.27761740173582
 21
373.59419782612298
 31
0.0
  0
LINE
  5
700
  8
0
 62
     0
 10
560.73844523008381
 20
370.92827342322568
 30
0.0
 11
561.13532023008383
 21
371.61568108747957
 31
0.0
  0
LINE
  5
701
  8
0
 62
     0
 10
559.54782023008374
 20
368.86605043046399
 30
0.0
 11
559.94469523008365
 21
369.553458094718
 31
0.0
  0
LINE
  5
702
  8
0
 62
     0
 10
558.35719523008356
 20
366.8038274377023
 30
0.0
 11
558.75407023008358
 21
367.49123510195631
 31
0.0
  0
LINE
  5
703
  8
0
 62
     0
 10
557.16657023008361
 20
364.74160444494072
 30
0.0
 11
557.56344523008363
 21
365.42901210919462
 31
0.0
  0
LINE
  5
704
  8
0
 62
     0
 10
554.78532023008347
 20
360.61715845941728
 30
0.0
 11
555.18219523008349
 21
361.30456612367118
 31
0.0
  0
LINE
  5
705
  8
0
 62
     0
 10
559.54782051457994
 20
371.61568092322568
 30
0.0
 11
559.94469551457996
 21
372.30308858747958
 31
0.0
  0
LINE
  5
706
  8
0
 62
     0
 10
558.35719551457976
 20
369.55345793046411
 30
0.0
 11
558.75407051457989
 21
370.24086559471789
 31
0.0
  0
LINE
  5
707
  8
0
 62
     0
 10
557.1665705145798
 20
367.49123493770242
 30
0.0
 11
557.56344551457983
 21
368.1786426019562
 31
0.0
  0
LINE
  5
708
  8
0
 62
     0
 10
555.97594551457973
 20
365.42901194494073
 30
0.0
 11
556.37282051457964
 21
366.11641960919462
 31
0.0
  0
LINE
  5
709
  8
0
 62
     0
 10
558.35719579907595
 20
372.30308842322592
 30
0.0
 11
558.75407079907586
 21
372.99049608747981
 31
0.0
  0
LINE
  5
70A
  8
0
 62
     0
 10
557.16657079907577
 20
370.24086543046423
 30
0.0
 11
557.56344579907591
 21
370.92827309471801
 31
0.0
  0
LINE
  5
70B
  8
0
 62
     0
 10
555.9759457990757
 20
368.17864243770248
 30
0.0
 11
556.37282079907584
 21
368.86605010195638
 31
0.0
  0
LINE
  5
70C
  8
0
 62
     0
 10
554.78532079907575
 20
366.11641944494079
 30
0.0
 11
555.18219579907577
 21
366.80382710919469
 31
0.0
  0
LINE
  5
70D
  8
0
 62
     0
 10
553.90646573768504
 20
364.59419782612309
 30
0.0
 11
553.9915707990757
 21
364.741604116433
 31
0.0
  0
LINE
  5
70E
  8
0
 62
     0
 10
557.16657108357208
 20
372.99049592322569
 30
0.0
 11
557.51511853972011
 21
373.59419782612309
 31
0.0
  0
LINE
  5
70F
  8
0
 62
     0
 10
555.97594608357201
 20
370.92827293046412
 30
0.0
 11
556.37282108357203
 21
371.6156805947179
 31
0.0
  0
LINE
  5
710
  8
0
 62
     0
 10
554.78532108357194
 20
368.86604993770243
 30
0.0
 11
555.18219608357185
 21
369.55345760195632
 31
0.0
  0
LINE
  5
711
  8
0
 62
     0
 10
553.59469608357176
 20
366.80382694494068
 30
0.0
 11
553.99157108357178
 21
367.49123460919458
 31
0.0
  0
LINE
  5
712
  8
0
 62
     0
 10
554.78532136806791
 20
371.61568043046412
 30
0.0
 11
555.18219636806793
 21
372.30308809471802
 31
0.0
  0
LINE
  5
713
  8
0
 62
     0
 10
553.59469636806784
 20
369.55345743770238
 30
0.0
 11
553.99157136806775
 21
370.24086510195627
 31
0.0
  0
LINE
  5
714
  8
0
 62
     0
 10
553.59469665256404
 20
372.30308793046407
 30
0.0
 11
553.99157165256395
 21
372.99049559471803
 31
0.0
  0
LINE
  5
715
  8
0
 62
     0
 10
561.1352055781565
 20
372.99047818380461
 30
0.0
 11
560.78664788014873
 21
373.59419782612332
 31
0.0
  0
LINE
  5
716
  8
0
 62
     0
 10
562.32583057815657
 20
370.92825519104292
 30
0.0
 11
561.92895557815655
 21
371.61566285529682
 31
0.0
  0
LINE
  5
717
  8
0
 62
     0
 10
559.94458086265251
 20
372.30307068380461
 30
0.0
 11
559.54770586265238
 21
372.9904783480585
 31
0.0
  0
LINE
  5
718
  8
0
 62
     0
 10
561.13520586265247
 20
370.24084769104292
 30
0.0
 11
560.73833086265245
 21
370.92825535529681
 31
0.0
  0
LINE
  5
719
  8
0
 62
     0
 10
562.32583086265265
 20
368.17862469828123
 30
0.0
 11
561.92895586265263
 21
368.86603236253512
 31
0.0
  0
LINE
  5
71A
  8
0
 62
     0
 10
558.75395614714864
 20
371.6156631838046
 30
0.0
 11
558.35708114714862
 21
372.3030708480585
 31
0.0
  0
LINE
  5
71B
  8
0
 62
     0
 10
559.94458114714871
 20
369.55344019104291
 30
0.0
 11
559.54770614714869
 21
370.24084785529681
 31
0.0
  0
LINE
  5
71C
  8
0
 62
     0
 10
561.13520614714866
 20
367.49121719828122
 30
0.0
 11
560.73833114714876
 21
368.17862486253512
 31
0.0
  0
LINE
  5
71D
  8
0
 62
     0
 10
562.32583114714885
 20
365.42899420551947
 30
0.0
 11
561.92895614714882
 21
366.11640186977343
 31
0.0
  0
LINE
  5
71E
  8
0
 62
     0
 10
556.37270643164447
 20
372.99047867656628
 30
0.0
 11
556.02414901813302
 21
373.59419782612309
 31
0.0
  0
LINE
  5
71F
  8
0
 62
     0
 10
557.56333143164466
 20
370.92825568380459
 30
0.0
 11
557.16645643164463
 21
371.61566334805849
 31
0.0
  0
LINE
  5
720
  8
0
 62
     0
 10
558.75395643164472
 20
368.8660326910429
 30
0.0
 11
558.3570814316447
 21
369.5534403552968
 31
0.0
  0
LINE
  5
721
  8
0
 62
     0
 10
559.94458143164479
 20
366.80380969828121
 30
0.0
 11
559.54770643164466
 21
367.49121736253511
 31
0.0
  0
LINE
  5
722
  8
0
 62
     0
 10
561.13520643164475
 20
364.74158670551952
 30
0.0
 11
560.73833143164484
 21
365.42899436977342
 31
0.0
  0
LINE
  5
723
  8
0
 62
     0
 10
562.32583143164493
 20
362.67936371275778
 30
0.0
 11
561.92895643164479
 21
363.36677137701167
 31
0.0
  0
LINE
  5
724
  8
0
 62
     0
 10
555.1820817161406
 20
372.30307117656628
 30
0.0
 11
554.78520671614046
 21
372.99047884082017
 31
0.0
  0
LINE
  5
725
  8
0
 62
     0
 10
556.37270671614067
 20
370.24084818380459
 30
0.0
 11
555.97583171614065
 21
370.92825584805848
 31
0.0
  0
LINE
  5
726
  8
0
 62
     0
 10
557.56333171614074
 20
368.1786251910429
 30
0.0
 11
557.1664567161406
 21
368.86603285529679
 31
0.0
  0
LINE
  5
727
  8
0
 62
     0
 10
558.75395671614081
 20
366.11640219828121
 30
0.0
 11
558.35708171614067
 21
366.8038098625351
 31
0.0
  0
LINE
  5
728
  8
0
 62
     0
 10
559.94458171614076
 20
364.05417920551952
 30
0.0
 11
559.54770671614085
 21
364.74158686977341
 31
0.0
  0
LINE
  5
729
  8
0
 62
     0
 10
561.13520671614094
 20
361.99195621275783
 30
0.0
 11
560.73833171614092
 21
362.67936387701172
 31
0.0
  0
LINE
  5
72A
  8
0
 62
     0
 10
562.3258317161409
 20
359.92973321999608
 30
0.0
 11
561.92895671614087
 21
360.61714088424998
 31
0.0
  0
LINE
  5
72B
  8
0
 62
     0
 10
553.99145700063673
 20
371.61566367656633
 30
0.0
 11
553.59458200063671
 21
372.30307134082022
 31
0.0
  0
LINE
  5
72C
  8
0
 62
     0
 10
555.18208200063668
 20
369.55344068380458
 30
0.0
 11
554.78520700063666
 21
370.24084834805848
 31
0.0
  0
LINE
  5
72D
  8
0
 62
     0
 10
556.37270700063675
 20
367.49121769104289
 30
0.0
 11
555.97583200063684
 21
368.17862535529679
 31
0.0
  0
LINE
  5
72E
  8
0
 62
     0
 10
557.56333200063693
 20
365.4289946982812
 30
0.0
 11
557.16645700063691
 21
366.1164023625351
 31
0.0
  0
LINE
  5
72F
  8
0
 62
     0
 10
558.75395700063689
 20
363.36677170551951
 30
0.0
 11
558.35708200063698
 21
364.05417936977341
 31
0.0
  0
LINE
  5
730
  8
0
 62
     0
 10
559.94458200063696
 20
361.30454871275782
 30
0.0
 11
559.54770700063705
 21
361.99195637701172
 31
0.0
  0
LINE
  5
731
  8
0
 62
     0
 10
560.93205354544443
 20
359.59419782612298
 30
0.0
 11
560.73833200063712
 21
359.92973338425003
 31
0.0
  0
LINE
  5
732
  8
0
 62
     0
 10
553.99145728513281
 20
368.86603318380457
 30
0.0
 11
553.59458228513279
 21
369.55344084805847
 31
0.0
  0
LINE
  5
733
  8
0
 62
     0
 10
555.18208228513276
 20
366.803810191043
 30
0.0
 11
554.78520728513286
 21
367.49121785529678
 31
0.0
  0
LINE
  5
734
  8
0
 62
     0
 10
556.37270728513295
 20
364.74158719828131
 30
0.0
 11
555.97583228513292
 21
365.42899486253509
 31
0.0
  0
LINE
  5
735
  8
0
 62
     0
 10
557.56333228513301
 20
362.67936420551962
 30
0.0
 11
557.16645728513299
 21
363.36677186977352
 31
0.0
  0
LINE
  5
736
  8
0
 62
     0
 10
558.75395728513308
 20
360.61714121275787
 30
0.0
 11
558.35708228513295
 21
361.30454887701183
 31
0.0
  0
LINE
  5
737
  8
0
 62
     0
 10
553.99145756962923
 20
366.11640269104288
 30
0.0
 11
553.59458256962921
 21
366.80381035529678
 31
0.0
  0
LINE
  5
738
  8
0
 62
     0
 10
554.87030295815237
 20
364.59419782612309
 30
0.0
 11
554.78520756962916
 21
364.7415873625352
 31
0.0
  0
LINE
  5
739
  8
0
 62
     0
 10
557.5633325696291
 20
359.92973371275781
 30
0.0
 11
557.16645756962907
 21
360.61714137701171
 31
0.0
  0
LINE
  5
73A
  8
0
 62
     0
 10
555.18208285412516
 20
361.30454920551938
 30
0.0
 11
555.06939140248039
 21
361.49973652534698
 31
0.0
  0
LINE
  5
73B
  8
0
 62
     0
 10
556.16955468342871
 20
359.59419782612298
 30
0.0
 11
555.97583285412531
 21
359.92973387701159
 31
0.0
  0
LINE
  5
73C
  8
0
 62
     0
 10
561.13527869365328
 20
360.6170530084147
 30
0.0
 11
561.92902869365344
 21
360.6170530084147
 31
0.0
  0
LINE
  5
73D
  8
0
 62
     0
 10
558.75402869365325
 20
360.6170530084147
 30
0.0
 11
559.54777869365341
 21
360.6170530084147
 31
0.0
  0
LINE
  5
73E
  8
0
 62
     0
 10
556.37277869365334
 20
360.6170530084147
 30
0.0
 11
557.16652869365339
 21
360.6170530084147
 31
0.0
  0
LINE
  5
73F
  8
0
 62
     0
 10
554.70018545872256
 20
360.6170530084147
 30
0.0
 11
554.78527869365325
 21
360.6170530084147
 31
0.0
  0
LINE
  5
740
  8
0
 62
     0
 10
561.13527869365328
 20
361.99186800841471
 30
0.0
 11
561.92902869365344
 21
361.99186800841471
 31
0.0
  0
LINE
  5
741
  8
0
 62
     0
 10
558.75402869365325
 20
361.99186800841471
 30
0.0
 11
559.54777869365341
 21
361.99186800841471
 31
0.0
  0
LINE
  5
742
  8
0
 62
     0
 10
561.13527869365316
 20
363.36668300841473
 30
0.0
 11
561.92902869365332
 21
363.36668300841473
 31
0.0
  0
LINE
  5
743
  8
0
 62
     0
 10
558.75402869365325
 20
363.36668300841473
 30
0.0
 11
559.5477786936533
 21
363.36668300841473
 31
0.0
  0
LINE
  5
744
  8
0
 62
     0
 10
557.07811101578341
 20
363.36668300841473
 30
0.0
 11
557.16652869365316
 21
363.36668300841473
 31
0.0
  0
LINE
  5
745
  8
0
 62
     0
 10
561.13527869365328
 20
364.74149800841468
 30
0.0
 11
561.92902869365344
 21
364.74149800841468
 31
0.0
  0
LINE
  5
746
  8
0
 62
     0
 10
558.75402869365325
 20
364.74149800841468
 30
0.0
 11
559.54777869365341
 21
364.74149800841468
 31
0.0
  0
LINE
  5
747
  8
0
 62
     0
 10
556.37277869365334
 20
364.74149800841468
 30
0.0
 11
557.16652869365339
 21
364.74149800841468
 31
0.0
  0
LINE
  5
748
  8
0
 62
     0
 10
553.99152869365321
 20
364.74149800841468
 30
0.0
 11
554.78527869365325
 21
364.74149800841468
 31
0.0
  0
LINE
  5
749
  8
0
 62
     0
 10
561.13527869365328
 20
366.11631300841458
 30
0.0
 11
561.92902869365344
 21
366.11631300841458
 31
0.0
  0
LINE
  5
74A
  8
0
 62
     0
 10
558.75402869365325
 20
366.11631300841458
 30
0.0
 11
559.54777869365341
 21
366.11631300841458
 31
0.0
  0
LINE
  5
74B
  8
0
 62
     0
 10
556.37277869365334
 20
366.11631300841458
 30
0.0
 11
557.16652869365339
 21
366.11631300841458
 31
0.0
  0
LINE
  5
74C
  8
0
 62
     0
 10
553.99152869365321
 20
366.11631300841458
 30
0.0
 11
554.78527869365325
 21
366.11631300841458
 31
0.0
  0
LINE
  5
74D
  8
0
 62
     0
 10
561.13527869365328
 20
367.49112800841459
 30
0.0
 11
561.92902869365344
 21
367.49112800841459
 31
0.0
  0
LINE
  5
74E
  8
0
 62
     0
 10
558.75402869365325
 20
367.49112800841459
 30
0.0
 11
559.54777869365341
 21
367.49112800841459
 31
0.0
  0
LINE
  5
74F
  8
0
 62
     0
 10
556.37277869365334
 20
367.49112800841459
 30
0.0
 11
557.16652869365339
 21
367.49112800841459
 31
0.0
  0
LINE
  5
750
  8
0
 62
     0
 10
553.99152869365321
 20
367.49112800841459
 30
0.0
 11
554.78527869365325
 21
367.49112800841459
 31
0.0
  0
LINE
  5
751
  8
0
 62
     0
 10
561.13527869365328
 20
368.86594300841472
 30
0.0
 11
561.92902869365344
 21
368.86594300841472
 31
0.0
  0
LINE
  5
752
  8
0
 62
     0
 10
558.75402869365325
 20
368.86594300841472
 30
0.0
 11
559.54777869365341
 21
368.86594300841472
 31
0.0
  0
LINE
  5
753
  8
0
 62
     0
 10
556.37277869365334
 20
368.86594300841472
 30
0.0
 11
557.16652869365339
 21
368.86594300841472
 31
0.0
  0
LINE
  5
754
  8
0
 62
     0
 10
553.99152869365321
 20
368.86594300841472
 30
0.0
 11
554.78527869365325
 21
368.86594300841472
 31
0.0
  0
LINE
  5
755
  8
0
 62
     0
 10
561.13527869365328
 20
370.24075800841467
 30
0.0
 11
561.92902869365344
 21
370.24075800841467
 31
0.0
  0
LINE
  5
756
  8
0
 62
     0
 10
558.75402869365325
 20
370.24075800841467
 30
0.0
 11
559.54777869365341
 21
370.24075800841467
 31
0.0
  0
LINE
  5
757
  8
0
 62
     0
 10
556.37277869365334
 20
370.24075800841467
 30
0.0
 11
557.16652869365339
 21
370.24075800841467
 31
0.0
  0
LINE
  5
758
  8
0
 62
     0
 10
553.99152869365321
 20
370.24075800841467
 30
0.0
 11
554.78527869365325
 21
370.24075800841467
 31
0.0
  0
LINE
  5
759
  8
0
 62
     0
 10
561.13527869365328
 20
371.61557300841469
 30
0.0
 11
561.92902869365344
 21
371.61557300841469
 31
0.0
  0
LINE
  5
75A
  8
0
 62
     0
 10
558.75402869365325
 20
371.61557300841469
 30
0.0
 11
559.54777869365341
 21
371.61557300841469
 31
0.0
  0
LINE
  5
75B
  8
0
 62
     0
 10
556.37277869365334
 20
371.61557300841469
 30
0.0
 11
557.16652869365339
 21
371.61557300841469
 31
0.0
  0
LINE
  5
75C
  8
0
 62
     0
 10
553.99152869365321
 20
371.61557300841469
 30
0.0
 11
554.78527869365325
 21
371.61557300841469
 31
0.0
  0
LINE
  5
75D
  8
0
 62
     0
 10
561.13527869365328
 20
372.9903880084147
 30
0.0
 11
561.92902869365344
 21
372.9903880084147
 31
0.0
  0
LINE
  5
75E
  8
0
 62
     0
 10
558.75402869365325
 20
372.9903880084147
 30
0.0
 11
559.54777869365341
 21
372.9903880084147
 31
0.0
  0
LINE
  5
75F
  8
0
 62
     0
 10
556.37277869365334
 20
372.9903880084147
 30
0.0
 11
557.16652869365339
 21
372.9903880084147
 31
0.0
  0
LINE
  5
760
  8
0
 62
     0
 10
553.99152869365321
 20
372.9903880084147
 30
0.0
 11
554.78527869365325
 21
372.9903880084147
 31
0.0
  0
ENDBLK
  5
762
  8
0
  0
BLOCK
  8
0
  2
*X65
 70
     1
 10
0.0
 20
0.0
 30
0.0
  3
*X65
  1

  0
LINE
  5
76E
  8
0
 62
     0
 10
597.64781283318507
 20
363.36679338703419
 30
0.0
 11
598.04468783318521
 21
364.05420105128809
 31
0.0
  0
LINE
  5
76F
  8
0
 62
     0
 10
596.45718783318512
 20
361.3045703942725
 30
0.0
 11
596.85406283318514
 21
361.9919780585264
 31
0.0
  0
LINE
  5
770
  8
0
 62
     0
 10
595.26656283318505
 20
359.24234740151081
 30
0.0
 11
595.66343783318496
 21
359.92975506576471
 31
0.0
  0
LINE
  5
771
  8
0
 62
     0
 10
597.64781311768115
 20
366.11642387979589
 30
0.0
 11
598.04468811768129
 21
366.80383154404979
 31
0.0
  0
LINE
  5
772
  8
0
 62
     0
 10
596.45718811768108
 20
364.0542008870342
 30
0.0
 11
596.85406311768122
 21
364.7416085512881
 31
0.0
  0
LINE
  5
773
  8
0
 62
     0
 10
595.26656311768113
 20
361.99197789427251
 30
0.0
 11
595.66343811768115
 21
362.67938555852641
 31
0.0
  0
LINE
  5
774
  8
0
 62
     0
 10
594.07593811768095
 20
359.92975490151082
 30
0.0
 11
594.47281311768108
 21
360.61716256576472
 31
0.0
  0
LINE
  5
775
  8
0
 62
     0
 10
597.64781340217746
 20
368.86605437255758
 30
0.0
 11
598.04468840217737
 21
369.55346203681148
 31
0.0
  0
LINE
  5
776
  8
0
 62
     0
 10
596.45718840217739
 20
366.80383137979589
 30
0.0
 11
596.85406340217742
 21
367.49123904404979
 31
0.0
  0
LINE
  5
777
  8
0
 62
     0
 10
595.26656340217733
 20
364.7416083870342
 30
0.0
 11
595.66343840217735
 21
365.4290160512881
 31
0.0
  0
LINE
  5
778
  8
0
 62
     0
 10
594.07593840217714
 20
362.67938539427251
 30
0.0
 11
594.47281340217717
 21
363.36679305852641
 31
0.0
  0
LINE
  5
779
  8
0
 62
     0
 10
592.88531340217708
 20
360.61716240151083
 30
0.0
 11
593.2821884021771
 21
361.30457006576472
 31
0.0
  0
LINE
  5
77A
  8
0
 62
     0
 10
597.64781368667354
 20
371.61568486531922
 30
0.0
 11
597.7478731796233
 21
371.78899299088761
 31
0.0
  0
LINE
  5
77B
  8
0
 62
     0
 10
596.45718868667348
 20
369.55346187255748
 30
0.0
 11
596.85406368667361
 21
370.24086953681137
 31
0.0
  0
LINE
  5
77C
  8
0
 62
     0
 10
595.26656368667341
 20
367.4912388797959
 30
0.0
 11
595.66343868667354
 21
368.17864654404968
 31
0.0
  0
LINE
  5
77D
  8
0
 62
     0
 10
594.07593868667345
 20
365.42901588703421
 30
0.0
 11
594.47281368667348
 21
366.11642355128811
 31
0.0
  0
LINE
  5
77E
  8
0
 62
     0
 10
592.88531368667338
 20
363.36679289427241
 30
0.0
 11
593.28218868667341
 21
364.05420055852642
 31
0.0
  0
LINE
  5
77F
  8
0
 62
     0
 10
591.97478498667783
 20
361.78971092413059
 30
0.0
 11
592.09156368667334
 21
361.99197756576473
 31
0.0
  0
LINE
  5
780
  8
0
 62
     0
 10
596.45718897116956
 20
372.30309236531929
 30
0.0
 11
596.85406397116958
 21
372.99050002957318
 31
0.0
  0
LINE
  5
781
  8
0
 62
     0
 10
595.26656397116949
 20
370.2408693725576
 30
0.0
 11
595.66343897116963
 21
370.92827703681149
 31
0.0
  0
LINE
  5
782
  8
0
 62
     0
 10
594.07593897116953
 20
368.17864637979591
 30
0.0
 11
594.47281397116956
 21
368.8660540440498
 31
0.0
  0
LINE
  5
783
  8
0
 62
     0
 10
592.88531397116935
 20
366.11642338703422
 30
0.0
 11
593.28218897116949
 21
366.80383105128811
 31
0.0
  0
LINE
  5
784
  8
0
 62
     0
 10
591.69468897116928
 20
364.05420039427253
 30
0.0
 11
592.09156397116942
 21
364.74160805852642
 31
0.0
  0
LINE
  5
785
  8
0
 62
     0
 10
595.2665642556658
 20
372.99049986531929
 30
0.0
 11
595.66343925566582
 21
373.6779075295733
 31
0.0
  0
LINE
  5
786
  8
0
 62
     0
 10
594.07593925566573
 20
370.9282768725576
 30
0.0
 11
594.47281425566575
 21
371.61568453681161
 31
0.0
  0
LINE
  5
787
  8
0
 62
     0
 10
592.88531425566555
 20
368.86605387979603
 30
0.0
 11
593.28218925566557
 21
369.55346154404992
 31
0.0
  0
LINE
  5
788
  8
0
 62
     0
 10
591.69468925566559
 20
366.80383088703428
 30
0.0
 11
592.09156425566562
 21
367.49123855128818
 31
0.0
  0
LINE
  5
789
  8
0
 62
     0
 10
594.0759395401617
 20
373.67790736531919
 30
0.0
 11
594.18417302539251
 21
373.8653732608193
 31
0.0
  0
LINE
  5
78A
  8
0
 62
     0
 10
592.88531454016163
 20
371.6156843725575
 30
0.0
 11
593.28218954016165
 21
372.30309203681139
 31
0.0
  0
LINE
  5
78B
  8
0
 62
     0
 10
591.69468954016145
 20
369.55346137979581
 30
0.0
 11
592.09156454016147
 21
370.2408690440497
 31
0.0
  0
LINE
  5
78C
  8
0
 62
     0
 10
595.66332431924218
 20
373.6778822344728
 30
0.0
 11
595.51534209430031
 21
373.93419496668929
 31
0.0
  0
LINE
  5
78D
  8
0
 62
     0
 10
596.85394931924225
 20
371.61565924171111
 30
0.0
 11
596.45707431924234
 21
372.3030669059649
 31
0.0
  0
LINE
  5
78E
  8
0
 62
     0
 10
598.04457431924243
 20
369.55343624894942
 30
0.0
 11
597.64769931924241
 21
370.24084391320332
 31
0.0
  0
LINE
  5
78F
  8
0
 62
     0
 10
594.47269960373842
 20
372.99047473447268
 30
0.0
 11
594.0758246037384
 21
373.67788239872669
 31
0.0
  0
LINE
  5
790
  8
0
 62
     0
 10
595.66332460373849
 20
370.92825174171099
 30
0.0
 11
595.26644960373835
 21
371.615659405965
 31
0.0
  0
LINE
  5
791
  8
0
 62
     0
 10
596.85394960373856
 20
368.86602874894942
 30
0.0
 11
596.45707460373853
 21
369.55343641320331
 31
0.0
  0
LINE
  5
792
  8
0
 62
     0
 10
598.04457460373862
 20
366.80380575618773
 30
0.0
 11
597.64769960373849
 21
367.49121342044151
 31
0.0
  0
LINE
  5
793
  8
0
 62
     0
 10
593.28207488823443
 20
372.30306723447268
 30
0.0
 11
592.93418136511696
 21
372.90563649213613
 31
0.0
  0
LINE
  5
794
  8
0
 62
     0
 10
594.4726998882345
 20
370.2408442417111
 30
0.0
 11
594.07582488823437
 21
370.92825190596488
 31
0.0
  0
LINE
  5
795
  8
0
 62
     0
 10
595.66332488823446
 20
368.17862124894941
 30
0.0
 11
595.26644988823455
 21
368.86602891320331
 31
0.0
  0
LINE
  5
796
  8
0
 62
     0
 10
596.85394988823464
 20
366.11639825618772
 30
0.0
 11
596.45707488823462
 21
366.80380592044162
 31
0.0
  0
LINE
  5
797
  8
0
 62
     0
 10
598.04457488823459
 20
364.05417526342598
 30
0.0
 11
597.64769988823468
 21
364.74158292767987
 31
0.0
  0
LINE
  5
798
  8
0
 62
     0
 10
592.09145017273045
 20
371.61565973447267
 30
0.0
 11
592.08387484581772
 21
371.62878058556942
 31
0.0
  0
LINE
  5
799
  8
0
 62
     0
 10
593.2820751727304
 20
369.55343674171098
 30
0.0
 11
592.88520017273049
 21
370.24084440596499
 31
0.0
  0
LINE
  5
79A
  8
0
 62
     0
 10
594.47270017273047
 20
367.49121374894929
 30
0.0
 11
594.07582517273045
 21
368.17862141320319
 31
0.0
  0
LINE
  5
79B
  8
0
 62
     0
 10
595.66332517273065
 20
365.42899075618772
 30
0.0
 11
595.26645017273063
 21
366.1163984204415
 31
0.0
  0
LINE
  5
79C
  8
0
 62
     0
 10
596.85395017273072
 20
363.36676776342603
 30
0.0
 11
596.4570751727307
 21
364.05417542767992
 31
0.0
  0
LINE
  5
79D
  8
0
 62
     0
 10
597.86005547194611
 20
361.62414226742078
 30
0.0
 11
597.64770017273077
 21
361.99195243491818
 31
0.0
  0
LINE
  5
79E
  8
0
 62
     0
 10
592.09145045722664
 20
368.86602924171109
 30
0.0
 11
591.69457545722662
 21
369.55343690596499
 31
0.0
  0
LINE
  5
79F
  8
0
 62
     0
 10
593.28207545722671
 20
366.8038062489494
 30
0.0
 11
592.88520045722669
 21
367.4912139132033
 31
0.0
  0
LINE
  5
7A0
  8
0
 62
     0
 10
594.47270045722678
 20
364.74158325618771
 30
0.0
 11
594.07582545722676
 21
365.42899092044161
 31
0.0
  0
LINE
  5
7A1
  8
0
 62
     0
 10
595.66332545722685
 20
362.67936026342602
 30
0.0
 11
595.26645045722671
 21
363.36676792767992
 31
0.0
  0
LINE
  5
7A2
  8
0
 62
     0
 10
596.85395045722692
 20
360.61713727066439
 30
0.0
 11
596.45707545722678
 21
361.30454493491823
 31
0.0
  0
LINE
  5
7A3
  8
0
 62
     0
 10
592.09145074172272
 20
366.11639874894928
 30
0.0
 11
591.69457574172259
 21
366.80380641320318
 31
0.0
  0
LINE
  5
7A4
  8
0
 62
     0
 10
593.28207574172279
 20
364.0541757561877
 30
0.0
 11
592.88520074172266
 21
364.74158342044149
 31
0.0
  0
LINE
  5
7A5
  8
0
 62
     0
 10
594.47270074172275
 20
361.99195276342601
 30
0.0
 11
594.07582574172284
 21
362.6793604276798
 31
0.0
  0
LINE
  5
7A6
  8
0
 62
     0
 10
595.66332574172293
 20
359.92972977066432
 30
0.0
 11
595.26645074172291
 21
360.61713743491822
 31
0.0
  0
LINE
  5
7A7
  8
0
 62
     0
 10
592.09145102621869
 20
363.36676825618758
 30
0.0
 11
591.69457602621867
 21
364.05417592044159
 31
0.0
  0
LINE
  5
7A8
  8
0
 62
     0
 10
593.28207602621876
 20
361.30454526342589
 30
0.0
 11
592.88520102621885
 21
361.9919529276799
 31
0.0
  0
LINE
  5
7A9
  8
0
 62
     0
 10
594.47270102621894
 20
359.24232227066432
 30
0.0
 11
594.07582602621892
 21
359.92972993491821
 31
0.0
  0
LINE
  5
7AA
  8
0
 62
     0
 10
594.47277869365337
 20
359.24223800841469
 30
0.0
 11
595.26652869365341
 21
359.24223800841469
 31
0.0
  0
LINE
  5
7AB
  8
0
 62
     0
 10
596.85402869365328
 20
360.6170530084147
 30
0.0
 11
597.25350538266343
 21
360.6170530084147
 31
0.0
  0
LINE
  5
7AC
  8
0
 62
     0
 10
594.47277869365325
 20
360.6170530084147
 30
0.0
 11
595.26652869365319
 21
360.6170530084147
 31
0.0
  0
LINE
  5
7AD
  8
0
 62
     0
 10
592.65953701461581
 20
360.6170530084147
 30
0.0
 11
592.88527869365316
 21
360.6170530084147
 31
0.0
  0
LINE
  5
7AE
  8
0
 62
     0
 10
596.85402869365339
 20
361.99186800841471
 30
0.0
 11
597.64777869365344
 21
361.99186800841471
 31
0.0
  0
LINE
  5
7AF
  8
0
 62
     0
 10
594.47277869365337
 20
361.99186800841471
 30
0.0
 11
595.26652869365341
 21
361.99186800841471
 31
0.0
  0
LINE
  5
7B0
  8
0
 62
     0
 10
592.09152869365334
 20
361.99186800841471
 30
0.0
 11
592.88527869365328
 21
361.99186800841471
 31
0.0
  0
LINE
  5
7B1
  8
0
 62
     0
 10
596.85402869365339
 20
363.36668300841473
 30
0.0
 11
597.64777869365344
 21
363.36668300841473
 31
0.0
  0
LINE
  5
7B2
  8
0
 62
     0
 10
594.47277869365337
 20
363.36668300841473
 30
0.0
 11
595.26652869365341
 21
363.36668300841473
 31
0.0
  0
LINE
  5
7B3
  8
0
 62
     0
 10
592.09152869365334
 20
363.36668300841473
 30
0.0
 11
592.88527869365328
 21
363.36668300841473
 31
0.0
  0
LINE
  5
7B4
  8
0
 62
     0
 10
596.85402869365339
 20
364.74149800841468
 30
0.0
 11
597.64777869365344
 21
364.74149800841468
 31
0.0
  0
LINE
  5
7B5
  8
0
 62
     0
 10
594.47277869365337
 20
364.74149800841468
 30
0.0
 11
595.26652869365341
 21
364.74149800841468
 31
0.0
  0
LINE
  5
7B6
  8
0
 62
     0
 10
592.09152869365334
 20
364.74149800841468
 30
0.0
 11
592.88527869365328
 21
364.74149800841468
 31
0.0
  0
LINE
  5
7B7
  8
0
 62
     0
 10
596.85402869365339
 20
366.11631300841458
 30
0.0
 11
597.64777869365344
 21
366.11631300841458
 31
0.0
  0
LINE
  5
7B8
  8
0
 62
     0
 10
594.47277869365337
 20
366.11631300841458
 30
0.0
 11
595.26652869365341
 21
366.11631300841458
 31
0.0
  0
LINE
  5
7B9
  8
0
 62
     0
 10
592.09152869365334
 20
366.11631300841458
 30
0.0
 11
592.88527869365328
 21
366.11631300841458
 31
0.0
  0
LINE
  5
7BA
  8
0
 62
     0
 10
596.85402869365339
 20
367.49112800841459
 30
0.0
 11
597.64777869365344
 21
367.49112800841459
 31
0.0
  0
LINE
  5
7BB
  8
0
 62
     0
 10
594.47277869365337
 20
367.49112800841459
 30
0.0
 11
595.26652869365341
 21
367.49112800841459
 31
0.0
  0
LINE
  5
7BC
  8
0
 62
     0
 10
592.09152869365334
 20
367.49112800841459
 30
0.0
 11
592.88527869365328
 21
367.49112800841459
 31
0.0
  0
LINE
  5
7BD
  8
0
 62
     0
 10
596.85402869365339
 20
368.86594300841472
 30
0.0
 11
597.64777869365344
 21
368.86594300841472
 31
0.0
  0
LINE
  5
7BE
  8
0
 62
     0
 10
594.47277869365337
 20
368.86594300841472
 30
0.0
 11
595.26652869365341
 21
368.86594300841472
 31
0.0
  0
LINE
  5
7BF
  8
0
 62
     0
 10
592.09152869365334
 20
368.86594300841472
 30
0.0
 11
592.88527869365328
 21
368.86594300841472
 31
0.0
  0
LINE
  5
7C0
  8
0
 62
     0
 10
596.85402869365339
 20
370.24075800841467
 30
0.0
 11
597.64777869365344
 21
370.24075800841467
 31
0.0
  0
LINE
  5
7C1
  8
0
 62
     0
 10
594.47277869365337
 20
370.24075800841467
 30
0.0
 11
595.26652869365341
 21
370.24075800841467
 31
0.0
  0
LINE
  5
7C2
  8
0
 62
     0
 10
592.09152869365334
 20
370.24075800841467
 30
0.0
 11
592.88527869365328
 21
370.24075800841467
 31
0.0
  0
LINE
  5
7C3
  8
0
 62
     0
 10
596.85402869365339
 20
371.61557300841469
 30
0.0
 11
597.64777869365344
 21
371.61557300841469
 31
0.0
  0
LINE
  5
7C4
  8
0
 62
     0
 10
594.47277869365337
 20
371.61557300841469
 30
0.0
 11
595.26652869365341
 21
371.61557300841469
 31
0.0
  0
LINE
  5
7C5
  8
0
 62
     0
 10
592.09152869365334
 20
371.61557300841469
 30
0.0
 11
592.88527869365328
 21
371.61557300841469
 31
0.0
  0
LINE
  5
7C6
  8
0
 62
     0
 10
596.85402869365339
 20
372.9903880084147
 30
0.0
 11
596.90130248443461
 21
372.9903880084147
 31
0.0
  0
LINE
  5
7C7
  8
0
 62
     0
 10
594.47277869365337
 20
372.9903880084147
 30
0.0
 11
595.26652869365341
 21
372.9903880084147
 31
0.0
  0
ENDBLK
  5
7C9
  8
0
  0
BLOCK
  8
0
  2
*U66
 70
     1
 10
0.0
 20
0.0
 30
0.0
  3
*U66
  1

  0
TEXT
  5
7EB
  8
0
 62
     2
 10
531.72338132707853
 20
286.24268066547751
 30
0.0
 40
3.0
  1
150
 50
90.0
  7
ISO
  0
ENDBLK
  5
7ED
  8
0
  0
BLOCK
  8
0
  2
*U67
 70
     1
 10
0.0
 20
0.0
 30
0.0
  3
*U67
  1

  0
SOLID
  5
7F0
  8
0
  6
CONTINUOUS
 62
     4
 10
23.015468331081149
 20
12.761725249354241
 30
0.0
 11
23.015468331081149
 21
12.761725249354241
 31
0.0
 12
24.454227930408202
 22
12.761725249354241
 32
0.0
 13
24.454227930408202
 23
12.761725249354241
 33
0.0
210
0.0
220
0.0
230
1.0
  0
SOLID
  5
7F1
  8
0
  6
CONTINUOUS
 62
     4
 10
23.015468331081149
 20
12.761725249354241
 30
0.0
 11
22.474732851717611
 21
12.71697570444282
 31
0.0
 12
25.15145993421989
 22
12.71697570444282
 32
0.0
 13
25.15145993421989
 23
12.71697570444282
 33
0.0
210
0.0
220
0.0
230
1.0
  0
SOLID
  5
7F2
  8
0
  6
CONTINUOUS
 62
     4
 10
-23.015468331081149
 20
12.761725249354241
 30
0.0
 11
-24.454227930408258
 21
12.761725249354241
 31
0.0
 12
-25.15145993421989
 22
12.71697570444282
 32
0.0
 13
-25.15145993421989
 23
12.71697570444282
 33
0.0
210
0.0
220
0.0
230
-1.0
  0
SOLID
  5
7F3
  8
0
  6
CONTINUOUS
 62
     4
 10
22.474732851717611
 20
12.71697570444282
 30
0.0
 11
22.473477922542319
 21
12.71687185050382
 31
0.0
 12
25.151993375661391
 22
12.71687185050382
 32
0.0
 13
25.151993375661391
 23
12.71687185050382
 33
0.0
210
0.0
220
0.0
230
1.0
  0
SOLID
  5
7F4
  8
0
  6
CONTINUOUS
 62
     4
 10
-22.474732851717611
 20
12.71697570444282
 30
0.0
 11
-25.15145993421989
 21
12.71697570444282
 31
0.0
 12
-25.151993375661391
 22
12.71687185050382
 32
0.0
 13
-25.151993375661391
 23
12.71687185050382
 33
0.0
210
0.0
220
0.0
230
-1.0
  0
SOLID
  5
7F5
  8
0
  6
CONTINUOUS
 62
     4
 10
22.473477922542319
 20
12.71687185050382
 30
0.0
 11
21.94623421576545
 21
12.58353204399163
 31
0.0
 12
25.836887750194141
 22
12.58353204399163
 32
0.0
 13
25.836887750194141
 23
12.58353204399163
 33
0.0
210
0.0
220
0.0
230
1.0
  0
SOLID
  5
7F6
  8
0
  6
CONTINUOUS
 62
     4
 10
-22.473477922542319
 20
12.71687185050382
 30
0.0
 11
-25.151993375661391
 21
12.71687185050382
 31
0.0
 12
-25.836887750194141
 22
12.58353204399163
 32
0.0
 13
-25.836887750194141
 23
12.58353204399163
 33
0.0
210
0.0
220
0.0
230
-1.0
  0
SOLID
  5
7F7
  8
0
  6
CONTINUOUS
 62
     4
 10
21.94623421576545
 20
12.58353204399163
 30
0.0
 11
21.94614682995218
 21
12.583461390664089
 31
0.0
 12
25.837250658074652
 22
12.583461390664089
 32
0.0
 13
25.837250658074652
 23
12.583461390664089
 33
0.0
210
0.0
220
0.0
230
1.0
  0
SOLID
  5
7F8
  8
0
  6
CONTINUOUS
 62
     4
 10
-21.94623421576545
 20
12.58353204399163
 30
0.0
 11
-25.836887750194141
 21
12.58353204399163
 31
0.0
 12
-25.837250658074652
 22
12.583461390664089
 32
0.0
 13
-25.837250658074652
 23
12.583461390664089
 33
0.0
210
0.0
220
0.0
230
-1.0
  0
SOLID
  5
7F9
  8
0
  6
CONTINUOUS
 62
     4
 10
21.94614682995218
 20
12.583461390664089
 30
0.0
 11
21.346644890689259
 21
12.0987510551557
 31
0.0
 12
26.56909861488554
 22
12.0987510551557
 32
0.0
 13
26.56909861488554
 23
12.0987510551557
 33
0.0
  0
SOLID
  5
7FA
  8
0
  6
CONTINUOUS
 62
     4
 10
-21.94614682995218
 20
12.583461390664089
 30
0.0
 11
-25.837250658074652
 21
12.583461390664089
 31
0.0
 12
-26.56909861488554
 22
12.0987510551557
 32
0.0
 13
-26.56909861488554
 23
12.0987510551557
 33
0.0
210
0.0
220
0.0
230
-1.0
  0
SOLID
  5
7FB
  8
0
  6
CONTINUOUS
 62
     4
 10
21.346644890689259
 20
12.0987510551557
 30
0.0
 11
21.14040383518217
 21
11.932000683449891
 31
0.0
 12
26.62595503153107
 22
11.932000683449891
 32
0.0
 13
26.62595503153107
 23
11.932000683449891
 33
0.0
210
0.0
220
0.0
230
1.0
  0
SOLID
  5
7FC
  8
0
  6
CONTINUOUS
 62
     4
 10
-21.346644890689259
 20
12.0987510551557
 30
0.0
 11
-26.56909861488554
 21
12.0987510551557
 31
0.0
 12
-26.62595503153107
 22
11.932000683449891
 32
0.0
 13
-26.62595503153107
 23
11.932000683449891
 33
0.0
210
0.0
220
0.0
230
-1.0
  0
SOLID
  5
7FD
  8
0
  6
CONTINUOUS
 62
     4
 10
21.14040383518217
 20
11.932000683449891
 30
0.0
 11
21.05500954395162
 21
11.491775001953259
 31
0.0
 12
26.7760575740873
 22
11.491775001953259
 32
0.0
 13
26.7760575740873
 23
11.491775001953259
 33
0.0
210
0.0
220
0.0
230
1.0
  0
SOLID
  5
7FE
  8
0
  6
CONTINUOUS
 62
     4
 10
-21.14040383518217
 20
11.932000683449891
 30
0.0
 11
-26.62595503153107
 21
11.932000683449891
 31
0.0
 12
-26.7760575740873
 22
11.491775001953259
 32
0.0
 13
-26.7760575740873
 23
11.491775001953259
 33
0.0
210
0.0
220
0.0
230
-1.0
  0
SOLID
  5
7FF
  8
0
  6
CONTINUOUS
 62
     4
 10
23.226746727748719
 20
11.491775001953259
 30
0.0
 11
23.226746727748719
 21
11.491775001953259
 31
0.0
 12
24.532363637744169
 22
11.491775001953259
 32
0.0
 13
24.532363637744169
 23
11.491775001953259
 33
0.0
210
0.0
220
0.0
230
1.0
  0
SOLID
  5
800
  8
0
  6
CONTINUOUS
 62
     4
 10
21.05500954395162
 20
11.491775001953259
 30
0.0
 11
21.011585010908298
 21
11.26791232475091
 31
0.0
 12
23.091608399562059
 22
11.26791232475091
 32
0.0
 13
23.091608399562059
 23
11.26791232475091
 33
0.0
210
0.0
220
0.0
230
1.0
  0
SOLID
  5
801
  8
0
  6
CONTINUOUS
 62
     4
 10
-21.05500954395162
 20
11.491775001953259
 30
0.0
 11
-23.226746727748719
 21
11.491775001953259
 31
0.0
 12
-23.091608399562059
 22
11.26791232475091
 32
0.0
 13
-23.091608399562059
 23
11.26791232475091
 33
0.0
210
0.0
220
0.0
230
-1.0
  0
SOLID
  5
802
  8
0
  6
CONTINUOUS
 62
     4
 10
24.532363637744179
 20
11.491775001953259
 30
0.0
 11
24.627542661503639
 21
11.26791232475091
 31
0.0
 12
26.85238741681087
 22
11.26791232475091
 32
0.0
 13
26.85238741681087
 23
11.26791232475091
 33
0.0
210
0.0
220
0.0
230
1.0
  0
SOLID
  5
803
  8
0
  6
CONTINUOUS
 62
     4
 10
-24.532363637744179
 20
11.491775001953259
 30
0.0
 11
-26.7760575740873
 21
11.491775001953259
 31
0.0
 12
-26.85238741681087
 22
11.26791232475091
 32
0.0
 13
-26.85238741681087
 23
11.26791232475091
 33
0.0
210
0.0
220
0.0
230
-1.0
  0
SOLID
  5
804
  8
0
  6
CONTINUOUS
 62
     4
 10
21.011585010908298
 20
11.26791232475091
 30
0.0
 11
21.002042486913641
 21
11.2187185898043
 31
0.0
 12
23.061911805288169
 22
11.2187185898043
 32
0.0
 13
23.061911805288169
 23
11.2187185898043
 33
0.0
210
0.0
220
0.0
230
1.0
  0
SOLID
  5
805
  8
0
  6
CONTINUOUS
 62
     4
 10
-21.011585010908298
 20
11.26791232475091
 30
0.0
 11
-23.091608399562059
 21
11.26791232475091
 31
0.0
 12
-23.061911805288169
 22
11.2187185898043
 32
0.0
 13
-23.061911805288169
 23
11.2187185898043
 33
0.0
210
0.0
220
0.0
230
-1.0
  0
SOLID
  5
806
  8
0
  6
CONTINUOUS
 62
     4
 10
24.627542661503639
 20
11.26791232475091
 30
0.0
 11
24.648458214403369
 21
11.2187185898043
 31
0.0
 12
26.85238741681087
 22
11.2187185898043
 32
0.0
 13
26.85238741681087
 23
11.2187185898043
 33
0.0
210
0.0
220
0.0
230
1.0
  0
SOLID
  5
807
  8
0
  6
CONTINUOUS
 62
     4
 10
-24.627542661503639
 20
11.26791232475091
 30
0.0
 11
-26.85238741681087
 21
11.26791232475091
 31
0.0
 12
-26.85238741681087
 22
11.2187185898043
 32
0.0
 13
-26.85238741681087
 23
11.2187185898043
 33
0.0
210
0.0
220
0.0
230
-1.0
  0
SOLID
  5
808
  8
0
  6
CONTINUOUS
 62
     4
 10
21.002042486913641
 20
11.2187185898043
 30
0.0
 11
20.959489969914429
 21
10.999351340244321
 31
0.0
 12
22.992332589911928
 22
10.999351340244321
 32
0.0
 13
22.992332589911928
 23
10.999351340244321
 33
0.0
210
0.0
220
0.0
230
1.0
  0
SOLID
  5
809
  8
0
  6
CONTINUOUS
 62
     4
 10
-21.002042486913641
 20
11.2187185898043
 30
0.0
 11
-23.061911805288169
 21
11.2187185898043
 31
0.0
 12
-22.992332589911928
 22
10.999351340244321
 32
0.0
 13
-22.992332589911928
 23
10.999351340244321
 33
0.0
210
0.0
220
0.0
230
-1.0
  0
SOLID
  5
80A
  8
0
  6
CONTINUOUS
 62
     4
 10
24.648458214403369
 20
11.2187185898043
 30
0.0
 11
24.741725930660721
 21
10.999351340244321
 31
0.0
 12
26.85238741681087
 22
10.999351340244321
 32
0.0
 13
26.85238741681087
 23
10.999351340244321
 33
0.0
  0
SOLID
  5
80B
  8
0
  6
CONTINUOUS
 62
     4
 10
-24.648458214403369
 20
11.2187185898043
 30
0.0
 11
-26.85238741681087
 21
11.2187185898043
 31
0.0
 12
-26.85238741681087
 22
10.999351340244321
 32
0.0
 13
-26.85238741681087
 23
10.999351340244321
 33
0.0
210
0.0
220
0.0
230
-1.0
  0
SOLID
  5
80C
  8
0
  6
CONTINUOUS
 62
     4
 10
20.959489969914429
 20
10.999351340244321
 30
0.0
 11
20.943068132967419
 21
10.914693288081221
 31
0.0
 12
22.965480628843881
 22
10.914693288081221
 32
0.0
 13
22.965480628843881
 23
10.914693288081221
 33
0.0
  0
SOLID
  5
80D
  8
0
  6
CONTINUOUS
 62
     4
 10
-20.959489969914429
 20
10.999351340244321
 30
0.0
 11
-22.992332589911928
 21
10.999351340244321
 31
0.0
 12
-22.965480628843881
 22
10.914693288081221
 32
0.0
 13
-22.965480628843881
 23
10.914693288081221
 33
0.0
210
0.0
220
0.0
230
-1.0
  0
SOLID
  5
80E
  8
0
  6
CONTINUOUS
 62
     4
 10
24.741725930660721
 20
10.999351340244321
 30
0.0
 11
24.753138847041161
 21
10.914693288081221
 31
0.0
 12
26.85238741681087
 22
10.914693288081221
 32
0.0
 13
26.85238741681087
 23
10.914693288081221
 33
0.0
210
0.0
220
0.0
230
1.0
  0
SOLID
  5
80F
  8
0
  6
CONTINUOUS
 62
     4
 10
-24.741725930660721
 20
10.999351340244321
 30
0.0
 11
-26.85238741681087
 21
10.999351340244321
 31
0.0
 12
-26.85238741681087
 22
10.914693288081221
 32
0.0
 13
-26.85238741681087
 23
10.914693288081221
 33
0.0
210
0.0
220
0.0
230
-1.0
  0
SOLID
  5
810
  8
0
  6
CONTINUOUS
 62
     4
 10
20.943068132967419
 20
10.914693288081221
 30
0.0
 11
20.943068132967419
 21
10.914693288081221
 31
0.0
 12
22.965480628843881
 22
10.914693288081221
 32
0.0
 13
22.965480628843881
 23
10.914693288081221
 33
0.0
210
0.0
220
0.0
230
1.0
  0
SOLID
  5
811
  8
0
  6
CONTINUOUS
 62
     4
 10
24.753138847041161
 20
10.914693288081221
 30
0.0
 11
24.813214782167488
 21
10.46906559046751
 31
0.0
 12
26.85238741681087
 22
10.46906559046751
 32
0.0
 13
26.85238741681087
 23
10.46906559046751
 33
0.0
210
0.0
220
0.0
230
1.0
  0
SOLID
  5
812
  8
0
  6
CONTINUOUS
 62
     4
 10
-24.753138847041161
 20
10.914693288081221
 30
0.0
 11
-26.85238741681087
 21
10.914693288081221
 31
0.0
 12
-26.85238741681087
 22
10.46906559046751
 32
0.0
 13
-26.85238741681087
 23
10.46906559046751
 33
0.0
210
0.0
220
0.0
230
-1.0
  0
SOLID
  5
813
  8
0
  6
CONTINUOUS
 62
     4
 10
24.813214782167488
 20
10.46906559046751
 30
0.0
 11
24.813214782167499
 21
10.216853593185981
 31
0.0
 12
26.85238741681087
 22
10.216853593185981
 32
0.0
 13
26.85238741681087
 23
10.216853593185981
 33
0.0
210
0.0
220
0.0
230
1.0
  0
SOLID
  5
814
  8
0
  6
CONTINUOUS
 62
     4
 10
-24.813214782167488
 20
10.46906559046751
 30
0.0
 11
-26.85238741681087
 21
10.46906559046751
 31
0.0
 12
-26.85238741681087
 22
10.216853593185981
 32
0.0
 13
-26.85238741681087
 23
10.216853593185981
 33
0.0
210
0.0
220
0.0
230
-1.0
  0
SOLID
  5
815
  8
0
  6
CONTINUOUS
 62
     4
 10
22.65427133230396
 20
10.216853593185981
 30
0.0
 11
22.65427133230396
 21
10.216853593185981
 31
0.0
 12
24.078718816616799
 22
10.216853593185981
 32
0.0
 13
24.078718816616799
 23
10.216853593185981
 33
0.0
210
0.0
220
0.0
230
1.0
  0
SOLID
  5
816
  8
0
  6
CONTINUOUS
 62
     4
 10
22.65427133230396
 20
10.216853593185981
 30
0.0
 11
22.434882565705681
 21
10.19714352993763
 31
0.0
 12
24.448064473450149
 22
10.19714352993763
 32
0.0
 13
24.448064473450149
 23
10.19714352993763
 33
0.0
210
0.0
220
0.0
230
1.0
  0
SOLID
  5
817
  8
0
  6
CONTINUOUS
 62
     4
 10
-22.65427133230396
 20
10.216853593185981
 30
0.0
 11
-24.078718816616799
 21
10.216853593185981
 31
0.0
 12
-24.448064473450149
 22
10.19714352993763
 32
0.0
 13
-24.448064473450149
 23
10.19714352993763
 33
0.0
210
0.0
220
0.0
230
-1.0
  0
SOLID
  5
818
  8
0
  6
CONTINUOUS
 62
     4
 10
24.813214782167499
 20
10.216853593185981
 30
0.0
 11
24.813214782167499
 21
10.19714352993763
 31
0.0
 12
26.85238741681087
 22
10.19714352993763
 32
0.0
 13
26.85238741681087
 23
10.19714352993763
 33
0.0
210
0.0
220
0.0
230
1.0
  0
SOLID
  5
819
  8
0
  6
CONTINUOUS
 62
     4
 10
-24.813214782167499
 20
10.216853593185981
 30
0.0
 11
-26.85238741681087
 21
10.216853593185981
 31
0.0
 12
-26.85238741681087
 22
10.19714352993763
 32
0.0
 13
-26.85238741681087
 23
10.19714352993763
 33
0.0
210
0.0
220
0.0
230
-1.0
  0
SOLID
  5
81A
  8
0
  6
CONTINUOUS
 62
     4
 10
22.434882565705681
 20
10.19714352993763
 30
0.0
 11
22.107286398766998
 21
10.16771202681012
 31
0.0
 12
24.630505424617908
 22
10.16771202681012
 32
0.0
 13
24.630505424617908
 23
10.16771202681012
 33
0.0
210
0.0
220
0.0
230
1.0
  0
SOLID
  5
81B
  8
0
  6
CONTINUOUS
 62
     4
 10
-22.434882565705681
 20
10.19714352993763
 30
0.0
 11
-24.448064473450149
 21
10.19714352993763
 31
0.0
 12
-24.630505424617908
 22
10.16771202681012
 32
0.0
 13
-24.630505424617908
 23
10.16771202681012
 33
0.0
210
0.0
220
0.0
230
-1.0
  0
SOLID
  5
81C
  8
0
  6
CONTINUOUS
 62
     4
 10
24.813214782167499
 20
10.19714352993763
 30
0.0
 11
24.813214782167499
 21
10.16771202681012
 31
0.0
 12
26.85238741681087
 22
10.16771202681012
 32
0.0
 13
26.85238741681087
 23
10.16771202681012
 33
0.0
210
0.0
220
0.0
230
1.0
  0
SOLID
  5
81D
  8
0
  6
CONTINUOUS
 62
     4
 10
-24.813214782167499
 20
10.19714352993763
 30
0.0
 11
-26.85238741681087
 21
10.19714352993763
 31
0.0
 12
-26.85238741681087
 22
10.16771202681012
 32
0.0
 13
-26.85238741681087
 23
10.16771202681012
 33
0.0
210
0.0
220
0.0
230
-1.0
  0
SOLID
  5
81E
  8
0
  6
CONTINUOUS
 62
     4
 10
22.107286398766998
 20
10.16771202681012
 30
0.0
 11
22.000287186968752
 21
10.13823722417548
 31
0.0
 12
24.813214782167499
 22
10.13823722417548
 32
0.0
 13
24.813214782167499
 23
10.13823722417548
 33
0.0
210
0.0
220
0.0
230
1.0
  0
SOLID
  5
81F
  8
0
  6
CONTINUOUS
 62
     4
 10
-22.107286398766998
 20
10.16771202681012
 30
0.0
 11
-24.630505424617908
 21
10.16771202681012
 31
0.0
 12
-24.813214782167499
 22
10.13823722417548
 32
0.0
 13
-24.813214782167499
 23
10.13823722417548
 33
0.0
210
0.0
220
0.0
230
-1.0
  0
SOLID
  5
820
  8
0
  6
CONTINUOUS
 62
     4
 10
24.813214782167499
 20
10.16771202681012
 30
0.0
 11
24.813214782167499
 21
10.13823722417548
 31
0.0
 12
26.85238741681087
 22
10.13823722417548
 32
0.0
 13
26.85238741681087
 23
10.13823722417548
 33
0.0
210
0.0
220
0.0
230
1.0
  0
SOLID
  5
821
  8
0
  6
CONTINUOUS
 62
     4
 10
-24.813214782167499
 20
10.16771202681012
 30
0.0
 11
-26.85238741681087
 21
10.16771202681012
 31
0.0
 12
-26.85238741681087
 22
10.13823722417548
 32
0.0
 13
-26.85238741681087
 23
10.13823722417548
 33
0.0
210
0.0
220
0.0
230
-1.0
  0
SOLID
  5
822
  8
0
  6
CONTINUOUS
 62
     4
 10
22.000287186968752
 20
10.13823722417548
 30
0.0
 11
21.577819740142921
 21
10.02186118359089
 31
0.0
 12
26.85238741681087
 22
10.02186118359089
 32
0.0
 13
26.85238741681087
 23
10.02186118359089
 33
0.0
210
0.0
220
0.0
230
1.0
  0
SOLID
  5
823
  8
0
  6
CONTINUOUS
 62
     4
 10
-22.000287186968752
 20
10.13823722417548
 30
0.0
 11
-26.85238741681087
 21
10.13823722417548
 31
0.0
 12
-26.85238741681087
 22
10.02186118359089
 32
0.0
 13
-26.85238741681087
 23
10.02186118359089
 33
0.0
210
0.0
220
0.0
230
-1.0
  0
SOLID
  5
824
  8
0
  6
CONTINUOUS
 62
     4
 10
21.577819740142921
 20
10.02186118359089
 30
0.0
 11
21.12109376134968
 21
9.7362947386209377
 31
0.0
 12
26.85238741681087
 22
9.7362947386209377
 32
0.0
 13
26.85238741681087
 23
9.7362947386209377
 33
0.0
210
0.0
220
0.0
230
1.0
  0
SOLID
  5
825
  8
0
  6
CONTINUOUS
 62
     4
 10
-21.577819740142921
 20
10.02186118359089
 30
0.0
 11
-26.85238741681087
 21
10.02186118359089
 31
0.0
 12
-26.85238741681087
 22
9.7362947386209377
 32
0.0
 13
-26.85238741681087
 23
9.7362947386209377
 33
0.0
210
0.0
220
0.0
230
-1.0
  0
SOLID
  5
826
  8
0
  6
CONTINUOUS
 62
     4
 10
21.12109376134968
 20
9.7362947386209377
 30
0.0
 11
20.811957480991911
 21
9.2951807234684196
 31
0.0
 12
26.85238741681086
 22
9.2951807234684196
 32
0.0
 13
26.85238741681086
 23
9.2951807234684196
 33
0.0
210
0.0
220
0.0
230
1.0
  0
SOLID
  5
827
  8
0
  6
CONTINUOUS
 62
     4
 10
-21.12109376134968
 20
9.7362947386209377
 30
0.0
 11
-26.85238741681087
 21
9.7362947386209377
 31
0.0
 12
-26.85238741681086
 22
9.2951807234684196
 32
0.0
 13
-26.85238741681086
 23
9.2951807234684196
 33
0.0
210
0.0
220
0.0
230
-1.0
  0
SOLID
  5
828
  8
0
  6
CONTINUOUS
 62
     4
 10
20.811957480991911
 20
9.2951807234684196
 30
0.0
 11
20.710763950783871
 21
8.9511586626376651
 31
0.0
 12
26.85238741681086
 22
8.9511586626376651
 32
0.0
 13
26.85238741681086
 23
8.9511586626376651
 33
0.0
  0
SOLID
  5
829
  8
0
  6
CONTINUOUS
 62
     4
 10
-20.811957480991911
 20
9.2951807234684196
 30
0.0
 11
-26.85238741681086
 21
9.2951807234684196
 31
0.0
 12
-26.85238741681086
 22
8.9511586626376651
 32
0.0
 13
-26.85238741681086
 23
8.9511586626376651
 33
0.0
210
0.0
220
0.0
230
-1.0
  0
SOLID
  5
82A
  8
0
  6
CONTINUOUS
 62
     4
 10
23.294957983802199
 20
8.9511586626376651
 30
0.0
 11
23.294957983802199
 21
8.9511586626376651
 31
0.0
 12
24.813214782167488
 22
8.9511586626376651
 32
0.0
 13
24.813214782167488
 23
8.9511586626376651
 33
0.0
210
0.0
220
0.0
230
1.0
  0
SOLID
  5
82B
  8
0
  6
CONTINUOUS
 62
     4
 10
20.710763950783871
 20
8.9511586626376651
 30
0.0
 11
20.67359246009369
 21
8.8247887968458283
 31
0.0
 12
22.93607818216935
 22
8.8247887968458283
 32
0.0
 13
22.93607818216935
 23
8.8247887968458283
 33
0.0
210
0.0
220
0.0
230
1.0
  0
SOLID
  5
82C
  8
0
  6
CONTINUOUS
 62
     4
 10
-20.710763950783871
 20
8.9511586626376651
 30
0.0
 11
-23.294957983802199
 21
8.9511586626376651
 31
0.0
 12
-22.93607818216935
 22
8.8247887968458283
 32
0.0
 13
-22.93607818216935
 23
8.8247887968458283
 33
0.0
210
0.0
220
0.0
230
-1.0
  0
SOLID
  5
82D
  8
0
  6
CONTINUOUS
 62
     4
 10
24.813214782167488
 20
8.9511586626376651
 30
0.0
 11
24.813214782167488
 21
8.8247887968458283
 31
0.0
 12
26.85238741681086
 22
8.8247887968458283
 32
0.0
 13
26.85238741681086
 23
8.8247887968458283
 33
0.0
210
0.0
220
0.0
230
1.0
  0
SOLID
  5
82E
  8
0
  6
CONTINUOUS
 62
     4
 10
-24.813214782167488
 20
8.9511586626376651
 30
0.0
 11
-26.85238741681086
 21
8.9511586626376651
 31
0.0
 12
-26.85238741681086
 22
8.8247887968458283
 32
0.0
 13
-26.85238741681086
 23
8.8247887968458283
 33
0.0
210
0.0
220
0.0
230
-1.0
  0
SOLID
  5
82F
  8
0
  6
CONTINUOUS
 62
     4
 10
20.67359246009369
 20
8.8247887968458283
 30
0.0
 11
20.661770239401221
 21
8.7845974455029499
 31
0.0
 12
22.91115366209651
 22
8.7845974455029499
 32
0.0
 13
22.91115366209651
 23
8.7845974455029499
 33
0.0
210
0.0
220
0.0
230
1.0
  0
SOLID
  5
830
  8
0
  6
CONTINUOUS
 62
     4
 10
-20.67359246009369
 20
8.8247887968458283
 30
0.0
 11
-22.93607818216935
 21
8.8247887968458283
 31
0.0
 12
-22.91115366209651
 22
8.7845974455029499
 32
0.0
 13
-22.91115366209651
 23
8.7845974455029499
 33
0.0
210
0.0
220
0.0
230
-1.0
  0
SOLID
  5
831
  8
0
  6
CONTINUOUS
 62
     4
 10
24.813214782167488
 20
8.8247887968458283
 30
0.0
 11
24.813214782167488
 21
8.7845974455029499
 31
0.0
 12
26.85238741681086
 22
8.7845974455029499
 32
0.0
 13
26.85238741681086
 23
8.7845974455029499
 33
0.0
210
0.0
220
0.0
230
1.0
  0
SOLID
  5
832
  8
0
  6
CONTINUOUS
 62
     4
 10
-24.813214782167488
 20
8.8247887968458283
 30
0.0
 11
-26.85238741681086
 21
8.8247887968458283
 31
0.0
 12
-26.85238741681086
 22
8.7845974455029499
 32
0.0
 13
-26.85238741681086
 23
8.7845974455029499
 33
0.0
210
0.0
220
0.0
230
-1.0
  0
SOLID
  5
833
  8
0
  6
CONTINUOUS
 62
     4
 10
20.661770239401221
 20
8.7845974455029499
 30
0.0
 11
20.651443334370821
 21
8.5014401058415441
 31
0.0
 12
22.735554669767211
 22
8.5014401058415441
 32
0.0
 13
22.735554669767211
 23
8.5014401058415441
 33
0.0
210
0.0
220
0.0
230
1.0
  0
SOLID
  5
834
  8
0
  6
CONTINUOUS
 62
     4
 10
-20.661770239401221
 20
8.7845974455029499
 30
0.0
 11
-22.91115366209651
 21
8.7845974455029499
 31
0.0
 12
-22.735554669767211
 22
8.5014401058415441
 32
0.0
 13
-22.735554669767211
 23
8.5014401058415441
 33
0.0
210
0.0
220
0.0
230
-1.0
  0
SOLID
  5
835
  8
0
  6
CONTINUOUS
 62
     4
 10
24.813214782167488
 20
8.7845974455029499
 30
0.0
 11
24.813214782167488
 21
8.5014401058415441
 31
0.0
 12
26.85238741681086
 22
8.5014401058415441
 32
0.0
 13
26.85238741681086
 23
8.5014401058415441
 33
0.0
210
0.0
220
0.0
230
1.0
  0
SOLID
  5
836
  8
0
  6
CONTINUOUS
 62
     4
 10
-24.813214782167488
 20
8.7845974455029499
 30
0.0
 11
-26.85238741681086
 21
8.7845974455029499
 31
0.0
 12
-26.85238741681086
 22
8.5014401058415441
 32
0.0
 13
-26.85238741681086
 23
8.5014401058415441
 33
0.0
210
0.0
220
0.0
230
-1.0
  0
SOLID
  5
837
  8
0
  6
CONTINUOUS
 62
     4
 10
20.651443334370821
 20
8.5014401058415441
 30
0.0
 11
20.642813673721481
 21
8.2648201558708951
 31
0.0
 12
22.716629656757402
 22
8.2648201558708951
 32
0.0
 13
22.716629656757402
 23
8.2648201558708951
 33
0.0
  0
SOLID
  5
838
  8
0
  6
CONTINUOUS
 62
     4
 10
-20.651443334370821
 20
8.5014401058415441
 30
0.0
 11
-22.735554669767211
 21
8.5014401058415441
 31
0.0
 12
-22.716629656757402
 22
8.2648201558708951
 32
0.0
 13
-22.716629656757402
 23
8.2648201558708951
 33
0.0
210
0.0
220
0.0
230
-1.0
  0
SOLID
  5
839
  8
0
  6
CONTINUOUS
 62
     4
 10
24.813214782167488
 20
8.5014401058415441
 30
0.0
 11
24.813214782167488
 21
8.2648201558708951
 31
0.0
 12
26.85238741681086
 22
8.2648201558708951
 32
0.0
 13
26.85238741681086
 23
8.2648201558708951
 33
0.0
210
0.0
220
0.0
230
1.0
  0
SOLID
  5
83A
  8
0
  6
CONTINUOUS
 62
     4
 10
-24.813214782167488
 20
8.5014401058415441
 30
0.0
 11
-26.85238741681086
 21
8.5014401058415441
 31
0.0
 12
-26.85238741681086
 22
8.2648201558708951
 32
0.0
 13
-26.85238741681086
 23
8.2648201558708951
 33
0.0
210
0.0
220
0.0
230
-1.0
  0
SOLID
  5
83B
  8
0
  6
CONTINUOUS
 62
     4
 10
20.642813673721481
 20
8.2648201558708951
 30
0.0
 11
20.642373004445759
 21
8.25273727727199
 31
0.0
 12
22.718999083744642
 22
8.25273727727199
 32
0.0
 13
22.718999083744642
 23
8.25273727727199
 33
0.0
210
0.0
220
0.0
230
1.0
  0
SOLID
  5
83C
  8
0
  6
CONTINUOUS
 62
     4
 10
-20.642813673721481
 20
8.2648201558708951
 30
0.0
 11
-22.716629656757402
 21
8.2648201558708951
 31
0.0
 12
-22.718999083744642
 22
8.25273727727199
 32
0.0
 13
-22.718999083744642
 23
8.25273727727199
 33
0.0
210
0.0
220
0.0
230
-1.0
  0
SOLID
  5
83D
  8
0
  6
CONTINUOUS
 62
     4
 10
24.813214782167488
 20
8.2648201558708951
 30
0.0
 11
24.813214782167488
 21
8.25273727727199
 31
0.0
 12
26.85238741681086
 22
8.25273727727199
 32
0.0
 13
26.85238741681086
 23
8.25273727727199
 33
0.0
210
0.0
220
0.0
230
1.0
  0
SOLID
  5
83E
  8
0
  6
CONTINUOUS
 62
     4
 10
-24.813214782167488
 20
8.2648201558708951
 30
0.0
 11
-26.85238741681086
 21
8.2648201558708951
 31
0.0
 12
-26.85238741681086
 22
8.25273727727199
 32
0.0
 13
-26.85238741681086
 23
8.25273727727199
 33
0.0
210
0.0
220
0.0
230
-1.0
  0
SOLID
  5
83F
  8
0
  6
CONTINUOUS
 62
     4
 10
20.642373004445759
 20
8.25273727727199
 30
0.0
 11
20.64936958292677
 21
8.0318811101244627
 31
0.0
 12
22.76230851191243
 22
8.0318811101244627
 32
0.0
 13
22.76230851191243
 23
8.0318811101244627
 33
0.0
  0
SOLID
  5
840
  8
0
  6
CONTINUOUS
 62
     4
 10
-20.642373004445759
 20
8.25273727727199
 30
0.0
 11
-22.718999083744642
 21
8.25273727727199
 31
0.0
 12
-22.76230851191243
 22
8.0318811101244627
 32
0.0
 13
-22.76230851191243
 23
8.0318811101244627
 33
0.0
210
0.0
220
0.0
230
-1.0
  0
SOLID
  5
841
  8
0
  6
CONTINUOUS
 62
     4
 10
24.813214782167488
 20
8.25273727727199
 30
0.0
 11
24.813214782167488
 21
8.0318811101244627
 31
0.0
 12
26.85238741681086
 22
8.0318811101244627
 32
0.0
 13
26.85238741681086
 23
8.0318811101244627
 33
0.0
  0
SOLID
  5
842
  8
0
  6
CONTINUOUS
 62
     4
 10
-24.813214782167488
 20
8.25273727727199
 30
0.0
 11
-26.85238741681086
 21
8.25273727727199
 31
0.0
 12
-26.85238741681086
 22
8.0318811101244627
 32
0.0
 13
-26.85238741681086
 23
8.0318811101244627
 33
0.0
210
0.0
220
0.0
230
-1.0
  0
SOLID
  5
843
  8
0
  6
CONTINUOUS
 62
     4
 10
20.64936958292677
 20
8.0318811101244627
 30
0.0
 11
20.6576291451054
 21
7.771157207714471
 31
0.0
 12
23.07094298441357
 22
7.771157207714471
 32
0.0
 13
23.07094298441357
 23
7.771157207714471
 33
0.0
210
0.0
220
0.0
230
1.0
  0
SOLID
  5
844
  8
0
  6
CONTINUOUS
 62
     4
 10
-20.64936958292677
 20
8.0318811101244627
 30
0.0
 11
-22.76230851191243
 21
8.0318811101244627
 31
0.0
 12
-23.07094298441357
 22
7.771157207714471
 32
0.0
 13
-23.07094298441357
 23
7.771157207714471
 33
0.0
210
0.0
220
0.0
230
-1.0
  0
SOLID
  5
845
  8
0
  6
CONTINUOUS
 62
     4
 10
24.813214782167488
 20
8.0318811101244627
 30
0.0
 11
24.813214782167488
 21
7.771157207714471
 31
0.0
 12
26.85238741681086
 22
7.771157207714471
 32
0.0
 13
26.85238741681086
 23
7.771157207714471
 33
0.0
210
0.0
220
0.0
230
1.0
  0
SOLID
  5
846
  8
0
  6
CONTINUOUS
 62
     4
 10
-24.813214782167488
 20
8.0318811101244627
 30
0.0
 11
-26.85238741681086
 21
8.0318811101244627
 31
0.0
 12
-26.85238741681086
 22
7.771157207714471
 32
0.0
 13
-26.85238741681086
 23
7.771157207714471
 33
0.0
210
0.0
220
0.0
230
-1.0
  0
SOLID
  5
847
  8
0
  6
CONTINUOUS
 62
     4
 10
20.6576291451054
 20
7.771157207714471
 30
0.0
 11
20.658939500887939
 21
7.7297941105209436
 31
0.0
 12
23.244611971873478
 22
7.7297941105209436
 32
0.0
 13
23.244611971873478
 23
7.7297941105209436
 33
0.0
210
0.0
220
0.0
230
1.0
  0
SOLID
  5
848
  8
0
  6
CONTINUOUS
 62
     4
 10
-20.6576291451054
 20
7.771157207714471
 30
0.0
 11
-23.07094298441357
 21
7.771157207714471
 31
0.0
 12
-23.244611971873478
 22
7.7297941105209436
 32
0.0
 13
-23.244611971873478
 23
7.7297941105209436
 33
0.0
210
0.0
220
0.0
230
-1.0
  0
SOLID
  5
849
  8
0
  6
CONTINUOUS
 62
     4
 10
24.813214782167488
 20
7.771157207714471
 30
0.0
 11
24.813214782167488
 21
7.7297941105209436
 31
0.0
 12
26.85238741681086
 22
7.7297941105209436
 32
0.0
 13
26.85238741681086
 23
7.7297941105209436
 33
0.0
210
0.0
220
0.0
230
1.0
  0
SOLID
  5
84A
  8
0
  6
CONTINUOUS
 62
     4
 10
-24.813214782167488
 20
7.771157207714471
 30
0.0
 11
-26.85238741681086
 21
7.771157207714471
 31
0.0
 12
-26.85238741681086
 22
7.7297941105209436
 32
0.0
 13
-26.85238741681086
 23
7.7297941105209436
 33
0.0
210
0.0
220
0.0
230
-1.0
  0
SOLID
  5
84B
  8
0
  6
CONTINUOUS
 62
     4
 10
20.658939500887939
 20
7.7297941105209436
 30
0.0
 11
20.673325903303219
 21
7.6775493076214643
 31
0.0
 12
23.463969385491321
 22
7.6775493076214643
 32
0.0
 13
23.463969385491321
 23
7.6775493076214643
 33
0.0
210
0.0
220
0.0
230
1.0
  0
SOLID
  5
84C
  8
0
  6
CONTINUOUS
 62
     4
 10
-20.658939500887939
 20
7.7297941105209436
 30
0.0
 11
-23.244611971873478
 21
7.7297941105209436
 31
0.0
 12
-23.463969385491321
 22
7.6775493076214643
 32
0.0
 13
-23.463969385491321
 23
7.6775493076214643
 33
0.0
210
0.0
220
0.0
230
-1.0
  0
SOLID
  5
84D
  8
0
  6
CONTINUOUS
 62
     4
 10
24.813214782167488
 20
7.7297941105209436
 30
0.0
 11
24.813214782167488
 21
7.6775493076214643
 31
0.0
 12
26.85238741681086
 22
7.6775493076214643
 32
0.0
 13
26.85238741681086
 23
7.6775493076214643
 33
0.0
210
0.0
220
0.0
230
1.0
  0
SOLID
  5
84E
  8
0
  6
CONTINUOUS
 62
     4
 10
-24.813214782167488
 20
7.7297941105209436
 30
0.0
 11
-26.85238741681086
 21
7.7297941105209436
 31
0.0
 12
-26.85238741681086
 22
7.6775493076214643
 32
0.0
 13
-26.85238741681086
 23
7.6775493076214643
 33
0.0
210
0.0
220
0.0
230
-1.0
  0
SOLID
  5
84F
  8
0
  6
CONTINUOUS
 62
     4
 10
23.463969385491321
 20
7.6775493076214643
 30
0.0
 11
23.463969385491321
 21
7.6775493076214643
 31
0.0
 12
24.813214782167488
 22
7.6775493076214643
 32
0.0
 13
24.813214782167488
 23
7.6775493076214643
 33
0.0
210
0.0
220
0.0
230
1.0
  0
SOLID
  5
850
  8
0
  6
CONTINUOUS
 62
     4
 10
20.673325903303219
 20
7.6775493076214643
 30
0.0
 11
20.797842107812329
 21
7.2253636690866561
 31
0.0
 12
26.85238741681086
 22
7.2253636690866561
 32
0.0
 13
26.85238741681086
 23
7.2253636690866561
 33
0.0
210
0.0
220
0.0
230
1.0
  0
SOLID
  5
851
  8
0
  6
CONTINUOUS
 62
     4
 10
-20.673325903303219
 20
7.6775493076214643
 30
0.0
 11
-26.85238741681086
 21
7.6775493076214643
 31
0.0
 12
-26.85238741681086
 22
7.2253636690866561
 32
0.0
 13
-26.85238741681086
 23
7.2253636690866561
 33
0.0
210
0.0
220
0.0
230
-1.0
  0
SOLID
  5
852
  8
0
  6
CONTINUOUS
 62
     4
 10
20.797842107812329
 20
7.2253636690866561
 30
0.0
 11
20.989719540574821
 21
6.9013658779097202
 31
0.0
 12
26.85238741681086
 22
6.9013658779097202
 32
0.0
 13
26.85238741681086
 23
6.9013658779097202
 33
0.0
  0
SOLID
  5
853
  8
0
  6
CONTINUOUS
 62
     4
 10
-20.797842107812329
 20
7.2253636690866561
 30
0.0
 11
-26.85238741681086
 21
7.2253636690866561
 31
0.0
 12
-26.85238741681086
 22
6.9013658779097202
 32
0.0
 13
-26.85238741681086
 23
6.9013658779097202
 33
0.0
210
0.0
220
0.0
230
-1.0
  0
SOLID
  5
854
  8
0
  6
CONTINUOUS
 62
     4
 10
20.989719540574821
 20
6.9013658779097202
 30
0.0
 11
21.26748386512045
 21
6.6471248546645016
 31
0.0
 12
26.85238741681086
 22
6.6471248546645016
 32
0.0
 13
26.85238741681086
 23
6.6471248546645016
 33
0.0
210
0.0
220
0.0
230
1.0
  0
SOLID
  5
855
  8
0
  6
CONTINUOUS
 62
     4
 10
-20.989719540574821
 20
6.9013658779097202
 30
0.0
 11
-26.85238741681086
 21
6.9013658779097202
 31
0.0
 12
-26.85238741681086
 22
6.6471248546645016
 32
0.0
 13
-26.85238741681086
 23
6.6471248546645016
 33
0.0
210
0.0
220
0.0
230
-1.0
  0
SOLID
  5
856
  8
0
  6
CONTINUOUS
 62
     4
 10
21.26748386512045
 20
6.6471248546645016
 30
0.0
 11
21.822397112474789
 21
6.3822685934078072
 31
0.0
 12
26.85238741681086
 22
6.3822685934078072
 32
0.0
 13
26.85238741681086
 23
6.3822685934078072
 33
0.0
210
0.0
220
0.0
230
1.0
  0
SOLID
  5
857
  8
0
  6
CONTINUOUS
 62
     4
 10
-21.26748386512045
 20
6.6471248546645016
 30
0.0
 11
-26.85238741681086
 21
6.6471248546645016
 31
0.0
 12
-26.85238741681086
 22
6.3822685934078072
 32
0.0
 13
-26.85238741681086
 23
6.3822685934078072
 33
0.0
210
0.0
220
0.0
230
-1.0
  0
SOLID
  5
858
  8
0
  6
CONTINUOUS
 62
     4
 10
21.822397112474789
 20
6.3822685934078072
 30
0.0
 11
21.850775037621119
 21
6.3780249825224411
 31
0.0
 12
26.85238741681086
 22
6.3780249825224411
 32
0.0
 13
26.85238741681086
 23
6.3780249825224411
 33
0.0
210
0.0
220
0.0
230
1.0
  0
SOLID
  5
859
  8
0
  6
CONTINUOUS
 62
     4
 10
-21.822397112474789
 20
6.3822685934078072
 30
0.0
 11
-26.85238741681086
 21
6.3822685934078072
 31
0.0
 12
-26.85238741681086
 22
6.3780249825224411
 32
0.0
 13
-26.85238741681086
 23
6.3780249825224411
 33
0.0
210
0.0
220
0.0
230
-1.0
  0
SOLID
  5
85A
  8
0
  6
CONTINUOUS
 62
     4
 10
21.850775037621119
 20
6.3780249825224411
 30
0.0
 11
22.285467041116551
 21
6.3130215085791557
 31
0.0
 12
26.079069191562368
 22
6.3130215085791557
 32
0.0
 13
26.079069191562368
 23
6.3130215085791557
 33
0.0
210
0.0
220
0.0
230
1.0
  0
SOLID
  5
85B
  8
0
  6
CONTINUOUS
 62
     4
 10
-21.850775037621119
 20
6.3780249825224411
 30
0.0
 11
-26.85238741681086
 21
6.3780249825224411
 31
0.0
 12
-26.079069191562368
 22
6.3130215085791557
 32
0.0
 13
-26.079069191562368
 23
6.3130215085791557
 33
0.0
210
0.0
220
0.0
230
-1.0
  0
SOLID
  5
85C
  8
0
  6
CONTINUOUS
 62
     4
 10
22.285467041116551
 20
6.3130215085791557
 30
0.0
 11
22.43051545779414
 21
6.2913310912303224
 31
0.0
 12
25.303326930936201
 22
6.2913310912303224
 32
0.0
 13
25.303326930936201
 23
6.2913310912303224
 33
0.0
210
0.0
220
0.0
230
1.0
  0
SOLID
  5
85D
  8
0
  6
CONTINUOUS
 62
     4
 10
-22.285467041116551
 20
6.3130215085791557
 30
0.0
 11
-26.079069191562368
 21
6.3130215085791557
 31
0.0
 12
-25.303326930936201
 22
6.2913310912303224
 32
0.0
 13
-25.303326930936201
 23
6.2913310912303224
 33
0.0
210
0.0
220
0.0
230
-1.0
  0
SOLID
  5
85E
  8
0
  6
CONTINUOUS
 62
     4
 10
22.430515457794129
 20
6.2913310912303224
 30
0.0
 11
22.430515457794129
 21
6.2913310912303224
 31
0.0
 12
25.303326930936201
 22
6.2913310912303224
 32
0.0
 13
25.303326930936201
 23
6.2913310912303224
 33
0.0
210
0.0
220
0.0
230
1.0
  0
LINE
  5
85F
  8
0
  6
CONTINUOUS
 62
     4
 10
23.015468331081149
 20
12.761725249354241
 30
0.0
 11
24.454227930408202
 21
12.761725249354241
 31
0.0
  0
LINE
  5
860
  8
0
  6
CONTINUOUS
 62
     4
 10
23.015468331081149
 20
12.761725249354241
 30
0.0
 11
22.474732851717611
 21
12.71697570444282
 31
0.0
  0
LINE
  5
861
  8
0
  6
CONTINUOUS
 62
     4
 10
24.454227930408258
 20
12.761725249354241
 30
0.0
 11
25.15145993421989
 21
12.71697570444282
 31
0.0
  0
LINE
  5
862
  8
0
  6
CONTINUOUS
 62
     4
 10
22.474732851717611
 20
12.71697570444282
 30
0.0
 11
22.473477922542319
 21
12.71687185050382
 31
0.0
  0
LINE
  5
863
  8
0
  6
CONTINUOUS
 62
     4
 10
25.15145993421989
 20
12.71697570444282
 30
0.0
 11
25.151993375661391
 21
12.71687185050382
 31
0.0
  0
LINE
  5
864
  8
0
  6
CONTINUOUS
 62
     4
 10
22.473477922542319
 20
12.71687185050382
 30
0.0
 11
21.94623421576545
 21
12.58353204399163
 31
0.0
  0
LINE
  5
865
  8
0
  6
CONTINUOUS
 62
     4
 10
25.151993375661391
 20
12.71687185050382
 30
0.0
 11
25.836887750194141
 21
12.58353204399163
 31
0.0
  0
LINE
  5
866
  8
0
  6
CONTINUOUS
 62
     4
 10
21.94623421576545
 20
12.58353204399163
 30
0.0
 11
21.94614682995218
 21
12.583461390664089
 31
0.0
  0
LINE
  5
867
  8
0
  6
CONTINUOUS
 62
     4
 10
25.836887750194141
 20
12.58353204399163
 30
0.0
 11
25.837250658074652
 21
12.583461390664089
 31
0.0
  0
LINE
  5
868
  8
0
  6
CONTINUOUS
 62
     4
 10
21.94614682995218
 20
12.583461390664089
 30
0.0
 11
21.346644890689259
 21
12.0987510551557
 31
0.0
  0
LINE
  5
869
  8
0
  6
CONTINUOUS
 62
     4
 10
25.837250658074652
 20
12.583461390664089
 30
0.0
 11
26.56909861488554
 21
12.0987510551557
 31
0.0
  0
LINE
  5
86A
  8
0
  6
CONTINUOUS
 62
     4
 10
21.346644890689259
 20
12.0987510551557
 30
0.0
 11
21.14040383518217
 21
11.932000683449891
 31
0.0
  0
LINE
  5
86B
  8
0
  6
CONTINUOUS
 62
     4
 10
26.56909861488554
 20
12.0987510551557
 30
0.0
 11
26.62595503153107
 21
11.932000683449891
 31
0.0
  0
LINE
  5
86C
  8
0
  6
CONTINUOUS
 62
     4
 10
21.14040383518217
 20
11.932000683449891
 30
0.0
 11
21.05500954395162
 21
11.491775001953259
 31
0.0
  0
LINE
  5
86D
  8
0
  6
CONTINUOUS
 62
     4
 10
26.62595503153107
 20
11.932000683449891
 30
0.0
 11
26.7760575740873
 21
11.491775001953259
 31
0.0
  0
LINE
  5
86E
  8
0
  6
CONTINUOUS
 62
     4
 10
23.226746727748719
 20
11.491775001953259
 30
0.0
 11
24.532363637744169
 21
11.491775001953259
 31
0.0
  0
LINE
  5
86F
  8
0
  6
CONTINUOUS
 62
     4
 10
21.05500954395162
 20
11.491775001953259
 30
0.0
 11
21.011585010908298
 21
11.26791232475091
 31
0.0
  0
LINE
  5
870
  8
0
  6
CONTINUOUS
 62
     4
 10
23.226746727748719
 20
11.491775001953259
 30
0.0
 11
23.091608399562059
 21
11.26791232475091
 31
0.0
  0
LINE
  5
871
  8
0
  6
CONTINUOUS
 62
     4
 10
24.532363637744179
 20
11.491775001953259
 30
0.0
 11
24.627542661503639
 21
11.26791232475091
 31
0.0
  0
LINE
  5
872
  8
0
  6
CONTINUOUS
 62
     4
 10
26.7760575740873
 20
11.491775001953259
 30
0.0
 11
26.85238741681087
 21
11.26791232475091
 31
0.0
  0
LINE
  5
873
  8
0
  6
CONTINUOUS
 62
     4
 10
21.011585010908298
 20
11.26791232475091
 30
0.0
 11
21.002042486913641
 21
11.2187185898043
 31
0.0
  0
LINE
  5
874
  8
0
  6
CONTINUOUS
 62
     4
 10
23.091608399562059
 20
11.26791232475091
 30
0.0
 11
23.061911805288169
 21
11.2187185898043
 31
0.0
  0
LINE
  5
875
  8
0
  6
CONTINUOUS
 62
     4
 10
24.627542661503639
 20
11.26791232475091
 30
0.0
 11
24.648458214403369
 21
11.2187185898043
 31
0.0
  0
LINE
  5
876
  8
0
  6
CONTINUOUS
 62
     4
 10
26.85238741681087
 20
11.26791232475091
 30
0.0
 11
26.85238741681087
 21
11.2187185898043
 31
0.0
  0
LINE
  5
877
  8
0
  6
CONTINUOUS
 62
     4
 10
21.002042486913641
 20
11.2187185898043
 30
0.0
 11
20.959489969914429
 21
10.999351340244321
 31
0.0
  0
LINE
  5
878
  8
0
  6
CONTINUOUS
 62
     4
 10
23.061911805288169
 20
11.2187185898043
 30
0.0
 11
22.992332589911928
 21
10.999351340244321
 31
0.0
  0
LINE
  5
879
  8
0
  6
CONTINUOUS
 62
     4
 10
24.648458214403369
 20
11.2187185898043
 30
0.0
 11
24.741725930660721
 21
10.999351340244321
 31
0.0
  0
LINE
  5
87A
  8
0
  6
CONTINUOUS
 62
     4
 10
26.85238741681087
 20
11.2187185898043
 30
0.0
 11
26.85238741681087
 21
10.999351340244321
 31
0.0
  0
LINE
  5
87B
  8
0
  6
CONTINUOUS
 62
     4
 10
20.959489969914429
 20
10.999351340244321
 30
0.0
 11
20.943068132967419
 21
10.914693288081221
 31
0.0
  0
LINE
  5
87C
  8
0
  6
CONTINUOUS
 62
     4
 10
22.992332589911928
 20
10.999351340244321
 30
0.0
 11
22.965480628843881
 21
10.914693288081221
 31
0.0
  0
LINE
  5
87D
  8
0
  6
CONTINUOUS
 62
     4
 10
24.741725930660721
 20
10.999351340244321
 30
0.0
 11
24.753138847041161
 21
10.914693288081221
 31
0.0
  0
LINE
  5
87E
  8
0
  6
CONTINUOUS
 62
     4
 10
26.85238741681087
 20
10.999351340244321
 30
0.0
 11
26.85238741681087
 21
10.914693288081221
 31
0.0
  0
LINE
  5
87F
  8
0
  6
CONTINUOUS
 62
     4
 10
20.943068132967419
 20
10.914693288081221
 30
0.0
 11
22.965480628843881
 21
10.914693288081221
 31
0.0
  0
LINE
  5
880
  8
0
  6
CONTINUOUS
 62
     4
 10
24.753138847041161
 20
10.914693288081221
 30
0.0
 11
24.813214782167488
 21
10.46906559046751
 31
0.0
  0
LINE
  5
881
  8
0
  6
CONTINUOUS
 62
     4
 10
26.85238741681087
 20
10.914693288081221
 30
0.0
 11
26.85238741681087
 21
10.46906559046751
 31
0.0
  0
LINE
  5
882
  8
0
  6
CONTINUOUS
 62
     4
 10
24.813214782167488
 20
10.46906559046751
 30
0.0
 11
24.813214782167499
 21
10.216853593185981
 31
0.0
  0
LINE
  5
883
  8
0
  6
CONTINUOUS
 62
     4
 10
26.85238741681087
 20
10.46906559046751
 30
0.0
 11
26.85238741681087
 21
10.216853593185981
 31
0.0
  0
LINE
  5
884
  8
0
  6
CONTINUOUS
 62
     4
 10
22.65427133230396
 20
10.216853593185981
 30
0.0
 11
24.078718816616799
 21
10.216853593185981
 31
0.0
  0
LINE
  5
885
  8
0
  6
CONTINUOUS
 62
     4
 10
22.65427133230396
 20
10.216853593185981
 30
0.0
 11
22.434882565705681
 21
10.19714352993763
 31
0.0
  0
LINE
  5
886
  8
0
  6
CONTINUOUS
 62
     4
 10
24.078718816616799
 20
10.216853593185981
 30
0.0
 11
24.448064473450149
 21
10.19714352993763
 31
0.0
  0
LINE
  5
887
  8
0
  6
CONTINUOUS
 62
     4
 10
24.813214782167499
 20
10.216853593185981
 30
0.0
 11
24.813214782167499
 21
10.19714352993763
 31
0.0
  0
LINE
  5
888
  8
0
  6
CONTINUOUS
 62
     4
 10
26.85238741681087
 20
10.216853593185981
 30
0.0
 11
26.85238741681087
 21
10.19714352993763
 31
0.0
  0
LINE
  5
889
  8
0
  6
CONTINUOUS
 62
     4
 10
22.434882565705681
 20
10.19714352993763
 30
0.0
 11
22.107286398766998
 21
10.16771202681012
 31
0.0
  0
LINE
  5
88A
  8
0
  6
CONTINUOUS
 62
     4
 10
24.448064473450149
 20
10.19714352993763
 30
0.0
 11
24.630505424617908
 21
10.16771202681012
 31
0.0
  0
LINE
  5
88B
  8
0
  6
CONTINUOUS
 62
     4
 10
24.813214782167499
 20
10.19714352993763
 30
0.0
 11
24.813214782167499
 21
10.16771202681012
 31
0.0
  0
LINE
  5
88C
  8
0
  6
CONTINUOUS
 62
     4
 10
26.85238741681087
 20
10.19714352993763
 30
0.0
 11
26.85238741681087
 21
10.16771202681012
 31
0.0
  0
LINE
  5
88D
  8
0
  6
CONTINUOUS
 62
     4
 10
22.107286398766998
 20
10.16771202681012
 30
0.0
 11
22.000287186968752
 21
10.13823722417548
 31
0.0
  0
LINE
  5
88E
  8
0
  6
CONTINUOUS
 62
     4
 10
24.630505424617908
 20
10.16771202681012
 30
0.0
 11
24.813214782167499
 21
10.13823722417548
 31
0.0
  0
LINE
  5
88F
  8
0
  6
CONTINUOUS
 62
     4
 10
24.813214782167499
 20
10.16771202681012
 30
0.0
 11
24.813214782167499
 21
10.13823722417548
 31
0.0
  0
LINE
  5
890
  8
0
  6
CONTINUOUS
 62
     4
 10
26.85238741681087
 20
10.16771202681012
 30
0.0
 11
26.85238741681087
 21
10.13823722417548
 31
0.0
  0
LINE
  5
891
  8
0
  6
CONTINUOUS
 62
     4
 10
22.000287186968752
 20
10.13823722417548
 30
0.0
 11
21.577819740142921
 21
10.02186118359089
 31
0.0
  0
LINE
  5
892
  8
0
  6
CONTINUOUS
 62
     4
 10
26.85238741681087
 20
10.13823722417548
 30
0.0
 11
26.85238741681087
 21
10.02186118359089
 31
0.0
  0
LINE
  5
893
  8
0
  6
CONTINUOUS
 62
     4
 10
21.577819740142921
 20
10.02186118359089
 30
0.0
 11
21.12109376134968
 21
9.7362947386209377
 31
0.0
  0
LINE
  5
894
  8
0
  6
CONTINUOUS
 62
     4
 10
26.85238741681087
 20
10.02186118359089
 30
0.0
 11
26.85238741681087
 21
9.7362947386209377
 31
0.0
  0
LINE
  5
895
  8
0
  6
CONTINUOUS
 62
     4
 10
21.12109376134968
 20
9.7362947386209377
 30
0.0
 11
20.811957480991911
 21
9.2951807234684196
 31
0.0
  0
LINE
  5
896
  8
0
  6
CONTINUOUS
 62
     4
 10
26.85238741681087
 20
9.7362947386209377
 30
0.0
 11
26.85238741681086
 21
9.2951807234684196
 31
0.0
  0
LINE
  5
897
  8
0
  6
CONTINUOUS
 62
     4
 10
20.811957480991911
 20
9.2951807234684196
 30
0.0
 11
20.710763950783871
 21
8.9511586626376651
 31
0.0
  0
LINE
  5
898
  8
0
  6
CONTINUOUS
 62
     4
 10
26.85238741681086
 20
9.2951807234684196
 30
0.0
 11
26.85238741681086
 21
8.9511586626376651
 31
0.0
  0
LINE
  5
899
  8
0
  6
CONTINUOUS
 62
     4
 10
23.294957983802199
 20
8.9511586626376651
 30
0.0
 11
24.813214782167488
 21
8.9511586626376651
 31
0.0
  0
LINE
  5
89A
  8
0
  6
CONTINUOUS
 62
     4
 10
20.710763950783871
 20
8.9511586626376651
 30
0.0
 11
20.67359246009369
 21
8.8247887968458283
 31
0.0
  0
LINE
  5
89B
  8
0
  6
CONTINUOUS
 62
     4
 10
23.294957983802199
 20
8.9511586626376651
 30
0.0
 11
22.93607818216935
 21
8.8247887968458283
 31
0.0
  0
LINE
  5
89C
  8
0
  6
CONTINUOUS
 62
     4
 10
24.813214782167488
 20
8.9511586626376651
 30
0.0
 11
24.813214782167488
 21
8.8247887968458283
 31
0.0
  0
LINE
  5
89D
  8
0
  6
CONTINUOUS
 62
     4
 10
26.85238741681086
 20
8.9511586626376651
 30
0.0
 11
26.85238741681086
 21
8.8247887968458283
 31
0.0
  0
LINE
  5
89E
  8
0
  6
CONTINUOUS
 62
     4
 10
20.67359246009369
 20
8.8247887968458283
 30
0.0
 11
20.661770239401221
 21
8.7845974455029499
 31
0.0
  0
LINE
  5
89F
  8
0
  6
CONTINUOUS
 62
     4
 10
22.93607818216935
 20
8.8247887968458283
 30
0.0
 11
22.91115366209651
 21
8.7845974455029499
 31
0.0
  0
LINE
  5
8A0
  8
0
  6
CONTINUOUS
 62
     4
 10
24.813214782167488
 20
8.8247887968458283
 30
0.0
 11
24.813214782167488
 21
8.7845974455029499
 31
0.0
  0
LINE
  5
8A1
  8
0
  6
CONTINUOUS
 62
     4
 10
26.85238741681086
 20
8.8247887968458283
 30
0.0
 11
26.85238741681086
 21
8.7845974455029499
 31
0.0
  0
LINE
  5
8A2
  8
0
  6
CONTINUOUS
 62
     4
 10
20.661770239401221
 20
8.7845974455029499
 30
0.0
 11
20.651443334370821
 21
8.5014401058415441
 31
0.0
  0
LINE
  5
8A3
  8
0
  6
CONTINUOUS
 62
     4
 10
22.91115366209651
 20
8.7845974455029499
 30
0.0
 11
22.735554669767211
 21
8.5014401058415441
 31
0.0
  0
LINE
  5
8A4
  8
0
  6
CONTINUOUS
 62
     4
 10
24.813214782167488
 20
8.7845974455029499
 30
0.0
 11
24.813214782167488
 21
8.5014401058415441
 31
0.0
  0
LINE
  5
8A5
  8
0
  6
CONTINUOUS
 62
     4
 10
26.85238741681086
 20
8.7845974455029499
 30
0.0
 11
26.85238741681086
 21
8.5014401058415441
 31
0.0
  0
LINE
  5
8A6
  8
0
  6
CONTINUOUS
 62
     4
 10
20.651443334370821
 20
8.5014401058415441
 30
0.0
 11
20.642813673721481
 21
8.2648201558708951
 31
0.0
  0
LINE
  5
8A7
  8
0
  6
CONTINUOUS
 62
     4
 10
22.735554669767211
 20
8.5014401058415441
 30
0.0
 11
22.716629656757402
 21
8.2648201558708951
 31
0.0
  0
LINE
  5
8A8
  8
0
  6
CONTINUOUS
 62
     4
 10
24.813214782167488
 20
8.5014401058415441
 30
0.0
 11
24.813214782167488
 21
8.2648201558708951
 31
0.0
  0
LINE
  5
8A9
  8
0
  6
CONTINUOUS
 62
     4
 10
26.85238741681086
 20
8.5014401058415441
 30
0.0
 11
26.85238741681086
 21
8.2648201558708951
 31
0.0
  0
LINE
  5
8AA
  8
0
  6
CONTINUOUS
 62
     4
 10
20.642813673721481
 20
8.2648201558708951
 30
0.0
 11
20.642373004445759
 21
8.25273727727199
 31
0.0
  0
LINE
  5
8AB
  8
0
  6
CONTINUOUS
 62
     4
 10
22.716629656757402
 20
8.2648201558708951
 30
0.0
 11
22.718999083744642
 21
8.25273727727199
 31
0.0
  0
LINE
  5
8AC
  8
0
  6
CONTINUOUS
 62
     4
 10
24.813214782167488
 20
8.2648201558708951
 30
0.0
 11
24.813214782167488
 21
8.25273727727199
 31
0.0
  0
LINE
  5
8AD
  8
0
  6
CONTINUOUS
 62
     4
 10
26.85238741681086
 20
8.2648201558708951
 30
0.0
 11
26.85238741681086
 21
8.25273727727199
 31
0.0
  0
LINE
  5
8AE
  8
0
  6
CONTINUOUS
 62
     4
 10
20.642373004445759
 20
8.25273727727199
 30
0.0
 11
20.64936958292677
 21
8.0318811101244627
 31
0.0
  0
LINE
  5
8AF
  8
0
  6
CONTINUOUS
 62
     4
 10
22.718999083744642
 20
8.25273727727199
 30
0.0
 11
22.76230851191243
 21
8.0318811101244627
 31
0.0
  0
LINE
  5
8B0
  8
0
  6
CONTINUOUS
 62
     4
 10
24.813214782167488
 20
8.25273727727199
 30
0.0
 11
24.813214782167488
 21
8.0318811101244627
 31
0.0
  0
LINE
  5
8B1
  8
0
  6
CONTINUOUS
 62
     4
 10
26.85238741681086
 20
8.25273727727199
 30
0.0
 11
26.85238741681086
 21
8.0318811101244627
 31
0.0
  0
LINE
  5
8B2
  8
0
  6
CONTINUOUS
 62
     4
 10
20.64936958292677
 20
8.0318811101244627
 30
0.0
 11
20.6576291451054
 21
7.771157207714471
 31
0.0
  0
LINE
  5
8B3
  8
0
  6
CONTINUOUS
 62
     4
 10
22.76230851191243
 20
8.0318811101244627
 30
0.0
 11
23.07094298441357
 21
7.771157207714471
 31
0.0
  0
LINE
  5
8B4
  8
0
  6
CONTINUOUS
 62
     4
 10
24.813214782167488
 20
8.0318811101244627
 30
0.0
 11
24.813214782167488
 21
7.771157207714471
 31
0.0
  0
LINE
  5
8B5
  8
0
  6
CONTINUOUS
 62
     4
 10
26.85238741681086
 20
8.0318811101244627
 30
0.0
 11
26.85238741681086
 21
7.771157207714471
 31
0.0
  0
LINE
  5
8B6
  8
0
  6
CONTINUOUS
 62
     4
 10
20.6576291451054
 20
7.771157207714471
 30
0.0
 11
20.658939500887939
 21
7.7297941105209436
 31
0.0
  0
LINE
  5
8B7
  8
0
  6
CONTINUOUS
 62
     4
 10
23.07094298441357
 20
7.771157207714471
 30
0.0
 11
23.244611971873478
 21
7.7297941105209436
 31
0.0
  0
LINE
  5
8B8
  8
0
  6
CONTINUOUS
 62
     4
 10
24.813214782167488
 20
7.771157207714471
 30
0.0
 11
24.813214782167488
 21
7.7297941105209436
 31
0.0
  0
LINE
  5
8B9
  8
0
  6
CONTINUOUS
 62
     4
 10
26.85238741681086
 20
7.771157207714471
 30
0.0
 11
26.85238741681086
 21
7.7297941105209436
 31
0.0
  0
LINE
  5
8BA
  8
0
  6
CONTINUOUS
 62
     4
 10
20.658939500887939
 20
7.7297941105209436
 30
0.0
 11
20.673325903303219
 21
7.6775493076214643
 31
0.0
  0
LINE
  5
8BB
  8
0
  6
CONTINUOUS
 62
     4
 10
23.244611971873478
 20
7.7297941105209436
 30
0.0
 11
23.463969385491321
 21
7.6775493076214643
 31
0.0
  0
LINE
  5
8BC
  8
0
  6
CONTINUOUS
 62
     4
 10
24.813214782167488
 20
7.7297941105209436
 30
0.0
 11
24.813214782167488
 21
7.6775493076214643
 31
0.0
  0
LINE
  5
8BD
  8
0
  6
CONTINUOUS
 62
     4
 10
26.85238741681086
 20
7.7297941105209436
 30
0.0
 11
26.85238741681086
 21
7.6775493076214643
 31
0.0
  0
LINE
  5
8BE
  8
0
  6
CONTINUOUS
 62
     4
 10
23.463969385491321
 20
7.6775493076214643
 30
0.0
 11
24.813214782167488
 21
7.6775493076214643
 31
0.0
  0
LINE
  5
8BF
  8
0
  6
CONTINUOUS
 62
     4
 10
20.673325903303219
 20
7.6775493076214643
 30
0.0
 11
20.797842107812329
 21
7.2253636690866561
 31
0.0
  0
LINE
  5
8C0
  8
0
  6
CONTINUOUS
 62
     4
 10
26.85238741681086
 20
7.6775493076214643
 30
0.0
 11
26.85238741681086
 21
7.2253636690866561
 31
0.0
  0
LINE
  5
8C1
  8
0
  6
CONTINUOUS
 62
     4
 10
20.797842107812329
 20
7.2253636690866561
 30
0.0
 11
20.989719540574821
 21
6.9013658779097202
 31
0.0
  0
LINE
  5
8C2
  8
0
  6
CONTINUOUS
 62
     4
 10
26.85238741681086
 20
7.2253636690866561
 30
0.0
 11
26.85238741681086
 21
6.9013658779097202
 31
0.0
  0
LINE
  5
8C3
  8
0
  6
CONTINUOUS
 62
     4
 10
20.989719540574821
 20
6.9013658779097202
 30
0.0
 11
21.26748386512045
 21
6.6471248546645016
 31
0.0
  0
LINE
  5
8C4
  8
0
  6
CONTINUOUS
 62
     4
 10
26.85238741681086
 20
6.9013658779097202
 30
0.0
 11
26.85238741681086
 21
6.6471248546645016
 31
0.0
  0
LINE
  5
8C5
  8
0
  6
CONTINUOUS
 62
     4
 10
21.26748386512045
 20
6.6471248546645016
 30
0.0
 11
21.822397112474789
 21
6.3822685934078072
 31
0.0
  0
LINE
  5
8C6
  8
0
  6
CONTINUOUS
 62
     4
 10
26.85238741681086
 20
6.6471248546645016
 30
0.0
 11
26.85238741681086
 21
6.3822685934078072
 31
0.0
  0
LINE
  5
8C7
  8
0
  6
CONTINUOUS
 62
     4
 10
21.822397112474789
 20
6.3822685934078072
 30
0.0
 11
21.850775037621119
 21
6.3780249825224411
 31
0.0
  0
LINE
  5
8C8
  8
0
  6
CONTINUOUS
 62
     4
 10
26.85238741681086
 20
6.3822685934078072
 30
0.0
 11
26.85238741681086
 21
6.3780249825224411
 31
0.0
  0
LINE
  5
8C9
  8
0
  6
CONTINUOUS
 62
     4
 10
21.850775037621119
 20
6.3780249825224411
 30
0.0
 11
22.285467041116551
 21
6.3130215085791557
 31
0.0
  0
LINE
  5
8CA
  8
0
  6
CONTINUOUS
 62
     4
 10
26.85238741681086
 20
6.3780249825224411
 30
0.0
 11
26.079069191562368
 21
6.3130215085791557
 31
0.0
  0
LINE
  5
8CB
  8
0
  6
CONTINUOUS
 62
     4
 10
22.285467041116551
 20
6.3130215085791557
 30
0.0
 11
22.43051545779414
 21
6.2913310912303224
 31
0.0
  0
LINE
  5
8CC
  8
0
  6
CONTINUOUS
 62
     4
 10
26.079069191562368
 20
6.3130215085791557
 30
0.0
 11
25.303326930936201
 21
6.2913310912303224
 31
0.0
  0
LINE
  5
8CD
  8
0
  6
CONTINUOUS
 62
     4
 10
22.430515457794129
 20
6.2913310912303224
 30
0.0
 11
25.303326930936201
 21
6.2913310912303224
 31
0.0
  0
ENDBLK
  5
8CF
  8
0
  0
BLOCK
  8
0
  2
*U68
 70
     1
 10
0.0
 20
0.0
 30
0.0
  3
*U68
  1

  0
SOLID
  5
8F3
  8
0
  6
CONTINUOUS
 62
     4
 10
15.7322027602912
 20
12.761725249354241
 30
0.0
 11
15.7322027602912
 21
12.761725249354241
 31
0.0
 12
17.170962359618301
 22
12.761725249354241
 32
0.0
 13
17.170962359618301
 23
12.761725249354241
 33
0.0
210
0.0
220
0.0
230
1.0
  0
SOLID
  5
8F4
  8
0
  6
CONTINUOUS
 62
     4
 10
15.732202760291161
 20
12.761725249354241
 30
0.0
 11
15.19146728092762
 21
12.71697570444282
 31
0.0
 12
17.868194363429961
 22
12.71697570444282
 32
0.0
 13
17.868194363429961
 23
12.71697570444282
 33
0.0
210
0.0
220
0.0
230
1.0
  0
SOLID
  5
8F5
  8
0
  6
CONTINUOUS
 62
     4
 10
-15.732202760291161
 20
12.761725249354241
 30
0.0
 11
-17.170962359618301
 21
12.761725249354241
 31
0.0
 12
-17.868194363429961
 22
12.71697570444282
 32
0.0
 13
-17.868194363429961
 23
12.71697570444282
 33
0.0
210
0.0
220
0.0
230
-1.0
  0
SOLID
  5
8F6
  8
0
  6
CONTINUOUS
 62
     4
 10
15.19146728092762
 20
12.71697570444282
 30
0.0
 11
15.19021235175237
 21
12.71687185050382
 31
0.0
 12
17.868727804871451
 22
12.71687185050382
 32
0.0
 13
17.868727804871451
 23
12.71687185050382
 33
0.0
210
0.0
220
0.0
230
1.0
  0
SOLID
  5
8F7
  8
0
  6
CONTINUOUS
 62
     4
 10
-15.19146728092762
 20
12.71697570444282
 30
0.0
 11
-17.868194363429961
 21
12.71697570444282
 31
0.0
 12
-17.868727804871451
 22
12.71687185050382
 32
0.0
 13
-17.868727804871451
 23
12.71687185050382
 33
0.0
210
0.0
220
0.0
230
-1.0
  0
SOLID
  5
8F8
  8
0
  6
CONTINUOUS
 62
     4
 10
15.19021235175237
 20
12.71687185050382
 30
0.0
 11
14.6629686449755
 21
12.583532043991619
 31
0.0
 12
18.553622179404218
 22
12.583532043991619
 32
0.0
 13
18.553622179404218
 23
12.583532043991619
 33
0.0
210
0.0
220
0.0
230
1.0
  0
SOLID
  5
8F9
  8
0
  6
CONTINUOUS
 62
     4
 10
-15.19021235175237
 20
12.71687185050382
 30
0.0
 11
-17.868727804871451
 21
12.71687185050382
 31
0.0
 12
-18.553622179404218
 22
12.583532043991619
 32
0.0
 13
-18.553622179404218
 23
12.583532043991619
 33
0.0
210
0.0
220
0.0
230
-1.0
  0
SOLID
  5
8FA
  8
0
  6
CONTINUOUS
 62
     4
 10
14.6629686449755
 20
12.583532043991619
 30
0.0
 11
14.662873830390399
 21
12.583461390664089
 31
0.0
 12
18.553985087284708
 22
12.583461390664089
 32
0.0
 13
18.553985087284708
 23
12.583461390664089
 33
0.0
210
0.0
220
0.0
230
1.0
  0
SOLID
  5
8FB
  8
0
  6
CONTINUOUS
 62
     4
 10
-14.6629686449755
 20
12.583532043991619
 30
0.0
 11
-18.553622179404218
 21
12.583532043991619
 31
0.0
 12
-18.553985087284708
 22
12.583461390664089
 32
0.0
 13
-18.553985087284708
 23
12.583461390664089
 33
0.0
210
0.0
220
0.0
230
-1.0
  0
SOLID
  5
8FC
  8
0
  6
CONTINUOUS
 62
     4
 10
14.662873830390399
 20
12.583461390664089
 30
0.0
 11
13.922697163314391
 21
12.03190126487484
 31
0.0
 12
19.278528596291071
 22
12.03190126487484
 32
0.0
 13
19.278528596291071
 23
12.03190126487484
 33
0.0
210
0.0
220
0.0
230
1.0
  0
SOLID
  5
8FD
  8
0
  6
CONTINUOUS
 62
     4
 10
-14.662873830390399
 20
12.583461390664089
 30
0.0
 11
-18.553985087284708
 21
12.583461390664089
 31
0.0
 12
-19.278528596291071
 22
12.03190126487484
 32
0.0
 13
-19.278528596291071
 23
12.03190126487484
 33
0.0
210
0.0
220
0.0
230
-1.0
  0
SOLID
  5
8FE
  8
0
  6
CONTINUOUS
 62
     4
 10
13.922697163314391
 20
12.03190126487484
 30
0.0
 11
13.89662821361563
 21
11.95055560779519
 31
0.0
 12
19.385386335034578
 22
11.95055560779519
 32
0.0
 13
19.385386335034578
 23
11.95055560779519
 33
0.0
  0
SOLID
  5
8FF
  8
0
  6
CONTINUOUS
 62
     4
 10
-13.922697163314391
 20
12.03190126487484
 30
0.0
 11
-19.278528596291071
 21
12.03190126487484
 31
0.0
 12
-19.385386335034578
 22
11.95055560779519
 32
0.0
 13
-19.385386335034578
 23
11.95055560779519
 33
0.0
210
0.0
220
0.0
230
-1.0
  0
SOLID
  5
900
  8
0
  6
CONTINUOUS
 62
     4
 10
13.89662821361563
 20
11.95055560779519
 30
0.0
 11
13.745643798513409
 21
11.47942322244014
 31
0.0
 12
19.447726775167091
 22
11.47942322244014
 32
0.0
 13
19.447726775167091
 23
11.47942322244014
 33
0.0
210
0.0
220
0.0
230
1.0
  0
SOLID
  5
901
  8
0
  6
CONTINUOUS
 62
     4
 10
-13.89662821361563
 20
11.95055560779519
 30
0.0
 11
-19.385386335034578
 21
11.95055560779519
 31
0.0
 12
-19.447726775167091
 22
11.47942322244014
 32
0.0
 13
-19.447726775167091
 23
11.47942322244014
 33
0.0
210
0.0
220
0.0
230
-1.0
  0
SOLID
  5
902
  8
0
  6
CONTINUOUS
 62
     4
 10
16.494530878027291
 20
11.47942322244014
 30
0.0
 11
16.494530878027291
 21
11.47942322244014
 31
0.0
 12
16.877275021253151
 22
11.47942322244014
 32
0.0
 13
16.877275021253151
 23
11.47942322244014
 33
0.0
210
0.0
220
0.0
230
1.0
  0
SOLID
  5
903
  8
0
  6
CONTINUOUS
 62
     4
 10
13.745643798513409
 20
11.47942322244014
 30
0.0
 11
13.72711729402053
 21
11.421613042176761
 31
0.0
 12
16.048738140931579
 22
11.421613042176761
 32
0.0
 13
16.048738140931579
 23
11.421613042176761
 33
0.0
210
0.0
220
0.0
230
1.0
  0
SOLID
  5
904
  8
0
  6
CONTINUOUS
 62
     4
 10
-13.745643798513409
 20
11.47942322244014
 30
0.0
 11
-16.494530878027291
 21
11.47942322244014
 31
0.0
 12
-16.048738140931579
 22
11.421613042176761
 32
0.0
 13
-16.048738140931579
 23
11.421613042176761
 33
0.0
210
0.0
220
0.0
230
-1.0
  0
SOLID
  5
905
  8
0
  6
CONTINUOUS
 62
     4
 10
16.877275021253151
 20
11.47942322244014
 30
0.0
 11
17.044458594957501
 21
11.421613042176761
 31
0.0
 12
19.455376243116611
 22
11.421613042176761
 32
0.0
 13
19.455376243116611
 23
11.421613042176761
 33
0.0
210
0.0
220
0.0
230
1.0
  0
SOLID
  5
906
  8
0
  6
CONTINUOUS
 62
     4
 10
-16.877275021253151
 20
11.47942322244014
 30
0.0
 11
-19.447726775167091
 21
11.47942322244014
 31
0.0
 12
-19.455376243116611
 22
11.421613042176761
 32
0.0
 13
-19.455376243116611
 23
11.421613042176761
 33
0.0
210
0.0
220
0.0
230
-1.0
  0
SOLID
  5
907
  8
0
  6
CONTINUOUS
 62
     4
 10
13.72711729402053
 20
11.421613042176761
 30
0.0
 11
13.694988935167631
 21
11.321359580031929
 31
0.0
 12
15.80319409296192
 22
11.321359580031929
 32
0.0
 13
15.80319409296192
 23
11.321359580031929
 33
0.0
210
0.0
220
0.0
230
1.0
  0
SOLID
  5
908
  8
0
  6
CONTINUOUS
 62
     4
 10
-13.72711729402053
 20
11.421613042176761
 30
0.0
 11
-16.048738140931579
 21
11.421613042176761
 31
0.0
 12
-15.80319409296192
 22
11.321359580031929
 32
0.0
 13
-15.80319409296192
 23
11.321359580031929
 33
0.0
210
0.0
220
0.0
230
-1.0
  0
SOLID
  5
909
  8
0
  6
CONTINUOUS
 62
     4
 10
17.044458594957501
 20
11.421613042176761
 30
0.0
 11
17.334385593995449
 21
11.321359580031929
 31
0.0
 12
19.468641824403718
 22
11.321359580031929
 32
0.0
 13
19.468641824403718
 23
11.321359580031929
 33
0.0
210
0.0
220
0.0
230
1.0
  0
SOLID
  5
90A
  8
0
  6
CONTINUOUS
 62
     4
 10
-17.044458594957501
 20
11.421613042176761
 30
0.0
 11
-19.455376243116611
 21
11.421613042176761
 31
0.0
 12
-19.468641824403718
 22
11.321359580031929
 32
0.0
 13
-19.468641824403718
 23
11.321359580031929
 33
0.0
210
0.0
220
0.0
230
-1.0
  0
SOLID
  5
90B
  8
0
  6
CONTINUOUS
 62
     4
 10
13.694988935167631
 20
11.321359580031929
 30
0.0
 11
13.67266282076142
 21
11.25169308148118
 31
0.0
 12
15.63256463342951
 22
11.25169308148118
 32
0.0
 13
15.63256463342951
 23
11.25169308148118
 33
0.0
  0
SOLID
  5
90C
  8
0
  6
CONTINUOUS
 62
     4
 10
-13.694988935167631
 20
11.321359580031929
 30
0.0
 11
-15.80319409296192
 21
11.321359580031929
 31
0.0
 12
-15.63256463342951
 22
11.25169308148118
 32
0.0
 13
-15.63256463342951
 23
11.25169308148118
 33
0.0
210
0.0
220
0.0
230
-1.0
  0
SOLID
  5
90D
  8
0
  6
CONTINUOUS
 62
     4
 10
17.334385593995449
 20
11.321359580031929
 30
0.0
 11
17.379240589355099
 21
11.25169308148118
 31
0.0
 12
19.477860125495191
 22
11.25169308148118
 32
0.0
 13
19.477860125495191
 23
11.25169308148118
 33
0.0
  0
SOLID
  5
90E
  8
0
  6
CONTINUOUS
 62
     4
 10
-17.334385593995449
 20
11.321359580031929
 30
0.0
 11
-19.468641824403718
 21
11.321359580031929
 31
0.0
 12
-19.477860125495191
 22
11.25169308148118
 32
0.0
 13
-19.477860125495191
 23
11.25169308148118
 33
0.0
210
0.0
220
0.0
230
-1.0
  0
SOLID
  5
90F
  8
0
  6
CONTINUOUS
 62
     4
 10
13.67266282076142
 20
11.25169308148118
 30
0.0
 11
13.64095234308947
 21
11.15274357747959
 31
0.0
 12
15.63256463342951
 22
11.15274357747959
 32
0.0
 13
15.63256463342951
 23
11.15274357747959
 33
0.0
210
0.0
220
0.0
230
1.0
  0
SOLID
  5
910
  8
0
  6
CONTINUOUS
 62
     4
 10
-13.67266282076142
 20
11.25169308148118
 30
0.0
 11
-15.63256463342951
 21
11.25169308148118
 31
0.0
 12
-15.63256463342951
 22
11.15274357747959
 32
0.0
 13
-15.63256463342951
 23
11.15274357747959
 33
0.0
210
0.0
220
0.0
230
-1.0
  0
SOLID
  5
911
  8
0
  6
CONTINUOUS
 62
     4
 10
17.379240589355099
 20
11.25169308148118
 30
0.0
 11
17.442949540359692
 21
11.15274357747959
 31
0.0
 12
19.490953166479208
 22
11.15274357747959
 32
0.0
 13
19.490953166479208
 23
11.15274357747959
 33
0.0
210
0.0
220
0.0
230
1.0
  0
SOLID
  5
912
  8
0
  6
CONTINUOUS
 62
     4
 10
-17.379240589355099
 20
11.25169308148118
 30
0.0
 11
-19.477860125495191
 21
11.25169308148118
 31
0.0
 12
-19.490953166479208
 22
11.15274357747959
 32
0.0
 13
-19.490953166479208
 23
11.15274357747959
 33
0.0
210
0.0
220
0.0
230
-1.0
  0
SOLID
  5
913
  8
0
  6
CONTINUOUS
 62
     4
 10
13.64095234308947
 20
11.15274357747959
 30
0.0
 11
13.64095234308947
 21
10.914693288081221
 31
0.0
 12
15.63256463342951
 22
10.914693288081221
 32
0.0
 13
15.63256463342951
 23
10.914693288081221
 33
0.0
  0
SOLID
  5
914
  8
0
  6
CONTINUOUS
 62
     4
 10
-13.64095234308947
 20
11.15274357747959
 30
0.0
 11
-15.63256463342951
 21
11.15274357747959
 31
0.0
 12
-15.63256463342951
 22
10.914693288081221
 32
0.0
 13
-15.63256463342951
 23
10.914693288081221
 33
0.0
210
0.0
220
0.0
230
-1.0
  0
SOLID
  5
915
  8
0
  6
CONTINUOUS
 62
     4
 10
17.442949540359692
 20
11.15274357747959
 30
0.0
 11
17.596218971843289
 21
10.914693288081221
 31
0.0
 12
19.522452083293391
 22
10.914693288081221
 32
0.0
 13
19.522452083293391
 23
10.914693288081221
 33
0.0
210
0.0
220
0.0
230
1.0
  0
SOLID
  5
916
  8
0
  6
CONTINUOUS
 62
     4
 10
-17.442949540359692
 20
11.15274357747959
 30
0.0
 11
-19.490953166479208
 21
11.15274357747959
 31
0.0
 12
-19.522452083293391
 22
10.914693288081221
 32
0.0
 13
-19.522452083293391
 23
10.914693288081221
 33
0.0
210
0.0
220
0.0
230
-1.0
  0
SOLID
  5
917
  8
0
  6
CONTINUOUS
 62
     4
 10
17.596218971843289
 20
10.914693288081221
 30
0.0
 11
17.596218971843289
 21
10.914693288081221
 31
0.0
 12
19.522452083293391
 22
10.914693288081221
 32
0.0
 13
19.522452083293391
 23
10.914693288081221
 33
0.0
210
0.0
220
0.0
230
1.0
  0
SOLID
  5
918
  8
0
  6
CONTINUOUS
 62
     4
 10
13.64095234308947
 20
10.914693288081221
 30
0.0
 11
13.64095234308947
 21
10.57769349468129
 31
0.0
 12
15.63256463342951
 22
10.57769349468129
 32
0.0
 13
15.63256463342951
 23
10.57769349468129
 33
0.0
  0
SOLID
  5
919
  8
0
  6
CONTINUOUS
 62
     4
 10
-13.64095234308947
 20
10.914693288081221
 30
0.0
 11
-15.63256463342951
 21
10.914693288081221
 31
0.0
 12
-15.63256463342951
 22
10.57769349468129
 32
0.0
 13
-15.63256463342951
 23
10.57769349468129
 33
0.0
210
0.0
220
0.0
230
-1.0
  0
SOLID
  5
91A
  8
0
  6
CONTINUOUS
 62
     4
 10
13.64095234308947
 20
10.57769349468129
 30
0.0
 11
13.64095234308947
 21
10.411815209523819
 31
0.0
 12
16.033712217722989
 22
10.411815209523819
 32
0.0
 13
16.033712217722989
 23
10.411815209523819
 33
0.0
210
0.0
220
0.0
230
1.0
  0
SOLID
  5
91B
  8
0
  6
CONTINUOUS
 62
     4
 10
-13.64095234308947
 20
10.57769349468129
 30
0.0
 11
-15.63256463342951
 21
10.57769349468129
 31
0.0
 12
-16.033712217722989
 22
10.411815209523819
 32
0.0
 13
-16.033712217722989
 23
10.411815209523819
 33
0.0
210
0.0
220
0.0
230
-1.0
  0
SOLID
  5
91C
  8
0
  6
CONTINUOUS
 62
     4
 10
13.64095234308947
 20
10.411815209523819
 30
0.0
 11
13.64095234308947
 21
10.350229482990599
 31
0.0
 12
16.463412331940621
 22
10.350229482990599
 32
0.0
 13
16.463412331940621
 23
10.350229482990599
 33
0.0
210
0.0
220
0.0
230
1.0
  0
SOLID
  5
91D
  8
0
  6
CONTINUOUS
 62
     4
 10
-13.64095234308947
 20
10.411815209523819
 30
0.0
 11
-16.033712217722989
 21
10.411815209523819
 31
0.0
 12
-16.463412331940621
 22
10.350229482990599
 32
0.0
 13
-16.463412331940621
 23
10.350229482990599
 33
0.0
210
0.0
220
0.0
230
-1.0
  0
SOLID
  5
91E
  8
0
  6
CONTINUOUS
 62
     4
 10
13.64095234308947
 20
10.350229482990599
 30
0.0
 11
13.64095234308947
 21
10.32774341607765
 31
0.0
 12
17.74961158496421
 22
10.32774341607765
 32
0.0
 13
17.74961158496421
 23
10.32774341607765
 33
0.0
210
0.0
220
0.0
230
1.0
  0
SOLID
  5
91F
  8
0
  6
CONTINUOUS
 62
     4
 10
-13.64095234308947
 20
10.350229482990599
 30
0.0
 11
-16.463412331940621
 21
10.350229482990599
 31
0.0
 12
-17.74961158496421
 22
10.32774341607765
 32
0.0
 13
-17.74961158496421
 23
10.32774341607765
 33
0.0
210
0.0
220
0.0
230
-1.0
  0
SOLID
  5
920
  8
0
  6
CONTINUOUS
 62
     4
 10
13.64095234308947
 20
10.32774341607765
 30
0.0
 11
13.643600072413561
 21
10.31867636594944
 31
0.0
 12
18.268245330349121
 22
10.31867636594944
 32
0.0
 13
18.268245330349121
 23
10.31867636594944
 33
0.0
210
0.0
220
0.0
230
1.0
  0
SOLID
  5
921
  8
0
  6
CONTINUOUS
 62
     4
 10
-13.64095234308947
 20
10.32774341607765
 30
0.0
 11
-17.74961158496421
 21
10.32774341607765
 31
0.0
 12
-18.268245330349121
 22
10.31867636594944
 32
0.0
 13
-18.268245330349121
 23
10.31867636594944
 33
0.0
210
0.0
220
0.0
230
-1.0
  0
SOLID
  5
922
  8
0
  6
CONTINUOUS
 62
     4
 10
13.643600072413561
 20
10.31867636594944
 30
0.0
 11
13.773307120516479
 21
9.874499426701238
 31
0.0
 12
19.36739400057861
 22
9.874499426701238
 32
0.0
 13
19.36739400057861
 23
9.874499426701238
 33
0.0
210
0.0
220
0.0
230
1.0
  0
SOLID
  5
923
  8
0
  6
CONTINUOUS
 62
     4
 10
-13.643600072413561
 20
10.31867636594944
 30
0.0
 11
-18.268245330349121
 21
10.31867636594944
 31
0.0
 12
-19.36739400057861
 22
9.874499426701238
 32
0.0
 13
-19.36739400057861
 23
9.874499426701238
 33
0.0
210
0.0
220
0.0
230
-1.0
  0
SOLID
  5
924
  8
0
  6
CONTINUOUS
 62
     4
 10
13.773307120516479
 20
9.874499426701238
 30
0.0
 11
13.84267356698599
 21
9.6369566228984578
 31
0.0
 12
19.483204032608239
 22
9.6369566228984578
 32
0.0
 13
19.483204032608239
 23
9.6369566228984578
 33
0.0
210
0.0
220
0.0
230
1.0
  0
SOLID
  5
925
  8
0
  6
CONTINUOUS
 62
     4
 10
-13.773307120516479
 20
9.874499426701238
 30
0.0
 11
-19.36739400057861
 21
9.874499426701238
 31
0.0
 12
-19.483204032608239
 22
9.6369566228984578
 32
0.0
 13
-19.483204032608239
 23
9.6369566228984578
 33
0.0
210
0.0
220
0.0
230
-1.0
  0
SOLID
  5
926
  8
0
  6
CONTINUOUS
 62
     4
 10
13.84267356698599
 20
9.6369566228984578
 30
0.0
 11
14.384437503773
 21
9.1632798527290227
 31
0.0
 12
19.714137241473448
 22
9.1632798527290227
 32
0.0
 13
19.714137241473448
 23
9.1632798527290227
 33
0.0
210
0.0
220
0.0
230
1.0
  0
SOLID
  5
927
  8
0
  6
CONTINUOUS
 62
     4
 10
-13.84267356698599
 20
9.6369566228984578
 30
0.0
 11
-19.483204032608239
 21
9.6369566228984578
 31
0.0
 12
-19.714137241473448
 22
9.1632798527290227
 32
0.0
 13
-19.714137241473448
 23
9.1632798527290227
 33
0.0
210
0.0
220
0.0
230
-1.0
  0
SOLID
  5
928
  8
0
  6
CONTINUOUS
 62
     4
 10
14.384437503773
 20
9.1632798527290227
 30
0.0
 11
15.168197024638131
 21
8.8985413362032801
 31
0.0
 12
19.84320608964525
 22
8.8985413362032801
 32
0.0
 13
19.84320608964525
 23
8.8985413362032801
 33
0.0
210
0.0
220
0.0
230
1.0
  0
SOLID
  5
929
  8
0
  6
CONTINUOUS
 62
     4
 10
-14.384437503773
 20
9.1632798527290227
 30
0.0
 11
-19.714137241473448
 21
9.1632798527290227
 31
0.0
 12
-19.84320608964525
 22
8.8985413362032801
 32
0.0
 13
-19.84320608964525
 23
8.8985413362032801
 33
0.0
210
0.0
220
0.0
230
-1.0
  0
SOLID
  5
92A
  8
0
  6
CONTINUOUS
 62
     4
 10
15.168197024638131
 20
8.8985413362032801
 30
0.0
 11
15.9905888738613
 21
8.8088913779752644
 31
0.0
 12
19.886913431512198
 22
8.8088913779752644
 32
0.0
 13
19.886913431512198
 23
8.8088913779752644
 33
0.0
210
0.0
220
0.0
230
1.0
  0
SOLID
  5
92B
  8
0
  6
CONTINUOUS
 62
     4
 10
-15.168197024638131
 20
8.8985413362032801
 30
0.0
 11
-19.84320608964525
 21
8.8985413362032801
 31
0.0
 12
-19.886913431512198
 22
8.8088913779752644
 32
0.0
 13
-19.886913431512198
 23
8.8088913779752644
 33
0.0
210
0.0
220
0.0
230
-1.0
  0
SOLID
  5
92C
  8
0
  6
CONTINUOUS
 62
     4
 10
15.9905888738613
 20
8.8088913779752644
 30
0.0
 11
15.9905888738613
 21
8.8088913779752644
 31
0.0
 12
17.289494074157052
 22
8.8088913779752644
 32
0.0
 13
17.289494074157052
 23
8.8088913779752644
 33
0.0
210
0.0
220
0.0
230
1.0
  0
SOLID
  5
92D
  8
0
  6
CONTINUOUS
 62
     4
 10
17.289494074157052
 20
8.8088913779752644
 30
0.0
 11
17.667594337462049
 21
8.6522771209774945
 31
0.0
 12
19.888650916205979
 22
8.6522771209774945
 32
0.0
 13
19.888650916205979
 23
8.6522771209774945
 33
0.0
  0
SOLID
  5
92E
  8
0
  6
CONTINUOUS
 62
     4
 10
-17.289494074157052
 20
8.8088913779752644
 30
0.0
 11
-19.886913431512198
 21
8.8088913779752644
 31
0.0
 12
-19.888650916205979
 22
8.6522771209774945
 32
0.0
 13
-19.888650916205979
 23
8.6522771209774945
 33
0.0
210
0.0
220
0.0
230
-1.0
  0
SOLID
  5
92F
  8
0
  6
CONTINUOUS
 62
     4
 10
17.667594337462049
 20
8.6522771209774945
 30
0.0
 11
17.80649734760739
 21
8.316935590030166
 31
0.0
 12
19.892371208268649
 22
8.316935590030166
 32
0.0
 13
19.892371208268649
 23
8.316935590030166
 33
0.0
210
0.0
220
0.0
230
1.0
  0
SOLID
  5
930
  8
0
  6
CONTINUOUS
 62
     4
 10
-17.667594337462049
 20
8.6522771209774945
 30
0.0
 11
-19.888650916205979
 21
8.6522771209774945
 31
0.0
 12
-19.892371208268649
 22
8.316935590030166
 32
0.0
 13
-19.892371208268649
 23
8.316935590030166
 33
0.0
210
0.0
220
0.0
230
-1.0
  0
SOLID
  5
931
  8
0
  6
CONTINUOUS
 62
     4
 10
13.67877588744186
 20
8.316935590030166
 30
0.0
 11
13.67877588744186
 21
8.316935590030166
 31
0.0
 12
15.694790245108379
 22
8.316935590030166
 32
0.0
 13
15.694790245108379
 23
8.316935590030166
 33
0.0
210
0.0
220
0.0
230
1.0
  0
SOLID
  5
932
  8
0
  6
CONTINUOUS
 62
     4
 10
13.67877588744186
 20
8.316935590030166
 30
0.0
 11
13.68348843009684
 21
8.2741768576724883
 31
0.0
 12
15.70799093577509
 22
8.2741768576724883
 32
0.0
 13
15.70799093577509
 23
8.2741768576724883
 33
0.0
  0
SOLID
  5
933
  8
0
  6
CONTINUOUS
 62
     4
 10
-13.67877588744186
 20
8.316935590030166
 30
0.0
 11
-15.694790245108379
 21
8.316935590030166
 31
0.0
 12
-15.70799093577509
 22
8.2741768576724883
 32
0.0
 13
-15.70799093577509
 23
8.2741768576724883
 33
0.0
210
0.0
220
0.0
230
-1.0
  0
SOLID
  5
934
  8
0
  6
CONTINUOUS
 62
     4
 10
17.80649734760739
 20
8.316935590030166
 30
0.0
 11
17.824208594459819
 21
8.2741768576724883
 31
0.0
 12
19.89284557531812
 22
8.2741768576724883
 32
0.0
 13
19.89284557531812
 23
8.2741768576724883
 33
0.0
210
0.0
220
0.0
230
1.0
  0
SOLID
  5
935
  8
0
  6
CONTINUOUS
 62
     4
 10
-17.80649734760739
 20
8.316935590030166
 30
0.0
 11
-19.892371208268649
 21
8.316935590030166
 31
0.0
 12
-19.89284557531812
 22
8.2741768576724883
 32
0.0
 13
-19.89284557531812
 23
8.2741768576724883
 33
0.0
210
0.0
220
0.0
230
-1.0
  0
SOLID
  5
936
  8
0
  6
CONTINUOUS
 62
     4
 10
13.68348843009684
 20
8.2741768576724883
 30
0.0
 11
13.68678302686167
 21
8.2442836998577516
 31
0.0
 12
15.717219701634249
 22
8.2442836998577516
 32
0.0
 13
15.717219701634249
 23
8.2442836998577516
 33
0.0
  0
SOLID
  5
937
  8
0
  6
CONTINUOUS
 62
     4
 10
-13.68348843009684
 20
8.2741768576724883
 30
0.0
 11
-15.70799093577509
 21
8.2741768576724883
 31
0.0
 12
-15.717219701634249
 22
8.2442836998577516
 32
0.0
 13
-15.717219701634249
 23
8.2442836998577516
 33
0.0
210
0.0
220
0.0
230
-1.0
  0
SOLID
  5
938
  8
0
  6
CONTINUOUS
 62
     4
 10
17.824208594459819
 20
8.2741768576724883
 30
0.0
 11
17.824208594459819
 21
8.2442836998577516
 31
0.0
 12
19.893177211180308
 22
8.2442836998577516
 32
0.0
 13
19.893177211180308
 23
8.2442836998577516
 33
0.0
  0
SOLID
  5
939
  8
0
  6
CONTINUOUS
 62
     4
 10
-17.824208594459819
 20
8.2741768576724883
 30
0.0
 11
-19.89284557531812
 21
8.2741768576724883
 31
0.0
 12
-19.893177211180308
 22
8.2442836998577516
 32
0.0
 13
-19.893177211180308
 23
8.2442836998577516
 33
0.0
210
0.0
220
0.0
230
-1.0
  0
SOLID
  5
93A
  8
0
  6
CONTINUOUS
 62
     4
 10
13.68678302686167
 20
8.2442836998577516
 30
0.0
 11
13.71424993720415
 21
7.9950657396160656
 31
0.0
 12
15.794159522352491
 22
7.9950657396160656
 32
0.0
 13
15.794159522352491
 23
7.9950657396160656
 33
0.0
210
0.0
220
0.0
230
1.0
  0
SOLID
  5
93B
  8
0
  6
CONTINUOUS
 62
     4
 10
-13.68678302686167
 20
8.2442836998577516
 30
0.0
 11
-15.717219701634249
 21
8.2442836998577516
 31
0.0
 12
-15.794159522352491
 22
7.9950657396160656
 32
0.0
 13
-15.794159522352491
 23
7.9950657396160656
 33
0.0
210
0.0
220
0.0
230
-1.0
  0
SOLID
  5
93C
  8
0
  6
CONTINUOUS
 62
     4
 10
17.824208594459819
 20
8.2442836998577516
 30
0.0
 11
17.824208594459812
 21
7.9950657396160656
 31
0.0
 12
19.84012867592326
 22
7.9950657396160656
 32
0.0
 13
19.84012867592326
 23
7.9950657396160656
 33
0.0
210
0.0
220
0.0
230
1.0
  0
SOLID
  5
93D
  8
0
  6
CONTINUOUS
 62
     4
 10
-17.824208594459819
 20
8.2442836998577516
 30
0.0
 11
-19.893177211180308
 21
8.2442836998577516
 31
0.0
 12
-19.84012867592326
 22
7.9950657396160656
 32
0.0
 13
-19.84012867592326
 23
7.9950657396160656
 33
0.0
210
0.0
220
0.0
230
-1.0
  0
SOLID
  5
93E
  8
0
  6
CONTINUOUS
 62
     4
 10
13.71424993720415
 20
7.9950657396160656
 30
0.0
 11
13.722085603626279
 21
7.9239696906426538
 31
0.0
 12
15.816108651767109
 22
7.9239696906426538
 32
0.0
 13
15.816108651767109
 23
7.9239696906426538
 33
0.0
  0
SOLID
  5
93F
  8
0
  6
CONTINUOUS
 62
     4
 10
-13.71424993720415
 20
7.9950657396160656
 30
0.0
 11
-15.794159522352491
 21
7.9950657396160656
 31
0.0
 12
-15.816108651767109
 22
7.9239696906426538
 32
0.0
 13
-15.816108651767109
 23
7.9239696906426538
 33
0.0
210
0.0
220
0.0
230
-1.0
  0
SOLID
  5
940
  8
0
  6
CONTINUOUS
 62
     4
 10
17.824208594459812
 20
7.9950657396160656
 30
0.0
 11
17.794759646743881
 21
7.9239696906426538
 31
0.0
 12
19.824995170870309
 22
7.9239696906426538
 32
0.0
 13
19.824995170870309
 23
7.9239696906426538
 33
0.0
210
0.0
220
0.0
230
1.0
  0
SOLID
  5
941
  8
0
  6
CONTINUOUS
 62
     4
 10
-17.824208594459812
 20
7.9950657396160656
 30
0.0
 11
-19.84012867592326
 21
7.9950657396160656
 31
0.0
 12
-19.824995170870309
 22
7.9239696906426538
 32
0.0
 13
-19.824995170870309
 23
7.9239696906426538
 33
0.0
210
0.0
220
0.0
230
-1.0
  0
SOLID
  5
942
  8
0
  6
CONTINUOUS
 62
     4
 10
13.722085603626279
 20
7.9239696906426538
 30
0.0
 11
13.74447663082627
 21
7.7208071923157711
 31
0.0
 12
16.071247323244471
 22
7.7208071923157711
 32
0.0
 13
16.071247323244471
 23
7.7208071923157711
 33
0.0
210
0.0
220
0.0
230
1.0
  0
SOLID
  5
943
  8
0
  6
CONTINUOUS
 62
     4
 10
-13.722085603626279
 20
7.9239696906426538
 30
0.0
 11
-15.816108651767109
 21
7.9239696906426538
 31
0.0
 12
-16.071247323244471
 22
7.7208071923157711
 32
0.0
 13
-16.071247323244471
 23
7.7208071923157711
 33
0.0
210
0.0
220
0.0
230
-1.0
  0
SOLID
  5
944
  8
0
  6
CONTINUOUS
 62
     4
 10
17.794759646743881
 20
7.9239696906426538
 30
0.0
 11
17.710606984571289
 21
7.7208071923157711
 31
0.0
 12
19.781750001280798
 22
7.7208071923157711
 32
0.0
 13
19.781750001280798
 23
7.7208071923157711
 33
0.0
  0
SOLID
  5
945
  8
0
  6
CONTINUOUS
 62
     4
 10
-17.794759646743881
 20
7.9239696906426538
 30
0.0
 11
-19.824995170870309
 21
7.9239696906426538
 31
0.0
 12
-19.781750001280798
 22
7.7208071923157711
 32
0.0
 13
-19.781750001280798
 23
7.7208071923157711
 33
0.0
210
0.0
220
0.0
230
-1.0
  0
SOLID
  5
946
  8
0
  6
CONTINUOUS
 62
     4
 10
13.74447663082627
 20
7.7208071923157711
 30
0.0
 11
13.75032052220979
 21
7.6677832929286636
 31
0.0
 12
16.13783661682762
 22
7.6677832929286636
 32
0.0
 13
16.13783661682762
 23
7.6677832929286636
 33
0.0
210
0.0
220
0.0
230
1.0
  0
SOLID
  5
947
  8
0
  6
CONTINUOUS
 62
     4
 10
-13.74447663082627
 20
7.7208071923157711
 30
0.0
 11
-16.071247323244471
 21
7.7208071923157711
 31
0.0
 12
-16.13783661682762
 22
7.6677832929286636
 32
0.0
 13
-16.13783661682762
 23
7.6677832929286636
 33
0.0
210
0.0
220
0.0
230
-1.0
  0
SOLID
  5
948
  8
0
  6
CONTINUOUS
 62
     4
 10
17.710606984571289
 20
7.7208071923157711
 30
0.0
 11
17.582595967541021
 21
7.6677832929286636
 31
0.0
 12
19.770463334006202
 22
7.6677832929286636
 32
0.0
 13
19.770463334006202
 23
7.6677832929286636
 33
0.0
210
0.0
220
0.0
230
1.0
  0
SOLID
  5
949
  8
0
  6
CONTINUOUS
 62
     4
 10
-17.710606984571289
 20
7.7208071923157711
 30
0.0
 11
-19.781750001280798
 21
7.7208071923157711
 31
0.0
 12
-19.770463334006202
 22
7.6677832929286636
 32
0.0
 13
-19.770463334006202
 23
7.6677832929286636
 33
0.0
210
0.0
220
0.0
230
-1.0
  0
SOLID
  5
94A
  8
0
  6
CONTINUOUS
 62
     4
 10
13.75032052220979
 20
7.6677832929286636
 30
0.0
 11
13.75531323294336
 21
7.6224824866281287
 31
0.0
 12
16.295510768765968
 22
7.6224824866281287
 32
0.0
 13
16.295510768765968
 23
7.6224824866281287
 33
0.0
210
0.0
220
0.0
230
1.0
  0
SOLID
  5
94B
  8
0
  6
CONTINUOUS
 62
     4
 10
-13.75032052220979
 20
7.6677832929286636
 30
0.0
 11
-16.13783661682762
 21
7.6677832929286636
 31
0.0
 12
-16.295510768765968
 22
7.6224824866281287
 32
0.0
 13
-16.295510768765968
 23
7.6224824866281287
 33
0.0
210
0.0
220
0.0
230
-1.0
  0
SOLID
  5
94C
  8
0
  6
CONTINUOUS
 62
     4
 10
17.582595967541021
 20
7.6677832929286636
 30
0.0
 11
17.473230146583841
 21
7.6224824866281287
 31
0.0
 12
19.760820604333439
 22
7.6224824866281287
 32
0.0
 13
19.760820604333439
 23
7.6224824866281287
 33
0.0
  0
SOLID
  5
94D
  8
0
  6
CONTINUOUS
 62
     4
 10
-17.582595967541021
 20
7.6677832929286636
 30
0.0
 11
-19.770463334006202
 21
7.6677832929286636
 31
0.0
 12
-19.760820604333439
 22
7.6224824866281287
 32
0.0
 13
-19.760820604333439
 23
7.6224824866281287
 33
0.0
210
0.0
220
0.0
230
-1.0
  0
SOLID
  5
94E
  8
0
  6
CONTINUOUS
 62
     4
 10
13.75531323294336
 20
7.6224824866281287
 30
0.0
 11
13.75699693727025
 21
7.607205582427242
 31
0.0
 12
16.458850651951291
 22
7.607205582427242
 32
0.0
 13
16.458850651951291
 23
7.607205582427242
 33
0.0
210
0.0
220
0.0
230
1.0
  0
SOLID
  5
94F
  8
0
  6
CONTINUOUS
 62
     4
 10
-13.75531323294336
 20
7.6224824866281287
 30
0.0
 11
-16.295510768765968
 21
7.6224824866281287
 31
0.0
 12
-16.458850651951291
 22
7.607205582427242
 32
0.0
 13
-16.458850651951291
 23
7.607205582427242
 33
0.0
210
0.0
220
0.0
230
-1.0
  0
SOLID
  5
950
  8
0
  6
CONTINUOUS
 62
     4
 10
17.473230146583841
 20
7.6224824866281287
 30
0.0
 11
17.436348437270979
 21
7.607205582427242
 31
0.0
 12
19.757568762490521
 22
7.607205582427242
 32
0.0
 13
19.757568762490521
 23
7.607205582427242
 33
0.0
210
0.0
220
0.0
230
1.0
  0
SOLID
  5
951
  8
0
  6
CONTINUOUS
 62
     4
 10
-17.473230146583841
 20
7.6224824866281287
 30
0.0
 11
-19.760820604333439
 21
7.6224824866281287
 31
0.0
 12
-19.757568762490521
 22
7.607205582427242
 32
0.0
 13
-19.757568762490521
 23
7.607205582427242
 33
0.0
210
0.0
220
0.0
230
-1.0
  0
SOLID
  5
952
  8
0
  6
CONTINUOUS
 62
     4
 10
16.458850651951291
 20
7.607205582427242
 30
0.0
 11
16.458850651951291
 21
7.607205582427242
 31
0.0
 12
17.43634843727099
 22
7.607205582427242
 32
0.0
 13
17.43634843727099
 23
7.607205582427242
 33
0.0
210
0.0
220
0.0
230
1.0
  0
SOLID
  5
953
  8
0
  6
CONTINUOUS
 62
     4
 10
13.75699693727025
 20
7.607205582427242
 30
0.0
 11
13.77068829281388
 21
7.4829785886015339
 31
0.0
 12
19.731125804465151
 22
7.4829785886015339
 32
0.0
 13
19.731125804465151
 23
7.4829785886015339
 33
0.0
210
0.0
220
0.0
230
1.0
  0
SOLID
  5
954
  8
0
  6
CONTINUOUS
 62
     4
 10
-13.75699693727025
 20
7.607205582427242
 30
0.0
 11
-19.757568762490521
 21
7.607205582427242
 31
0.0
 12
-19.731125804465151
 22
7.4829785886015339
 32
0.0
 13
-19.731125804465151
 23
7.4829785886015339
 33
0.0
210
0.0
220
0.0
230
-1.0
  0
SOLID
  5
955
  8
0
  6
CONTINUOUS
 62
     4
 10
13.77068829281388
 20
7.4829785886015339
 30
0.0
 11
13.78948975798024
 21
7.3123855826940023
 31
0.0
 12
19.606955589459201
 22
7.3123855826940023
 32
0.0
 13
19.606955589459201
 23
7.3123855826940023
 33
0.0
210
0.0
220
0.0
230
1.0
  0
SOLID
  5
956
  8
0
  6
CONTINUOUS
 62
     4
 10
-13.77068829281388
 20
7.4829785886015339
 30
0.0
 11
-19.731125804465151
 21
7.4829785886015339
 31
0.0
 12
-19.606955589459201
 22
7.3123855826940023
 32
0.0
 13
-19.606955589459201
 23
7.3123855826940023
 33
0.0
210
0.0
220
0.0
230
-1.0
  0
SOLID
  5
957
  8
0
  6
CONTINUOUS
 62
     4
 10
13.78948975798024
 20
7.3123855826940023
 30
0.0
 11
14.23531603139066
 21
6.853669853725787
 31
0.0
 12
19.273068333123081
 22
6.853669853725787
 32
0.0
 13
19.273068333123081
 23
6.853669853725787
 33
0.0
  0
SOLID
  5
958
  8
0
  6
CONTINUOUS
 62
     4
 10
-13.78948975798024
 20
7.3123855826940023
 30
0.0
 11
-19.606955589459201
 21
7.3123855826940023
 31
0.0
 12
-19.273068333123081
 22
6.853669853725787
 32
0.0
 13
-19.273068333123081
 23
6.853669853725787
 33
0.0
210
0.0
220
0.0
230
-1.0
  0
SOLID
  5
959
  8
0
  6
CONTINUOUS
 62
     4
 10
14.23531603139066
 20
6.853669853725787
 30
0.0
 11
14.493860225862401
 21
6.5876507882042201
 31
0.0
 12
18.83811483574711
 22
6.5876507882042201
 32
0.0
 13
18.83811483574711
 23
6.5876507882042201
 33
0.0
210
0.0
220
0.0
230
1.0
  0
SOLID
  5
95A
  8
0
  6
CONTINUOUS
 62
     4
 10
-14.23531603139066
 20
6.853669853725787
 30
0.0
 11
-19.273068333123081
 21
6.853669853725787
 31
0.0
 12
-18.83811483574711
 22
6.5876507882042201
 32
0.0
 13
-18.83811483574711
 23
6.5876507882042201
 33
0.0
210
0.0
220
0.0
230
-1.0
  0
SOLID
  5
95B
  8
0
  6
CONTINUOUS
 62
     4
 10
14.493860225862401
 20
6.5876507882042201
 30
0.0
 11
14.905117021939811
 21
6.4367293105265899
 31
0.0
 12
18.59135122722029
 22
6.4367293105265899
 32
0.0
 13
18.59135122722029
 23
6.4367293105265899
 33
0.0
210
0.0
220
0.0
230
1.0
  0
SOLID
  5
95C
  8
0
  6
CONTINUOUS
 62
     4
 10
-14.493860225862401
 20
6.5876507882042201
 30
0.0
 11
-18.83811483574711
 21
6.5876507882042201
 31
0.0
 12
-18.59135122722029
 22
6.4367293105265899
 32
0.0
 13
-18.59135122722029
 23
6.4367293105265899
 33
0.0
210
0.0
220
0.0
230
-1.0
  0
SOLID
  5
95D
  8
0
  6
CONTINUOUS
 62
     4
 10
14.905117021939811
 20
6.4367293105265899
 30
0.0
 11
15.09665710087207
 21
6.366438650231939
 31
0.0
 12
18.211481350165919
 22
6.366438650231939
 32
0.0
 13
18.211481350165919
 23
6.366438650231939
 33
0.0
210
0.0
220
0.0
230
1.0
  0
SOLID
  5
95E
  8
0
  6
CONTINUOUS
 62
     4
 10
-14.905117021939811
 20
6.4367293105265899
 30
0.0
 11
-18.59135122722029
 21
6.4367293105265899
 31
0.0
 12
-18.211481350165919
 22
6.366438650231939
 32
0.0
 13
-18.211481350165919
 23
6.366438650231939
 33
0.0
210
0.0
220
0.0
230
-1.0
  0
SOLID
  5
95F
  8
0
  6
CONTINUOUS
 62
     4
 10
15.09665710087207
 20
6.366438650231939
 30
0.0
 11
15.73435431514268
 21
6.2913310912303242
 31
0.0
 12
17.805579640263101
 22
6.2913310912303242
 32
0.0
 13
17.805579640263101
 23
6.2913310912303242
 33
0.0
210
0.0
220
0.0
230
1.0
  0
SOLID
  5
960
  8
0
  6
CONTINUOUS
 62
     4
 10
-15.09665710087207
 20
6.366438650231939
 30
0.0
 11
-18.211481350165919
 21
6.366438650231939
 31
0.0
 12
-17.805579640263101
 22
6.2913310912303242
 32
0.0
 13
-17.805579640263101
 23
6.2913310912303242
 33
0.0
210
0.0
220
0.0
230
-1.0
  0
SOLID
  5
961
  8
0
  6
CONTINUOUS
 62
     4
 10
15.73435431514268
 20
6.2913310912303242
 30
0.0
 11
15.73435431514268
 21
6.2913310912303242
 31
0.0
 12
17.805579640263101
 22
6.2913310912303242
 32
0.0
 13
17.805579640263101
 23
6.2913310912303242
 33
0.0
210
0.0
220
0.0
230
1.0
  0
LINE
  5
962
  8
0
  6
CONTINUOUS
 62
     4
 10
15.7322027602912
 20
12.761725249354241
 30
0.0
 11
17.170962359618301
 21
12.761725249354241
 31
0.0
  0
LINE
  5
963
  8
0
  6
CONTINUOUS
 62
     4
 10
15.732202760291161
 20
12.761725249354241
 30
0.0
 11
15.19146728092762
 21
12.71697570444282
 31
0.0
  0
LINE
  5
964
  8
0
  6
CONTINUOUS
 62
     4
 10
17.170962359618301
 20
12.761725249354241
 30
0.0
 11
17.868194363429961
 21
12.71697570444282
 31
0.0
  0
LINE
  5
965
  8
0
  6
CONTINUOUS
 62
     4
 10
15.19146728092762
 20
12.71697570444282
 30
0.0
 11
15.19021235175237
 21
12.71687185050382
 31
0.0
  0
LINE
  5
966
  8
0
  6
CONTINUOUS
 62
     4
 10
17.868194363429961
 20
12.71697570444282
 30
0.0
 11
17.868727804871451
 21
12.71687185050382
 31
0.0
  0
LINE
  5
967
  8
0
  6
CONTINUOUS
 62
     4
 10
15.19021235175237
 20
12.71687185050382
 30
0.0
 11
14.6629686449755
 21
12.583532043991619
 31
0.0
  0
LINE
  5
968
  8
0
  6
CONTINUOUS
 62
     4
 10
17.868727804871451
 20
12.71687185050382
 30
0.0
 11
18.553622179404218
 21
12.583532043991619
 31
0.0
  0
LINE
  5
969
  8
0
  6
CONTINUOUS
 62
     4
 10
14.6629686449755
 20
12.583532043991619
 30
0.0
 11
14.662873830390399
 21
12.583461390664089
 31
0.0
  0
LINE
  5
96A
  8
0
  6
CONTINUOUS
 62
     4
 10
18.553622179404218
 20
12.583532043991619
 30
0.0
 11
18.553985087284708
 21
12.583461390664089
 31
0.0
  0
LINE
  5
96B
  8
0
  6
CONTINUOUS
 62
     4
 10
14.662873830390399
 20
12.583461390664089
 30
0.0
 11
13.922697163314391
 21
12.03190126487484
 31
0.0
  0
LINE
  5
96C
  8
0
  6
CONTINUOUS
 62
     4
 10
18.553985087284708
 20
12.583461390664089
 30
0.0
 11
19.278528596291071
 21
12.03190126487484
 31
0.0
  0
LINE
  5
96D
  8
0
  6
CONTINUOUS
 62
     4
 10
13.922697163314391
 20
12.03190126487484
 30
0.0
 11
13.89662821361563
 21
11.95055560779519
 31
0.0
  0
LINE
  5
96E
  8
0
  6
CONTINUOUS
 62
     4
 10
19.278528596291071
 20
12.03190126487484
 30
0.0
 11
19.385386335034578
 21
11.95055560779519
 31
0.0
  0
LINE
  5
96F
  8
0
  6
CONTINUOUS
 62
     4
 10
13.89662821361563
 20
11.95055560779519
 30
0.0
 11
13.745643798513409
 21
11.47942322244014
 31
0.0
  0
LINE
  5
970
  8
0
  6
CONTINUOUS
 62
     4
 10
19.385386335034578
 20
11.95055560779519
 30
0.0
 11
19.447726775167091
 21
11.47942322244014
 31
0.0
  0
LINE
  5
971
  8
0
  6
CONTINUOUS
 62
     4
 10
16.494530878027291
 20
11.47942322244014
 30
0.0
 11
16.877275021253151
 21
11.47942322244014
 31
0.0
  0
LINE
  5
972
  8
0
  6
CONTINUOUS
 62
     4
 10
13.745643798513409
 20
11.47942322244014
 30
0.0
 11
13.72711729402053
 21
11.421613042176761
 31
0.0
  0
LINE
  5
973
  8
0
  6
CONTINUOUS
 62
     4
 10
16.494530878027291
 20
11.47942322244014
 30
0.0
 11
16.048738140931579
 21
11.421613042176761
 31
0.0
  0
LINE
  5
974
  8
0
  6
CONTINUOUS
 62
     4
 10
16.877275021253151
 20
11.47942322244014
 30
0.0
 11
17.044458594957501
 21
11.421613042176761
 31
0.0
  0
LINE
  5
975
  8
0
  6
CONTINUOUS
 62
     4
 10
19.447726775167091
 20
11.47942322244014
 30
0.0
 11
19.455376243116611
 21
11.421613042176761
 31
0.0
  0
LINE
  5
976
  8
0
  6
CONTINUOUS
 62
     4
 10
13.72711729402053
 20
11.421613042176761
 30
0.0
 11
13.694988935167631
 21
11.321359580031929
 31
0.0
  0
LINE
  5
977
  8
0
  6
CONTINUOUS
 62
     4
 10
16.048738140931579
 20
11.421613042176761
 30
0.0
 11
15.80319409296192
 21
11.321359580031929
 31
0.0
  0
LINE
  5
978
  8
0
  6
CONTINUOUS
 62
     4
 10
17.044458594957501
 20
11.421613042176761
 30
0.0
 11
17.334385593995449
 21
11.321359580031929
 31
0.0
  0
LINE
  5
979
  8
0
  6
CONTINUOUS
 62
     4
 10
19.455376243116611
 20
11.421613042176761
 30
0.0
 11
19.468641824403718
 21
11.321359580031929
 31
0.0
  0
LINE
  5
97A
  8
0
  6
CONTINUOUS
 62
     4
 10
13.694988935167631
 20
11.321359580031929
 30
0.0
 11
13.67266282076142
 21
11.25169308148118
 31
0.0
  0
LINE
  5
97B
  8
0
  6
CONTINUOUS
 62
     4
 10
15.80319409296192
 20
11.321359580031929
 30
0.0
 11
15.63256463342951
 21
11.25169308148118
 31
0.0
  0
LINE
  5
97C
  8
0
  6
CONTINUOUS
 62
     4
 10
17.334385593995449
 20
11.321359580031929
 30
0.0
 11
17.379240589355099
 21
11.25169308148118
 31
0.0
  0
LINE
  5
97D
  8
0
  6
CONTINUOUS
 62
     4
 10
19.468641824403718
 20
11.321359580031929
 30
0.0
 11
19.477860125495191
 21
11.25169308148118
 31
0.0
  0
LINE
  5
97E
  8
0
  6
CONTINUOUS
 62
     4
 10
13.67266282076142
 20
11.25169308148118
 30
0.0
 11
13.64095234308947
 21
11.15274357747959
 31
0.0
  0
LINE
  5
97F
  8
0
  6
CONTINUOUS
 62
     4
 10
15.63256463342951
 20
11.25169308148118
 30
0.0
 11
15.63256463342951
 21
11.15274357747959
 31
0.0
  0
LINE
  5
980
  8
0
  6
CONTINUOUS
 62
     4
 10
17.379240589355099
 20
11.25169308148118
 30
0.0
 11
17.442949540359692
 21
11.15274357747959
 31
0.0
  0
LINE
  5
981
  8
0
  6
CONTINUOUS
 62
     4
 10
19.477860125495191
 20
11.25169308148118
 30
0.0
 11
19.490953166479208
 21
11.15274357747959
 31
0.0
  0
LINE
  5
982
  8
0
  6
CONTINUOUS
 62
     4
 10
13.64095234308947
 20
11.15274357747959
 30
0.0
 11
13.64095234308947
 21
10.914693288081221
 31
0.0
  0
LINE
  5
983
  8
0
  6
CONTINUOUS
 62
     4
 10
15.63256463342951
 20
11.15274357747959
 30
0.0
 11
15.63256463342951
 21
10.914693288081221
 31
0.0
  0
LINE
  5
984
  8
0
  6
CONTINUOUS
 62
     4
 10
17.442949540359692
 20
11.15274357747959
 30
0.0
 11
17.596218971843289
 21
10.914693288081221
 31
0.0
  0
LINE
  5
985
  8
0
  6
CONTINUOUS
 62
     4
 10
19.490953166479208
 20
11.15274357747959
 30
0.0
 11
19.522452083293391
 21
10.914693288081221
 31
0.0
  0
LINE
  5
986
  8
0
  6
CONTINUOUS
 62
     4
 10
17.596218971843289
 20
10.914693288081221
 30
0.0
 11
19.522452083293391
 21
10.914693288081221
 31
0.0
  0
LINE
  5
987
  8
0
  6
CONTINUOUS
 62
     4
 10
13.64095234308947
 20
10.914693288081221
 30
0.0
 11
13.64095234308947
 21
10.57769349468129
 31
0.0
  0
LINE
  5
988
  8
0
  6
CONTINUOUS
 62
     4
 10
15.63256463342951
 20
10.914693288081221
 30
0.0
 11
15.63256463342951
 21
10.57769349468129
 31
0.0
  0
LINE
  5
989
  8
0
  6
CONTINUOUS
 62
     4
 10
13.64095234308947
 20
10.57769349468129
 30
0.0
 11
13.64095234308947
 21
10.411815209523819
 31
0.0
  0
LINE
  5
98A
  8
0
  6
CONTINUOUS
 62
     4
 10
15.63256463342951
 20
10.57769349468129
 30
0.0
 11
16.033712217722989
 21
10.411815209523819
 31
0.0
  0
LINE
  5
98B
  8
0
  6
CONTINUOUS
 62
     4
 10
13.64095234308947
 20
10.411815209523819
 30
0.0
 11
13.64095234308947
 21
10.350229482990599
 31
0.0
  0
LINE
  5
98C
  8
0
  6
CONTINUOUS
 62
     4
 10
16.033712217722989
 20
10.411815209523819
 30
0.0
 11
16.463412331940621
 21
10.350229482990599
 31
0.0
  0
LINE
  5
98D
  8
0
  6
CONTINUOUS
 62
     4
 10
13.64095234308947
 20
10.350229482990599
 30
0.0
 11
13.64095234308947
 21
10.32774341607765
 31
0.0
  0
LINE
  5
98E
  8
0
  6
CONTINUOUS
 62
     4
 10
16.463412331940621
 20
10.350229482990599
 30
0.0
 11
17.74961158496421
 21
10.32774341607765
 31
0.0
  0
LINE
  5
98F
  8
0
  6
CONTINUOUS
 62
     4
 10
13.64095234308947
 20
10.32774341607765
 30
0.0
 11
13.643600072413561
 21
10.31867636594944
 31
0.0
  0
LINE
  5
990
  8
0
  6
CONTINUOUS
 62
     4
 10
17.74961158496421
 20
10.32774341607765
 30
0.0
 11
18.268245330349121
 21
10.31867636594944
 31
0.0
  0
LINE
  5
991
  8
0
  6
CONTINUOUS
 62
     4
 10
13.643600072413561
 20
10.31867636594944
 30
0.0
 11
13.773307120516479
 21
9.874499426701238
 31
0.0
  0
LINE
  5
992
  8
0
  6
CONTINUOUS
 62
     4
 10
18.268245330349121
 20
10.31867636594944
 30
0.0
 11
19.36739400057861
 21
9.874499426701238
 31
0.0
  0
LINE
  5
993
  8
0
  6
CONTINUOUS
 62
     4
 10
13.773307120516479
 20
9.874499426701238
 30
0.0
 11
13.84267356698599
 21
9.6369566228984578
 31
0.0
  0
LINE
  5
994
  8
0
  6
CONTINUOUS
 62
     4
 10
19.36739400057861
 20
9.874499426701238
 30
0.0
 11
19.483204032608239
 21
9.6369566228984578
 31
0.0
  0
LINE
  5
995
  8
0
  6
CONTINUOUS
 62
     4
 10
13.84267356698599
 20
9.6369566228984578
 30
0.0
 11
14.384437503773
 21
9.1632798527290227
 31
0.0
  0
LINE
  5
996
  8
0
  6
CONTINUOUS
 62
     4
 10
19.483204032608239
 20
9.6369566228984578
 30
0.0
 11
19.714137241473448
 21
9.1632798527290227
 31
0.0
  0
LINE
  5
997
  8
0
  6
CONTINUOUS
 62
     4
 10
14.384437503773
 20
9.1632798527290227
 30
0.0
 11
15.168197024638131
 21
8.8985413362032801
 31
0.0
  0
LINE
  5
998
  8
0
  6
CONTINUOUS
 62
     4
 10
19.714137241473448
 20
9.1632798527290227
 30
0.0
 11
19.84320608964525
 21
8.8985413362032801
 31
0.0
  0
LINE
  5
999
  8
0
  6
CONTINUOUS
 62
     4
 10
15.168197024638131
 20
8.8985413362032801
 30
0.0
 11
15.9905888738613
 21
8.8088913779752644
 31
0.0
  0
LINE
  5
99A
  8
0
  6
CONTINUOUS
 62
     4
 10
19.84320608964525
 20
8.8985413362032801
 30
0.0
 11
19.886913431512198
 21
8.8088913779752644
 31
0.0
  0
LINE
  5
99B
  8
0
  6
CONTINUOUS
 62
     4
 10
15.9905888738613
 20
8.8088913779752644
 30
0.0
 11
17.289494074157052
 21
8.8088913779752644
 31
0.0
  0
LINE
  5
99C
  8
0
  6
CONTINUOUS
 62
     4
 10
17.289494074157052
 20
8.8088913779752644
 30
0.0
 11
17.667594337462049
 21
8.6522771209774945
 31
0.0
  0
LINE
  5
99D
  8
0
  6
CONTINUOUS
 62
     4
 10
19.886913431512198
 20
8.8088913779752644
 30
0.0
 11
19.888650916205979
 21
8.6522771209774945
 31
0.0
  0
LINE
  5
99E
  8
0
  6
CONTINUOUS
 62
     4
 10
17.667594337462049
 20
8.6522771209774945
 30
0.0
 11
17.80649734760739
 21
8.316935590030166
 31
0.0
  0
LINE
  5
99F
  8
0
  6
CONTINUOUS
 62
     4
 10
19.888650916205979
 20
8.6522771209774945
 30
0.0
 11
19.892371208268649
 21
8.316935590030166
 31
0.0
  0
LINE
  5
9A0
  8
0
  6
CONTINUOUS
 62
     4
 10
13.67877588744186
 20
8.316935590030166
 30
0.0
 11
15.694790245108379
 21
8.316935590030166
 31
0.0
  0
LINE
  5
9A1
  8
0
  6
CONTINUOUS
 62
     4
 10
13.67877588744186
 20
8.316935590030166
 30
0.0
 11
13.68348843009684
 21
8.2741768576724883
 31
0.0
  0
LINE
  5
9A2
  8
0
  6
CONTINUOUS
 62
     4
 10
15.694790245108379
 20
8.316935590030166
 30
0.0
 11
15.70799093577509
 21
8.2741768576724883
 31
0.0
  0
LINE
  5
9A3
  8
0
  6
CONTINUOUS
 62
     4
 10
17.80649734760739
 20
8.316935590030166
 30
0.0
 11
17.824208594459819
 21
8.2741768576724883
 31
0.0
  0
LINE
  5
9A4
  8
0
  6
CONTINUOUS
 62
     4
 10
19.892371208268649
 20
8.316935590030166
 30
0.0
 11
19.89284557531812
 21
8.2741768576724883
 31
0.0
  0
LINE
  5
9A5
  8
0
  6
CONTINUOUS
 62
     4
 10
13.68348843009684
 20
8.2741768576724883
 30
0.0
 11
13.68678302686167
 21
8.2442836998577516
 31
0.0
  0
LINE
  5
9A6
  8
0
  6
CONTINUOUS
 62
     4
 10
15.70799093577509
 20
8.2741768576724883
 30
0.0
 11
15.717219701634249
 21
8.2442836998577516
 31
0.0
  0
LINE
  5
9A7
  8
0
  6
CONTINUOUS
 62
     4
 10
17.824208594459819
 20
8.2741768576724883
 30
0.0
 11
17.824208594459819
 21
8.2442836998577516
 31
0.0
  0
LINE
  5
9A8
  8
0
  6
CONTINUOUS
 62
     4
 10
19.89284557531812
 20
8.2741768576724883
 30
0.0
 11
19.893177211180308
 21
8.2442836998577516
 31
0.0
  0
LINE
  5
9A9
  8
0
  6
CONTINUOUS
 62
     4
 10
13.68678302686167
 20
8.2442836998577516
 30
0.0
 11
13.71424993720415
 21
7.9950657396160656
 31
0.0
  0
LINE
  5
9AA
  8
0
  6
CONTINUOUS
 62
     4
 10
15.717219701634249
 20
8.2442836998577516
 30
0.0
 11
15.794159522352491
 21
7.9950657396160656
 31
0.0
  0
LINE
  5
9AB
  8
0
  6
CONTINUOUS
 62
     4
 10
17.824208594459819
 20
8.2442836998577516
 30
0.0
 11
17.824208594459812
 21
7.9950657396160656
 31
0.0
  0
LINE
  5
9AC
  8
0
  6
CONTINUOUS
 62
     4
 10
19.893177211180308
 20
8.2442836998577516
 30
0.0
 11
19.84012867592326
 21
7.9950657396160656
 31
0.0
  0
LINE
  5
9AD
  8
0
  6
CONTINUOUS
 62
     4
 10
13.71424993720415
 20
7.9950657396160656
 30
0.0
 11
13.722085603626279
 21
7.9239696906426538
 31
0.0
  0
LINE
  5
9AE
  8
0
  6
CONTINUOUS
 62
     4
 10
15.794159522352491
 20
7.9950657396160656
 30
0.0
 11
15.816108651767109
 21
7.9239696906426538
 31
0.0
  0
LINE
  5
9AF
  8
0
  6
CONTINUOUS
 62
     4
 10
17.824208594459812
 20
7.9950657396160656
 30
0.0
 11
17.794759646743881
 21
7.9239696906426538
 31
0.0
  0
LINE
  5
9B0
  8
0
  6
CONTINUOUS
 62
     4
 10
19.84012867592326
 20
7.9950657396160656
 30
0.0
 11
19.824995170870309
 21
7.9239696906426538
 31
0.0
  0
LINE
  5
9B1
  8
0
  6
CONTINUOUS
 62
     4
 10
13.722085603626279
 20
7.9239696906426538
 30
0.0
 11
13.74447663082627
 21
7.7208071923157711
 31
0.0
  0
LINE
  5
9B2
  8
0
  6
CONTINUOUS
 62
     4
 10
15.816108651767109
 20
7.9239696906426538
 30
0.0
 11
16.071247323244471
 21
7.7208071923157711
 31
0.0
  0
LINE
  5
9B3
  8
0
  6
CONTINUOUS
 62
     4
 10
17.794759646743881
 20
7.9239696906426538
 30
0.0
 11
17.710606984571289
 21
7.7208071923157711
 31
0.0
  0
LINE
  5
9B4
  8
0
  6
CONTINUOUS
 62
     4
 10
19.824995170870309
 20
7.9239696906426538
 30
0.0
 11
19.781750001280798
 21
7.7208071923157711
 31
0.0
  0
LINE
  5
9B5
  8
0
  6
CONTINUOUS
 62
     4
 10
13.74447663082627
 20
7.7208071923157711
 30
0.0
 11
13.75032052220979
 21
7.6677832929286636
 31
0.0
  0
LINE
  5
9B6
  8
0
  6
CONTINUOUS
 62
     4
 10
16.071247323244471
 20
7.7208071923157711
 30
0.0
 11
16.13783661682762
 21
7.6677832929286636
 31
0.0
  0
LINE
  5
9B7
  8
0
  6
CONTINUOUS
 62
     4
 10
17.710606984571289
 20
7.7208071923157711
 30
0.0
 11
17.582595967541021
 21
7.6677832929286636
 31
0.0
  0
LINE
  5
9B8
  8
0
  6
CONTINUOUS
 62
     4
 10
19.781750001280798
 20
7.7208071923157711
 30
0.0
 11
19.770463334006202
 21
7.6677832929286636
 31
0.0
  0
LINE
  5
9B9
  8
0
  6
CONTINUOUS
 62
     4
 10
13.75032052220979
 20
7.6677832929286636
 30
0.0
 11
13.75531323294336
 21
7.6224824866281287
 31
0.0
  0
LINE
  5
9BA
  8
0
  6
CONTINUOUS
 62
     4
 10
16.13783661682762
 20
7.6677832929286636
 30
0.0
 11
16.295510768765968
 21
7.6224824866281287
 31
0.0
  0
LINE
  5
9BB
  8
0
  6
CONTINUOUS
 62
     4
 10
17.582595967541021
 20
7.6677832929286636
 30
0.0
 11
17.473230146583841
 21
7.6224824866281287
 31
0.0
  0
LINE
  5
9BC
  8
0
  6
CONTINUOUS
 62
     4
 10
19.770463334006202
 20
7.6677832929286636
 30
0.0
 11
19.760820604333439
 21
7.6224824866281287
 31
0.0
  0
LINE
  5
9BD
  8
0
  6
CONTINUOUS
 62
     4
 10
13.75531323294336
 20
7.6224824866281287
 30
0.0
 11
13.75699693727025
 21
7.607205582427242
 31
0.0
  0
LINE
  5
9BE
  8
0
  6
CONTINUOUS
 62
     4
 10
16.295510768765968
 20
7.6224824866281287
 30
0.0
 11
16.458850651951291
 21
7.607205582427242
 31
0.0
  0
LINE
  5
9BF
  8
0
  6
CONTINUOUS
 62
     4
 10
17.473230146583841
 20
7.6224824866281287
 30
0.0
 11
17.436348437270979
 21
7.607205582427242
 31
0.0
  0
LINE
  5
9C0
  8
0
  6
CONTINUOUS
 62
     4
 10
19.760820604333439
 20
7.6224824866281287
 30
0.0
 11
19.757568762490521
 21
7.607205582427242
 31
0.0
  0
LINE
  5
9C1
  8
0
  6
CONTINUOUS
 62
     4
 10
16.458850651951291
 20
7.607205582427242
 30
0.0
 11
17.43634843727099
 21
7.607205582427242
 31
0.0
  0
LINE
  5
9C2
  8
0
  6
CONTINUOUS
 62
     4
 10
13.75699693727025
 20
7.607205582427242
 30
0.0
 11
13.77068829281388
 21
7.4829785886015339
 31
0.0
  0
LINE
  5
9C3
  8
0
  6
CONTINUOUS
 62
     4
 10
19.757568762490521
 20
7.607205582427242
 30
0.0
 11
19.731125804465151
 21
7.4829785886015339
 31
0.0
  0
LINE
  5
9C4
  8
0
  6
CONTINUOUS
 62
     4
 10
13.77068829281388
 20
7.4829785886015339
 30
0.0
 11
13.78948975798024
 21
7.3123855826940023
 31
0.0
  0
LINE
  5
9C5
  8
0
  6
CONTINUOUS
 62
     4
 10
19.731125804465151
 20
7.4829785886015339
 30
0.0
 11
19.606955589459201
 21
7.3123855826940023
 31
0.0
  0
LINE
  5
9C6
  8
0
  6
CONTINUOUS
 62
     4
 10
13.78948975798024
 20
7.3123855826940023
 30
0.0
 11
14.23531603139066
 21
6.853669853725787
 31
0.0
  0
LINE
  5
9C7
  8
0
  6
CONTINUOUS
 62
     4
 10
19.606955589459201
 20
7.3123855826940023
 30
0.0
 11
19.273068333123081
 21
6.853669853725787
 31
0.0
  0
LINE
  5
9C8
  8
0
  6
CONTINUOUS
 62
     4
 10
14.23531603139066
 20
6.853669853725787
 30
0.0
 11
14.493860225862401
 21
6.5876507882042201
 31
0.0
  0
LINE
  5
9C9
  8
0
  6
CONTINUOUS
 62
     4
 10
19.273068333123081
 20
6.853669853725787
 30
0.0
 11
18.83811483574711
 21
6.5876507882042201
 31
0.0
  0
LINE
  5
9CA
  8
0
  6
CONTINUOUS
 62
     4
 10
14.493860225862401
 20
6.5876507882042201
 30
0.0
 11
14.905117021939811
 21
6.4367293105265899
 31
0.0
  0
LINE
  5
9CB
  8
0
  6
CONTINUOUS
 62
     4
 10
18.83811483574711
 20
6.5876507882042201
 30
0.0
 11
18.59135122722029
 21
6.4367293105265899
 31
0.0
  0
LINE
  5
9CC
  8
0
  6
CONTINUOUS
 62
     4
 10
14.905117021939811
 20
6.4367293105265899
 30
0.0
 11
15.09665710087207
 21
6.366438650231939
 31
0.0
  0
LINE
  5
9CD
  8
0
  6
CONTINUOUS
 62
     4
 10
18.59135122722029
 20
6.4367293105265899
 30
0.0
 11
18.211481350165919
 21
6.366438650231939
 31
0.0
  0
LINE
  5
9CE
  8
0
  6
CONTINUOUS
 62
     4
 10
15.09665710087207
 20
6.366438650231939
 30
0.0
 11
15.73435431514268
 21
6.2913310912303242
 31
0.0
  0
LINE
  5
9CF
  8
0
  6
CONTINUOUS
 62
     4
 10
18.211481350165919
 20
6.366438650231939
 30
0.0
 11
17.805579640263101
 21
6.2913310912303242
 31
0.0
  0
LINE
  5
9D0
  8
0
  6
CONTINUOUS
 62
     4
 10
15.73435431514268
 20
6.2913310912303242
 30
0.0
 11
17.805579640263101
 21
6.2913310912303242
 31
0.0
  0
ENDBLK
  5
9D2
  8
0
  0
BLOCK
  8
0
  2
*U69
 70
     1
 10
0.0
 20
0.0
 30
0.0
  3
*U69
  1

  0
SOLID
  5
9F8
  8
0
  6
CONTINUOUS
 62
     4
 10
37.560298341075871
 20
12.761725249354241
 30
0.0
 11
37.560298341075871
 21
12.761725249354241
 31
0.0
 12
38.999057940402963
 22
12.761725249354241
 32
0.0
 13
38.999057940402963
 23
12.761725249354241
 33
0.0
210
0.0
220
0.0
230
1.0
  0
SOLID
  5
9F9
  8
0
  6
CONTINUOUS
 62
     4
 10
37.560298341075871
 20
12.761725249354241
 30
0.0
 11
37.019562861712323
 21
12.71697570444282
 31
0.0
 12
39.696289944214641
 22
12.71697570444282
 32
0.0
 13
39.696289944214641
 23
12.71697570444282
 33
0.0
210
0.0
220
0.0
230
1.0
  0
SOLID
  5
9FA
  8
0
  6
CONTINUOUS
 62
     4
 10
-37.560298341075871
 20
12.761725249354241
 30
0.0
 11
-38.999057940402963
 21
12.761725249354241
 31
0.0
 12
-39.696289944214641
 22
12.71697570444282
 32
0.0
 13
-39.696289944214641
 23
12.71697570444282
 33
0.0
210
0.0
220
0.0
230
-1.0
  0
SOLID
  5
9FB
  8
0
  6
CONTINUOUS
 62
     4
 10
37.019562861712323
 20
12.71697570444282
 30
0.0
 11
37.018307932537049
 21
12.71687185050382
 31
0.0
 12
39.696823385656131
 22
12.71687185050382
 32
0.0
 13
39.696823385656131
 23
12.71687185050382
 33
0.0
210
0.0
220
0.0
230
1.0
  0
SOLID
  5
9FC
  8
0
  6
CONTINUOUS
 62
     4
 10
-37.019562861712323
 20
12.71697570444282
 30
0.0
 11
-39.696289944214641
 21
12.71697570444282
 31
0.0
 12
-39.696823385656131
 22
12.71687185050382
 32
0.0
 13
-39.696823385656131
 23
12.71687185050382
 33
0.0
210
0.0
220
0.0
230
-1.0
  0
SOLID
  5
9FD
  8
0
  6
CONTINUOUS
 62
     4
 10
37.018307932537049
 20
12.71687185050382
 30
0.0
 11
36.491064225760191
 21
12.58353204399163
 31
0.0
 12
40.381717760188863
 22
12.58353204399163
 32
0.0
 13
40.381717760188863
 23
12.58353204399163
 33
0.0
210
0.0
220
0.0
230
1.0
  0
SOLID
  5
9FE
  8
0
  6
CONTINUOUS
 62
     4
 10
-37.018307932537049
 20
12.71687185050382
 30
0.0
 11
-39.696823385656131
 21
12.71687185050382
 31
0.0
 12
-40.381717760188863
 22
12.58353204399163
 32
0.0
 13
-40.381717760188863
 23
12.58353204399163
 33
0.0
210
0.0
220
0.0
230
-1.0
  0
SOLID
  5
9FF
  8
0
  6
CONTINUOUS
 62
     4
 10
36.491064225760191
 20
12.58353204399163
 30
0.0
 11
36.490976839946917
 21
12.583461390664089
 31
0.0
 12
40.382080668069371
 22
12.583461390664089
 32
0.0
 13
40.382080668069371
 23
12.583461390664089
 33
0.0
210
0.0
220
0.0
230
1.0
  0
SOLID
  5
A00
  8
0
  6
CONTINUOUS
 62
     4
 10
-36.491064225760191
 20
12.58353204399163
 30
0.0
 11
-40.381717760188863
 21
12.58353204399163
 31
0.0
 12
-40.382080668069371
 22
12.583461390664089
 32
0.0
 13
-40.382080668069371
 23
12.583461390664089
 33
0.0
210
0.0
220
0.0
230
-1.0
  0
SOLID
  5
A01
  8
0
  6
CONTINUOUS
 62
     4
 10
36.490976839946917
 20
12.583461390664089
 30
0.0
 11
35.891474900683988
 21
12.0987510551557
 31
0.0
 12
41.113928624880273
 22
12.0987510551557
 32
0.0
 13
41.113928624880273
 23
12.0987510551557
 33
0.0
210
0.0
220
0.0
230
1.0
  0
SOLID
  5
A02
  8
0
  6
CONTINUOUS
 62
     4
 10
-36.490976839946917
 20
12.583461390664089
 30
0.0
 11
-40.382080668069371
 21
12.583461390664089
 31
0.0
 12
-41.113928624880273
 22
12.0987510551557
 32
0.0
 13
-41.113928624880273
 23
12.0987510551557
 33
0.0
210
0.0
220
0.0
230
-1.0
  0
SOLID
  5
A03
  8
0
  6
CONTINUOUS
 62
     4
 10
35.891474900683988
 20
12.0987510551557
 30
0.0
 11
35.685233845176903
 21
11.932000683449891
 31
0.0
 12
41.170785041525811
 22
11.932000683449891
 32
0.0
 13
41.170785041525811
 23
11.932000683449891
 33
0.0
210
0.0
220
0.0
230
1.0
  0
SOLID
  5
A04
  8
0
  6
CONTINUOUS
 62
     4
 10
-35.891474900683988
 20
12.0987510551557
 30
0.0
 11
-41.113928624880273
 21
12.0987510551557
 31
0.0
 12
-41.170785041525811
 22
11.932000683449891
 32
0.0
 13
-41.170785041525811
 23
11.932000683449891
 33
0.0
210
0.0
220
0.0
230
-1.0
  0
SOLID
  5
A05
  8
0
  6
CONTINUOUS
 62
     4
 10
35.685233845176903
 20
11.932000683449891
 30
0.0
 11
35.599839553946353
 21
11.491775001953259
 31
0.0
 12
41.320887584082037
 22
11.491775001953259
 32
0.0
 13
41.320887584082037
 23
11.491775001953259
 33
0.0
210
0.0
220
0.0
230
1.0
  0
SOLID
  5
A06
  8
0
  6
CONTINUOUS
 62
     4
 10
-35.685233845176903
 20
11.932000683449891
 30
0.0
 11
-41.170785041525811
 21
11.932000683449891
 31
0.0
 12
-41.320887584082037
 22
11.491775001953259
 32
0.0
 13
-41.320887584082037
 23
11.491775001953259
 33
0.0
210
0.0
220
0.0
230
-1.0
  0
SOLID
  5
A07
  8
0
  6
CONTINUOUS
 62
     4
 10
37.77157673774348
 20
11.491775001953259
 30
0.0
 11
37.77157673774348
 21
11.491775001953259
 31
0.0
 12
39.077193647738902
 22
11.491775001953259
 32
0.0
 13
39.077193647738902
 23
11.491775001953259
 33
0.0
210
0.0
220
0.0
230
1.0
  0
SOLID
  5
A08
  8
0
  6
CONTINUOUS
 62
     4
 10
35.599839553946353
 20
11.491775001953259
 30
0.0
 11
35.556415020903032
 21
11.26791232475091
 31
0.0
 12
37.636438409556803
 22
11.26791232475091
 32
0.0
 13
37.636438409556803
 23
11.26791232475091
 33
0.0
210
0.0
220
0.0
230
1.0
  0
SOLID
  5
A09
  8
0
  6
CONTINUOUS
 62
     4
 10
-35.599839553946353
 20
11.491775001953259
 30
0.0
 11
-37.77157673774348
 21
11.491775001953259
 31
0.0
 12
-37.636438409556803
 22
11.26791232475091
 32
0.0
 13
-37.636438409556803
 23
11.26791232475091
 33
0.0
210
0.0
220
0.0
230
-1.0
  0
SOLID
  5
A0A
  8
0
  6
CONTINUOUS
 62
     4
 10
39.077193647738902
 20
11.491775001953259
 30
0.0
 11
39.172372671498373
 21
11.26791232475091
 31
0.0
 12
41.397217426805618
 22
11.26791232475091
 32
0.0
 13
41.397217426805618
 23
11.26791232475091
 33
0.0
210
0.0
220
0.0
230
1.0
  0
SOLID
  5
A0B
  8
0
  6
CONTINUOUS
 62
     4
 10
-39.077193647738902
 20
11.491775001953259
 30
0.0
 11
-41.320887584082037
 21
11.491775001953259
 31
0.0
 12
-41.397217426805618
 22
11.26791232475091
 32
0.0
 13
-41.397217426805618
 23
11.26791232475091
 33
0.0
210
0.0
220
0.0
230
-1.0
  0
SOLID
  5
A0C
  8
0
  6
CONTINUOUS
 62
     4
 10
35.556415020903032
 20
11.26791232475091
 30
0.0
 11
35.546872496908357
 21
11.2187185898043
 31
0.0
 12
37.606741815282923
 22
11.2187185898043
 32
0.0
 13
37.606741815282923
 23
11.2187185898043
 33
0.0
210
0.0
220
0.0
230
1.0
  0
SOLID
  5
A0D
  8
0
  6
CONTINUOUS
 62
     4
 10
-35.556415020903032
 20
11.26791232475091
 30
0.0
 11
-37.636438409556803
 21
11.26791232475091
 31
0.0
 12
-37.606741815282923
 22
11.2187185898043
 32
0.0
 13
-37.606741815282923
 23
11.2187185898043
 33
0.0
210
0.0
220
0.0
230
-1.0
  0
SOLID
  5
A0E
  8
0
  6
CONTINUOUS
 62
     4
 10
39.172372671498373
 20
11.26791232475091
 30
0.0
 11
39.193288224398103
 21
11.2187185898043
 31
0.0
 12
41.397217426805618
 22
11.2187185898043
 32
0.0
 13
41.397217426805618
 23
11.2187185898043
 33
0.0
210
0.0
220
0.0
230
1.0
  0
SOLID
  5
A0F
  8
0
  6
CONTINUOUS
 62
     4
 10
-39.172372671498373
 20
11.26791232475091
 30
0.0
 11
-41.397217426805618
 21
11.26791232475091
 31
0.0
 12
-41.397217426805618
 22
11.2187185898043
 32
0.0
 13
-41.397217426805618
 23
11.2187185898043
 33
0.0
210
0.0
220
0.0
230
-1.0
  0
SOLID
  5
A10
  8
0
  6
CONTINUOUS
 62
     4
 10
35.546872496908357
 20
11.2187185898043
 30
0.0
 11
35.504319979909162
 21
10.99935134024434
 31
0.0
 12
37.537162599906672
 22
10.99935134024434
 32
0.0
 13
37.537162599906672
 23
10.99935134024434
 33
0.0
210
0.0
220
0.0
230
1.0
  0
SOLID
  5
A11
  8
0
  6
CONTINUOUS
 62
     4
 10
-35.546872496908357
 20
11.2187185898043
 30
0.0
 11
-37.606741815282923
 21
11.2187185898043
 31
0.0
 12
-37.537162599906672
 22
10.99935134024434
 32
0.0
 13
-37.537162599906672
 23
10.99935134024434
 33
0.0
210
0.0
220
0.0
230
-1.0
  0
SOLID
  5
A12
  8
0
  6
CONTINUOUS
 62
     4
 10
39.193288224398103
 20
11.2187185898043
 30
0.0
 11
39.286555940655447
 21
10.99935134024434
 31
0.0
 12
41.397217426805618
 22
10.99935134024434
 32
0.0
 13
41.397217426805618
 23
10.99935134024434
 33
0.0
210
0.0
220
0.0
230
1.0
  0
SOLID
  5
A13
  8
0
  6
CONTINUOUS
 62
     4
 10
-39.193288224398103
 20
11.2187185898043
 30
0.0
 11
-41.397217426805618
 21
11.2187185898043
 31
0.0
 12
-41.397217426805618
 22
10.99935134024434
 32
0.0
 13
-41.397217426805618
 23
10.99935134024434
 33
0.0
210
0.0
220
0.0
230
-1.0
  0
SOLID
  5
A14
  8
0
  6
CONTINUOUS
 62
     4
 10
35.504319979909162
 20
10.99935134024434
 30
0.0
 11
35.487898142962152
 21
10.914693288081221
 31
0.0
 12
37.510310638838611
 22
10.914693288081221
 32
0.0
 13
37.510310638838611
 23
10.914693288081221
 33
0.0
210
0.0
220
0.0
230
1.0
  0
SOLID
  5
A15
  8
0
  6
CONTINUOUS
 62
     4
 10
-35.504319979909162
 20
10.99935134024434
 30
0.0
 11
-37.537162599906672
 21
10.99935134024434
 31
0.0
 12
-37.510310638838611
 22
10.914693288081221
 32
0.0
 13
-37.510310638838611
 23
10.914693288081221
 33
0.0
210
0.0
220
0.0
230
-1.0
  0
SOLID
  5
A16
  8
0
  6
CONTINUOUS
 62
     4
 10
39.286555940655447
 20
10.99935134024434
 30
0.0
 11
39.29796885703589
 21
10.914693288081221
 31
0.0
 12
41.397217426805618
 22
10.914693288081221
 32
0.0
 13
41.397217426805618
 23
10.914693288081221
 33
0.0
210
0.0
220
0.0
230
1.0
  0
SOLID
  5
A17
  8
0
  6
CONTINUOUS
 62
     4
 10
-39.286555940655447
 20
10.99935134024434
 30
0.0
 11
-41.397217426805618
 21
10.99935134024434
 31
0.0
 12
-41.397217426805618
 22
10.914693288081221
 32
0.0
 13
-41.397217426805618
 23
10.914693288081221
 33
0.0
210
0.0
220
0.0
230
-1.0
  0
SOLID
  5
A18
  8
0
  6
CONTINUOUS
 62
     4
 10
35.487898142962152
 20
10.914693288081221
 30
0.0
 11
35.487898142962152
 21
10.914693288081221
 31
0.0
 12
37.510310638838611
 22
10.914693288081221
 32
0.0
 13
37.510310638838611
 23
10.914693288081221
 33
0.0
210
0.0
220
0.0
230
1.0
  0
SOLID
  5
A19
  8
0
  6
CONTINUOUS
 62
     4
 10
39.29796885703589
 20
10.914693288081221
 30
0.0
 11
39.358044792162232
 21
10.469065590467549
 31
0.0
 12
41.397217426805618
 22
10.469065590467549
 32
0.0
 13
41.397217426805618
 23
10.469065590467549
 33
0.0
210
0.0
220
0.0
230
1.0
  0
SOLID
  5
A1A
  8
0
  6
CONTINUOUS
 62
     4
 10
-39.29796885703589
 20
10.914693288081221
 30
0.0
 11
-41.397217426805618
 21
10.914693288081221
 31
0.0
 12
-41.397217426805618
 22
10.469065590467549
 32
0.0
 13
-41.397217426805618
 23
10.469065590467549
 33
0.0
210
0.0
220
0.0
230
-1.0
  0
SOLID
  5
A1B
  8
0
  6
CONTINUOUS
 62
     4
 10
39.358044792162232
 20
10.469065590467549
 30
0.0
 11
39.358044792162239
 21
10.216853593185981
 31
0.0
 12
41.397217426805611
 22
10.216853593185981
 32
0.0
 13
41.397217426805611
 23
10.216853593185981
 33
0.0
210
0.0
220
0.0
230
1.0
  0
SOLID
  5
A1C
  8
0
  6
CONTINUOUS
 62
     4
 10
-39.358044792162232
 20
10.469065590467549
 30
0.0
 11
-41.397217426805618
 21
10.469065590467549
 31
0.0
 12
-41.397217426805611
 22
10.216853593185981
 32
0.0
 13
-41.397217426805611
 23
10.216853593185981
 33
0.0
210
0.0
220
0.0
230
-1.0
  0
SOLID
  5
A1D
  8
0
  6
CONTINUOUS
 62
     4
 10
37.199101342298697
 20
10.216853593185981
 30
0.0
 11
37.199101342298697
 21
10.216853593185981
 31
0.0
 12
38.623548826611547
 22
10.216853593185981
 32
0.0
 13
38.623548826611547
 23
10.216853593185981
 33
0.0
210
0.0
220
0.0
230
1.0
  0
SOLID
  5
A1E
  8
0
  6
CONTINUOUS
 62
     4
 10
37.199101342298697
 20
10.216853593185981
 30
0.0
 11
36.979712575700432
 21
10.197143529937639
 31
0.0
 12
38.9928944834449
 22
10.197143529937639
 32
0.0
 13
38.9928944834449
 23
10.197143529937639
 33
0.0
210
0.0
220
0.0
230
1.0
  0
SOLID
  5
A1F
  8
0
  6
CONTINUOUS
 62
     4
 10
-37.199101342298697
 20
10.216853593185981
 30
0.0
 11
-38.623548826611547
 21
10.216853593185981
 31
0.0
 12
-38.9928944834449
 22
10.197143529937639
 32
0.0
 13
-38.9928944834449
 23
10.197143529937639
 33
0.0
210
0.0
220
0.0
230
-1.0
  0
SOLID
  5
A20
  8
0
  6
CONTINUOUS
 62
     4
 10
39.358044792162239
 20
10.216853593185981
 30
0.0
 11
39.358044792162239
 21
10.197143529937639
 31
0.0
 12
41.397217426805611
 22
10.197143529937639
 32
0.0
 13
41.397217426805611
 23
10.197143529937639
 33
0.0
210
0.0
220
0.0
230
1.0
  0
SOLID
  5
A21
  8
0
  6
CONTINUOUS
 62
     4
 10
-39.358044792162239
 20
10.216853593185981
 30
0.0
 11
-41.397217426805611
 21
10.216853593185981
 31
0.0
 12
-41.397217426805611
 22
10.197143529937639
 32
0.0
 13
-41.397217426805611
 23
10.197143529937639
 33
0.0
210
0.0
220
0.0
230
-1.0
  0
SOLID
  5
A22
  8
0
  6
CONTINUOUS
 62
     4
 10
36.979712575700432
 20
10.197143529937639
 30
0.0
 11
36.652116408761742
 21
10.16771202681012
 31
0.0
 12
39.17533543461267
 22
10.16771202681012
 32
0.0
 13
39.17533543461267
 23
10.16771202681012
 33
0.0
210
0.0
220
0.0
230
1.0
  0
SOLID
  5
A23
  8
0
  6
CONTINUOUS
 62
     4
 10
-36.979712575700432
 20
10.197143529937639
 30
0.0
 11
-38.9928944834449
 21
10.197143529937639
 31
0.0
 12
-39.17533543461267
 22
10.16771202681012
 32
0.0
 13
-39.17533543461267
 23
10.16771202681012
 33
0.0
210
0.0
220
0.0
230
-1.0
  0
SOLID
  5
A24
  8
0
  6
CONTINUOUS
 62
     4
 10
39.358044792162239
 20
10.197143529937639
 30
0.0
 11
39.358044792162239
 21
10.16771202681012
 31
0.0
 12
41.397217426805611
 22
10.16771202681012
 32
0.0
 13
41.397217426805611
 23
10.16771202681012
 33
0.0
210
0.0
220
0.0
230
1.0
  0
SOLID
  5
A25
  8
0
  6
CONTINUOUS
 62
     4
 10
-39.358044792162239
 20
10.197143529937639
 30
0.0
 11
-41.397217426805611
 21
10.197143529937639
 31
0.0
 12
-41.397217426805611
 22
10.16771202681012
 32
0.0
 13
-41.397217426805611
 23
10.16771202681012
 33
0.0
210
0.0
220
0.0
230
-1.0
  0
SOLID
  5
A26
  8
0
  6
CONTINUOUS
 62
     4
 10
36.652116408761742
 20
10.16771202681012
 30
0.0
 11
36.545117196963503
 21
10.138237224175491
 31
0.0
 12
39.358044792162239
 22
10.138237224175491
 32
0.0
 13
39.358044792162239
 23
10.138237224175491
 33
0.0
210
0.0
220
0.0
230
1.0
  0
SOLID
  5
A27
  8
0
  6
CONTINUOUS
 62
     4
 10
-36.652116408761742
 20
10.16771202681012
 30
0.0
 11
-39.17533543461267
 21
10.16771202681012
 31
0.0
 12
-39.358044792162239
 22
10.138237224175491
 32
0.0
 13
-39.358044792162239
 23
10.138237224175491
 33
0.0
210
0.0
220
0.0
230
-1.0
  0
SOLID
  5
A28
  8
0
  6
CONTINUOUS
 62
     4
 10
39.358044792162239
 20
10.16771202681012
 30
0.0
 11
39.358044792162239
 21
10.138237224175491
 31
0.0
 12
41.397217426805611
 22
10.138237224175491
 32
0.0
 13
41.397217426805611
 23
10.138237224175491
 33
0.0
210
0.0
220
0.0
230
1.0
  0
SOLID
  5
A29
  8
0
  6
CONTINUOUS
 62
     4
 10
-39.358044792162239
 20
10.16771202681012
 30
0.0
 11
-41.397217426805611
 21
10.16771202681012
 31
0.0
 12
-41.397217426805611
 22
10.138237224175491
 32
0.0
 13
-41.397217426805611
 23
10.138237224175491
 33
0.0
210
0.0
220
0.0
230
-1.0
  0
SOLID
  5
A2A
  8
0
  6
CONTINUOUS
 62
     4
 10
36.545117196963503
 20
10.138237224175491
 30
0.0
 11
36.122649750137647
 21
10.02186118359089
 31
0.0
 12
41.397217426805611
 22
10.02186118359089
 32
0.0
 13
41.397217426805611
 23
10.02186118359089
 33
0.0
210
0.0
220
0.0
230
1.0
  0
SOLID
  5
A2B
  8
0
  6
CONTINUOUS
 62
     4
 10
-36.545117196963503
 20
10.138237224175491
 30
0.0
 11
-41.397217426805611
 21
10.138237224175491
 31
0.0
 12
-41.397217426805611
 22
10.02186118359089
 32
0.0
 13
-41.397217426805611
 23
10.02186118359089
 33
0.0
210
0.0
220
0.0
230
-1.0
  0
SOLID
  5
A2C
  8
0
  6
CONTINUOUS
 62
     4
 10
36.122649750137647
 20
10.02186118359089
 30
0.0
 11
35.665923771344431
 21
9.7362947386209342
 31
0.0
 12
41.397217426805611
 22
9.7362947386209342
 32
0.0
 13
41.397217426805611
 23
9.7362947386209342
 33
0.0
210
0.0
220
0.0
230
1.0
  0
SOLID
  5
A2D
  8
0
  6
CONTINUOUS
 62
     4
 10
-36.122649750137647
 20
10.02186118359089
 30
0.0
 11
-41.397217426805611
 21
10.02186118359089
 31
0.0
 12
-41.397217426805611
 22
9.7362947386209342
 32
0.0
 13
-41.397217426805611
 23
9.7362947386209342
 33
0.0
210
0.0
220
0.0
230
-1.0
  0
SOLID
  5
A2E
  8
0
  6
CONTINUOUS
 62
     4
 10
35.665923771344431
 20
9.7362947386209342
 30
0.0
 11
35.356787490986662
 21
9.2951807234684214
 31
0.0
 12
41.397217426805611
 22
9.2951807234684214
 32
0.0
 13
41.397217426805611
 23
9.2951807234684214
 33
0.0
210
0.0
220
0.0
230
1.0
  0
SOLID
  5
A2F
  8
0
  6
CONTINUOUS
 62
     4
 10
-35.665923771344431
 20
9.7362947386209342
 30
0.0
 11
-41.397217426805611
 21
9.7362947386209342
 31
0.0
 12
-41.397217426805611
 22
9.2951807234684214
 32
0.0
 13
-41.397217426805611
 23
9.2951807234684214
 33
0.0
210
0.0
220
0.0
230
-1.0
  0
SOLID
  5
A30
  8
0
  6
CONTINUOUS
 62
     4
 10
35.356787490986662
 20
9.2951807234684214
 30
0.0
 11
35.255593960778619
 21
8.9511586626376651
 31
0.0
 12
41.397217426805611
 22
8.9511586626376651
 32
0.0
 13
41.397217426805611
 23
8.9511586626376651
 33
0.0
  0
SOLID
  5
A31
  8
0
  6
CONTINUOUS
 62
     4
 10
-35.356787490986662
 20
9.2951807234684214
 30
0.0
 11
-41.397217426805611
 21
9.2951807234684214
 31
0.0
 12
-41.397217426805611
 22
8.9511586626376651
 32
0.0
 13
-41.397217426805611
 23
8.9511586626376651
 33
0.0
210
0.0
220
0.0
230
-1.0
  0
SOLID
  5
A32
  8
0
  6
CONTINUOUS
 62
     4
 10
37.839787993796932
 20
8.9511586626376651
 30
0.0
 11
37.839787993796932
 21
8.9511586626376651
 31
0.0
 12
39.358044792162232
 22
8.9511586626376651
 32
0.0
 13
39.358044792162232
 23
8.9511586626376651
 33
0.0
210
0.0
220
0.0
230
1.0
  0
SOLID
  5
A33
  8
0
  6
CONTINUOUS
 62
     4
 10
35.255593960778619
 20
8.9511586626376651
 30
0.0
 11
35.218422470088413
 21
8.8247887968458034
 31
0.0
 12
37.480908192164058
 22
8.8247887968458034
 32
0.0
 13
37.480908192164058
 23
8.8247887968458034
 33
0.0
210
0.0
220
0.0
230
1.0
  0
SOLID
  5
A34
  8
0
  6
CONTINUOUS
 62
     4
 10
-35.255593960778619
 20
8.9511586626376651
 30
0.0
 11
-37.839787993796932
 21
8.9511586626376651
 31
0.0
 12
-37.480908192164058
 22
8.8247887968458034
 32
0.0
 13
-37.480908192164058
 23
8.8247887968458034
 33
0.0
210
0.0
220
0.0
230
-1.0
  0
SOLID
  5
A35
  8
0
  6
CONTINUOUS
 62
     4
 10
39.358044792162232
 20
8.9511586626376651
 30
0.0
 11
39.358044792162232
 21
8.8247887968458034
 31
0.0
 12
41.397217426805611
 22
8.8247887968458034
 32
0.0
 13
41.397217426805611
 23
8.8247887968458034
 33
0.0
210
0.0
220
0.0
230
1.0
  0
SOLID
  5
A36
  8
0
  6
CONTINUOUS
 62
     4
 10
-39.358044792162232
 20
8.9511586626376651
 30
0.0
 11
-41.397217426805611
 21
8.9511586626376651
 31
0.0
 12
-41.397217426805611
 22
8.8247887968458034
 32
0.0
 13
-41.397217426805611
 23
8.8247887968458034
 33
0.0
210
0.0
220
0.0
230
-1.0
  0
SOLID
  5
A37
  8
0
  6
CONTINUOUS
 62
     4
 10
35.218422470088413
 20
8.8247887968458034
 30
0.0
 11
35.206600249395962
 21
8.7845974455029552
 31
0.0
 12
37.45598367209125
 22
8.7845974455029552
 32
0.0
 13
37.45598367209125
 23
8.7845974455029552
 33
0.0
210
0.0
220
0.0
230
1.0
  0
SOLID
  5
A38
  8
0
  6
CONTINUOUS
 62
     4
 10
-35.218422470088413
 20
8.8247887968458034
 30
0.0
 11
-37.480908192164058
 21
8.8247887968458034
 31
0.0
 12
-37.45598367209125
 22
8.7845974455029552
 32
0.0
 13
-37.45598367209125
 23
8.7845974455029552
 33
0.0
210
0.0
220
0.0
230
-1.0
  0
SOLID
  5
A39
  8
0
  6
CONTINUOUS
 62
     4
 10
39.358044792162232
 20
8.8247887968458034
 30
0.0
 11
39.358044792162232
 21
8.7845974455029552
 31
0.0
 12
41.397217426805597
 22
8.7845974455029552
 32
0.0
 13
41.397217426805597
 23
8.7845974455029552
 33
0.0
210
0.0
220
0.0
230
1.0
  0
SOLID
  5
A3A
  8
0
  6
CONTINUOUS
 62
     4
 10
-39.358044792162232
 20
8.8247887968458034
 30
0.0
 11
-41.397217426805611
 21
8.8247887968458034
 31
0.0
 12
-41.397217426805597
 22
8.7845974455029552
 32
0.0
 13
-41.397217426805597
 23
8.7845974455029552
 33
0.0
210
0.0
220
0.0
230
-1.0
  0
SOLID
  5
A3B
  8
0
  6
CONTINUOUS
 62
     4
 10
35.206600249395962
 20
8.7845974455029552
 30
0.0
 11
35.196273344365551
 21
8.5014401058414677
 31
0.0
 12
37.28038467976193
 22
8.5014401058414677
 32
0.0
 13
37.28038467976193
 23
8.5014401058414677
 33
0.0
210
0.0
220
0.0
230
1.0
  0
SOLID
  5
A3C
  8
0
  6
CONTINUOUS
 62
     4
 10
-35.206600249395962
 20
8.7845974455029552
 30
0.0
 11
-37.45598367209125
 21
8.7845974455029552
 31
0.0
 12
-37.28038467976193
 22
8.5014401058414677
 32
0.0
 13
-37.28038467976193
 23
8.5014401058414677
 33
0.0
210
0.0
220
0.0
230
-1.0
  0
SOLID
  5
A3D
  8
0
  6
CONTINUOUS
 62
     4
 10
39.358044792162232
 20
8.7845974455029552
 30
0.0
 11
39.358044792162232
 21
8.5014401058414677
 31
0.0
 12
41.397217426805597
 22
8.5014401058414677
 32
0.0
 13
41.397217426805597
 23
8.5014401058414677
 33
0.0
210
0.0
220
0.0
230
1.0
  0
SOLID
  5
A3E
  8
0
  6
CONTINUOUS
 62
     4
 10
-39.358044792162232
 20
8.7845974455029552
 30
0.0
 11
-41.397217426805597
 21
8.7845974455029552
 31
0.0
 12
-41.397217426805597
 22
8.5014401058414677
 32
0.0
 13
-41.397217426805597
 23
8.5014401058414677
 33
0.0
210
0.0
220
0.0
230
-1.0
  0
SOLID
  5
A3F
  8
0
  6
CONTINUOUS
 62
     4
 10
35.196273344365551
 20
8.5014401058414677
 30
0.0
 11
35.187643683716217
 21
8.2648201558708632
 31
0.0
 12
37.261459666752138
 22
8.2648201558708632
 32
0.0
 13
37.261459666752138
 23
8.2648201558708632
 33
0.0
210
0.0
220
0.0
230
1.0
  0
SOLID
  5
A40
  8
0
  6
CONTINUOUS
 62
     4
 10
-35.196273344365551
 20
8.5014401058414677
 30
0.0
 11
-37.28038467976193
 21
8.5014401058414677
 31
0.0
 12
-37.261459666752138
 22
8.2648201558708632
 32
0.0
 13
-37.261459666752138
 23
8.2648201558708632
 33
0.0
210
0.0
220
0.0
230
-1.0
  0
SOLID
  5
A41
  8
0
  6
CONTINUOUS
 62
     4
 10
39.358044792162232
 20
8.5014401058414677
 30
0.0
 11
39.358044792162232
 21
8.2648201558708632
 31
0.0
 12
41.397217426805597
 22
8.2648201558708632
 32
0.0
 13
41.397217426805597
 23
8.2648201558708632
 33
0.0
  0
SOLID
  5
A42
  8
0
  6
CONTINUOUS
 62
     4
 10
-39.358044792162232
 20
8.5014401058414677
 30
0.0
 11
-41.397217426805597
 21
8.5014401058414677
 31
0.0
 12
-41.397217426805597
 22
8.2648201558708632
 32
0.0
 13
-41.397217426805597
 23
8.2648201558708632
 33
0.0
210
0.0
220
0.0
230
-1.0
  0
SOLID
  5
A43
  8
0
  6
CONTINUOUS
 62
     4
 10
35.187643683716217
 20
8.2648201558708632
 30
0.0
 11
35.187203014440499
 21
8.2527372772719971
 31
0.0
 12
37.263829093739382
 22
8.2527372772719971
 32
0.0
 13
37.263829093739382
 23
8.2527372772719971
 33
0.0
  0
SOLID
  5
A44
  8
0
  6
CONTINUOUS
 62
     4
 10
-35.187643683716217
 20
8.2648201558708632
 30
0.0
 11
-37.261459666752138
 21
8.2648201558708632
 31
0.0
 12
-37.263829093739382
 22
8.2527372772719971
 32
0.0
 13
-37.263829093739382
 23
8.2527372772719971
 33
0.0
210
0.0
220
0.0
230
-1.0
  0
SOLID
  5
A45
  8
0
  6
CONTINUOUS
 62
     4
 10
39.358044792162232
 20
8.2648201558708632
 30
0.0
 11
39.358044792162232
 21
8.2527372772719971
 31
0.0
 12
41.397217426805597
 22
8.2527372772719971
 32
0.0
 13
41.397217426805597
 23
8.2527372772719971
 33
0.0
210
0.0
220
0.0
230
1.0
  0
SOLID
  5
A46
  8
0
  6
CONTINUOUS
 62
     4
 10
-39.358044792162232
 20
8.2648201558708632
 30
0.0
 11
-41.397217426805597
 21
8.2648201558708632
 31
0.0
 12
-41.397217426805597
 22
8.2527372772719971
 32
0.0
 13
-41.397217426805597
 23
8.2527372772719971
 33
0.0
210
0.0
220
0.0
230
-1.0
  0
SOLID
  5
A47
  8
0
  6
CONTINUOUS
 62
     4
 10
35.187203014440499
 20
8.2527372772719971
 30
0.0
 11
35.194199592921507
 21
8.0318811101244805
 31
0.0
 12
37.30713852190717
 22
8.0318811101244805
 32
0.0
 13
37.30713852190717
 23
8.0318811101244805
 33
0.0
210
0.0
220
0.0
230
1.0
  0
SOLID
  5
A48
  8
0
  6
CONTINUOUS
 62
     4
 10
-35.187203014440499
 20
8.2527372772719971
 30
0.0
 11
-37.263829093739382
 21
8.2527372772719971
 31
0.0
 12
-37.30713852190717
 22
8.0318811101244805
 32
0.0
 13
-37.30713852190717
 23
8.0318811101244805
 33
0.0
210
0.0
220
0.0
230
-1.0
  0
SOLID
  5
A49
  8
0
  6
CONTINUOUS
 62
     4
 10
39.358044792162232
 20
8.2527372772719971
 30
0.0
 11
39.358044792162232
 21
8.0318811101244805
 31
0.0
 12
41.397217426805597
 22
8.0318811101244805
 32
0.0
 13
41.397217426805597
 23
8.0318811101244805
 33
0.0
  0
SOLID
  5
A4A
  8
0
  6
CONTINUOUS
 62
     4
 10
-39.358044792162232
 20
8.2527372772719971
 30
0.0
 11
-41.397217426805597
 21
8.2527372772719971
 31
0.0
 12
-41.397217426805597
 22
8.0318811101244805
 32
0.0
 13
-41.397217426805597
 23
8.0318811101244805
 33
0.0
210
0.0
220
0.0
230
-1.0
  0
SOLID
  5
A4B
  8
0
  6
CONTINUOUS
 62
     4
 10
35.194199592921507
 20
8.0318811101244805
 30
0.0
 11
35.202459155100129
 21
7.7711572077144799
 31
0.0
 12
37.615772994408303
 22
7.7711572077144799
 32
0.0
 13
37.615772994408303
 23
7.7711572077144799
 33
0.0
210
0.0
220
0.0
230
1.0
  0
SOLID
  5
A4C
  8
0
  6
CONTINUOUS
 62
     4
 10
-35.194199592921507
 20
8.0318811101244805
 30
0.0
 11
-37.30713852190717
 21
8.0318811101244805
 31
0.0
 12
-37.615772994408303
 22
7.7711572077144799
 32
0.0
 13
-37.615772994408303
 23
7.7711572077144799
 33
0.0
210
0.0
220
0.0
230
-1.0
  0
SOLID
  5
A4D
  8
0
  6
CONTINUOUS
 62
     4
 10
39.358044792162232
 20
8.0318811101244805
 30
0.0
 11
39.358044792162232
 21
7.7711572077144799
 31
0.0
 12
41.397217426805597
 22
7.7711572077144799
 32
0.0
 13
41.397217426805597
 23
7.7711572077144799
 33
0.0
210
0.0
220
0.0
230
1.0
  0
SOLID
  5
A4E
  8
0
  6
CONTINUOUS
 62
     4
 10
-39.358044792162232
 20
8.0318811101244805
 30
0.0
 11
-41.397217426805597
 21
8.0318811101244805
 31
0.0
 12
-41.397217426805597
 22
7.7711572077144799
 32
0.0
 13
-41.397217426805597
 23
7.7711572077144799
 33
0.0
210
0.0
220
0.0
230
-1.0
  0
SOLID
  5
A4F
  8
0
  6
CONTINUOUS
 62
     4
 10
35.202459155100129
 20
7.7711572077144799
 30
0.0
 11
35.203769510882672
 21
7.729794110520948
 31
0.0
 12
37.789441981868229
 22
7.729794110520948
 32
0.0
 13
37.789441981868229
 23
7.729794110520948
 33
0.0
210
0.0
220
0.0
230
1.0
  0
SOLID
  5
A50
  8
0
  6
CONTINUOUS
 62
     4
 10
-35.202459155100129
 20
7.7711572077144799
 30
0.0
 11
-37.615772994408303
 21
7.7711572077144799
 31
0.0
 12
-37.789441981868229
 22
7.729794110520948
 32
0.0
 13
-37.789441981868229
 23
7.729794110520948
 33
0.0
210
0.0
220
0.0
230
-1.0
  0
SOLID
  5
A51
  8
0
  6
CONTINUOUS
 62
     4
 10
39.358044792162232
 20
7.7711572077144799
 30
0.0
 11
39.358044792162232
 21
7.729794110520948
 31
0.0
 12
41.397217426805597
 22
7.729794110520948
 32
0.0
 13
41.397217426805597
 23
7.729794110520948
 33
0.0
210
0.0
220
0.0
230
1.0
  0
SOLID
  5
A52
  8
0
  6
CONTINUOUS
 62
     4
 10
-39.358044792162232
 20
7.7711572077144799
 30
0.0
 11
-41.397217426805597
 21
7.7711572077144799
 31
0.0
 12
-41.397217426805597
 22
7.729794110520948
 32
0.0
 13
-41.397217426805597
 23
7.729794110520948
 33
0.0
210
0.0
220
0.0
230
-1.0
  0
SOLID
  5
A53
  8
0
  6
CONTINUOUS
 62
     4
 10
35.203769510882672
 20
7.729794110520948
 30
0.0
 11
35.218155913297949
 21
7.6775493076214643
 31
0.0
 12
38.008799395486072
 22
7.6775493076214643
 32
0.0
 13
38.008799395486072
 23
7.6775493076214643
 33
0.0
210
0.0
220
0.0
230
1.0
  0
SOLID
  5
A54
  8
0
  6
CONTINUOUS
 62
     4
 10
-35.203769510882672
 20
7.729794110520948
 30
0.0
 11
-37.789441981868229
 21
7.729794110520948
 31
0.0
 12
-38.008799395486072
 22
7.6775493076214643
 32
0.0
 13
-38.008799395486072
 23
7.6775493076214643
 33
0.0
210
0.0
220
0.0
230
-1.0
  0
SOLID
  5
A55
  8
0
  6
CONTINUOUS
 62
     4
 10
39.358044792162232
 20
7.729794110520948
 30
0.0
 11
39.358044792162232
 21
7.6775493076214643
 31
0.0
 12
41.397217426805597
 22
7.6775493076214643
 32
0.0
 13
41.397217426805597
 23
7.6775493076214643
 33
0.0
210
0.0
220
0.0
230
1.0
  0
SOLID
  5
A56
  8
0
  6
CONTINUOUS
 62
     4
 10
-39.358044792162232
 20
7.729794110520948
 30
0.0
 11
-41.397217426805597
 21
7.729794110520948
 31
0.0
 12
-41.397217426805597
 22
7.6775493076214643
 32
0.0
 13
-41.397217426805597
 23
7.6775493076214643
 33
0.0
210
0.0
220
0.0
230
-1.0
  0
SOLID
  5
A57
  8
0
  6
CONTINUOUS
 62
     4
 10
38.008799395486058
 20
7.6775493076214643
 30
0.0
 11
38.008799395486058
 21
7.6775493076214643
 31
0.0
 12
39.358044792162232
 22
7.6775493076214643
 32
0.0
 13
39.358044792162232
 23
7.6775493076214643
 33
0.0
210
0.0
220
0.0
230
1.0
  0
SOLID
  5
A58
  8
0
  6
CONTINUOUS
 62
     4
 10
35.218155913297949
 20
7.6775493076214643
 30
0.0
 11
35.342672117807062
 21
7.2253636690866569
 31
0.0
 12
41.397217426805597
 22
7.2253636690866569
 32
0.0
 13
41.397217426805597
 23
7.2253636690866569
 33
0.0
210
0.0
220
0.0
230
1.0
  0
SOLID
  5
A59
  8
0
  6
CONTINUOUS
 62
     4
 10
-35.218155913297949
 20
7.6775493076214643
 30
0.0
 11
-41.397217426805597
 21
7.6775493076214643
 31
0.0
 12
-41.397217426805597
 22
7.2253636690866569
 32
0.0
 13
-41.397217426805597
 23
7.2253636690866569
 33
0.0
210
0.0
220
0.0
230
-1.0
  0
SOLID
  5
A5A
  8
0
  6
CONTINUOUS
 62
     4
 10
35.342672117807062
 20
7.2253636690866569
 30
0.0
 11
35.534549550569551
 21
6.9013658779097202
 31
0.0
 12
41.397217426805589
 22
6.9013658779097202
 32
0.0
 13
41.397217426805589
 23
6.9013658779097202
 33
0.0
210
0.0
220
0.0
230
1.0
  0
SOLID
  5
A5B
  8
0
  6
CONTINUOUS
 62
     4
 10
-35.342672117807062
 20
7.2253636690866569
 30
0.0
 11
-41.397217426805597
 21
7.2253636690866569
 31
0.0
 12
-41.397217426805589
 22
6.9013658779097202
 32
0.0
 13
-41.397217426805589
 23
6.9013658779097202
 33
0.0
210
0.0
220
0.0
230
-1.0
  0
SOLID
  5
A5C
  8
0
  6
CONTINUOUS
 62
     4
 10
35.534549550569551
 20
6.9013658779097202
 30
0.0
 11
35.812313875115173
 21
6.6471248546645016
 31
0.0
 12
41.397217426805589
 22
6.6471248546645016
 32
0.0
 13
41.397217426805589
 23
6.6471248546645016
 33
0.0
210
0.0
220
0.0
230
1.0
  0
SOLID
  5
A5D
  8
0
  6
CONTINUOUS
 62
     4
 10
-35.534549550569551
 20
6.9013658779097202
 30
0.0
 11
-41.397217426805589
 21
6.9013658779097202
 31
0.0
 12
-41.397217426805589
 22
6.6471248546645016
 32
0.0
 13
-41.397217426805589
 23
6.6471248546645016
 33
0.0
210
0.0
220
0.0
230
-1.0
  0
SOLID
  5
A5E
  8
0
  6
CONTINUOUS
 62
     4
 10
35.812313875115173
 20
6.6471248546645016
 30
0.0
 11
36.367227122469508
 21
6.3822685934078081
 31
0.0
 12
41.397217426805589
 22
6.3822685934078081
 32
0.0
 13
41.397217426805589
 23
6.3822685934078081
 33
0.0
  0
SOLID
  5
A5F
  8
0
  6
CONTINUOUS
 62
     4
 10
-35.812313875115173
 20
6.6471248546645016
 30
0.0
 11
-41.397217426805589
 21
6.6471248546645016
 31
0.0
 12
-41.397217426805589
 22
6.3822685934078081
 32
0.0
 13
-41.397217426805589
 23
6.3822685934078081
 33
0.0
210
0.0
220
0.0
230
-1.0
  0
SOLID
  5
A60
  8
0
  6
CONTINUOUS
 62
     4
 10
36.367227122469508
 20
6.3822685934078081
 30
0.0
 11
36.395605047615852
 21
6.3780249825224411
 31
0.0
 12
41.397217426805589
 22
6.3780249825224411
 32
0.0
 13
41.397217426805589
 23
6.3780249825224411
 33
0.0
210
0.0
220
0.0
230
1.0
  0
SOLID
  5
A61
  8
0
  6
CONTINUOUS
 62
     4
 10
-36.367227122469508
 20
6.3822685934078081
 30
0.0
 11
-41.397217426805589
 21
6.3822685934078081
 31
0.0
 12
-41.397217426805589
 22
6.3780249825224411
 32
0.0
 13
-41.397217426805589
 23
6.3780249825224411
 33
0.0
210
0.0
220
0.0
230
-1.0
  0
SOLID
  5
A62
  8
0
  6
CONTINUOUS
 62
     4
 10
36.395605047615852
 20
6.3780249825224411
 30
0.0
 11
36.830297051111259
 21
6.3130215085791583
 31
0.0
 12
40.623899201557109
 22
6.3130215085791583
 32
0.0
 13
40.623899201557109
 23
6.3130215085791583
 33
0.0
210
0.0
220
0.0
230
1.0
  0
SOLID
  5
A63
  8
0
  6
CONTINUOUS
 62
     4
 10
-36.395605047615852
 20
6.3780249825224411
 30
0.0
 11
-41.397217426805589
 21
6.3780249825224411
 31
0.0
 12
-40.623899201557109
 22
6.3130215085791583
 32
0.0
 13
-40.623899201557109
 23
6.3130215085791583
 33
0.0
210
0.0
220
0.0
230
-1.0
  0
SOLID
  5
A64
  8
0
  6
CONTINUOUS
 62
     4
 10
36.830297051111259
 20
6.3130215085791583
 30
0.0
 11
36.975345467788848
 21
6.2913310912303242
 31
0.0
 12
39.848156940930942
 22
6.2913310912303242
 32
0.0
 13
39.848156940930942
 23
6.2913310912303242
 33
0.0
210
0.0
220
0.0
230
1.0
  0
SOLID
  5
A65
  8
0
  6
CONTINUOUS
 62
     4
 10
-36.830297051111259
 20
6.3130215085791583
 30
0.0
 11
-40.623899201557109
 21
6.3130215085791583
 31
0.0
 12
-39.848156940930942
 22
6.2913310912303242
 32
0.0
 13
-39.848156940930942
 23
6.2913310912303242
 33
0.0
210
0.0
220
0.0
230
-1.0
  0
SOLID
  5
A66
  8
0
  6
CONTINUOUS
 62
     4
 10
36.975345467788848
 20
6.2913310912303242
 30
0.0
 11
36.975345467788848
 21
6.2913310912303242
 31
0.0
 12
39.848156940930942
 22
6.2913310912303242
 32
0.0
 13
39.848156940930942
 23
6.2913310912303242
 33
0.0
210
0.0
220
0.0
230
1.0
  0
LINE
  5
A67
  8
0
  6
CONTINUOUS
 62
     4
 10
37.560298341075871
 20
12.761725249354241
 30
0.0
 11
38.999057940402963
 21
12.761725249354241
 31
0.0
  0
LINE
  5
A68
  8
0
  6
CONTINUOUS
 62
     4
 10
37.560298341075871
 20
12.761725249354241
 30
0.0
 11
37.019562861712323
 21
12.71697570444282
 31
0.0
  0
LINE
  5
A69
  8
0
  6
CONTINUOUS
 62
     4
 10
38.999057940402963
 20
12.761725249354241
 30
0.0
 11
39.696289944214641
 21
12.71697570444282
 31
0.0
  0
LINE
  5
A6A
  8
0
  6
CONTINUOUS
 62
     4
 10
37.019562861712323
 20
12.71697570444282
 30
0.0
 11
37.018307932537049
 21
12.71687185050382
 31
0.0
  0
LINE
  5
A6B
  8
0
  6
CONTINUOUS
 62
     4
 10
39.696289944214641
 20
12.71697570444282
 30
0.0
 11
39.696823385656131
 21
12.71687185050382
 31
0.0
  0
LINE
  5
A6C
  8
0
  6
CONTINUOUS
 62
     4
 10
37.018307932537049
 20
12.71687185050382
 30
0.0
 11
36.491064225760191
 21
12.58353204399163
 31
0.0
  0
LINE
  5
A6D
  8
0
  6
CONTINUOUS
 62
     4
 10
39.696823385656131
 20
12.71687185050382
 30
0.0
 11
40.381717760188863
 21
12.58353204399163
 31
0.0
  0
LINE
  5
A6E
  8
0
  6
CONTINUOUS
 62
     4
 10
36.491064225760191
 20
12.58353204399163
 30
0.0
 11
36.490976839946917
 21
12.583461390664089
 31
0.0
  0
LINE
  5
A6F
  8
0
  6
CONTINUOUS
 62
     4
 10
40.381717760188863
 20
12.58353204399163
 30
0.0
 11
40.382080668069371
 21
12.583461390664089
 31
0.0
  0
LINE
  5
A70
  8
0
  6
CONTINUOUS
 62
     4
 10
36.490976839946917
 20
12.583461390664089
 30
0.0
 11
35.891474900683988
 21
12.0987510551557
 31
0.0
  0
LINE
  5
A71
  8
0
  6
CONTINUOUS
 62
     4
 10
40.382080668069371
 20
12.583461390664089
 30
0.0
 11
41.113928624880273
 21
12.0987510551557
 31
0.0
  0
LINE
  5
A72
  8
0
  6
CONTINUOUS
 62
     4
 10
35.891474900683988
 20
12.0987510551557
 30
0.0
 11
35.685233845176903
 21
11.932000683449891
 31
0.0
  0
LINE
  5
A73
  8
0
  6
CONTINUOUS
 62
     4
 10
41.113928624880273
 20
12.0987510551557
 30
0.0
 11
41.170785041525811
 21
11.932000683449891
 31
0.0
  0
LINE
  5
A74
  8
0
  6
CONTINUOUS
 62
     4
 10
35.685233845176903
 20
11.932000683449891
 30
0.0
 11
35.599839553946353
 21
11.491775001953259
 31
0.0
  0
LINE
  5
A75
  8
0
  6
CONTINUOUS
 62
     4
 10
41.170785041525811
 20
11.932000683449891
 30
0.0
 11
41.320887584082037
 21
11.491775001953259
 31
0.0
  0
LINE
  5
A76
  8
0
  6
CONTINUOUS
 62
     4
 10
37.77157673774348
 20
11.491775001953259
 30
0.0
 11
39.077193647738902
 21
11.491775001953259
 31
0.0
  0
LINE
  5
A77
  8
0
  6
CONTINUOUS
 62
     4
 10
35.599839553946353
 20
11.491775001953259
 30
0.0
 11
35.556415020903032
 21
11.26791232475091
 31
0.0
  0
LINE
  5
A78
  8
0
  6
CONTINUOUS
 62
     4
 10
37.77157673774348
 20
11.491775001953259
 30
0.0
 11
37.636438409556803
 21
11.26791232475091
 31
0.0
  0
LINE
  5
A79
  8
0
  6
CONTINUOUS
 62
     4
 10
39.077193647738902
 20
11.491775001953259
 30
0.0
 11
39.172372671498373
 21
11.26791232475091
 31
0.0
  0
LINE
  5
A7A
  8
0
  6
CONTINUOUS
 62
     4
 10
41.320887584082037
 20
11.491775001953259
 30
0.0
 11
41.397217426805618
 21
11.26791232475091
 31
0.0
  0
LINE
  5
A7B
  8
0
  6
CONTINUOUS
 62
     4
 10
35.556415020903032
 20
11.26791232475091
 30
0.0
 11
35.546872496908357
 21
11.2187185898043
 31
0.0
  0
LINE
  5
A7C
  8
0
  6
CONTINUOUS
 62
     4
 10
37.636438409556803
 20
11.26791232475091
 30
0.0
 11
37.606741815282923
 21
11.2187185898043
 31
0.0
  0
LINE
  5
A7D
  8
0
  6
CONTINUOUS
 62
     4
 10
39.172372671498373
 20
11.26791232475091
 30
0.0
 11
39.193288224398103
 21
11.2187185898043
 31
0.0
  0
LINE
  5
A7E
  8
0
  6
CONTINUOUS
 62
     4
 10
41.397217426805618
 20
11.26791232475091
 30
0.0
 11
41.397217426805618
 21
11.2187185898043
 31
0.0
  0
LINE
  5
A7F
  8
0
  6
CONTINUOUS
 62
     4
 10
35.546872496908357
 20
11.2187185898043
 30
0.0
 11
35.504319979909162
 21
10.99935134024434
 31
0.0
  0
LINE
  5
A80
  8
0
  6
CONTINUOUS
 62
     4
 10
37.606741815282923
 20
11.2187185898043
 30
0.0
 11
37.537162599906672
 21
10.99935134024434
 31
0.0
  0
LINE
  5
A81
  8
0
  6
CONTINUOUS
 62
     4
 10
39.193288224398103
 20
11.2187185898043
 30
0.0
 11
39.286555940655447
 21
10.99935134024434
 31
0.0
  0
LINE
  5
A82
  8
0
  6
CONTINUOUS
 62
     4
 10
41.397217426805618
 20
11.2187185898043
 30
0.0
 11
41.397217426805618
 21
10.99935134024434
 31
0.0
  0
LINE
  5
A83
  8
0
  6
CONTINUOUS
 62
     4
 10
35.504319979909162
 20
10.99935134024434
 30
0.0
 11
35.487898142962152
 21
10.914693288081221
 31
0.0
  0
LINE
  5
A84
  8
0
  6
CONTINUOUS
 62
     4
 10
37.537162599906672
 20
10.99935134024434
 30
0.0
 11
37.510310638838611
 21
10.914693288081221
 31
0.0
  0
LINE
  5
A85
  8
0
  6
CONTINUOUS
 62
     4
 10
39.286555940655447
 20
10.99935134024434
 30
0.0
 11
39.29796885703589
 21
10.914693288081221
 31
0.0
  0
LINE
  5
A86
  8
0
  6
CONTINUOUS
 62
     4
 10
41.397217426805618
 20
10.99935134024434
 30
0.0
 11
41.397217426805618
 21
10.914693288081221
 31
0.0
  0
LINE
  5
A87
  8
0
  6
CONTINUOUS
 62
     4
 10
35.487898142962152
 20
10.914693288081221
 30
0.0
 11
37.510310638838611
 21
10.914693288081221
 31
0.0
  0
LINE
  5
A88
  8
0
  6
CONTINUOUS
 62
     4
 10
39.29796885703589
 20
10.914693288081221
 30
0.0
 11
39.358044792162232
 21
10.469065590467549
 31
0.0
  0
LINE
  5
A89
  8
0
  6
CONTINUOUS
 62
     4
 10
41.397217426805618
 20
10.914693288081221
 30
0.0
 11
41.397217426805618
 21
10.469065590467549
 31
0.0
  0
LINE
  5
A8A
  8
0
  6
CONTINUOUS
 62
     4
 10
39.358044792162232
 20
10.469065590467549
 30
0.0
 11
39.358044792162239
 21
10.216853593185981
 31
0.0
  0
LINE
  5
A8B
  8
0
  6
CONTINUOUS
 62
     4
 10
41.397217426805618
 20
10.469065590467549
 30
0.0
 11
41.397217426805611
 21
10.216853593185981
 31
0.0
  0
LINE
  5
A8C
  8
0
  6
CONTINUOUS
 62
     4
 10
37.199101342298697
 20
10.216853593185981
 30
0.0
 11
38.623548826611547
 21
10.216853593185981
 31
0.0
  0
LINE
  5
A8D
  8
0
  6
CONTINUOUS
 62
     4
 10
37.199101342298697
 20
10.216853593185981
 30
0.0
 11
36.979712575700432
 21
10.197143529937639
 31
0.0
  0
LINE
  5
A8E
  8
0
  6
CONTINUOUS
 62
     4
 10
38.623548826611547
 20
10.216853593185981
 30
0.0
 11
38.9928944834449
 21
10.197143529937639
 31
0.0
  0
LINE
  5
A8F
  8
0
  6
CONTINUOUS
 62
     4
 10
39.358044792162239
 20
10.216853593185981
 30
0.0
 11
39.358044792162239
 21
10.197143529937639
 31
0.0
  0
LINE
  5
A90
  8
0
  6
CONTINUOUS
 62
     4
 10
41.397217426805611
 20
10.216853593185981
 30
0.0
 11
41.397217426805611
 21
10.197143529937639
 31
0.0
  0
LINE
  5
A91
  8
0
  6
CONTINUOUS
 62
     4
 10
36.979712575700432
 20
10.197143529937639
 30
0.0
 11
36.652116408761742
 21
10.16771202681012
 31
0.0
  0
LINE
  5
A92
  8
0
  6
CONTINUOUS
 62
     4
 10
38.9928944834449
 20
10.197143529937639
 30
0.0
 11
39.17533543461267
 21
10.16771202681012
 31
0.0
  0
LINE
  5
A93
  8
0
  6
CONTINUOUS
 62
     4
 10
39.358044792162239
 20
10.197143529937639
 30
0.0
 11
39.358044792162239
 21
10.16771202681012
 31
0.0
  0
LINE
  5
A94
  8
0
  6
CONTINUOUS
 62
     4
 10
41.397217426805611
 20
10.197143529937639
 30
0.0
 11
41.397217426805611
 21
10.16771202681012
 31
0.0
  0
LINE
  5
A95
  8
0
  6
CONTINUOUS
 62
     4
 10
36.652116408761742
 20
10.16771202681012
 30
0.0
 11
36.545117196963503
 21
10.138237224175491
 31
0.0
  0
LINE
  5
A96
  8
0
  6
CONTINUOUS
 62
     4
 10
39.17533543461267
 20
10.16771202681012
 30
0.0
 11
39.358044792162239
 21
10.138237224175491
 31
0.0
  0
LINE
  5
A97
  8
0
  6
CONTINUOUS
 62
     4
 10
39.358044792162239
 20
10.16771202681012
 30
0.0
 11
39.358044792162239
 21
10.138237224175491
 31
0.0
  0
LINE
  5
A98
  8
0
  6
CONTINUOUS
 62
     4
 10
41.397217426805611
 20
10.16771202681012
 30
0.0
 11
41.397217426805611
 21
10.138237224175491
 31
0.0
  0
LINE
  5
A99
  8
0
  6
CONTINUOUS
 62
     4
 10
36.545117196963503
 20
10.138237224175491
 30
0.0
 11
36.122649750137647
 21
10.02186118359089
 31
0.0
  0
LINE
  5
A9A
  8
0
  6
CONTINUOUS
 62
     4
 10
41.397217426805611
 20
10.138237224175491
 30
0.0
 11
41.397217426805611
 21
10.02186118359089
 31
0.0
  0
LINE
  5
A9B
  8
0
  6
CONTINUOUS
 62
     4
 10
36.122649750137647
 20
10.02186118359089
 30
0.0
 11
35.665923771344431
 21
9.7362947386209342
 31
0.0
  0
LINE
  5
A9C
  8
0
  6
CONTINUOUS
 62
     4
 10
41.397217426805611
 20
10.02186118359089
 30
0.0
 11
41.397217426805611
 21
9.7362947386209342
 31
0.0
  0
LINE
  5
A9D
  8
0
  6
CONTINUOUS
 62
     4
 10
35.665923771344431
 20
9.7362947386209342
 30
0.0
 11
35.356787490986662
 21
9.2951807234684214
 31
0.0
  0
LINE
  5
A9E
  8
0
  6
CONTINUOUS
 62
     4
 10
41.397217426805611
 20
9.7362947386209342
 30
0.0
 11
41.397217426805611
 21
9.2951807234684214
 31
0.0
  0
LINE
  5
A9F
  8
0
  6
CONTINUOUS
 62
     4
 10
35.356787490986662
 20
9.2951807234684214
 30
0.0
 11
35.255593960778619
 21
8.9511586626376651
 31
0.0
  0
LINE
  5
AA0
  8
0
  6
CONTINUOUS
 62
     4
 10
41.397217426805611
 20
9.2951807234684214
 30
0.0
 11
41.397217426805611
 21
8.9511586626376651
 31
0.0
  0
LINE
  5
AA1
  8
0
  6
CONTINUOUS
 62
     4
 10
37.839787993796932
 20
8.9511586626376651
 30
0.0
 11
39.358044792162232
 21
8.9511586626376651
 31
0.0
  0
LINE
  5
AA2
  8
0
  6
CONTINUOUS
 62
     4
 10
35.255593960778619
 20
8.9511586626376651
 30
0.0
 11
35.218422470088413
 21
8.8247887968458034
 31
0.0
  0
LINE
  5
AA3
  8
0
  6
CONTINUOUS
 62
     4
 10
37.839787993796932
 20
8.9511586626376651
 30
0.0
 11
37.480908192164058
 21
8.8247887968458034
 31
0.0
  0
LINE
  5
AA4
  8
0
  6
CONTINUOUS
 62
     4
 10
39.358044792162232
 20
8.9511586626376651
 30
0.0
 11
39.358044792162232
 21
8.8247887968458034
 31
0.0
  0
LINE
  5
AA5
  8
0
  6
CONTINUOUS
 62
     4
 10
41.397217426805611
 20
8.9511586626376651
 30
0.0
 11
41.397217426805611
 21
8.8247887968458034
 31
0.0
  0
LINE
  5
AA6
  8
0
  6
CONTINUOUS
 62
     4
 10
35.218422470088413
 20
8.8247887968458034
 30
0.0
 11
35.206600249395962
 21
8.7845974455029552
 31
0.0
  0
LINE
  5
AA7
  8
0
  6
CONTINUOUS
 62
     4
 10
37.480908192164058
 20
8.8247887968458034
 30
0.0
 11
37.45598367209125
 21
8.7845974455029552
 31
0.0
  0
LINE
  5
AA8
  8
0
  6
CONTINUOUS
 62
     4
 10
39.358044792162232
 20
8.8247887968458034
 30
0.0
 11
39.358044792162232
 21
8.7845974455029552
 31
0.0
  0
LINE
  5
AA9
  8
0
  6
CONTINUOUS
 62
     4
 10
41.397217426805611
 20
8.8247887968458034
 30
0.0
 11
41.397217426805597
 21
8.7845974455029552
 31
0.0
  0
LINE
  5
AAA
  8
0
  6
CONTINUOUS
 62
     4
 10
35.206600249395962
 20
8.7845974455029552
 30
0.0
 11
35.196273344365551
 21
8.5014401058414677
 31
0.0
  0
LINE
  5
AAB
  8
0
  6
CONTINUOUS
 62
     4
 10
37.45598367209125
 20
8.7845974455029552
 30
0.0
 11
37.28038467976193
 21
8.5014401058414677
 31
0.0
  0
LINE
  5
AAC
  8
0
  6
CONTINUOUS
 62
     4
 10
39.358044792162232
 20
8.7845974455029552
 30
0.0
 11
39.358044792162232
 21
8.5014401058414677
 31
0.0
  0
LINE
  5
AAD
  8
0
  6
CONTINUOUS
 62
     4
 10
41.397217426805597
 20
8.7845974455029552
 30
0.0
 11
41.397217426805597
 21
8.5014401058414677
 31
0.0
  0
LINE
  5
AAE
  8
0
  6
CONTINUOUS
 62
     4
 10
35.196273344365551
 20
8.5014401058414677
 30
0.0
 11
35.187643683716217
 21
8.2648201558708632
 31
0.0
  0
LINE
  5
AAF
  8
0
  6
CONTINUOUS
 62
     4
 10
37.28038467976193
 20
8.5014401058414677
 30
0.0
 11
37.261459666752138
 21
8.2648201558708632
 31
0.0
  0
LINE
  5
AB0
  8
0
  6
CONTINUOUS
 62
     4
 10
39.358044792162232
 20
8.5014401058414677
 30
0.0
 11
39.358044792162232
 21
8.2648201558708632
 31
0.0
  0
LINE
  5
AB1
  8
0
  6
CONTINUOUS
 62
     4
 10
41.397217426805597
 20
8.5014401058414677
 30
0.0
 11
41.397217426805597
 21
8.2648201558708632
 31
0.0
  0
LINE
  5
AB2
  8
0
  6
CONTINUOUS
 62
     4
 10
35.187643683716217
 20
8.2648201558708632
 30
0.0
 11
35.187203014440499
 21
8.2527372772719971
 31
0.0
  0
LINE
  5
AB3
  8
0
  6
CONTINUOUS
 62
     4
 10
37.261459666752138
 20
8.2648201558708632
 30
0.0
 11
37.263829093739382
 21
8.2527372772719971
 31
0.0
  0
LINE
  5
AB4
  8
0
  6
CONTINUOUS
 62
     4
 10
39.358044792162232
 20
8.2648201558708632
 30
0.0
 11
39.358044792162232
 21
8.2527372772719971
 31
0.0
  0
LINE
  5
AB5
  8
0
  6
CONTINUOUS
 62
     4
 10
41.397217426805597
 20
8.2648201558708632
 30
0.0
 11
41.397217426805597
 21
8.2527372772719971
 31
0.0
  0
LINE
  5
AB6
  8
0
  6
CONTINUOUS
 62
     4
 10
35.187203014440499
 20
8.2527372772719971
 30
0.0
 11
35.194199592921507
 21
8.0318811101244805
 31
0.0
  0
LINE
  5
AB7
  8
0
  6
CONTINUOUS
 62
     4
 10
37.263829093739382
 20
8.2527372772719971
 30
0.0
 11
37.30713852190717
 21
8.0318811101244805
 31
0.0
  0
LINE
  5
AB8
  8
0
  6
CONTINUOUS
 62
     4
 10
39.358044792162232
 20
8.2527372772719971
 30
0.0
 11
39.358044792162232
 21
8.0318811101244805
 31
0.0
  0
LINE
  5
AB9
  8
0
  6
CONTINUOUS
 62
     4
 10
41.397217426805597
 20
8.2527372772719971
 30
0.0
 11
41.397217426805597
 21
8.0318811101244805
 31
0.0
  0
LINE
  5
ABA
  8
0
  6
CONTINUOUS
 62
     4
 10
35.194199592921507
 20
8.0318811101244805
 30
0.0
 11
35.202459155100129
 21
7.7711572077144799
 31
0.0
  0
LINE
  5
ABB
  8
0
  6
CONTINUOUS
 62
     4
 10
37.30713852190717
 20
8.0318811101244805
 30
0.0
 11
37.615772994408303
 21
7.7711572077144799
 31
0.0
  0
LINE
  5
ABC
  8
0
  6
CONTINUOUS
 62
     4
 10
39.358044792162232
 20
8.0318811101244805
 30
0.0
 11
39.358044792162232
 21
7.7711572077144799
 31
0.0
  0
LINE
  5
ABD
  8
0
  6
CONTINUOUS
 62
     4
 10
41.397217426805597
 20
8.0318811101244805
 30
0.0
 11
41.397217426805597
 21
7.7711572077144799
 31
0.0
  0
LINE
  5
ABE
  8
0
  6
CONTINUOUS
 62
     4
 10
35.202459155100129
 20
7.7711572077144799
 30
0.0
 11
35.203769510882672
 21
7.729794110520948
 31
0.0
  0
LINE
  5
ABF
  8
0
  6
CONTINUOUS
 62
     4
 10
37.615772994408303
 20
7.7711572077144799
 30
0.0
 11
37.789441981868229
 21
7.729794110520948
 31
0.0
  0
LINE
  5
AC0
  8
0
  6
CONTINUOUS
 62
     4
 10
39.358044792162232
 20
7.7711572077144799
 30
0.0
 11
39.358044792162232
 21
7.729794110520948
 31
0.0
  0
LINE
  5
AC1
  8
0
  6
CONTINUOUS
 62
     4
 10
41.397217426805597
 20
7.7711572077144799
 30
0.0
 11
41.397217426805597
 21
7.729794110520948
 31
0.0
  0
LINE
  5
AC2
  8
0
  6
CONTINUOUS
 62
     4
 10
35.203769510882672
 20
7.729794110520948
 30
0.0
 11
35.218155913297949
 21
7.6775493076214643
 31
0.0
  0
LINE
  5
AC3
  8
0
  6
CONTINUOUS
 62
     4
 10
37.789441981868229
 20
7.729794110520948
 30
0.0
 11
38.008799395486072
 21
7.6775493076214643
 31
0.0
  0
LINE
  5
AC4
  8
0
  6
CONTINUOUS
 62
     4
 10
39.358044792162232
 20
7.729794110520948
 30
0.0
 11
39.358044792162232
 21
7.6775493076214643
 31
0.0
  0
LINE
  5
AC5
  8
0
  6
CONTINUOUS
 62
     4
 10
41.397217426805597
 20
7.729794110520948
 30
0.0
 11
41.397217426805597
 21
7.6775493076214643
 31
0.0
  0
LINE
  5
AC6
  8
0
  6
CONTINUOUS
 62
     4
 10
38.008799395486058
 20
7.6775493076214643
 30
0.0
 11
39.358044792162232
 21
7.6775493076214643
 31
0.0
  0
LINE
  5
AC7
  8
0
  6
CONTINUOUS
 62
     4
 10
35.218155913297949
 20
7.6775493076214643
 30
0.0
 11
35.342672117807062
 21
7.2253636690866569
 31
0.0
  0
LINE
  5
AC8
  8
0
  6
CONTINUOUS
 62
     4
 10
41.397217426805597
 20
7.6775493076214643
 30
0.0
 11
41.397217426805597
 21
7.2253636690866569
 31
0.0
  0
LINE
  5
AC9
  8
0
  6
CONTINUOUS
 62
     4
 10
35.342672117807062
 20
7.2253636690866569
 30
0.0
 11
35.534549550569551
 21
6.9013658779097202
 31
0.0
  0
LINE
  5
ACA
  8
0
  6
CONTINUOUS
 62
     4
 10
41.397217426805597
 20
7.2253636690866569
 30
0.0
 11
41.397217426805589
 21
6.9013658779097202
 31
0.0
  0
LINE
  5
ACB
  8
0
  6
CONTINUOUS
 62
     4
 10
35.534549550569551
 20
6.9013658779097202
 30
0.0
 11
35.812313875115173
 21
6.6471248546645016
 31
0.0
  0
LINE
  5
ACC
  8
0
  6
CONTINUOUS
 62
     4
 10
41.397217426805589
 20
6.9013658779097202
 30
0.0
 11
41.397217426805589
 21
6.6471248546645016
 31
0.0
  0
LINE
  5
ACD
  8
0
  6
CONTINUOUS
 62
     4
 10
35.812313875115173
 20
6.6471248546645016
 30
0.0
 11
36.367227122469508
 21
6.3822685934078081
 31
0.0
  0
LINE
  5
ACE
  8
0
  6
CONTINUOUS
 62
     4
 10
41.397217426805589
 20
6.6471248546645016
 30
0.0
 11
41.397217426805589
 21
6.3822685934078081
 31
0.0
  0
LINE
  5
ACF
  8
0
  6
CONTINUOUS
 62
     4
 10
36.367227122469508
 20
6.3822685934078081
 30
0.0
 11
36.395605047615852
 21
6.3780249825224411
 31
0.0
  0
LINE
  5
AD0
  8
0
  6
CONTINUOUS
 62
     4
 10
41.397217426805589
 20
6.3822685934078081
 30
0.0
 11
41.397217426805589
 21
6.3780249825224411
 31
0.0
  0
LINE
  5
AD1
  8
0
  6
CONTINUOUS
 62
     4
 10
36.395605047615852
 20
6.3780249825224411
 30
0.0
 11
36.830297051111259
 21
6.3130215085791583
 31
0.0
  0
LINE
  5
AD2
  8
0
  6
CONTINUOUS
 62
     4
 10
41.397217426805589
 20
6.3780249825224411
 30
0.0
 11
40.623899201557109
 21
6.3130215085791583
 31
0.0
  0
LINE
  5
AD3
  8
0
  6
CONTINUOUS
 62
     4
 10
36.830297051111259
 20
6.3130215085791583
 30
0.0
 11
36.975345467788848
 21
6.2913310912303242
 31
0.0
  0
LINE
  5
AD4
  8
0
  6
CONTINUOUS
 62
     4
 10
40.623899201557109
 20
6.3130215085791583
 30
0.0
 11
39.848156940930942
 21
6.2913310912303242
 31
0.0
  0
LINE
  5
AD5
  8
0
  6
CONTINUOUS
 62
     4
 10
36.975345467788848
 20
6.2913310912303242
 30
0.0
 11
39.848156940930942
 21
6.2913310912303242
 31
0.0
  0
ENDBLK
  5
AD7
  8
0
  0
BLOCK
  8
0
  2
*U70
 70
     1
 10
0.0
 20
0.0
 30
0.0
  3
*U70
  1

  0
SOLID
  5
AFB
  8
0
  6
CONTINUOUS
 62
     4
 10
31.433492174088592
 20
12.761725249354241
 30
0.0
 11
31.433492174088592
 21
12.761725249354241
 31
0.0
 12
32.448644450296271
 22
12.761725249354241
 32
0.0
 13
32.448644450296271
 23
12.761725249354241
 33
0.0
210
0.0
220
0.0
230
1.0
  0
SOLID
  5
AFC
  8
0
  6
CONTINUOUS
 62
     4
 10
31.43349217408856
 20
12.761725249354241
 30
0.0
 11
31.018223714605568
 21
12.688276309604881
 31
0.0
 12
32.686526316361011
 22
12.688276309604881
 32
0.0
 13
32.686526316361011
 23
12.688276309604881
 33
0.0
210
0.0
220
0.0
230
1.0
  0
SOLID
  5
AFD
  8
0
  6
CONTINUOUS
 62
     4
 10
-31.43349217408856
 20
12.761725249354241
 30
0.0
 11
-32.448644450296271
 21
12.761725249354241
 31
0.0
 12
-32.686526316361011
 22
12.688276309604881
 32
0.0
 13
-32.686526316361011
 23
12.688276309604881
 33
0.0
210
0.0
220
0.0
230
-1.0
  0
SOLID
  5
AFE
  8
0
  6
CONTINUOUS
 62
     4
 10
27.908930251085039
 20
12.688276309604881
 30
0.0
 11
27.908930251085039
 21
12.688276309604881
 31
0.0
 12
30.022244046220621
 22
12.688276309604881
 32
0.0
 13
30.022244046220621
 23
12.688276309604881
 33
0.0
210
0.0
220
0.0
230
1.0
  0
SOLID
  5
AFF
  8
0
  6
CONTINUOUS
 62
     4
 10
27.908930251085039
 20
12.688276309604881
 30
0.0
 11
27.908930251085039
 21
12.6288600621091
 31
0.0
 12
30.022244046220621
 22
12.6288600621091
 32
0.0
 13
30.022244046220621
 23
12.6288600621091
 33
0.0
210
0.0
220
0.0
230
1.0
  0
SOLID
  5
B00
  8
0
  6
CONTINUOUS
 62
     4
 10
-27.908930251085039
 20
12.688276309604881
 30
0.0
 11
-30.022244046220621
 21
12.688276309604881
 31
0.0
 12
-30.022244046220621
 22
12.6288600621091
 32
0.0
 13
-30.022244046220621
 23
12.6288600621091
 33
0.0
210
0.0
220
0.0
230
-1.0
  0
SOLID
  5
B01
  8
0
  6
CONTINUOUS
 62
     4
 10
31.018223714605568
 20
12.688276309604881
 30
0.0
 11
30.68229383392881
 21
12.6288600621091
 31
0.0
 12
32.878959969958942
 22
12.6288600621091
 32
0.0
 13
32.878959969958942
 23
12.6288600621091
 33
0.0
  0
SOLID
  5
B02
  8
0
  6
CONTINUOUS
 62
     4
 10
-31.018223714605568
 20
12.688276309604881
 30
0.0
 11
-32.686526316361011
 21
12.688276309604881
 31
0.0
 12
-32.878959969958942
 22
12.6288600621091
 32
0.0
 13
-32.878959969958942
 23
12.6288600621091
 33
0.0
210
0.0
220
0.0
230
-1.0
  0
SOLID
  5
B03
  8
0
  6
CONTINUOUS
 62
     4
 10
27.908930251085039
 20
12.6288600621091
 30
0.0
 11
27.908930251085039
 21
12.44961613536635
 31
0.0
 12
30.022244046220621
 22
12.44961613536635
 32
0.0
 13
30.022244046220621
 23
12.44961613536635
 33
0.0
210
0.0
220
0.0
230
1.0
  0
SOLID
  5
B04
  8
0
  6
CONTINUOUS
 62
     4
 10
-27.908930251085039
 20
12.6288600621091
 30
0.0
 11
-30.022244046220621
 21
12.6288600621091
 31
0.0
 12
-30.022244046220621
 22
12.44961613536635
 32
0.0
 13
-30.022244046220621
 23
12.44961613536635
 33
0.0
210
0.0
220
0.0
230
-1.0
  0
SOLID
  5
B05
  8
0
  6
CONTINUOUS
 62
     4
 10
30.68229383392881
 20
12.6288600621091
 30
0.0
 11
30.37296586084598
 21
12.44961613536635
 31
0.0
 12
33.459484071734153
 22
12.44961613536635
 32
0.0
 13
33.459484071734153
 23
12.44961613536635
 33
0.0
210
0.0
220
0.0
230
1.0
  0
SOLID
  5
B06
  8
0
  6
CONTINUOUS
 62
     4
 10
-30.68229383392881
 20
12.6288600621091
 30
0.0
 11
-32.878959969958942
 21
12.6288600621091
 31
0.0
 12
-33.459484071734153
 22
12.44961613536635
 32
0.0
 13
-33.459484071734153
 23
12.44961613536635
 33
0.0
210
0.0
220
0.0
230
-1.0
  0
SOLID
  5
B07
  8
0
  6
CONTINUOUS
 62
     4
 10
27.908930251085039
 20
12.44961613536635
 30
0.0
 11
27.908930251085039
 21
12.24638603424984
 31
0.0
 12
30.022244046220621
 22
12.24638603424984
 32
0.0
 13
30.022244046220621
 23
12.24638603424984
 33
0.0
210
0.0
220
0.0
230
1.0
  0
SOLID
  5
B08
  8
0
  6
CONTINUOUS
 62
     4
 10
-27.908930251085039
 20
12.44961613536635
 30
0.0
 11
-30.022244046220621
 21
12.44961613536635
 31
0.0
 12
-30.022244046220621
 22
12.24638603424984
 32
0.0
 13
-30.022244046220621
 23
12.24638603424984
 33
0.0
210
0.0
220
0.0
230
-1.0
  0
SOLID
  5
B09
  8
0
  6
CONTINUOUS
 62
     4
 10
30.37296586084598
 20
12.44961613536635
 30
0.0
 11
30.022244046220621
 21
12.24638603424984
 31
0.0
 12
33.621278820540098
 22
12.24638603424984
 32
0.0
 13
33.621278820540098
 23
12.24638603424984
 33
0.0
210
0.0
220
0.0
230
1.0
  0
SOLID
  5
B0A
  8
0
  6
CONTINUOUS
 62
     4
 10
-30.37296586084598
 20
12.44961613536635
 30
0.0
 11
-33.459484071734153
 21
12.44961613536635
 31
0.0
 12
-33.621278820540098
 22
12.24638603424984
 32
0.0
 13
-33.621278820540098
 23
12.24638603424984
 33
0.0
210
0.0
220
0.0
230
-1.0
  0
SOLID
  5
B0B
  8
0
  6
CONTINUOUS
 62
     4
 10
27.908930251085039
 20
12.24638603424984
 30
0.0
 11
27.908930251085039
 21
11.62194842100261
 31
0.0
 12
34.118403637313193
 22
11.62194842100261
 32
0.0
 13
34.118403637313193
 23
11.62194842100261
 33
0.0
210
0.0
220
0.0
230
1.0
  0
SOLID
  5
B0C
  8
0
  6
CONTINUOUS
 62
     4
 10
-27.908930251085039
 20
12.24638603424984
 30
0.0
 11
-33.621278820540098
 21
12.24638603424984
 31
0.0
 12
-34.118403637313193
 22
11.62194842100261
 32
0.0
 13
-34.118403637313193
 23
11.62194842100261
 33
0.0
210
0.0
220
0.0
230
-1.0
  0
SOLID
  5
B0D
  8
0
  6
CONTINUOUS
 62
     4
 10
27.908930251085039
 20
11.62194842100261
 30
0.0
 11
27.908930251085039
 21
11.20489331706864
 31
0.0
 12
34.238180244053019
 22
11.20489331706864
 32
0.0
 13
34.238180244053019
 23
11.20489331706864
 33
0.0
210
0.0
220
0.0
230
1.0
  0
SOLID
  5
B0E
  8
0
  6
CONTINUOUS
 62
     4
 10
-27.908930251085039
 20
11.62194842100261
 30
0.0
 11
-34.118403637313193
 21
11.62194842100261
 31
0.0
 12
-34.238180244053019
 22
11.20489331706864
 32
0.0
 13
-34.238180244053019
 23
11.20489331706864
 33
0.0
210
0.0
220
0.0
230
-1.0
  0
SOLID
  5
B0F
  8
0
  6
CONTINUOUS
 62
     4
 10
31.02714412116546
 20
11.20489331706864
 30
0.0
 11
31.02714412116546
 21
11.20489331706864
 31
0.0
 12
31.118536059580709
 22
11.20489331706864
 32
0.0
 13
31.118536059580709
 23
11.20489331706864
 33
0.0
210
0.0
220
0.0
230
1.0
  0
SOLID
  5
B10
  8
0
  6
CONTINUOUS
 62
     4
 10
27.908930251085039
 20
11.20489331706864
 30
0.0
 11
27.908930251085039
 21
11.169386569952779
 31
0.0
 12
30.699011631192551
 22
11.169386569952779
 32
0.0
 13
30.699011631192551
 23
11.169386569952779
 33
0.0
210
0.0
220
0.0
230
1.0
  0
SOLID
  5
B11
  8
0
  6
CONTINUOUS
 62
     4
 10
-27.908930251085039
 20
11.20489331706864
 30
0.0
 11
-31.02714412116546
 21
11.20489331706864
 31
0.0
 12
-30.699011631192551
 22
11.169386569952779
 32
0.0
 13
-30.699011631192551
 23
11.169386569952779
 33
0.0
210
0.0
220
0.0
230
-1.0
  0
SOLID
  5
B12
  8
0
  6
CONTINUOUS
 62
     4
 10
31.11853605958073
 20
11.20489331706864
 30
0.0
 11
31.41442024329649
 21
11.169386569952779
 31
0.0
 12
34.248377643978799
 22
11.169386569952779
 32
0.0
 13
34.248377643978799
 23
11.169386569952779
 33
0.0
210
0.0
220
0.0
230
1.0
  0
SOLID
  5
B13
  8
0
  6
CONTINUOUS
 62
     4
 10
-31.11853605958073
 20
11.20489331706864
 30
0.0
 11
-34.238180244053019
 21
11.20489331706864
 31
0.0
 12
-34.248377643978799
 22
11.169386569952779
 32
0.0
 13
-34.248377643978799
 23
11.169386569952779
 33
0.0
210
0.0
220
0.0
230
-1.0
  0
SOLID
  5
B14
  8
0
  6
CONTINUOUS
 62
     4
 10
27.908930251085039
 20
11.169386569952779
 30
0.0
 11
27.908930251085039
 21
11.153478444881589
 31
0.0
 12
30.651543241721061
 22
11.153478444881589
 32
0.0
 13
30.651543241721061
 23
11.153478444881589
 33
0.0
210
0.0
220
0.0
230
1.0
  0
SOLID
  5
B15
  8
0
  6
CONTINUOUS
 62
     4
 10
-27.908930251085039
 20
11.169386569952779
 30
0.0
 11
-30.699011631192551
 21
11.169386569952779
 31
0.0
 12
-30.651543241721061
 22
11.153478444881589
 32
0.0
 13
-30.651543241721061
 23
11.153478444881589
 33
0.0
210
0.0
220
0.0
230
-1.0
  0
SOLID
  5
B16
  8
0
  6
CONTINUOUS
 62
     4
 10
31.41442024329649
 20
11.169386569952779
 30
0.0
 11
31.54698554379506
 21
11.153478444881589
 31
0.0
 12
34.252946395740011
 22
11.153478444881589
 32
0.0
 13
34.252946395740011
 23
11.153478444881589
 33
0.0
210
0.0
220
0.0
230
1.0
  0
SOLID
  5
B17
  8
0
  6
CONTINUOUS
 62
     4
 10
-31.41442024329649
 20
11.169386569952779
 30
0.0
 11
-34.248377643978799
 21
11.169386569952779
 31
0.0
 12
-34.252946395740011
 22
11.153478444881589
 32
0.0
 13
-34.252946395740011
 23
11.153478444881589
 33
0.0
210
0.0
220
0.0
230
-1.0
  0
SOLID
  5
B18
  8
0
  6
CONTINUOUS
 62
     4
 10
27.908930251085039
 20
11.153478444881589
 30
0.0
 11
27.908930251085039
 21
11.0645100890686
 31
0.0
 12
30.38606980940466
 22
11.0645100890686
 32
0.0
 13
30.38606980940466
 23
11.0645100890686
 33
0.0
  0
SOLID
  5
B19
  8
0
  6
CONTINUOUS
 62
     4
 10
-27.908930251085039
 20
11.153478444881589
 30
0.0
 11
-30.651543241721061
 21
11.153478444881589
 31
0.0
 12
-30.38606980940466
 22
11.0645100890686
 32
0.0
 13
-30.38606980940466
 23
11.0645100890686
 33
0.0
210
0.0
220
0.0
230
-1.0
  0
SOLID
  5
B1A
  8
0
  6
CONTINUOUS
 62
     4
 10
31.54698554379506
 20
11.153478444881589
 30
0.0
 11
31.784579471307261
 21
11.0645100890686
 31
0.0
 12
34.27849776213256
 22
11.0645100890686
 32
0.0
 13
34.27849776213256
 23
11.0645100890686
 33
0.0
210
0.0
220
0.0
230
1.0
  0
SOLID
  5
B1B
  8
0
  6
CONTINUOUS
 62
     4
 10
-31.54698554379506
 20
11.153478444881589
 30
0.0
 11
-34.252946395740011
 21
11.153478444881589
 31
0.0
 12
-34.27849776213256
 22
11.0645100890686
 32
0.0
 13
-34.27849776213256
 23
11.0645100890686
 33
0.0
210
0.0
220
0.0
230
-1.0
  0
SOLID
  5
B1C
  8
0
  6
CONTINUOUS
 62
     4
 10
27.908930251085039
 20
11.0645100890686
 30
0.0
 11
27.908930251085039
 21
11.052301202499709
 31
0.0
 12
30.378203502956861
 22
11.052301202499709
 32
0.0
 13
30.378203502956861
 23
11.052301202499709
 33
0.0
210
0.0
220
0.0
230
1.0
  0
SOLID
  5
B1D
  8
0
  6
CONTINUOUS
 62
     4
 10
-27.908930251085039
 20
11.0645100890686
 30
0.0
 11
-30.38606980940466
 21
11.0645100890686
 31
0.0
 12
-30.378203502956861
 22
11.052301202499709
 32
0.0
 13
-30.378203502956861
 23
11.052301202499709
 33
0.0
210
0.0
220
0.0
230
-1.0
  0
SOLID
  5
B1E
  8
0
  6
CONTINUOUS
 62
     4
 10
31.784579471307261
 20
11.0645100890686
 30
0.0
 11
31.817183842647449
 21
11.052301202499709
 31
0.0
 12
34.28200410695726
 22
11.052301202499709
 32
0.0
 13
34.28200410695726
 23
11.052301202499709
 33
0.0
  0
SOLID
  5
B1F
  8
0
  6
CONTINUOUS
 62
     4
 10
-31.784579471307261
 20
11.0645100890686
 30
0.0
 11
-34.27849776213256
 21
11.0645100890686
 31
0.0
 12
-34.28200410695726
 22
11.052301202499709
 32
0.0
 13
-34.28200410695726
 23
11.052301202499709
 33
0.0
210
0.0
220
0.0
230
-1.0
  0
SOLID
  5
B20
  8
0
  6
CONTINUOUS
 62
     4
 10
27.908930251085039
 20
11.052301202499709
 30
0.0
 11
27.908930251085039
 21
11.00215338936086
 31
0.0
 12
30.345892770638098
 22
11.00215338936086
 32
0.0
 13
30.345892770638098
 23
11.00215338936086
 33
0.0
210
0.0
220
0.0
230
1.0
  0
SOLID
  5
B21
  8
0
  6
CONTINUOUS
 62
     4
 10
-27.908930251085039
 20
11.052301202499709
 30
0.0
 11
-30.378203502956861
 21
11.052301202499709
 31
0.0
 12
-30.345892770638098
 22
11.00215338936086
 32
0.0
 13
-30.345892770638098
 23
11.00215338936086
 33
0.0
210
0.0
220
0.0
230
-1.0
  0
SOLID
  5
B22
  8
0
  6
CONTINUOUS
 62
     4
 10
31.817183842647449
 20
11.052301202499709
 30
0.0
 11
31.951105794682331
 21
11.00215338936086
 31
0.0
 12
34.286692628305232
 22
11.00215338936086
 32
0.0
 13
34.286692628305232
 23
11.00215338936086
 33
0.0
210
0.0
220
0.0
230
1.0
  0
SOLID
  5
B23
  8
0
  6
CONTINUOUS
 62
     4
 10
-31.817183842647449
 20
11.052301202499709
 30
0.0
 11
-34.28200410695726
 21
11.052301202499709
 31
0.0
 12
-34.286692628305232
 22
11.00215338936086
 32
0.0
 13
-34.286692628305232
 23
11.00215338936086
 33
0.0
210
0.0
220
0.0
230
-1.0
  0
SOLID
  5
B24
  8
0
  6
CONTINUOUS
 62
     4
 10
27.908930251085039
 20
11.00215338936086
 30
0.0
 11
27.908930251085039
 21
10.65623175635891
 31
0.0
 12
30.123012038905141
 22
10.65623175635891
 32
0.0
 13
30.123012038905141
 23
10.65623175635891
 33
0.0
210
0.0
220
0.0
230
1.0
  0
SOLID
  5
B25
  8
0
  6
CONTINUOUS
 62
     4
 10
-27.908930251085039
 20
11.00215338936086
 30
0.0
 11
-30.345892770638098
 21
11.00215338936086
 31
0.0
 12
-30.123012038905141
 22
10.65623175635891
 32
0.0
 13
-30.123012038905141
 23
10.65623175635891
 33
0.0
210
0.0
220
0.0
230
-1.0
  0
SOLID
  5
B26
  8
0
  6
CONTINUOUS
 62
     4
 10
31.951105794682331
 20
11.00215338936086
 30
0.0
 11
32.126552840083157
 21
10.65623175635891
 31
0.0
 12
34.319034237231698
 22
10.65623175635891
 32
0.0
 13
34.319034237231698
 23
10.65623175635891
 33
0.0
210
0.0
220
0.0
230
1.0
  0
SOLID
  5
B27
  8
0
  6
CONTINUOUS
 62
     4
 10
-31.951105794682331
 20
11.00215338936086
 30
0.0
 11
-34.286692628305232
 21
11.00215338936086
 31
0.0
 12
-34.319034237231698
 22
10.65623175635891
 32
0.0
 13
-34.319034237231698
 23
10.65623175635891
 33
0.0
210
0.0
220
0.0
230
-1.0
  0
SOLID
  5
B28
  8
0
  6
CONTINUOUS
 62
     4
 10
27.908930251085039
 20
10.65623175635891
 30
0.0
 11
27.908930251085039
 21
10.59951958337802
 31
0.0
 12
30.112058799314401
 22
10.59951958337802
 32
0.0
 13
30.112058799314401
 23
10.59951958337802
 33
0.0
210
0.0
220
0.0
230
1.0
  0
SOLID
  5
B29
  8
0
  6
CONTINUOUS
 62
     4
 10
-27.908930251085039
 20
10.65623175635891
 30
0.0
 11
-30.123012038905141
 21
10.65623175635891
 31
0.0
 12
-30.112058799314401
 22
10.59951958337802
 32
0.0
 13
-30.112058799314401
 23
10.59951958337802
 33
0.0
210
0.0
220
0.0
230
-1.0
  0
SOLID
  5
B2A
  8
0
  6
CONTINUOUS
 62
     4
 10
32.126552840083157
 20
10.65623175635891
 30
0.0
 11
32.155316531736119
 21
10.59951958337802
 31
0.0
 12
34.324336487062112
 22
10.59951958337802
 32
0.0
 13
34.324336487062112
 23
10.59951958337802
 33
0.0
  0
SOLID
  5
B2B
  8
0
  6
CONTINUOUS
 62
     4
 10
-32.126552840083157
 20
10.65623175635891
 30
0.0
 11
-34.319034237231698
 21
10.65623175635891
 31
0.0
 12
-34.324336487062112
 22
10.59951958337802
 32
0.0
 13
-34.324336487062112
 23
10.59951958337802
 33
0.0
210
0.0
220
0.0
230
-1.0
  0
SOLID
  5
B2C
  8
0
  6
CONTINUOUS
 62
     4
 10
27.908930251085039
 20
10.59951958337802
 30
0.0
 11
27.908930251085039
 21
10.46220016363166
 31
0.0
 12
30.085537288571921
 22
10.46220016363166
 32
0.0
 13
30.085537288571921
 23
10.46220016363166
 33
0.0
  0
SOLID
  5
B2D
  8
0
  6
CONTINUOUS
 62
     4
 10
-27.908930251085039
 20
10.59951958337802
 30
0.0
 11
-30.112058799314401
 21
10.59951958337802
 31
0.0
 12
-30.085537288571921
 22
10.46220016363166
 32
0.0
 13
-30.085537288571921
 23
10.46220016363166
 33
0.0
210
0.0
220
0.0
230
-1.0
  0
SOLID
  5
B2E
  8
0
  6
CONTINUOUS
 62
     4
 10
32.155316531736119
 20
10.59951958337802
 30
0.0
 11
32.176978618550358
 21
10.46220016363166
 31
0.0
 12
34.337175033564407
 22
10.46220016363166
 32
0.0
 13
34.337175033564407
 23
10.46220016363166
 33
0.0
  0
SOLID
  5
B2F
  8
0
  6
CONTINUOUS
 62
     4
 10
-32.155316531736119
 20
10.59951958337802
 30
0.0
 11
-34.324336487062112
 21
10.59951958337802
 31
0.0
 12
-34.337175033564407
 22
10.46220016363166
 32
0.0
 13
-34.337175033564407
 23
10.46220016363166
 33
0.0
210
0.0
220
0.0
230
-1.0
  0
SOLID
  5
B30
  8
0
  6
CONTINUOUS
 62
     4
 10
27.908930251085039
 20
10.46220016363166
 30
0.0
 11
27.908930251085039
 21
10.179358804748111
 31
0.0
 12
30.030910054114461
 22
10.179358804748111
 32
0.0
 13
30.030910054114461
 23
10.179358804748111
 33
0.0
210
0.0
220
0.0
230
1.0
  0
SOLID
  5
B31
  8
0
  6
CONTINUOUS
 62
     4
 10
-27.908930251085039
 20
10.46220016363166
 30
0.0
 11
-30.085537288571921
 21
10.46220016363166
 31
0.0
 12
-30.030910054114461
 22
10.179358804748111
 32
0.0
 13
-30.030910054114461
 23
10.179358804748111
 33
0.0
210
0.0
220
0.0
230
-1.0
  0
SOLID
  5
B32
  8
0
  6
CONTINUOUS
 62
     4
 10
32.176978618550358
 20
10.46220016363166
 30
0.0
 11
32.221596736527488
 21
10.179358804748111
 31
0.0
 12
34.337175033564407
 22
10.179358804748111
 32
0.0
 13
34.337175033564407
 23
10.179358804748111
 33
0.0
  0
SOLID
  5
B33
  8
0
  6
CONTINUOUS
 62
     4
 10
-32.176978618550358
 20
10.46220016363166
 30
0.0
 11
-34.337175033564407
 21
10.46220016363166
 31
0.0
 12
-34.337175033564407
 22
10.179358804748111
 32
0.0
 13
-34.337175033564407
 23
10.179358804748111
 33
0.0
210
0.0
220
0.0
230
-1.0
  0
SOLID
  5
B34
  8
0
  6
CONTINUOUS
 62
     4
 10
27.908930251085039
 20
10.179358804748111
 30
0.0
 11
27.908930251085039
 21
10.15357428677912
 31
0.0
 12
30.030910054114461
 22
10.15357428677912
 32
0.0
 13
30.030910054114461
 23
10.15357428677912
 33
0.0
  0
SOLID
  5
B35
  8
0
  6
CONTINUOUS
 62
     4
 10
-27.908930251085039
 20
10.179358804748111
 30
0.0
 11
-30.030910054114461
 21
10.179358804748111
 31
0.0
 12
-30.030910054114461
 22
10.15357428677912
 32
0.0
 13
-30.030910054114461
 23
10.15357428677912
 33
0.0
210
0.0
220
0.0
230
-1.0
  0
SOLID
  5
B36
  8
0
  6
CONTINUOUS
 62
     4
 10
32.221596736527488
 20
10.179358804748111
 30
0.0
 11
32.225664234538613
 21
10.15357428677912
 31
0.0
 12
34.337175033564407
 22
10.15357428677912
 32
0.0
 13
34.337175033564407
 23
10.15357428677912
 33
0.0
210
0.0
220
0.0
230
1.0
  0
SOLID
  5
B37
  8
0
  6
CONTINUOUS
 62
     4
 10
-32.221596736527488
 20
10.179358804748111
 30
0.0
 11
-34.337175033564407
 21
10.179358804748111
 31
0.0
 12
-34.337175033564407
 22
10.15357428677912
 32
0.0
 13
-34.337175033564407
 23
10.15357428677912
 33
0.0
210
0.0
220
0.0
230
-1.0
  0
SOLID
  5
B38
  8
0
  6
CONTINUOUS
 62
     4
 10
27.908930251085039
 20
10.15357428677912
 30
0.0
 11
27.908930251085039
 21
9.3816366283648644
 31
0.0
 12
30.030910054114461
 22
9.3816366283648644
 32
0.0
 13
30.030910054114461
 23
9.3816366283648644
 33
0.0
210
0.0
220
0.0
230
1.0
  0
SOLID
  5
B39
  8
0
  6
CONTINUOUS
 62
     4
 10
-27.908930251085039
 20
10.15357428677912
 30
0.0
 11
-30.030910054114461
 21
10.15357428677912
 31
0.0
 12
-30.030910054114461
 22
9.3816366283648644
 32
0.0
 13
-30.030910054114461
 23
9.3816366283648644
 33
0.0
210
0.0
220
0.0
230
-1.0
  0
SOLID
  5
B3A
  8
0
  6
CONTINUOUS
 62
     4
 10
32.225664234538613
 20
10.15357428677912
 30
0.0
 11
32.22566423453862
 21
9.3816366283648644
 31
0.0
 12
34.337175033564407
 22
9.3816366283648644
 32
0.0
 13
34.337175033564407
 23
9.3816366283648644
 33
0.0
  0
SOLID
  5
B3B
  8
0
  6
CONTINUOUS
 62
     4
 10
-32.225664234538613
 20
10.15357428677912
 30
0.0
 11
-34.337175033564407
 21
10.15357428677912
 31
0.0
 12
-34.337175033564407
 22
9.3816366283648644
 32
0.0
 13
-34.337175033564407
 23
9.3816366283648644
 33
0.0
210
0.0
220
0.0
230
-1.0
  0
SOLID
  5
B3C
  8
0
  6
CONTINUOUS
 62
     4
 10
27.908930251085039
 20
9.3816366283648644
 30
0.0
 11
27.908930251085039
 21
8.8740694997394236
 31
0.0
 12
30.030910054114461
 22
8.8740694997394236
 32
0.0
 13
30.030910054114461
 23
8.8740694997394236
 33
0.0
210
0.0
220
0.0
230
1.0
  0
SOLID
  5
B3D
  8
0
  6
CONTINUOUS
 62
     4
 10
-27.908930251085039
 20
9.3816366283648644
 30
0.0
 11
-30.030910054114461
 21
9.3816366283648644
 31
0.0
 12
-30.030910054114461
 22
8.8740694997394236
 32
0.0
 13
-30.030910054114461
 23
8.8740694997394236
 33
0.0
210
0.0
220
0.0
230
-1.0
  0
SOLID
  5
B3E
  8
0
  6
CONTINUOUS
 62
     4
 10
32.22566423453862
 20
9.3816366283648644
 30
0.0
 11
32.18992863629714
 21
8.8740694997394236
 31
0.0
 12
34.337175033564407
 22
8.8740694997394236
 32
0.0
 13
34.337175033564407
 23
8.8740694997394236
 33
0.0
210
0.0
220
0.0
230
1.0
  0
SOLID
  5
B3F
  8
0
  6
CONTINUOUS
 62
     4
 10
-32.22566423453862
 20
9.3816366283648644
 30
0.0
 11
-34.337175033564407
 21
9.3816366283648644
 31
0.0
 12
-34.337175033564407
 22
8.8740694997394236
 32
0.0
 13
-34.337175033564407
 23
8.8740694997394236
 33
0.0
210
0.0
220
0.0
230
-1.0
  0
SOLID
  5
B40
  8
0
  6
CONTINUOUS
 62
     4
 10
27.908930251085039
 20
8.8740694997394236
 30
0.0
 11
27.908930251085039
 21
8.7085166987223648
 31
0.0
 12
30.030910054114461
 22
8.7085166987223648
 32
0.0
 13
30.030910054114461
 23
8.7085166987223648
 33
0.0
210
0.0
220
0.0
230
1.0
  0
SOLID
  5
B41
  8
0
  6
CONTINUOUS
 62
     4
 10
-27.908930251085039
 20
8.8740694997394236
 30
0.0
 11
-30.030910054114461
 21
8.8740694997394236
 31
0.0
 12
-30.030910054114461
 22
8.7085166987223648
 32
0.0
 13
-30.030910054114461
 23
8.7085166987223648
 33
0.0
210
0.0
220
0.0
230
-1.0
  0
SOLID
  5
B42
  8
0
  6
CONTINUOUS
 62
     4
 10
32.18992863629714
 20
8.8740694997394236
 30
0.0
 11
32.154491876164229
 21
8.7085166987223648
 31
0.0
 12
34.337175033564407
 22
8.7085166987223648
 32
0.0
 13
34.337175033564407
 23
8.7085166987223648
 33
0.0
210
0.0
220
0.0
230
1.0
  0
SOLID
  5
B43
  8
0
  6
CONTINUOUS
 62
     4
 10
-32.18992863629714
 20
8.8740694997394236
 30
0.0
 11
-34.337175033564407
 21
8.8740694997394236
 31
0.0
 12
-34.337175033564407
 22
8.7085166987223648
 32
0.0
 13
-34.337175033564407
 23
8.7085166987223648
 33
0.0
210
0.0
220
0.0
230
-1.0
  0
SOLID
  5
B44
  8
0
  6
CONTINUOUS
 62
     4
 10
27.908930251085039
 20
8.7085166987223648
 30
0.0
 11
27.908930251085039
 21
8.3765166839910883
 31
0.0
 12
30.030910054114461
 22
8.3765166839910883
 32
0.0
 13
30.030910054114461
 23
8.3765166839910883
 33
0.0
  0
SOLID
  5
B45
  8
0
  6
CONTINUOUS
 62
     4
 10
-27.908930251085039
 20
8.7085166987223648
 30
0.0
 11
-30.030910054114461
 21
8.7085166987223648
 31
0.0
 12
-30.030910054114461
 22
8.3765166839910883
 32
0.0
 13
-30.030910054114461
 23
8.3765166839910883
 33
0.0
210
0.0
220
0.0
230
-1.0
  0
SOLID
  5
B46
  8
0
  6
CONTINUOUS
 62
     4
 10
32.154491876164229
 20
8.7085166987223648
 30
0.0
 11
32.083426905871512
 21
8.3765166839910883
 31
0.0
 12
34.300226888469929
 22
8.3765166839910883
 32
0.0
 13
34.300226888469929
 23
8.3765166839910883
 33
0.0
210
0.0
220
0.0
230
1.0
  0
SOLID
  5
B47
  8
0
  6
CONTINUOUS
 62
     4
 10
-32.154491876164229
 20
8.7085166987223648
 30
0.0
 11
-34.337175033564407
 21
8.7085166987223648
 31
0.0
 12
-34.300226888469929
 22
8.3765166839910883
 32
0.0
 13
-34.300226888469929
 23
8.3765166839910883
 33
0.0
210
0.0
220
0.0
230
-1.0
  0
SOLID
  5
B48
  8
0
  6
CONTINUOUS
 62
     4
 10
27.908930251085039
 20
8.3765166839910883
 30
0.0
 11
27.908930251085039
 21
8.1111372781850832
 31
0.0
 12
30.030910054114461
 22
8.1111372781850832
 32
0.0
 13
30.030910054114461
 23
8.1111372781850832
 33
0.0
210
0.0
220
0.0
230
1.0
  0
SOLID
  5
B49
  8
0
  6
CONTINUOUS
 62
     4
 10
-27.908930251085039
 20
8.3765166839910883
 30
0.0
 11
-30.030910054114461
 21
8.3765166839910883
 31
0.0
 12
-30.030910054114461
 22
8.1111372781850832
 32
0.0
 13
-30.030910054114461
 23
8.1111372781850832
 33
0.0
210
0.0
220
0.0
230
-1.0
  0
SOLID
  5
B4A
  8
0
  6
CONTINUOUS
 62
     4
 10
32.083426905871512
 20
8.3765166839910883
 30
0.0
 11
31.932228762072661
 21
8.1111372781850832
 31
0.0
 12
34.27069292354301
 22
8.1111372781850832
 32
0.0
 13
34.27069292354301
 23
8.1111372781850832
 33
0.0
  0
SOLID
  5
B4B
  8
0
  6
CONTINUOUS
 62
     4
 10
-32.083426905871512
 20
8.3765166839910883
 30
0.0
 11
-34.300226888469929
 21
8.3765166839910883
 31
0.0
 12
-34.27069292354301
 22
8.1111372781850832
 32
0.0
 13
-34.27069292354301
 23
8.1111372781850832
 33
0.0
210
0.0
220
0.0
230
-1.0
  0
SOLID
  5
B4C
  8
0
  6
CONTINUOUS
 62
     4
 10
27.908930251085039
 20
8.1111372781850832
 30
0.0
 11
27.908930251085039
 21
7.9917701052239023
 31
0.0
 12
30.030910054114461
 22
7.9917701052239023
 32
0.0
 13
30.030910054114461
 23
7.9917701052239023
 33
0.0
210
0.0
220
0.0
230
1.0
  0
SOLID
  5
B4D
  8
0
  6
CONTINUOUS
 62
     4
 10
-27.908930251085039
 20
8.1111372781850832
 30
0.0
 11
-30.030910054114461
 21
8.1111372781850832
 31
0.0
 12
-30.030910054114461
 22
7.9917701052239023
 32
0.0
 13
-30.030910054114461
 23
7.9917701052239023
 33
0.0
210
0.0
220
0.0
230
-1.0
  0
SOLID
  5
B4E
  8
0
  6
CONTINUOUS
 62
     4
 10
31.932228762072661
 20
8.1111372781850832
 30
0.0
 11
31.749832553403561
 21
7.9917701052239023
 31
0.0
 12
34.257408599957493
 22
7.9917701052239023
 32
0.0
 13
34.257408599957493
 23
7.9917701052239023
 33
0.0
210
0.0
220
0.0
230
1.0
  0
SOLID
  5
B4F
  8
0
  6
CONTINUOUS
 62
     4
 10
-31.932228762072661
 20
8.1111372781850832
 30
0.0
 11
-34.27069292354301
 21
8.1111372781850832
 31
0.0
 12
-34.257408599957493
 22
7.9917701052239023
 32
0.0
 13
-34.257408599957493
 23
7.9917701052239023
 33
0.0
210
0.0
220
0.0
230
-1.0
  0
SOLID
  5
B50
  8
0
  6
CONTINUOUS
 62
     4
 10
27.908930251085039
 20
7.9917701052239023
 30
0.0
 11
27.908930251085039
 21
7.9438851403388258
 31
0.0
 12
30.030910054114461
 22
7.9438851403388258
 32
0.0
 13
30.030910054114461
 23
7.9438851403388258
 33
0.0
  0
SOLID
  5
B51
  8
0
  6
CONTINUOUS
 62
     4
 10
-27.908930251085039
 20
7.9917701052239023
 30
0.0
 11
-30.030910054114461
 21
7.9917701052239023
 31
0.0
 12
-30.030910054114461
 22
7.9438851403388258
 32
0.0
 13
-30.030910054114461
 23
7.9438851403388258
 33
0.0
210
0.0
220
0.0
230
-1.0
  0
SOLID
  5
B52
  8
0
  6
CONTINUOUS
 62
     4
 10
31.749832553403561
 20
7.9917701052239023
 30
0.0
 11
31.676663056039899
 21
7.9438851403388258
 31
0.0
 12
34.240872906506752
 22
7.9438851403388258
 32
0.0
 13
34.240872906506752
 23
7.9438851403388258
 33
0.0
210
0.0
220
0.0
230
1.0
  0
SOLID
  5
B53
  8
0
  6
CONTINUOUS
 62
     4
 10
-31.749832553403561
 20
7.9917701052239023
 30
0.0
 11
-34.257408599957493
 21
7.9917701052239023
 31
0.0
 12
-34.240872906506752
 22
7.9438851403388258
 32
0.0
 13
-34.240872906506752
 23
7.9438851403388258
 33
0.0
210
0.0
220
0.0
230
-1.0
  0
SOLID
  5
B54
  8
0
  6
CONTINUOUS
 62
     4
 10
27.908930251085039
 20
7.9438851403388258
 30
0.0
 11
27.908930251085039
 21
7.9004115087946998
 31
0.0
 12
30.030910054114461
 22
7.9004115087946998
 32
0.0
 13
30.030910054114461
 23
7.9004115087946998
 33
0.0
210
0.0
220
0.0
230
1.0
  0
SOLID
  5
B55
  8
0
  6
CONTINUOUS
 62
     4
 10
-27.908930251085039
 20
7.9438851403388258
 30
0.0
 11
-30.030910054114461
 21
7.9438851403388258
 31
0.0
 12
-30.030910054114461
 22
7.9004115087946998
 32
0.0
 13
-30.030910054114461
 23
7.9004115087946998
 33
0.0
210
0.0
220
0.0
230
-1.0
  0
SOLID
  5
B56
  8
0
  6
CONTINUOUS
 62
     4
 10
31.676663056039899
 20
7.9438851403388258
 30
0.0
 11
31.511299495553448
 21
7.9004115087946998
 31
0.0
 12
34.225860539971059
 22
7.9004115087946998
 32
0.0
 13
34.225860539971059
 23
7.9004115087946998
 33
0.0
210
0.0
220
0.0
230
1.0
  0
SOLID
  5
B57
  8
0
  6
CONTINUOUS
 62
     4
 10
-31.676663056039899
 20
7.9438851403388258
 30
0.0
 11
-34.240872906506752
 21
7.9438851403388258
 31
0.0
 12
-34.225860539971059
 22
7.9004115087946998
 32
0.0
 13
-34.225860539971059
 23
7.9004115087946998
 33
0.0
210
0.0
220
0.0
230
-1.0
  0
SOLID
  5
B58
  8
0
  6
CONTINUOUS
 62
     4
 10
27.908930251085039
 20
7.9004115087946998
 30
0.0
 11
27.908930251085039
 21
7.885777363886084
 31
0.0
 12
30.030910054114461
 22
7.885777363886084
 32
0.0
 13
30.030910054114461
 23
7.885777363886084
 33
0.0
210
0.0
220
0.0
230
1.0
  0
SOLID
  5
B59
  8
0
  6
CONTINUOUS
 62
     4
 10
-27.908930251085039
 20
7.9004115087946998
 30
0.0
 11
-30.030910054114461
 21
7.9004115087946998
 31
0.0
 12
-30.030910054114461
 22
7.885777363886084
 32
0.0
 13
-30.030910054114461
 23
7.885777363886084
 33
0.0
210
0.0
220
0.0
230
-1.0
  0
SOLID
  5
B5A
  8
0
  6
CONTINUOUS
 62
     4
 10
31.511299495553448
 20
7.9004115087946998
 30
0.0
 11
31.340944262058329
 21
7.885777363886084
 31
0.0
 12
34.220807059516318
 22
7.885777363886084
 32
0.0
 13
34.220807059516318
 23
7.885777363886084
 33
0.0
210
0.0
220
0.0
230
1.0
  0
SOLID
  5
B5B
  8
0
  6
CONTINUOUS
 62
     4
 10
-31.511299495553448
 20
7.9004115087946998
 30
0.0
 11
-34.225860539971059
 21
7.9004115087946998
 31
0.0
 12
-34.220807059516318
 22
7.885777363886084
 32
0.0
 13
-34.220807059516318
 23
7.885777363886084
 33
0.0
210
0.0
220
0.0
230
-1.0
  0
SOLID
  5
B5C
  8
0
  6
CONTINUOUS
 62
     4
 10
30.030910054114461
 20
7.885777363886084
 30
0.0
 11
30.030910054114461
 21
7.885777363886084
 31
0.0
 12
31.340944262058329
 22
7.885777363886084
 32
0.0
 13
31.340944262058329
 23
7.885777363886084
 33
0.0
210
0.0
220
0.0
230
1.0
  0
SOLID
  5
B5D
  8
0
  6
CONTINUOUS
 62
     4
 10
27.908930251085039
 20
7.885777363886084
 30
0.0
 11
27.908930251085039
 21
7.3100977979820794
 31
0.0
 12
34.02201270202886
 22
7.3100977979820794
 32
0.0
 13
34.02201270202886
 23
7.3100977979820794
 33
0.0
  0
SOLID
  5
B5E
  8
0
  6
CONTINUOUS
 62
     4
 10
-27.908930251085039
 20
7.885777363886084
 30
0.0
 11
-34.220807059516318
 21
7.885777363886084
 31
0.0
 12
-34.02201270202886
 22
7.3100977979820794
 32
0.0
 13
-34.02201270202886
 23
7.3100977979820794
 33
0.0
210
0.0
220
0.0
230
-1.0
  0
SOLID
  5
B5F
  8
0
  6
CONTINUOUS
 62
     4
 10
27.908930251085039
 20
7.3100977979820794
 30
0.0
 11
27.908930251085039
 21
6.7588625753243399
 31
0.0
 12
33.604858161461983
 22
6.7588625753243399
 32
0.0
 13
33.604858161461983
 23
6.7588625753243399
 33
0.0
210
0.0
220
0.0
230
1.0
  0
SOLID
  5
B60
  8
0
  6
CONTINUOUS
 62
     4
 10
-27.908930251085039
 20
7.3100977979820794
 30
0.0
 11
-34.02201270202886
 21
7.3100977979820794
 31
0.0
 12
-33.604858161461983
 22
6.7588625753243399
 32
0.0
 13
-33.604858161461983
 23
6.7588625753243399
 33
0.0
210
0.0
220
0.0
230
-1.0
  0
SOLID
  5
B61
  8
0
  6
CONTINUOUS
 62
     4
 10
27.908930251085039
 20
6.7588625753243399
 30
0.0
 11
27.908930251085039
 21
6.4189705055174278
 31
0.0
 12
33.00290171594748
 22
6.4189705055174278
 32
0.0
 13
33.00290171594748
 23
6.4189705055174278
 33
0.0
210
0.0
220
0.0
230
1.0
  0
SOLID
  5
B62
  8
0
  6
CONTINUOUS
 62
     4
 10
-27.908930251085039
 20
6.7588625753243399
 30
0.0
 11
-33.604858161461983
 21
6.7588625753243399
 31
0.0
 12
-33.00290171594748
 22
6.4189705055174278
 32
0.0
 13
-33.00290171594748
 23
6.4189705055174278
 33
0.0
210
0.0
220
0.0
230
-1.0
  0
SOLID
  5
B63
  8
0
  6
CONTINUOUS
 62
     4
 10
27.908930251085039
 20
6.4189705055174278
 30
0.0
 11
27.908930251085039
 21
6.3391745294582611
 31
0.0
 12
32.665376440190208
 22
6.3391745294582611
 32
0.0
 13
32.665376440190208
 23
6.3391745294582611
 33
0.0
210
0.0
220
0.0
230
1.0
  0
SOLID
  5
B64
  8
0
  6
CONTINUOUS
 62
     4
 10
-27.908930251085039
 20
6.4189705055174278
 30
0.0
 11
-33.00290171594748
 21
6.4189705055174278
 31
0.0
 12
-32.665376440190208
 22
6.3391745294582611
 32
0.0
 13
-32.665376440190208
 23
6.3391745294582611
 33
0.0
210
0.0
220
0.0
230
-1.0
  0
SOLID
  5
B65
  8
0
  6
CONTINUOUS
 62
     4
 10
27.908930251085039
 20
6.3391745294582611
 30
0.0
 11
27.908930251085039
 21
6.3234327960089303
 31
0.0
 12
30.022244046220621
 22
6.3234327960089303
 32
0.0
 13
30.022244046220621
 23
6.3234327960089303
 33
0.0
210
0.0
220
0.0
230
1.0
  0
SOLID
  5
B66
  8
0
  6
CONTINUOUS
 62
     4
 10
-27.908930251085039
 20
6.3391745294582611
 30
0.0
 11
-30.022244046220621
 21
6.3391745294582611
 31
0.0
 12
-30.022244046220621
 22
6.3234327960089303
 32
0.0
 13
-30.022244046220621
 23
6.3234327960089303
 33
0.0
210
0.0
220
0.0
230
-1.0
  0
SOLID
  5
B67
  8
0
  6
CONTINUOUS
 62
     4
 10
30.022244046220621
 20
6.3391745294582611
 30
0.0
 11
30.223110450430699
 21
6.3234327960089303
 31
0.0
 12
32.598791216400933
 22
6.3234327960089303
 32
0.0
 13
32.598791216400933
 23
6.3234327960089303
 33
0.0
210
0.0
220
0.0
230
1.0
  0
SOLID
  5
B68
  8
0
  6
CONTINUOUS
 62
     4
 10
-30.022244046220621
 20
6.3391745294582611
 30
0.0
 11
-32.665376440190208
 21
6.3391745294582611
 31
0.0
 12
-32.598791216400933
 22
6.3234327960089303
 32
0.0
 13
-32.598791216400933
 23
6.3234327960089303
 33
0.0
210
0.0
220
0.0
230
-1.0
  0
SOLID
  5
B69
  8
0
  6
CONTINUOUS
 62
     4
 10
27.908930251085039
 20
6.3234327960089303
 30
0.0
 11
27.908930251085039
 21
6.3033000834673709
 31
0.0
 12
30.022244046220621
 22
6.3033000834673709
 32
0.0
 13
30.022244046220621
 23
6.3033000834673709
 33
0.0
210
0.0
220
0.0
230
1.0
  0
SOLID
  5
B6A
  8
0
  6
CONTINUOUS
 62
     4
 10
-27.908930251085039
 20
6.3234327960089303
 30
0.0
 11
-30.022244046220621
 21
6.3234327960089303
 31
0.0
 12
-30.022244046220621
 22
6.3033000834673709
 32
0.0
 13
-30.022244046220621
 23
6.3033000834673709
 33
0.0
210
0.0
220
0.0
230
-1.0
  0
SOLID
  5
B6B
  8
0
  6
CONTINUOUS
 62
     4
 10
30.223110450430699
 20
6.3234327960089303
 30
0.0
 11
30.480006273767732
 21
6.3033000834673709
 31
0.0
 12
32.339144741609907
 22
6.3033000834673709
 32
0.0
 13
32.339144741609907
 23
6.3033000834673709
 33
0.0
210
0.0
220
0.0
230
1.0
  0
SOLID
  5
B6C
  8
0
  6
CONTINUOUS
 62
     4
 10
-30.223110450430699
 20
6.3234327960089303
 30
0.0
 11
-32.598791216400933
 21
6.3234327960089303
 31
0.0
 12
-32.339144741609907
 22
6.3033000834673709
 32
0.0
 13
-32.339144741609907
 23
6.3033000834673709
 33
0.0
210
0.0
220
0.0
230
-1.0
  0
SOLID
  5
B6D
  8
0
  6
CONTINUOUS
 62
     4
 10
27.908930251085039
 20
6.3033000834673709
 30
0.0
 11
27.908930251085039
 21
6.2913310912303224
 31
0.0
 12
30.022244046220621
 22
6.2913310912303224
 32
0.0
 13
30.022244046220621
 23
6.2913310912303224
 33
0.0
210
0.0
220
0.0
230
1.0
  0
SOLID
  5
B6E
  8
0
  6
CONTINUOUS
 62
     4
 10
-27.908930251085039
 20
6.3033000834673709
 30
0.0
 11
-30.022244046220621
 21
6.3033000834673709
 31
0.0
 12
-30.022244046220621
 22
6.2913310912303224
 32
0.0
 13
-30.022244046220621
 23
6.2913310912303224
 33
0.0
210
0.0
220
0.0
230
-1.0
  0
SOLID
  5
B6F
  8
0
  6
CONTINUOUS
 62
     4
 10
30.480006273767732
 20
6.3033000834673709
 30
0.0
 11
30.939016051516401
 21
6.2913310912303224
 31
0.0
 12
32.184783691913502
 22
6.2913310912303224
 32
0.0
 13
32.184783691913502
 23
6.2913310912303224
 33
0.0
210
0.0
220
0.0
230
1.0
  0
SOLID
  5
B70
  8
0
  6
CONTINUOUS
 62
     4
 10
-30.480006273767732
 20
6.3033000834673709
 30
0.0
 11
-32.339144741609907
 21
6.3033000834673709
 31
0.0
 12
-32.184783691913502
 22
6.2913310912303224
 32
0.0
 13
-32.184783691913502
 23
6.2913310912303224
 33
0.0
210
0.0
220
0.0
230
-1.0
  0
SOLID
  5
B71
  8
0
  6
CONTINUOUS
 62
     4
 10
30.939016051516401
 20
6.2913310912303224
 30
0.0
 11
30.939016051516401
 21
6.2913310912303224
 31
0.0
 12
32.184783691913523
 22
6.2913310912303224
 32
0.0
 13
32.184783691913523
 23
6.2913310912303224
 33
0.0
210
0.0
220
0.0
230
1.0
  0
SOLID
  5
B72
  8
0
  6
CONTINUOUS
 62
     4
 10
27.908930251085039
 20
6.2913310912303224
 30
0.0
 11
27.908930251085039
 21
3.992809411462424
 31
0.0
 12
30.022244046220621
 22
3.992809411462424
 32
0.0
 13
30.022244046220621
 23
3.992809411462424
 33
0.0
210
0.0
220
0.0
230
1.0
  0
SOLID
  5
B73
  8
0
  6
CONTINUOUS
 62
     4
 10
-27.908930251085039
 20
6.2913310912303224
 30
0.0
 11
-30.022244046220621
 21
6.2913310912303224
 31
0.0
 12
-30.022244046220621
 22
3.992809411462424
 32
0.0
 13
-30.022244046220621
 23
3.992809411462424
 33
0.0
210
0.0
220
0.0
230
-1.0
  0
SOLID
  5
B74
  8
0
  6
CONTINUOUS
 62
     4
 10
27.908930251085039
 20
3.992809411462424
 30
0.0
 11
27.908930251085039
 21
3.992809411462424
 31
0.0
 12
30.022244046220621
 22
3.992809411462424
 32
0.0
 13
30.022244046220621
 23
3.992809411462424
 33
0.0
210
0.0
220
0.0
230
1.0
  0
LINE
  5
B75
  8
0
  6
CONTINUOUS
 62
     4
 10
31.433492174088592
 20
12.761725249354241
 30
0.0
 11
32.448644450296271
 21
12.761725249354241
 31
0.0
  0
LINE
  5
B76
  8
0
  6
CONTINUOUS
 62
     4
 10
31.43349217408856
 20
12.761725249354241
 30
0.0
 11
31.018223714605568
 21
12.688276309604881
 31
0.0
  0
LINE
  5
B77
  8
0
  6
CONTINUOUS
 62
     4
 10
32.448644450296271
 20
12.761725249354241
 30
0.0
 11
32.686526316361011
 21
12.688276309604881
 31
0.0
  0
LINE
  5
B78
  8
0
  6
CONTINUOUS
 62
     4
 10
27.908930251085039
 20
12.688276309604881
 30
0.0
 11
30.022244046220621
 21
12.688276309604881
 31
0.0
  0
LINE
  5
B79
  8
0
  6
CONTINUOUS
 62
     4
 10
27.908930251085039
 20
12.688276309604881
 30
0.0
 11
27.908930251085039
 21
12.6288600621091
 31
0.0
  0
LINE
  5
B7A
  8
0
  6
CONTINUOUS
 62
     4
 10
30.022244046220621
 20
12.688276309604881
 30
0.0
 11
30.022244046220621
 21
12.6288600621091
 31
0.0
  0
LINE
  5
B7B
  8
0
  6
CONTINUOUS
 62
     4
 10
31.018223714605568
 20
12.688276309604881
 30
0.0
 11
30.68229383392881
 21
12.6288600621091
 31
0.0
  0
LINE
  5
B7C
  8
0
  6
CONTINUOUS
 62
     4
 10
32.686526316361011
 20
12.688276309604881
 30
0.0
 11
32.878959969958942
 21
12.6288600621091
 31
0.0
  0
LINE
  5
B7D
  8
0
  6
CONTINUOUS
 62
     4
 10
27.908930251085039
 20
12.6288600621091
 30
0.0
 11
27.908930251085039
 21
12.44961613536635
 31
0.0
  0
LINE
  5
B7E
  8
0
  6
CONTINUOUS
 62
     4
 10
30.022244046220621
 20
12.6288600621091
 30
0.0
 11
30.022244046220621
 21
12.44961613536635
 31
0.0
  0
LINE
  5
B7F
  8
0
  6
CONTINUOUS
 62
     4
 10
30.68229383392881
 20
12.6288600621091
 30
0.0
 11
30.37296586084598
 21
12.44961613536635
 31
0.0
  0
LINE
  5
B80
  8
0
  6
CONTINUOUS
 62
     4
 10
32.878959969958942
 20
12.6288600621091
 30
0.0
 11
33.459484071734153
 21
12.44961613536635
 31
0.0
  0
LINE
  5
B81
  8
0
  6
CONTINUOUS
 62
     4
 10
27.908930251085039
 20
12.44961613536635
 30
0.0
 11
27.908930251085039
 21
12.24638603424984
 31
0.0
  0
LINE
  5
B82
  8
0
  6
CONTINUOUS
 62
     4
 10
30.022244046220621
 20
12.44961613536635
 30
0.0
 11
30.022244046220621
 21
12.24638603424984
 31
0.0
  0
LINE
  5
B83
  8
0
  6
CONTINUOUS
 62
     4
 10
30.37296586084598
 20
12.44961613536635
 30
0.0
 11
30.022244046220621
 21
12.24638603424984
 31
0.0
  0
LINE
  5
B84
  8
0
  6
CONTINUOUS
 62
     4
 10
33.459484071734153
 20
12.44961613536635
 30
0.0
 11
33.621278820540098
 21
12.24638603424984
 31
0.0
  0
LINE
  5
B85
  8
0
  6
CONTINUOUS
 62
     4
 10
27.908930251085039
 20
12.24638603424984
 30
0.0
 11
27.908930251085039
 21
11.62194842100261
 31
0.0
  0
LINE
  5
B86
  8
0
  6
CONTINUOUS
 62
     4
 10
33.621278820540098
 20
12.24638603424984
 30
0.0
 11
34.118403637313193
 21
11.62194842100261
 31
0.0
  0
LINE
  5
B87
  8
0
  6
CONTINUOUS
 62
     4
 10
27.908930251085039
 20
11.62194842100261
 30
0.0
 11
27.908930251085039
 21
11.20489331706864
 31
0.0
  0
LINE
  5
B88
  8
0
  6
CONTINUOUS
 62
     4
 10
34.118403637313193
 20
11.62194842100261
 30
0.0
 11
34.238180244053019
 21
11.20489331706864
 31
0.0
  0
LINE
  5
B89
  8
0
  6
CONTINUOUS
 62
     4
 10
31.02714412116546
 20
11.20489331706864
 30
0.0
 11
31.118536059580709
 21
11.20489331706864
 31
0.0
  0
LINE
  5
B8A
  8
0
  6
CONTINUOUS
 62
     4
 10
27.908930251085039
 20
11.20489331706864
 30
0.0
 11
27.908930251085039
 21
11.169386569952779
 31
0.0
  0
LINE
  5
B8B
  8
0
  6
CONTINUOUS
 62
     4
 10
31.02714412116546
 20
11.20489331706864
 30
0.0
 11
30.699011631192551
 21
11.169386569952779
 31
0.0
  0
LINE
  5
B8C
  8
0
  6
CONTINUOUS
 62
     4
 10
31.11853605958073
 20
11.20489331706864
 30
0.0
 11
31.41442024329649
 21
11.169386569952779
 31
0.0
  0
LINE
  5
B8D
  8
0
  6
CONTINUOUS
 62
     4
 10
34.238180244053019
 20
11.20489331706864
 30
0.0
 11
34.248377643978799
 21
11.169386569952779
 31
0.0
  0
LINE
  5
B8E
  8
0
  6
CONTINUOUS
 62
     4
 10
27.908930251085039
 20
11.169386569952779
 30
0.0
 11
27.908930251085039
 21
11.153478444881589
 31
0.0
  0
LINE
  5
B8F
  8
0
  6
CONTINUOUS
 62
     4
 10
30.699011631192551
 20
11.169386569952779
 30
0.0
 11
30.651543241721061
 21
11.153478444881589
 31
0.0
  0
LINE
  5
B90
  8
0
  6
CONTINUOUS
 62
     4
 10
31.41442024329649
 20
11.169386569952779
 30
0.0
 11
31.54698554379506
 21
11.153478444881589
 31
0.0
  0
LINE
  5
B91
  8
0
  6
CONTINUOUS
 62
     4
 10
34.248377643978799
 20
11.169386569952779
 30
0.0
 11
34.252946395740011
 21
11.153478444881589
 31
0.0
  0
LINE
  5
B92
  8
0
  6
CONTINUOUS
 62
     4
 10
27.908930251085039
 20
11.153478444881589
 30
0.0
 11
27.908930251085039
 21
11.0645100890686
 31
0.0
  0
LINE
  5
B93
  8
0
  6
CONTINUOUS
 62
     4
 10
30.651543241721061
 20
11.153478444881589
 30
0.0
 11
30.38606980940466
 21
11.0645100890686
 31
0.0
  0
LINE
  5
B94
  8
0
  6
CONTINUOUS
 62
     4
 10
31.54698554379506
 20
11.153478444881589
 30
0.0
 11
31.784579471307261
 21
11.0645100890686
 31
0.0
  0
LINE
  5
B95
  8
0
  6
CONTINUOUS
 62
     4
 10
34.252946395740011
 20
11.153478444881589
 30
0.0
 11
34.27849776213256
 21
11.0645100890686
 31
0.0
  0
LINE
  5
B96
  8
0
  6
CONTINUOUS
 62
     4
 10
27.908930251085039
 20
11.0645100890686
 30
0.0
 11
27.908930251085039
 21
11.052301202499709
 31
0.0
  0
LINE
  5
B97
  8
0
  6
CONTINUOUS
 62
     4
 10
30.38606980940466
 20
11.0645100890686
 30
0.0
 11
30.378203502956861
 21
11.052301202499709
 31
0.0
  0
LINE
  5
B98
  8
0
  6
CONTINUOUS
 62
     4
 10
31.784579471307261
 20
11.0645100890686
 30
0.0
 11
31.817183842647449
 21
11.052301202499709
 31
0.0
  0
LINE
  5
B99
  8
0
  6
CONTINUOUS
 62
     4
 10
34.27849776213256
 20
11.0645100890686
 30
0.0
 11
34.28200410695726
 21
11.052301202499709
 31
0.0
  0
LINE
  5
B9A
  8
0
  6
CONTINUOUS
 62
     4
 10
27.908930251085039
 20
11.052301202499709
 30
0.0
 11
27.908930251085039
 21
11.00215338936086
 31
0.0
  0
LINE
  5
B9B
  8
0
  6
CONTINUOUS
 62
     4
 10
30.378203502956861
 20
11.052301202499709
 30
0.0
 11
30.345892770638098
 21
11.00215338936086
 31
0.0
  0
LINE
  5
B9C
  8
0
  6
CONTINUOUS
 62
     4
 10
31.817183842647449
 20
11.052301202499709
 30
0.0
 11
31.951105794682331
 21
11.00215338936086
 31
0.0
  0
LINE
  5
B9D
  8
0
  6
CONTINUOUS
 62
     4
 10
34.28200410695726
 20
11.052301202499709
 30
0.0
 11
34.286692628305232
 21
11.00215338936086
 31
0.0
  0
LINE
  5
B9E
  8
0
  6
CONTINUOUS
 62
     4
 10
27.908930251085039
 20
11.00215338936086
 30
0.0
 11
27.908930251085039
 21
10.65623175635891
 31
0.0
  0
LINE
  5
B9F
  8
0
  6
CONTINUOUS
 62
     4
 10
30.345892770638098
 20
11.00215338936086
 30
0.0
 11
30.123012038905141
 21
10.65623175635891
 31
0.0
  0
LINE
  5
BA0
  8
0
  6
CONTINUOUS
 62
     4
 10
31.951105794682331
 20
11.00215338936086
 30
0.0
 11
32.126552840083157
 21
10.65623175635891
 31
0.0
  0
LINE
  5
BA1
  8
0
  6
CONTINUOUS
 62
     4
 10
34.286692628305232
 20
11.00215338936086
 30
0.0
 11
34.319034237231698
 21
10.65623175635891
 31
0.0
  0
LINE
  5
BA2
  8
0
  6
CONTINUOUS
 62
     4
 10
27.908930251085039
 20
10.65623175635891
 30
0.0
 11
27.908930251085039
 21
10.59951958337802
 31
0.0
  0
LINE
  5
BA3
  8
0
  6
CONTINUOUS
 62
     4
 10
30.123012038905141
 20
10.65623175635891
 30
0.0
 11
30.112058799314401
 21
10.59951958337802
 31
0.0
  0
LINE
  5
BA4
  8
0
  6
CONTINUOUS
 62
     4
 10
32.126552840083157
 20
10.65623175635891
 30
0.0
 11
32.155316531736119
 21
10.59951958337802
 31
0.0
  0
LINE
  5
BA5
  8
0
  6
CONTINUOUS
 62
     4
 10
34.319034237231698
 20
10.65623175635891
 30
0.0
 11
34.324336487062112
 21
10.59951958337802
 31
0.0
  0
LINE
  5
BA6
  8
0
  6
CONTINUOUS
 62
     4
 10
27.908930251085039
 20
10.59951958337802
 30
0.0
 11
27.908930251085039
 21
10.46220016363166
 31
0.0
  0
LINE
  5
BA7
  8
0
  6
CONTINUOUS
 62
     4
 10
30.112058799314401
 20
10.59951958337802
 30
0.0
 11
30.085537288571921
 21
10.46220016363166
 31
0.0
  0
LINE
  5
BA8
  8
0
  6
CONTINUOUS
 62
     4
 10
32.155316531736119
 20
10.59951958337802
 30
0.0
 11
32.176978618550358
 21
10.46220016363166
 31
0.0
  0
LINE
  5
BA9
  8
0
  6
CONTINUOUS
 62
     4
 10
34.324336487062112
 20
10.59951958337802
 30
0.0
 11
34.337175033564407
 21
10.46220016363166
 31
0.0
  0
LINE
  5
BAA
  8
0
  6
CONTINUOUS
 62
     4
 10
27.908930251085039
 20
10.46220016363166
 30
0.0
 11
27.908930251085039
 21
10.179358804748111
 31
0.0
  0
LINE
  5
BAB
  8
0
  6
CONTINUOUS
 62
     4
 10
30.085537288571921
 20
10.46220016363166
 30
0.0
 11
30.030910054114461
 21
10.179358804748111
 31
0.0
  0
LINE
  5
BAC
  8
0
  6
CONTINUOUS
 62
     4
 10
32.176978618550358
 20
10.46220016363166
 30
0.0
 11
32.221596736527488
 21
10.179358804748111
 31
0.0
  0
LINE
  5
BAD
  8
0
  6
CONTINUOUS
 62
     4
 10
34.337175033564407
 20
10.46220016363166
 30
0.0
 11
34.337175033564407
 21
10.179358804748111
 31
0.0
  0
LINE
  5
BAE
  8
0
  6
CONTINUOUS
 62
     4
 10
27.908930251085039
 20
10.179358804748111
 30
0.0
 11
27.908930251085039
 21
10.15357428677912
 31
0.0
  0
LINE
  5
BAF
  8
0
  6
CONTINUOUS
 62
     4
 10
30.030910054114461
 20
10.179358804748111
 30
0.0
 11
30.030910054114461
 21
10.15357428677912
 31
0.0
  0
LINE
  5
BB0
  8
0
  6
CONTINUOUS
 62
     4
 10
32.221596736527488
 20
10.179358804748111
 30
0.0
 11
32.225664234538613
 21
10.15357428677912
 31
0.0
  0
LINE
  5
BB1
  8
0
  6
CONTINUOUS
 62
     4
 10
34.337175033564407
 20
10.179358804748111
 30
0.0
 11
34.337175033564407
 21
10.15357428677912
 31
0.0
  0
LINE
  5
BB2
  8
0
  6
CONTINUOUS
 62
     4
 10
27.908930251085039
 20
10.15357428677912
 30
0.0
 11
27.908930251085039
 21
9.3816366283648644
 31
0.0
  0
LINE
  5
BB3
  8
0
  6
CONTINUOUS
 62
     4
 10
30.030910054114461
 20
10.15357428677912
 30
0.0
 11
30.030910054114461
 21
9.3816366283648644
 31
0.0
  0
LINE
  5
BB4
  8
0
  6
CONTINUOUS
 62
     4
 10
32.225664234538613
 20
10.15357428677912
 30
0.0
 11
32.22566423453862
 21
9.3816366283648644
 31
0.0
  0
LINE
  5
BB5
  8
0
  6
CONTINUOUS
 62
     4
 10
34.337175033564407
 20
10.15357428677912
 30
0.0
 11
34.337175033564407
 21
9.3816366283648644
 31
0.0
  0
LINE
  5
BB6
  8
0
  6
CONTINUOUS
 62
     4
 10
27.908930251085039
 20
9.3816366283648644
 30
0.0
 11
27.908930251085039
 21
8.8740694997394236
 31
0.0
  0
LINE
  5
BB7
  8
0
  6
CONTINUOUS
 62
     4
 10
30.030910054114461
 20
9.3816366283648644
 30
0.0
 11
30.030910054114461
 21
8.8740694997394236
 31
0.0
  0
LINE
  5
BB8
  8
0
  6
CONTINUOUS
 62
     4
 10
32.22566423453862
 20
9.3816366283648644
 30
0.0
 11
32.18992863629714
 21
8.8740694997394236
 31
0.0
  0
LINE
  5
BB9
  8
0
  6
CONTINUOUS
 62
     4
 10
34.337175033564407
 20
9.3816366283648644
 30
0.0
 11
34.337175033564407
 21
8.8740694997394236
 31
0.0
  0
LINE
  5
BBA
  8
0
  6
CONTINUOUS
 62
     4
 10
27.908930251085039
 20
8.8740694997394236
 30
0.0
 11
27.908930251085039
 21
8.7085166987223648
 31
0.0
  0
LINE
  5
BBB
  8
0
  6
CONTINUOUS
 62
     4
 10
30.030910054114461
 20
8.8740694997394236
 30
0.0
 11
30.030910054114461
 21
8.7085166987223648
 31
0.0
  0
LINE
  5
BBC
  8
0
  6
CONTINUOUS
 62
     4
 10
32.18992863629714
 20
8.8740694997394236
 30
0.0
 11
32.154491876164229
 21
8.7085166987223648
 31
0.0
  0
LINE
  5
BBD
  8
0
  6
CONTINUOUS
 62
     4
 10
34.337175033564407
 20
8.8740694997394236
 30
0.0
 11
34.337175033564407
 21
8.7085166987223648
 31
0.0
  0
LINE
  5
BBE
  8
0
  6
CONTINUOUS
 62
     4
 10
27.908930251085039
 20
8.7085166987223648
 30
0.0
 11
27.908930251085039
 21
8.3765166839910883
 31
0.0
  0
LINE
  5
BBF
  8
0
  6
CONTINUOUS
 62
     4
 10
30.030910054114461
 20
8.7085166987223648
 30
0.0
 11
30.030910054114461
 21
8.3765166839910883
 31
0.0
  0
LINE
  5
BC0
  8
0
  6
CONTINUOUS
 62
     4
 10
32.154491876164229
 20
8.7085166987223648
 30
0.0
 11
32.083426905871512
 21
8.3765166839910883
 31
0.0
  0
LINE
  5
BC1
  8
0
  6
CONTINUOUS
 62
     4
 10
34.337175033564407
 20
8.7085166987223648
 30
0.0
 11
34.300226888469929
 21
8.3765166839910883
 31
0.0
  0
LINE
  5
BC2
  8
0
  6
CONTINUOUS
 62
     4
 10
27.908930251085039
 20
8.3765166839910883
 30
0.0
 11
27.908930251085039
 21
8.1111372781850832
 31
0.0
  0
LINE
  5
BC3
  8
0
  6
CONTINUOUS
 62
     4
 10
30.030910054114461
 20
8.3765166839910883
 30
0.0
 11
30.030910054114461
 21
8.1111372781850832
 31
0.0
  0
LINE
  5
BC4
  8
0
  6
CONTINUOUS
 62
     4
 10
32.083426905871512
 20
8.3765166839910883
 30
0.0
 11
31.932228762072661
 21
8.1111372781850832
 31
0.0
  0
LINE
  5
BC5
  8
0
  6
CONTINUOUS
 62
     4
 10
34.300226888469929
 20
8.3765166839910883
 30
0.0
 11
34.27069292354301
 21
8.1111372781850832
 31
0.0
  0
LINE
  5
BC6
  8
0
  6
CONTINUOUS
 62
     4
 10
27.908930251085039
 20
8.1111372781850832
 30
0.0
 11
27.908930251085039
 21
7.9917701052239023
 31
0.0
  0
LINE
  5
BC7
  8
0
  6
CONTINUOUS
 62
     4
 10
30.030910054114461
 20
8.1111372781850832
 30
0.0
 11
30.030910054114461
 21
7.9917701052239023
 31
0.0
  0
LINE
  5
BC8
  8
0
  6
CONTINUOUS
 62
     4
 10
31.932228762072661
 20
8.1111372781850832
 30
0.0
 11
31.749832553403561
 21
7.9917701052239023
 31
0.0
  0
LINE
  5
BC9
  8
0
  6
CONTINUOUS
 62
     4
 10
34.27069292354301
 20
8.1111372781850832
 30
0.0
 11
34.257408599957493
 21
7.9917701052239023
 31
0.0
  0
LINE
  5
BCA
  8
0
  6
CONTINUOUS
 62
     4
 10
27.908930251085039
 20
7.9917701052239023
 30
0.0
 11
27.908930251085039
 21
7.9438851403388258
 31
0.0
  0
LINE
  5
BCB
  8
0
  6
CONTINUOUS
 62
     4
 10
30.030910054114461
 20
7.9917701052239023
 30
0.0
 11
30.030910054114461
 21
7.9438851403388258
 31
0.0
  0
LINE
  5
BCC
  8
0
  6
CONTINUOUS
 62
     4
 10
31.749832553403561
 20
7.9917701052239023
 30
0.0
 11
31.676663056039899
 21
7.9438851403388258
 31
0.0
  0
LINE
  5
BCD
  8
0
  6
CONTINUOUS
 62
     4
 10
34.257408599957493
 20
7.9917701052239023
 30
0.0
 11
34.240872906506752
 21
7.9438851403388258
 31
0.0
  0
LINE
  5
BCE
  8
0
  6
CONTINUOUS
 62
     4
 10
27.908930251085039
 20
7.9438851403388258
 30
0.0
 11
27.908930251085039
 21
7.9004115087946998
 31
0.0
  0
LINE
  5
BCF
  8
0
  6
CONTINUOUS
 62
     4
 10
30.030910054114461
 20
7.9438851403388258
 30
0.0
 11
30.030910054114461
 21
7.9004115087946998
 31
0.0
  0
LINE
  5
BD0
  8
0
  6
CONTINUOUS
 62
     4
 10
31.676663056039899
 20
7.9438851403388258
 30
0.0
 11
31.511299495553448
 21
7.9004115087946998
 31
0.0
  0
LINE
  5
BD1
  8
0
  6
CONTINUOUS
 62
     4
 10
34.240872906506752
 20
7.9438851403388258
 30
0.0
 11
34.225860539971059
 21
7.9004115087946998
 31
0.0
  0
LINE
  5
BD2
  8
0
  6
CONTINUOUS
 62
     4
 10
27.908930251085039
 20
7.9004115087946998
 30
0.0
 11
27.908930251085039
 21
7.885777363886084
 31
0.0
  0
LINE
  5
BD3
  8
0
  6
CONTINUOUS
 62
     4
 10
30.030910054114461
 20
7.9004115087946998
 30
0.0
 11
30.030910054114461
 21
7.885777363886084
 31
0.0
  0
LINE
  5
BD4
  8
0
  6
CONTINUOUS
 62
     4
 10
31.511299495553448
 20
7.9004115087946998
 30
0.0
 11
31.340944262058329
 21
7.885777363886084
 31
0.0
  0
LINE
  5
BD5
  8
0
  6
CONTINUOUS
 62
     4
 10
34.225860539971059
 20
7.9004115087946998
 30
0.0
 11
34.220807059516318
 21
7.885777363886084
 31
0.0
  0
LINE
  5
BD6
  8
0
  6
CONTINUOUS
 62
     4
 10
30.030910054114461
 20
7.885777363886084
 30
0.0
 11
31.340944262058329
 21
7.885777363886084
 31
0.0
  0
LINE
  5
BD7
  8
0
  6
CONTINUOUS
 62
     4
 10
27.908930251085039
 20
7.885777363886084
 30
0.0
 11
27.908930251085039
 21
7.3100977979820794
 31
0.0
  0
LINE
  5
BD8
  8
0
  6
CONTINUOUS
 62
     4
 10
34.220807059516318
 20
7.885777363886084
 30
0.0
 11
34.02201270202886
 21
7.3100977979820794
 31
0.0
  0
LINE
  5
BD9
  8
0
  6
CONTINUOUS
 62
     4
 10
27.908930251085039
 20
7.3100977979820794
 30
0.0
 11
27.908930251085039
 21
6.7588625753243399
 31
0.0
  0
LINE
  5
BDA
  8
0
  6
CONTINUOUS
 62
     4
 10
34.02201270202886
 20
7.3100977979820794
 30
0.0
 11
33.604858161461983
 21
6.7588625753243399
 31
0.0
  0
LINE
  5
BDB
  8
0
  6
CONTINUOUS
 62
     4
 10
27.908930251085039
 20
6.7588625753243399
 30
0.0
 11
27.908930251085039
 21
6.4189705055174278
 31
0.0
  0
LINE
  5
BDC
  8
0
  6
CONTINUOUS
 62
     4
 10
33.604858161461983
 20
6.7588625753243399
 30
0.0
 11
33.00290171594748
 21
6.4189705055174278
 31
0.0
  0
LINE
  5
BDD
  8
0
  6
CONTINUOUS
 62
     4
 10
27.908930251085039
 20
6.4189705055174278
 30
0.0
 11
27.908930251085039
 21
6.3391745294582611
 31
0.0
  0
LINE
  5
BDE
  8
0
  6
CONTINUOUS
 62
     4
 10
33.00290171594748
 20
6.4189705055174278
 30
0.0
 11
32.665376440190208
 21
6.3391745294582611
 31
0.0
  0
LINE
  5
BDF
  8
0
  6
CONTINUOUS
 62
     4
 10
27.908930251085039
 20
6.3391745294582611
 30
0.0
 11
27.908930251085039
 21
6.3234327960089303
 31
0.0
  0
LINE
  5
BE0
  8
0
  6
CONTINUOUS
 62
     4
 10
30.022244046220621
 20
6.3391745294582611
 30
0.0
 11
30.022244046220621
 21
6.3234327960089303
 31
0.0
  0
LINE
  5
BE1
  8
0
  6
CONTINUOUS
 62
     4
 10
30.022244046220621
 20
6.3391745294582611
 30
0.0
 11
30.223110450430699
 21
6.3234327960089303
 31
0.0
  0
LINE
  5
BE2
  8
0
  6
CONTINUOUS
 62
     4
 10
32.665376440190208
 20
6.3391745294582611
 30
0.0
 11
32.598791216400933
 21
6.3234327960089303
 31
0.0
  0
LINE
  5
BE3
  8
0
  6
CONTINUOUS
 62
     4
 10
27.908930251085039
 20
6.3234327960089303
 30
0.0
 11
27.908930251085039
 21
6.3033000834673709
 31
0.0
  0
LINE
  5
BE4
  8
0
  6
CONTINUOUS
 62
     4
 10
30.022244046220621
 20
6.3234327960089303
 30
0.0
 11
30.022244046220621
 21
6.3033000834673709
 31
0.0
  0
LINE
  5
BE5
  8
0
  6
CONTINUOUS
 62
     4
 10
30.223110450430699
 20
6.3234327960089303
 30
0.0
 11
30.480006273767732
 21
6.3033000834673709
 31
0.0
  0
LINE
  5
BE6
  8
0
  6
CONTINUOUS
 62
     4
 10
32.598791216400933
 20
6.3234327960089303
 30
0.0
 11
32.339144741609907
 21
6.3033000834673709
 31
0.0
  0
LINE
  5
BE7
  8
0
  6
CONTINUOUS
 62
     4
 10
27.908930251085039
 20
6.3033000834673709
 30
0.0
 11
27.908930251085039
 21
6.2913310912303224
 31
0.0
  0
LINE
  5
BE8
  8
0
  6
CONTINUOUS
 62
     4
 10
30.022244046220621
 20
6.3033000834673709
 30
0.0
 11
30.022244046220621
 21
6.2913310912303224
 31
0.0
  0
LINE
  5
BE9
  8
0
  6
CONTINUOUS
 62
     4
 10
30.480006273767732
 20
6.3033000834673709
 30
0.0
 11
30.939016051516401
 21
6.2913310912303224
 31
0.0
  0
LINE
  5
BEA
  8
0
  6
CONTINUOUS
 62
     4
 10
32.339144741609907
 20
6.3033000834673709
 30
0.0
 11
32.184783691913502
 21
6.2913310912303224
 31
0.0
  0
LINE
  5
BEB
  8
0
  6
CONTINUOUS
 62
     4
 10
30.939016051516401
 20
6.2913310912303224
 30
0.0
 11
32.184783691913523
 21
6.2913310912303224
 31
0.0
  0
LINE
  5
BEC
  8
0
  6
CONTINUOUS
 62
     4
 10
27.908930251085039
 20
6.2913310912303224
 30
0.0
 11
27.908930251085039
 21
3.992809411462424
 31
0.0
  0
LINE
  5
BED
  8
0
  6
CONTINUOUS
 62
     4
 10
30.022244046220621
 20
6.2913310912303224
 30
0.0
 11
30.022244046220621
 21
3.992809411462424
 31
0.0
  0
LINE
  5
BEE
  8
0
  6
CONTINUOUS
 62
     4
 10
27.908930251085039
 20
3.992809411462424
 30
0.0
 11
30.022244046220621
 21
3.992809411462424
 31
0.0
  0
ENDBLK
  5
BF0
  8
0
  0
BLOCK
  8
0
  2
*X71
 70
     1
 10
0.0
 20
0.0
 30
0.0
  3
*X71
  1

  0
LINE
  5
C11
  8
0
 62
     0
 10
44.21875
 20
6.5625
 30
0.0
 11
44.21875
 21
6.5625
 31
0.0
  0
LINE
  5
C12
  8
0
 62
     0
 10
43.90625
 20
6.5625
 30
0.0
 11
43.90625
 21
6.5625
 31
0.0
  0
LINE
  5
C13
  8
0
 62
     0
 10
43.59375
 20
6.5625
 30
0.0
 11
43.59375
 21
6.5625
 31
0.0
  0
LINE
  5
C14
  8
0
 62
     0
 10
43.28125
 20
6.5625
 30
0.0
 11
43.28125
 21
6.5625
 31
0.0
  0
LINE
  5
C15
  8
0
 62
     0
 10
44.6875
 20
6.875
 30
0.0
 11
44.6875
 21
6.875
 31
0.0
  0
LINE
  5
C16
  8
0
 62
     0
 10
44.375
 20
6.875
 30
0.0
 11
44.375
 21
6.875
 31
0.0
  0
LINE
  5
C17
  8
0
 62
     0
 10
44.0625
 20
6.875
 30
0.0
 11
44.0625
 21
6.875
 31
0.0
  0
LINE
  5
C18
  8
0
 62
     0
 10
43.75
 20
6.875
 30
0.0
 11
43.75
 21
6.875
 31
0.0
  0
LINE
  5
C19
  8
0
 62
     0
 10
43.4375
 20
6.875
 30
0.0
 11
43.4375
 21
6.875
 31
0.0
  0
LINE
  5
C1A
  8
0
 62
     0
 10
43.125
 20
6.875
 30
0.0
 11
43.125
 21
6.875
 31
0.0
  0
LINE
  5
C1B
  8
0
 62
     0
 10
44.53125
 20
7.1875
 30
0.0
 11
44.53125
 21
7.1875
 31
0.0
  0
LINE
  5
C1C
  8
0
 62
     0
 10
44.21875
 20
7.1875
 30
0.0
 11
44.21875
 21
7.1875
 31
0.0
  0
LINE
  5
C1D
  8
0
 62
     0
 10
43.90625
 20
7.1875
 30
0.0
 11
43.90625
 21
7.1875
 31
0.0
  0
LINE
  5
C1E
  8
0
 62
     0
 10
43.59375
 20
7.1875
 30
0.0
 11
43.59375
 21
7.1875
 31
0.0
  0
LINE
  5
C1F
  8
0
 62
     0
 10
43.28125
 20
7.1875
 30
0.0
 11
43.28125
 21
7.1875
 31
0.0
  0
LINE
  5
C20
  8
0
 62
     0
 10
42.96875
 20
7.1875
 30
0.0
 11
42.96875
 21
7.1875
 31
0.0
  0
LINE
  5
C21
  8
0
 62
     0
 10
44.6875
 20
7.5
 30
0.0
 11
44.6875
 21
7.5
 31
0.0
  0
LINE
  5
C22
  8
0
 62
     0
 10
44.375
 20
7.5
 30
0.0
 11
44.375
 21
7.5
 31
0.0
  0
LINE
  5
C23
  8
0
 62
     0
 10
44.0625
 20
7.5
 30
0.0
 11
44.0625
 21
7.5
 31
0.0
  0
LINE
  5
C24
  8
0
 62
     0
 10
43.75
 20
7.5
 30
0.0
 11
43.75
 21
7.5
 31
0.0
  0
LINE
  5
C25
  8
0
 62
     0
 10
43.4375
 20
7.5
 30
0.0
 11
43.4375
 21
7.5
 31
0.0
  0
LINE
  5
C26
  8
0
 62
     0
 10
43.125
 20
7.5
 30
0.0
 11
43.125
 21
7.5
 31
0.0
  0
LINE
  5
C27
  8
0
 62
     0
 10
42.8125
 20
7.5
 30
0.0
 11
42.8125
 21
7.5
 31
0.0
  0
LINE
  5
C28
  8
0
 62
     0
 10
44.53125
 20
7.8125
 30
0.0
 11
44.53125
 21
7.8125
 31
0.0
  0
LINE
  5
C29
  8
0
 62
     0
 10
44.21875
 20
7.8125
 30
0.0
 11
44.21875
 21
7.8125
 31
0.0
  0
LINE
  5
C2A
  8
0
 62
     0
 10
43.90625
 20
7.8125
 30
0.0
 11
43.90625
 21
7.8125
 31
0.0
  0
LINE
  5
C2B
  8
0
 62
     0
 10
43.59375
 20
7.8125
 30
0.0
 11
43.59375
 21
7.8125
 31
0.0
  0
LINE
  5
C2C
  8
0
 62
     0
 10
43.28125
 20
7.8125
 30
0.0
 11
43.28125
 21
7.8125
 31
0.0
  0
LINE
  5
C2D
  8
0
 62
     0
 10
42.96875
 20
7.8125
 30
0.0
 11
42.96875
 21
7.8125
 31
0.0
  0
LINE
  5
C2E
  8
0
 62
     0
 10
44.375
 20
8.125
 30
0.0
 11
44.375
 21
8.125
 31
0.0
  0
LINE
  5
C2F
  8
0
 62
     0
 10
44.0625
 20
8.125
 30
0.0
 11
44.0625
 21
8.125
 31
0.0
  0
LINE
  5
C30
  8
0
 62
     0
 10
43.75
 20
8.125
 30
0.0
 11
43.75
 21
8.125
 31
0.0
  0
LINE
  5
C31
  8
0
 62
     0
 10
43.4375
 20
8.125
 30
0.0
 11
43.4375
 21
8.125
 31
0.0
  0
LINE
  5
C32
  8
0
 62
     0
 10
44.0625
 20
10.0
 30
0.0
 11
44.0625
 21
10.0
 31
0.0
  0
LINE
  5
C33
  8
0
 62
     0
 10
43.75
 20
10.0
 30
0.0
 11
43.75
 21
10.0
 31
0.0
  0
LINE
  5
C34
  8
0
 62
     0
 10
43.4375
 20
10.0
 30
0.0
 11
43.4375
 21
10.0
 31
0.0
  0
LINE
  5
C35
  8
0
 62
     0
 10
44.53125
 20
10.3125
 30
0.0
 11
44.53125
 21
10.3125
 31
0.0
  0
LINE
  5
C36
  8
0
 62
     0
 10
44.21875
 20
10.3125
 30
0.0
 11
44.21875
 21
10.3125
 31
0.0
  0
LINE
  5
C37
  8
0
 62
     0
 10
43.90625
 20
10.3125
 30
0.0
 11
43.90625
 21
10.3125
 31
0.0
  0
LINE
  5
C38
  8
0
 62
     0
 10
43.59375
 20
10.3125
 30
0.0
 11
43.59375
 21
10.3125
 31
0.0
  0
LINE
  5
C39
  8
0
 62
     0
 10
43.28125
 20
10.3125
 30
0.0
 11
43.28125
 21
10.3125
 31
0.0
  0
LINE
  5
C3A
  8
0
 62
     0
 10
42.96875
 20
10.3125
 30
0.0
 11
42.96875
 21
10.3125
 31
0.0
  0
LINE
  5
C3B
  8
0
 62
     0
 10
44.6875
 20
10.625
 30
0.0
 11
44.6875
 21
10.625
 31
0.0
  0
LINE
  5
C3C
  8
0
 62
     0
 10
44.375
 20
10.625
 30
0.0
 11
44.375
 21
10.625
 31
0.0
  0
LINE
  5
C3D
  8
0
 62
     0
 10
44.0625
 20
10.625
 30
0.0
 11
44.0625
 21
10.625
 31
0.0
  0
LINE
  5
C3E
  8
0
 62
     0
 10
43.75
 20
10.625
 30
0.0
 11
43.75
 21
10.625
 31
0.0
  0
LINE
  5
C3F
  8
0
 62
     0
 10
43.4375
 20
10.625
 30
0.0
 11
43.4375
 21
10.625
 31
0.0
  0
LINE
  5
C40
  8
0
 62
     0
 10
43.125
 20
10.625
 30
0.0
 11
43.125
 21
10.625
 31
0.0
  0
LINE
  5
C41
  8
0
 62
     0
 10
42.8125
 20
10.625
 30
0.0
 11
42.8125
 21
10.625
 31
0.0
  0
LINE
  5
C42
  8
0
 62
     0
 10
44.53125
 20
10.9375
 30
0.0
 11
44.53125
 21
10.9375
 31
0.0
  0
LINE
  5
C43
  8
0
 62
     0
 10
44.21875
 20
10.9375
 30
0.0
 11
44.21875
 21
10.9375
 31
0.0
  0
LINE
  5
C44
  8
0
 62
     0
 10
43.90625
 20
10.9375
 30
0.0
 11
43.90625
 21
10.9375
 31
0.0
  0
LINE
  5
C45
  8
0
 62
     0
 10
43.59375
 20
10.9375
 30
0.0
 11
43.59375
 21
10.9375
 31
0.0
  0
LINE
  5
C46
  8
0
 62
     0
 10
43.28125
 20
10.9375
 30
0.0
 11
43.28125
 21
10.9375
 31
0.0
  0
LINE
  5
C47
  8
0
 62
     0
 10
42.96875
 20
10.9375
 30
0.0
 11
42.96875
 21
10.9375
 31
0.0
  0
LINE
  5
C48
  8
0
 62
     0
 10
44.6875
 20
11.25
 30
0.0
 11
44.6875
 21
11.25
 31
0.0
  0
LINE
  5
C49
  8
0
 62
     0
 10
44.375
 20
11.25
 30
0.0
 11
44.375
 21
11.25
 31
0.0
  0
LINE
  5
C4A
  8
0
 62
     0
 10
44.0625
 20
11.25
 30
0.0
 11
44.0625
 21
11.25
 31
0.0
  0
LINE
  5
C4B
  8
0
 62
     0
 10
43.75
 20
11.25
 30
0.0
 11
43.75
 21
11.25
 31
0.0
  0
LINE
  5
C4C
  8
0
 62
     0
 10
43.4375
 20
11.25
 30
0.0
 11
43.4375
 21
11.25
 31
0.0
  0
LINE
  5
C4D
  8
0
 62
     0
 10
43.125
 20
11.25
 30
0.0
 11
43.125
 21
11.25
 31
0.0
  0
LINE
  5
C4E
  8
0
 62
     0
 10
42.8125
 20
11.25
 30
0.0
 11
42.8125
 21
11.25
 31
0.0
  0
LINE
  5
C4F
  8
0
 62
     0
 10
44.53125
 20
11.5625
 30
0.0
 11
44.53125
 21
11.5625
 31
0.0
  0
LINE
  5
C50
  8
0
 62
     0
 10
44.21875
 20
11.5625
 30
0.0
 11
44.21875
 21
11.5625
 31
0.0
  0
LINE
  5
C51
  8
0
 62
     0
 10
43.90625
 20
11.5625
 30
0.0
 11
43.90625
 21
11.5625
 31
0.0
  0
LINE
  5
C52
  8
0
 62
     0
 10
43.59375
 20
11.5625
 30
0.0
 11
43.59375
 21
11.5625
 31
0.0
  0
LINE
  5
C53
  8
0
 62
     0
 10
43.28125
 20
11.5625
 30
0.0
 11
43.28125
 21
11.5625
 31
0.0
  0
LINE
  5
C54
  8
0
 62
     0
 10
42.96875
 20
11.5625
 30
0.0
 11
42.96875
 21
11.5625
 31
0.0
  0
LINE
  5
C55
  8
0
 62
     0
 10
44.0625
 20
11.875
 30
0.0
 11
44.0625
 21
11.875
 31
0.0
  0
LINE
  5
C56
  8
0
 62
     0
 10
43.75
 20
11.875
 30
0.0
 11
43.75
 21
11.875
 31
0.0
  0
LINE
  5
C57
  8
0
 62
     0
 10
43.4375
 20
11.875
 30
0.0
 11
43.4375
 21
11.875
 31
0.0
  0
ENDBLK
  5
C59
  8
0
  0
BLOCK
  8
0
  2
*U72
 70
     1
 10
0.0
 20
0.0
 30
0.0
  3
*U72
  1

  0
TEXT
  5
C67
  8
0
 62
     1
 10
4.2355095310447783
 20
4.4145522861116309
 30
0.0
 40
2.0
  1
Copyright Sapa. Rätt till ändringar förbehålles. We reserve the right to change the drawing.
 50
90.0
  7
BYGG-022120$0$ISO
  0
ENDBLK
  5
C69
  8
0
  0
BLOCK
  8
0
  2
*U73
 70
     1
 10
0.0
 20
0.0
 30
0.0
  3
*U73
  1

  0
TEXT
  5
CFA
  8
0
 62
     2
 10
919.72391383653485
 20
547.10253458471277
 30
0.0
 40
3.0
  1
56
  7
BYGG-01457801$0$ISO
  0
ENDBLK
  5
CFC
  8
0
  0
BLOCK
  8
0
  2
*U74
 70
     1
 10
0.0
 20
0.0
 30
0.0
  3
*U74
  1

  0
TEXT
  5
CFE
  8
0
 62
     2
 10
970.27478805316582
 20
506.99537380256618
 30
0.0
 40
3.0
  1
50
 50
90.0
  7
BYGG-01457801$0$ISO
  0
ENDBLK
  5
D00
  8
0
  0
BLOCK
  8
0
  2
*U75
 70
     1
 10
0.0
 20
0.0
 30
0.0
  3
*U75
  1

  0
TEXT
  5
D02
  8
0
 62
     2
 10
908.7983232853536
 20
471.11520364751999
 30
0.0
 40
3.0
  1
78
  7
BYGG-01457801$0$ISO
  0
ENDBLK
  5
D04
  8
0
  0
BLOCK
  8
0
  2
*U76
 70
     1
 10
0.0
 20
0.0
 30
0.0
  3
*U76
  1

  0
TEXT
  5
E36
  8
0
 10
269.13695666615928
 20
387.12121780868893
 30
0.0
 40
3.0
  1
22
 50
90.0
  7
BYGG-014203$0$ISO
  0
ENDBLK
  5
E38
  8
0
  0
BLOCK
  8
0
  2
*U77
 70
     1
 10
0.0
 20
0.0
 30
0.0
  3
*U77
  1

  0
TEXT
  5
E3A
  8
0
 10
243.50583563664401
 20
406.8346351471406
 30
0.0
 40
3.0
  1
29
  7
BYGG-014203$0$ISO
  0
ENDBLK
  5
E3C
  8
0
  0
BLOCK
  8
0
  2
*U78
 70
     1
 10
0.0
 20
0.0
 30
0.0
  3
*U78
  1

  0
TEXT
  5
E3F
  8
0
 10
89.477352001818133
 20
536.91038923748056
 30
0.0
 40
3.0
  1
29.00259511
  7
BYGG-014203$0$ISO
  0
ENDBLK
  5
E41
  8
0
  0
BLOCK
  8
0
  2
*U79
 70
     1
 10
0.0
 20
0.0
 30
0.0
  3
*U79
  1

  0
TEXT
  5
E43
  8
0
 10
139.81857160131429
 20
500.42082458589999
 30
0.0
 40
3.0
  1
21.99913956
 50
90.0
  7
BYGG-014203$0$ISO
  0
ENDBLK
  5
E45
  8
0
  0
BLOCK
  8
0
  2
*U80
 70
     1
 10
0.0
 20
0.0
 30
0.0
  3
*U80
  1

  0
TEXT
  5
F00
  8
0
 62
     2
 10
411.58015498373533
 20
330.86156635070063
 30
0.0
 40
3.0
  1
150
  7
BYGG-020605$0$ISO
  0
ENDBLK
  5
F02
  8
0
  0
BLOCK
  8
0
  2
*U81
 70
     1
 10
0.0
 20
0.0
 30
0.0
  3
*U81
  1

  0
TEXT
  5
F04
  8
0
 62
     2
 10
325.9455826219679
 20
367.73190603963337
 30
0.0
 40
3.0
  1
50
 50
90.0
  7
BYGG-020605$0$ISO
  0
ENDBLK
  5
F06
  8
0
  0
BLOCK
  8
0
  2
*U82
 70
     1
 10
0.0
 20
0.0
 30
0.0
  3
*U82
  1

  0
TEXT
  5
F50
  8
0
 10
26.211604167576098
 20
40.09169709912441
 30
0.0
 40
3.0
  1
51.5
  7
BYGG-014223$0$ISO
  0
ENDBLK
  5
F52
  8
0
  0
BLOCK
  8
0
  2
*U83
 70
     1
 10
0.0
 20
0.0
 30
0.0
  3
*U83
  1

  0
TEXT
  5
F54
  8
0
 10
62.89826714829028
 20
16.873274654621198
 30
0.0
 40
3.0
  1
22
 50
90.0
  7
BYGG-014223$0$ISO
  0
ENDBLK
  5
F56
  8
0
  0
BLOCK
  8
0
  2
*U84
 70
     1
 10
0.0
 20
0.0
 30
0.0
  3
*U84
  1

  0
TEXT
  5
109A
  8
0
 62
     2
 10
673.72936100686081
 20
205.91945231902059
 30
0.0
 40
3.0
  1
56
 50
90.000000000000028
  7
BYGG-01457801$0$ISO
  0
ENDBLK
  5
109C
  8
0
  0
BLOCK
  8
0
  2
*U85
 70
     1
 10
0.0
 20
0.0
 30
0.0
  3
*U85
  1

  0
TEXT
  5
109E
  8
0
 62
     2
 10
639.82456242943852
 20
256.47032653565191
 30
0.0
 40
3.0
  1
50
 50
180.0
  7
BYGG-01457801$0$ISO
  0
ENDBLK
  5
10A0
  8
0
  0
BLOCK
  8
0
  2
*U86
 70
     1
 10
0.0
 20
0.0
 30
0.0
  3
*U86
  1

  0
TEXT
  5
10A2
  8
0
 62
     2
 10
597.74203006966809
 20
194.99386176783929
 30
0.0
 40
3.0
  1
78
 50
90.000000000000028
  7
BYGG-01457801$0$ISO
  0
ENDBLK
  5
10A4
  8
0
  0
BLOCK
  8
0
  2
*U87
 70
     1
 10
0.0
 20
0.0
 30
0.0
  3
*U87
  1

  0
TEXT
  5
10A6
  8
0
 10
671.68260757477776
 20
166.64255262932409
 30
0.0
 40
3.0
  1
22
 50
90.0
  7
BYGG-014203$0$ISO
  0
ENDBLK
  5
10A8
  8
0
  0
BLOCK
  8
0
  2
*U88
 70
     1
 10
0.0
 20
0.0
 30
0.0
  3
*U88
  1

  0
TEXT
  5
10AA
  8
0
 10
646.05148654526283
 20
153.2337219050454
 30
0.0
 40
3.0
  1
29
  7
BYGG-014203$0$ISO
  0
ENDBLK
  5
10AC
  8
0
  0
BLOCK
  8
0
  2
*U89
 70
     1
 10
0.0
 20
0.0
 30
0.0
  3
*U89
  1

  0
TEXT
  5
10AE
  8
0
 62
     2
 10
536.75186053578375
 20
286.24268066547751
 30
0.0
 40
3.0
  1
150
 50
90.0
  7
BYGG-020605$0$ISO
  0
ENDBLK
  5
10B0
  8
0
  0
BLOCK
  8
0
  2
*U90
 70
     1
 10
0.0
 20
0.0
 30
0.0
  3
*U90
  1

  0
TEXT
  5
10B2
  8
0
 10
579.61124929272273
 20
206.0274373548321
 30
0.0
 40
3.0
  1
51.5
  7
BYGG-014223$0$ISO
  0
ENDBLK
  5
10B4
  8
0
  0
BLOCK
  8
0
  2
*U91
 70
     1
 10
0.0
 20
0.0
 30
0.0
  3
*U91
  1

  0
TEXT
  5
10B6
  8
0
 10
616.29791227343674
 20
222.94186373634329
 30
0.0
 40
3.0
  1
22
 50
90.0
  7
BYGG-014223$0$ISO
  0
ENDBLK
  5
10B8
  8
0
  0
BLOCK
  8
0
  2
*U92
 70
     1
 10
0.0
 20
0.0
 30
0.0
  3
*U92
  1

  0
TEXT
  5
1426
  8
0
 62
     2
 10
575.62220022471661
 20
377.57961523196929
 30
0.0
 40
3.0
  1
50
  7
BYGG-020605$0$ISO
  0
ENDBLK
  5
1428
  8
0
  0
ENDSEC
  0
SECTION
  2
ENTITIES
  0
TEXT
  5
4F
  8
SAPA_ARTIKELNR
 10
572.62096560382065
 20
207.98642697587911
 30
0.0
 40
3.5
  1
42104
  7
ISO
  0
TEXT
  5
51
  8
SAPA_ARTIKELNR
 10
609.67526315358805
 20
294.05618888077169
 30
0.0
 40
3.5
  1
68857
 50
90.0
  7
ISO
  0
TEXT
  5
52
  8
SAPA_ARTIKELNR
 10
668.36755640290676
 20
204.38334848212881
 30
0.0
 40
3.5
  1
68074
 50
90.0
  7
ISO
  0
TEXT
  5
53
  8
SAPA_ARTIKELNR
 10
668.36755640290676
 20
163.8209644587383
 30
0.0
 40
3.5
  1
42077
 50
90.0
  7
ISO
  0
POLYLINE
  5
57
  8
SAPA_LIGHT
 66
     1
 10
0.0
 20
0.0
 30
0.0
 70
     1
  0
VERTEX
  5
6BD
  8
SAPA_LIGHT
 10
621.12338132707634
 20
175.0938617678396
 30
0.0
  0
VERTEX
  5
6BE
  8
SAPA_LIGHT
 10
627.12338132707634
 20
175.0938617678396
 30
0.0
  0
VERTEX
  5
6BF
  8
SAPA_LIGHT
 10
627.12338132707634
 20
145.0938617678396
 30
0.0
  0
VERTEX
  5
6C0
  8
SAPA_LIGHT
 10
621.12338132707634
 20
145.0938617678396
 30
0.0
  0
SEQEND
  5
6C1
  8
SAPA_LIGHT
  0
POLYLINE
  5
58
  8
SAPA_LIGHT
 66
     1
 10
0.0
 20
0.0
 30
0.0
  0
VERTEX
  5
6C2
  8
SAPA_LIGHT
 10
629.28697703439025
 20
158.09386176783929
 30
0.0
  0
VERTEX
  5
6C3
  8
SAPA_LIGHT
 10
662.72338132707625
 20
158.09386176783929
 30
0.0
  0
VERTEX
  5
6C4
  8
SAPA_LIGHT
 10
662.72338132707625
 20
236.0938617678394
 30
0.0
  0
VERTEX
  5
6C5
  8
SAPA_LIGHT
 10
612.72338132707625
 20
236.0938617678394
 30
0.0
  0
VERTEX
  5
6C6
  8
SAPA_LIGHT
 10
612.72338132707625
 20
158.09386176783929
 30
0.0
  0
VERTEX
  5
6C7
  8
SAPA_LIGHT
 10
621.28697703439025
 20
158.09386176783929
 30
0.0
  0
SEQEND
  5
6C8
  8
SAPA_LIGHT
  0
POLYLINE
  5
5A
  8
SAPA_LIGHT
 66
     1
 10
0.0
 20
0.0
 30
0.0
 70
     1
  0
VERTEX
  5
6C9
  8
SAPA_LIGHT
 10
569.28697703439286
 20
364.09386176783948
 30
0.0
  0
VERTEX
  5
6CA
  8
SAPA_LIGHT
 10
552.72338132707864
 20
364.09386176783971
 30
0.0
  0
VERTEX
  5
6CB
  8
SAPA_LIGHT
 10
552.72338132707864
 20
214.09386176783971
 30
0.0
  0
VERTEX
  5
6CC
  8
SAPA_LIGHT
 10
602.72181944697741
 20
214.09386176783929
 30
0.0
  0
VERTEX
  5
6CD
  8
SAPA_LIGHT
 10
602.72338132707898
 20
364.09386176783948
 30
0.0
  0
SEQEND
  5
6CE
  8
SAPA_LIGHT
  0
LINE
  5
21E
  8
SAPA_LIGHT
 10
542.3249344354092
 20
374.0938617678396
 30
0.0
 11
612.77856894400463
 21
374.0938617678396
 31
0.0
  0
INSERT
  5
22F
  8
SAPA_ANSLUTNING
  6
CONTINUOUS
  2
*X63
 10
0.0
 20
0.0
 30
0.0
1001
ACAD
1000
HATCH
1002
{
1070
    19
1000
ANSI37
1040
0.5
1040
0.0
1000
R14_HATCH_DATA
1000
22F
1011
1.0
1021
0.0
1031
0.0
1021
0.0
1031
0.0
1011
0.0
1021
0.0
1031
0.0
1021
1.0
1031
0.0
1011
0.0
1021
0.0
1031
0.0
1021
0.0
1031
1.0
1040
0.0
1010
0.0
1020
0.0
1030
1.0
1000
ANSI37
1070
     0
1070
     0
1071
        1
1071
        7
1070
     1
1070
     1
1071
       14
1040
598.54598083298504
1040
369.58520043809528
1040
-0.0538647880861828
1040
598.86905827781027
1040
366.59493467823222
1040
-0.0538647880861769
1040
598.54598083298515
1040
363.6046689183695
1040
-0.0146971942325979
1040
598.41941903661029
1040
363.0976994454328
1040
0.0
1040
598.72338132707819
1040
363.0976994454328
1040
0.0
1040
599.72338132707807
1040
364.0976994454328
1040
0.0
1040
602.72338132707819
1040
364.0976994454328
1040
0.0
1040
602.72338132707819
1040
363.91655570193109
1040
0.0
1040
602.89826385932236
1040
364.0941978261227
1040
-0.2032199431463407
1040
602.89826385932224
1040
374.0938617678396
1040
0.0
1040
594.95652119863962
1040
374.0938617678396
1040
0.0
1040
594.95652119863962
1040
374.00729395480448
1040
-0.1678920096872429
1040
596.29774072211478
1040
373.54387103359852
1040
-0.1053277233168986
1040
597.72310269896457
1040
371.83626418728778
1040
-0.0677080186897279
1071
        0
1070
     0
1070
     1
1040
0.0
1040
0.5
1070
     0
1070
     2
1040
0.7853981633974483
1040
473.02902869365329
1040
-181.06005699158521
1040
-1.1225320151336431
1040
1.122532015133644
1070
     0
1040
2.3561944901923439
1040
473.02902869365329
1040
-181.06005699158521
1040
-1.122532015133644
1040
-1.1225320151336431
1070
     0
1040
0.0265590897247232
1071
        1
1040
599.74463465808253
1040
371.84472178631182
1040
0.0
1002
}
  0
INSERT
  5
230
  8
SAPA_ANSLUTNING
  6
CONTINUOUS
  2
*X64
 10
0.0
 20
0.0
 30
0.0
1001
ACAD
1000
HATCH
1002
{
1070
    19
1000
HEX
1040
0.25
1040
0.0
1000
ASC_BOUNDS
1070
     1
1070
     1
1070
     1
1005
231
1000
ASC_SEEDPOINT
1011
556.60788400456522
1021
0.0
1031
0.0
1021
368.54901355125332
1031
0.0
1000
R14_HATCH_DATA
1000
230
1011
1.0
1021
0.0
1031
0.0
1021
0.0
1031
0.0
1011
0.0
1021
0.0
1031
0.0
1021
1.0
1031
0.0
1011
0.0
1021
0.0
1031
0.0
1021
0.0
1031
1.0
1040
0.0
1010
0.0
1020
0.0
1030
1.0
1000
HEX
1070
     0
1070
     1
1071
        1
1071
        7
1070
     1
1070
     1
1071
        9
1040
552.89826385932213
1040
364.59419782612298
1040
0.0
1040
556.04810378497973
1040
364.59419782612292
1040
0.0
1040
557.20136381440648
1040
363.21979604285821
1040
0.0
1040
557.20136381440648
1040
361.76889898681162
1040
0.0
1040
555.77305613233636
1040
361.76889898681162
1040
0.9923779948559721
1040
555.78162462112095
1040
359.59419782612292
1040
0.0
1040
562.89826385932201
1040
359.59419782612292
1040
0.0
1040
562.89826385932201
1040
373.59419782612298
1040
0.0
1040
552.89826385932201
1040
373.59419782612298
1040
0.0
1071
        1
1005
231
1070
     0
1070
     1
1040
0.0
1040
0.25
1070
     0
1070
     3
1040
0.0
1040
473.02902869365329
1040
-181.06005699158521
1040
0.0
1040
1.374814999999999
1070
     2
1040
0.79375
1040
-1.587499999999999
1040
2.0943951023931948
1040
473.02902869365329
1040
-181.06005699158521
1040
-1.190624715503902
1040
-0.6874074999999996
1070
     2
1040
0.7937499999999995
1040
-1.587499999999999
1040
1.047197551196597
1040
473.82277869365328
1040
-181.06005699158521
1040
-1.190624715503902
1040
0.6874075000000001
1070
     2
1040
0.79375
1040
-1.587499999999999
1040
0.1000801975048669
1071
        1
1040
556.60788400456522
1040
368.54901355125332
1040
0.0
1002
}
  0
POLYLINE
  5
231
  8
SAPA_ANSLUTNING
 66
     1
 10
0.0
 20
0.0
 30
0.0
 70
     1
1001
ACAD
1000
ASC_BOUNDS
1002
{
1070
    19
1005
230
1002
}
  0
VERTEX
  5
763
  8
SAPA_ANSLUTNING
 10
555.78162462112095
 20
359.59419782612292
 30
0.0
 42
-1.003947838501007
  0
VERTEX
  5
764
  8
SAPA_ANSLUTNING
 10
555.79826385932188
 20
361.76889898681162
 30
0.0
  0
VERTEX
  5
765
  8
SAPA_ANSLUTNING
 10
557.20136381440648
 20
361.76889898681162
 30
0.0
  0
VERTEX
  5
766
  8
SAPA_ANSLUTNING
 10
557.20136381440648
 20
363.21979604285821
 30
0.0
  0
VERTEX
  5
767
  8
SAPA_ANSLUTNING
 10
556.04810378497973
 20
364.59419782612292
 30
0.0
  0
VERTEX
  5
768
  8
SAPA_ANSLUTNING
 10
552.89826385932201
 20
364.59419782612292
 30
0.0
  0
VERTEX
  5
769
  8
SAPA_ANSLUTNING
 10
552.89826385932201
 20
373.59419782612292
 30
0.0
  0
VERTEX
  5
76A
  8
SAPA_ANSLUTNING
 10
562.89826385932201
 20
373.59419782612292
 30
0.0
  0
VERTEX
  5
76B
  8
SAPA_ANSLUTNING
 10
562.89826385932201
 20
359.59419782612292
 30
0.0
  0
SEQEND
  5
76C
  8
SAPA_ANSLUTNING
  0
INSERT
  5
232
  8
SAPA_ANSLUTNING
  6
CONTINUOUS
  2
*X65
 10
0.0
 20
0.0
 30
0.0
1001
ACAD
1000
HATCH
1002
{
1070
    19
1000
HEX
1040
0.25
1040
0.0
1000
ASC_BOUNDS
1070
     1
1070
     1
1070
     1
1005
233
1000
ASC_SEEDPOINT
1011
594.958756464516
1021
0.0
1031
0.0
1021
364.94612613359521
1031
0.0
1000
R14_HATCH_DATA
1000
232
1011
1.0
1021
0.0
1031
0.0
1021
0.0
1031
0.0
1011
0.0
1021
0.0
1031
0.0
1021
1.0
1031
0.0
1011
0.0
1021
0.0
1031
0.0
1021
0.0
1031
1.0
1040
0.0
1010
0.0
1020
0.0
1030
1.0
1000
HEX
1070
     0
1070
     1
1071
        1
1071
        7
1070
     1
1070
     1
1071
       16
1040
598.86905827781027
1040
366.59493467823222
1040
0.053864788086187
1040
598.54598083298504
1040
369.58520043809551
1040
0.0677080186897099
1040
597.72310269896502
1040
371.8362641872875
1040
0.1053277233169214
1040
596.29774072211467
1040
373.54387103359852
1040
0.1678920096872345
1040
594.95652119863962
1040
374.00729395480448
1040
0.1678920096872415
1040
593.61530167516435
1040
373.54387103359852
1040
0.1053277233169233
1040
592.18993969831422
1040
371.8362641872875
1040
0.0677080186897123
1040
591.36706156429409
1040
369.5852004380954
1040
0.0538647880861899
1040
591.04398411946897
1040
366.59493467823222
1040
0.0538647880861873
1040
591.36706156429409
1040
363.60466891836899
1040
0.0677080186897084
1040
592.18993969831422
1040
361.35360516917711
1040
0.1053277233169219
1040
593.61530167516435
1040
359.64599832286609
1040
0.1678920096872452
1040
594.95652119863962
1040
359.18257540166007
1040
0.1678920096872345
1040
596.29774072211467
1040
359.64599832286609
1040
0.1053277233169209
1040
597.72310269896502
1040
361.35360516917711
1040
0.0677080186897101
1040
598.54598083298504
1040
363.60466891836899
1040
0.0538647880861852
1071
        1
1005
233
1070
     0
1070
     1
1040
0.0
1040
0.25
1070
     0
1070
     3
1040
0.0
1040
473.02902869365329
1040
-181.06005699158521
1040
0.0
1040
1.374814999999999
1070
     2
1040
0.79375
1040
-1.587499999999999
1040
2.0943951023931948
1040
473.02902869365329
1040
-181.06005699158521
1040
-1.190624715503902
1040
-0.6874074999999996
1070
     2
1040
0.7937499999999995
1040
-1.587499999999999
1040
1.047197551196597
1040
473.82277869365328
1040
-181.06005699158521
1040
-1.190624715503902
1040
0.6874075000000001
1070
     2
1040
0.79375
1040
-1.587499999999999
1040
0.1000801975048669
1071
        1
1040
594.958756464516
1040
364.94612613359521
1040
0.0
1002
}
  0
POLYLINE
  5
233
  8
SAPA_ANSLUTNING
 66
     1
 10
0.0
 20
0.0
 30
0.0
 70
     1
1001
ACAD
1000
ASC_BOUNDS
1002
{
1070
    19
1005
232
1002
}
  0
VERTEX
  5
7CA
  8
SAPA_ANSLUTNING
 10
594.95652119863962
 20
374.00729395480448
 30
0.0
 42
0.1678920096872415
  0
VERTEX
  5
7CB
  8
SAPA_ANSLUTNING
 10
593.61530167516435
 20
373.54387103359852
 30
0.0
 42
0.1053277233169233
  0
VERTEX
  5
7CC
  8
SAPA_ANSLUTNING
 10
592.18993969831422
 20
371.8362641872875
 30
0.0
 42
0.0677080186897123
  0
VERTEX
  5
7CD
  8
SAPA_ANSLUTNING
 10
591.36706156429409
 20
369.5852004380954
 30
0.0
 42
0.0538647880861899
  0
VERTEX
  5
7CE
  8
SAPA_ANSLUTNING
 10
591.04398411946897
 20
366.59493467823222
 30
0.0
 42
0.0538647880861873
  0
VERTEX
  5
7CF
  8
SAPA_ANSLUTNING
 10
591.36706156429409
 20
363.60466891836899
 30
0.0
 42
0.0677080186897084
  0
VERTEX
  5
7D0
  8
SAPA_ANSLUTNING
 10
592.18993969831422
 20
361.35360516917711
 30
0.0
 42
0.1053277233169219
  0
VERTEX
  5
7D1
  8
SAPA_ANSLUTNING
 10
593.61530167516435
 20
359.64599832286609
 30
0.0
 42
0.1678920096872452
  0
VERTEX
  5
7D2
  8
SAPA_ANSLUTNING
 10
594.95652119863962
 20
359.18257540166007
 30
0.0
 42
0.1678920096872345
  0
VERTEX
  5
7D3
  8
SAPA_ANSLUTNING
 10
596.29774072211467
 20
359.64599832286609
 30
0.0
 42
0.1053277233169209
  0
VERTEX
  5
7D4
  8
SAPA_ANSLUTNING
 10
597.72310269896502
 20
361.35360516917711
 30
0.0
 42
0.0677080186897101
  0
VERTEX
  5
7D5
  8
SAPA_ANSLUTNING
 10
598.54598083298504
 20
363.60466891836899
 30
0.0
 42
0.0538647880861852
  0
VERTEX
  5
7D6
  8
SAPA_ANSLUTNING
 10
598.86905827781027
 20
366.59493467823222
 30
0.0
 42
0.053864788086187
  0
VERTEX
  5
7D7
  8
SAPA_ANSLUTNING
 10
598.54598083298504
 20
369.58520043809551
 30
0.0
 42
0.0677080186897099
  0
VERTEX
  5
7D8
  8
SAPA_ANSLUTNING
 10
597.72310269896502
 20
371.8362641872875
 30
0.0
 42
0.1053277233169214
  0
VERTEX
  5
7D9
  8
SAPA_ANSLUTNING
 10
596.29774072211467
 20
373.54387103359852
 30
0.0
 42
0.1678920096872345
  0
SEQEND
  5
7DA
  8
SAPA_ANSLUTNING
  0
ARC
  5
234
  8
SAPA_ANSLUTNING
 10
614.69175988512859
 20
369.09402979698132
 30
0.0
 40
12.809561594665579
 50
157.02556890674009
 51
202.97443109325991
  0
POLYLINE
  5
235
  8
SAPA_ANSLUTNING
 66
     1
 10
0.0
 20
0.0
 30
0.0
  0
VERTEX
  5
7DB
  8
SAPA_ANSLUTNING
 10
563.83710790287012
 20
361.58407508647127
 30
0.0
 42
0.9999999999999998
  0
VERTEX
  5
7DC
  8
SAPA_ANSLUTNING
 10
567.83710790287012
 20
361.58407508647127
 30
0.0
  0
VERTEX
  5
7DD
  8
SAPA_ANSLUTNING
 10
567.83710790286989
 20
372.04068553292012
 30
0.0
 42
-0.9999989466455052
  0
VERTEX
  5
7DE
  8
SAPA_ANSLUTNING
 10
571.83710790286545
 20
372.04068974634032
 30
0.0
  0
VERTEX
  5
7DF
  8
SAPA_ANSLUTNING
 10
571.83710790286545
 20
366.04068881875281
 30
0.0
 42
0.9999999999999998
  0
VERTEX
  5
7E0
  8
SAPA_ANSLUTNING
 10
575.83710790286545
 20
366.04068881875281
 30
0.0
  0
VERTEX
  5
7E1
  8
SAPA_ANSLUTNING
 10
575.83710790286545
 20
372.04069237811848
 30
0.0
 42
-0.9999974985601646
  0
VERTEX
  5
7E2
  8
SAPA_ANSLUTNING
 10
579.83710790285295
 20
372.04069237811848
 30
0.0
  0
VERTEX
  5
7E3
  8
SAPA_ANSLUTNING
 10
579.83710790285284
 20
366.04068881875281
 30
0.0
 42
0.9999999999999998
  0
VERTEX
  5
7E4
  8
SAPA_ANSLUTNING
 10
583.83710790285295
 20
366.04068881875281
 30
0.0
  0
VERTEX
  5
7E5
  8
SAPA_ANSLUTNING
 10
583.83710790285284
 20
372.04068974634032
 30
0.0
 42
-0.9999989466455052
  0
VERTEX
  5
7E6
  8
SAPA_ANSLUTNING
 10
587.83710790284852
 20
372.04068553292012
 30
0.0
  0
VERTEX
  5
7E7
  8
SAPA_ANSLUTNING
 10
587.83710790284817
 20
361.58407508647127
 30
0.0
 42
0.9999999999999998
  0
VERTEX
  5
7E8
  8
SAPA_ANSLUTNING
 10
591.83710790284817
 20
361.58407508647127
 30
0.0
  0
SEQEND
  5
7E9
  8
SAPA_ANSLUTNING
  0
LINE
  5
236
  8
SAPA_ANSLUTNING
 10
612.77856894400463
 20
374.0938617678396
 30
0.0
 11
542.3249344354092
 21
374.0938617678396
 31
0.0
  0
POLYLINE
  5
649
  8
SAPA_PROFIL
 66
     1
 10
0.0
 20
0.0
 30
0.0
 70
     1
  0
VERTEX
  5
126F
  8
SAPA_PROFIL
 10
607.22338132707853
 20
228.1438617678393
 30
0.0
  0
VERTEX
  5
1270
  8
SAPA_PROFIL
 10
607.22338132707853
 20
232.487110908256
 30
0.0
 42
0.4033102643834765
  0
VERTEX
  5
1271
  8
SAPA_PROFIL
 10
605.22338132707864
 20
234.59386176783929
 30
0.0
  0
VERTEX
  5
1272
  8
SAPA_PROFIL
 10
598.52338132707837
 20
234.59386176783929
 30
0.0
 42
-0.4142135623731284
  0
VERTEX
  5
1273
  8
SAPA_PROFIL
 10
597.5233813270786
 20
235.59386176783929
 30
0.0
  0
VERTEX
  5
1274
  8
SAPA_PROFIL
 10
597.52338132707882
 20
240.52499221639789
 30
0.0
 42
-0.6681786379192989
  0
VERTEX
  5
1275
  8
SAPA_PROFIL
 10
597.98237036159878
 20
240.71511169947661
 30
0.0
  0
VERTEX
  5
1276
  8
SAPA_PROFIL
 10
598.93048810826508
 20
239.7669939528104
 30
0.0
 42
-0.4931454260313216
  0
VERTEX
  5
1277
  8
SAPA_PROFIL
 10
598.72338132707853
 20
238.19386176783931
 30
0.0
  0
VERTEX
  5
1278
  8
SAPA_PROFIL
 10
598.7233813270783
 20
236.39386176783921
 30
0.0
 42
0.4142135623730951
  0
VERTEX
  5
1279
  8
SAPA_PROFIL
 10
599.22338132707841
 20
235.8938617678393
 30
0.0
  0
VERTEX
  5
127A
  8
SAPA_PROFIL
 10
601.5233813270786
 20
235.8938617678393
 30
0.0
  0
VERTEX
  5
127B
  8
SAPA_PROFIL
 10
601.72338132707864
 20
236.0938617678392
 30
0.0
  0
VERTEX
  5
127C
  8
SAPA_PROFIL
 10
608.42338132707857
 20
236.0938617678392
 30
0.0
 42
-0.4142135623730395
  0
VERTEX
  5
127D
  8
SAPA_PROFIL
 10
608.72338132707841
 20
235.79386176783919
 30
0.0
  0
VERTEX
  5
127E
  8
SAPA_PROFIL
 10
608.72338132707864
 20
225.09386176783929
 30
0.0
 42
-0.9999999999999998
  0
VERTEX
  5
127F
  8
SAPA_PROFIL
 10
607.72338132707864
 20
225.09386176783929
 30
0.0
  0
VERTEX
  5
1280
  8
SAPA_PROFIL
 10
607.72338132707864
 20
226.0938617678392
 30
0.0
 42
0.4142135623730951
  0
VERTEX
  5
1281
  8
SAPA_PROFIL
 10
607.47338132707864
 20
226.3438617678392
 30
0.0
  0
VERTEX
  5
1282
  8
SAPA_PROFIL
 10
606.87338132707839
 20
226.3438617678392
 30
0.0
 42
0.4142135623730951
  0
VERTEX
  5
1283
  8
SAPA_PROFIL
 10
606.6233813270785
 20
226.0938617678392
 30
0.0
  0
VERTEX
  5
1284
  8
SAPA_PROFIL
 10
606.62338132707873
 20
219.0938617678392
 30
0.0
 42
0.4142135623730951
  0
VERTEX
  5
1285
  8
SAPA_PROFIL
 10
606.87338132707873
 20
218.8438617678392
 30
0.0
  0
VERTEX
  5
1286
  8
SAPA_PROFIL
 10
607.47338132707864
 20
218.8438617678392
 30
0.0
 42
0.4142135623730951
  0
VERTEX
  5
1287
  8
SAPA_PROFIL
 10
607.72338132707864
 20
219.0938617678392
 30
0.0
  0
VERTEX
  5
1288
  8
SAPA_PROFIL
 10
607.72338132707864
 20
220.0938617678392
 30
0.0
 42
-0.9999999999994882
  0
VERTEX
  5
1289
  8
SAPA_PROFIL
 10
608.72338132707864
 20
220.09386176783929
 30
0.0
  0
VERTEX
  5
128A
  8
SAPA_PROFIL
 10
608.72338132707876
 20
214.39386176783921
 30
0.0
 42
-0.4142135623730951
  0
VERTEX
  5
128B
  8
SAPA_PROFIL
 10
608.42338132707857
 20
214.09386176783929
 30
0.0
  0
VERTEX
  5
128C
  8
SAPA_PROFIL
 10
557.52338132707871
 20
214.0938617678392
 30
0.0
 42
-0.4142135623731505
  0
VERTEX
  5
128D
  8
SAPA_PROFIL
 10
557.22338132707876
 20
214.39386176783921
 30
0.0
  0
VERTEX
  5
128E
  8
SAPA_PROFIL
 10
557.22338132707864
 20
216.29386176783919
 30
0.0
 42
0.4142135623731506
  0
VERTEX
  5
128F
  8
SAPA_PROFIL
 10
556.92338132707869
 20
216.59386176783929
 30
0.0
  0
VERTEX
  5
1290
  8
SAPA_PROFIL
 10
555.52338132707871
 20
216.5938617678392
 30
0.0
 42
-0.4142135623731505
  0
VERTEX
  5
1291
  8
SAPA_PROFIL
 10
555.22338132707876
 20
216.89386176783921
 30
0.0
  0
VERTEX
  5
1292
  8
SAPA_PROFIL
 10
555.22338132707876
 20
221.79386176783919
 30
0.0
 42
-0.4142135623730951
  0
VERTEX
  5
1293
  8
SAPA_PROFIL
 10
556.22338132707876
 20
222.79386176783919
 30
0.0
  0
VERTEX
  5
1294
  8
SAPA_PROFIL
 10
557.62338132707873
 20
222.79386176783919
 30
0.0
 42
-0.9999999999999998
  0
VERTEX
  5
1295
  8
SAPA_PROFIL
 10
557.62338132707873
 20
221.593861767839
 30
0.0
  0
VERTEX
  5
1296
  8
SAPA_PROFIL
 10
556.72338132707876
 20
221.59386176783929
 30
0.0
 42
0.4142135623731958
  0
VERTEX
  5
1297
  8
SAPA_PROFIL
 10
556.42338132707846
 20
221.2938617678393
 30
0.0
  0
VERTEX
  5
1298
  8
SAPA_PROFIL
 10
556.42338132707869
 20
218.0938617678392
 30
0.0
 42
0.4142135623730951
  0
VERTEX
  5
1299
  8
SAPA_PROFIL
 10
556.72338132707876
 20
217.79386176783919
 30
0.0
  0
VERTEX
  5
129A
  8
SAPA_PROFIL
 10
557.92338132707857
 20
217.79386176783919
 30
0.0
 42
-0.4142135623730951
  0
VERTEX
  5
129B
  8
SAPA_PROFIL
 10
558.42338132707857
 20
217.29386176783919
 30
0.0
  0
VERTEX
  5
129C
  8
SAPA_PROFIL
 10
558.42338132707857
 20
216.09386176783909
 30
0.0
 42
0.4142135623730951
  0
VERTEX
  5
129D
  8
SAPA_PROFIL
 10
558.92338132707857
 20
215.59386176783909
 30
0.0
  0
VERTEX
  5
129E
  8
SAPA_PROFIL
 10
569.22338132707864
 20
215.59386176783909
 30
0.0
  0
VERTEX
  5
129F
  8
SAPA_PROFIL
 10
569.80073159626829
 20
216.5938617678392
 30
0.0
  0
VERTEX
  5
12A0
  8
SAPA_PROFIL
 10
577.03056100405104
 20
216.59386176783929
 30
0.0
  0
VERTEX
  5
12A1
  8
SAPA_PROFIL
 10
577.72338132707864
 20
216.19386176783919
 30
0.0
  0
VERTEX
  5
12A2
  8
SAPA_PROFIL
 10
578.41620165010613
 20
216.59386176783929
 30
0.0
  0
VERTEX
  5
12A3
  8
SAPA_PROFIL
 10
585.64603105788888
 20
216.59386176783929
 30
0.0
  0
VERTEX
  5
12A4
  8
SAPA_PROFIL
 10
586.22338132707864
 20
215.59386176783909
 30
0.0
  0
VERTEX
  5
12A5
  8
SAPA_PROFIL
 10
606.92338132707869
 20
215.59386176783929
 30
0.0
 42
0.4142135623730951
  0
VERTEX
  5
12A6
  8
SAPA_PROFIL
 10
607.22338132707864
 20
215.8938617678393
 30
0.0
  0
VERTEX
  5
12A7
  8
SAPA_PROFIL
 10
607.22338132707864
 20
217.0438617678391
 30
0.0
 42
0.4142135623730951
  0
VERTEX
  5
12A8
  8
SAPA_PROFIL
 10
606.92338132707835
 20
217.34386176783909
 30
0.0
  0
VERTEX
  5
12A9
  8
SAPA_PROFIL
 10
606.87338132707873
 20
217.3438617678392
 30
0.0
 42
-0.4142135623730951
  0
VERTEX
  5
12AA
  8
SAPA_PROFIL
 10
605.12338132707862
 20
219.0938617678392
 30
0.0
  0
VERTEX
  5
12AB
  8
SAPA_PROFIL
 10
605.12338132707839
 20
226.0938617678392
 30
0.0
 42
-0.4142135623730951
  0
VERTEX
  5
12AC
  8
SAPA_PROFIL
 10
606.87338132707839
 20
227.8438617678392
 30
0.0
  0
VERTEX
  5
12AD
  8
SAPA_PROFIL
 10
606.92338132707835
 20
227.84386176783929
 30
0.0
 42
0.4142135623730951
  0
SEQEND
  5
12AE
  8
SAPA_PROFIL
  0
POLYLINE
  5
64A
  8
SAPA_PROFIL
 66
     1
 10
0.0
 20
0.0
 30
0.0
 70
     1
  0
VERTEX
  5
12AF
  8
SAPA_PROFIL
 10
600.52338132707825
 20
356.99386176783969
 30
0.0
 42
0.4142135623730951
  0
VERTEX
  5
12B0
  8
SAPA_PROFIL
 10
600.22338132707841
 20
357.29386176783981
 30
0.0
  0
VERTEX
  5
12B1
  8
SAPA_PROFIL
 10
579.81838132707855
 20
357.2938617678397
 30
0.0
 42
-0.4142135623730951
  0
VERTEX
  5
12B2
  8
SAPA_PROFIL
 10
579.32338132707866
 20
357.78886176783959
 30
0.0
  0
VERTEX
  5
12B3
  8
SAPA_PROFIL
 10
579.32338132707866
 20
357.79886176783958
 30
0.0
 42
-0.4142135623730953
  0
VERTEX
  5
12B4
  8
SAPA_PROFIL
 10
579.81838132707855
 20
358.2938617678397
 30
0.0
  0
VERTEX
  5
12B5
  8
SAPA_PROFIL
 10
579.97338132707864
 20
358.2938617678397
 30
0.0
 42
0.4142135623730951
  0
VERTEX
  5
12B6
  8
SAPA_PROFIL
 10
580.47338132707864
 20
358.7938617678397
 30
0.0
  0
VERTEX
  5
12B7
  8
SAPA_PROFIL
 10
580.47338132707887
 20
359.59386176783971
 30
0.0
 42
0.3578824044921947
  0
VERTEX
  5
12B8
  8
SAPA_PROFIL
 10
578.25914629861381
 20
362.29116707041152
 30
0.0
 42
0.2504147178209723
  0
VERTEX
  5
12B9
  8
SAPA_PROFIL
 10
577.98856717645356
 20
362.20904761721403
 30
0.0
  0
VERTEX
  5
12BA
  8
SAPA_PROFIL
 10
577.93551336143457
 20
362.15599380219493
 30
0.0
 42
-0.4142135623725456
  0
VERTEX
  5
12BB
  8
SAPA_PROFIL
 10
577.51124929272328
 20
362.15599380219447
 30
0.0
  0
VERTEX
  5
12BC
  8
SAPA_PROFIL
 10
577.45819547770293
 20
362.20904761721448
 30
0.0
 42
0.2504147178196445
  0
VERTEX
  5
12BD
  8
SAPA_PROFIL
 10
577.18761635554392
 20
362.29116707041049
 30
0.0
 42
0.3578824044922121
  0
VERTEX
  5
12BE
  8
SAPA_PROFIL
 10
574.97338132707876
 20
359.59386176783971
 30
0.0
  0
VERTEX
  5
12BF
  8
SAPA_PROFIL
 10
574.97338132707864
 20
358.79386176783993
 30
0.0
 42
0.414213562372862
  0
VERTEX
  5
12C0
  8
SAPA_PROFIL
 10
575.4733813270783
 20
358.29386176783993
 30
0.0
  0
VERTEX
  5
12C1
  8
SAPA_PROFIL
 10
575.62838132707861
 20
358.2938617678397
 30
0.0
 42
-0.4142135623732296
  0
VERTEX
  5
12C2
  8
SAPA_PROFIL
 10
576.12338132707941
 20
357.79886176783958
 30
0.0
  0
VERTEX
  5
12C3
  8
SAPA_PROFIL
 10
576.12338132707896
 20
357.78886176783959
 30
0.0
 42
-0.4142135623732296
  0
VERTEX
  5
12C4
  8
SAPA_PROFIL
 10
575.62838132707861
 20
357.29386176783993
 30
0.0
  0
VERTEX
  5
12C5
  8
SAPA_PROFIL
 10
555.22338132707864
 20
357.2938617678397
 30
0.0
 42
0.4142135623730397
  0
VERTEX
  5
12C6
  8
SAPA_PROFIL
 10
554.92338132707857
 20
356.99386176783969
 30
0.0
  0
VERTEX
  5
12C7
  8
SAPA_PROFIL
 10
554.92338132707755
 20
243.19386176783979
 30
0.0
 42
0.4142135623730951
  0
VERTEX
  5
12C8
  8
SAPA_PROFIL
 10
555.22338132707773
 20
242.89386176783981
 30
0.0
  0
VERTEX
  5
12C9
  8
SAPA_PROFIL
 10
575.62838132707896
 20
242.89386176783961
 30
0.0
 42
-0.4142135623730951
  0
VERTEX
  5
12CA
  8
SAPA_PROFIL
 10
576.12338132707896
 20
242.39886176783949
 30
0.0
  0
VERTEX
  5
12CB
  8
SAPA_PROFIL
 10
576.12338132707896
 20
242.3888617678397
 30
0.0
 42
-0.4142135623731623
  0
VERTEX
  5
12CC
  8
SAPA_PROFIL
 10
575.62838132707896
 20
241.89386176783961
 30
0.0
  0
VERTEX
  5
12CD
  8
SAPA_PROFIL
 10
575.47338132707864
 20
241.89386176783981
 30
0.0
 42
0.4142135623730951
  0
VERTEX
  5
12CE
  8
SAPA_PROFIL
 10
574.97338132707864
 20
241.39386176783989
 30
0.0
  0
VERTEX
  5
12CF
  8
SAPA_PROFIL
 10
574.97338132707876
 20
240.59386176783971
 30
0.0
 42
0.3578824044921895
  0
VERTEX
  5
12D0
  8
SAPA_PROFIL
 10
577.1876163555437
 20
237.89655646526859
 30
0.0
 42
0.250414717819754
  0
VERTEX
  5
12D1
  8
SAPA_PROFIL
 10
577.45819547770293
 20
237.97867591846489
 30
0.0
  0
VERTEX
  5
12D2
  8
SAPA_PROFIL
 10
577.51124929272305
 20
238.03172973348509
 30
0.0
 42
-0.4142135623725458
  0
VERTEX
  5
12D3
  8
SAPA_PROFIL
 10
577.93551336143457
 20
238.03172973348461
 30
0.0
  0
VERTEX
  5
12D4
  8
SAPA_PROFIL
 10
577.98856717645356
 20
237.9786759184654
 30
0.0
 42
0.2504147178212384
  0
VERTEX
  5
12D5
  8
SAPA_PROFIL
 10
578.25914629861416
 20
237.8965564652672
 30
0.0
 42
0.3578824044921563
  0
VERTEX
  5
12D6
  8
SAPA_PROFIL
 10
580.47338132707887
 20
240.5938617678394
 30
0.0
  0
VERTEX
  5
12D7
  8
SAPA_PROFIL
 10
580.47338132707887
 20
241.39386176783961
 30
0.0
 42
0.4142135623730951
  0
VERTEX
  5
12D8
  8
SAPA_PROFIL
 10
579.97338132707887
 20
241.89386176783961
 30
0.0
  0
VERTEX
  5
12D9
  8
SAPA_PROFIL
 10
579.81838132707855
 20
241.89386176783961
 30
0.0
 42
-0.4142135623732296
  0
VERTEX
  5
12DA
  8
SAPA_PROFIL
 10
579.32338132707866
 20
242.3888617678397
 30
0.0
  0
VERTEX
  5
12DB
  8
SAPA_PROFIL
 10
579.32338132707866
 20
242.39886176783949
 30
0.0
 42
-0.4142135623731625
  0
VERTEX
  5
12DC
  8
SAPA_PROFIL
 10
579.81838132707855
 20
242.89386176783961
 30
0.0
  0
VERTEX
  5
12DD
  8
SAPA_PROFIL
 10
600.22338132707841
 20
242.89386176783961
 30
0.0
 42
0.4142135623730951
  0
VERTEX
  5
12DE
  8
SAPA_PROFIL
 10
600.52338132707825
 20
243.19386176783959
 30
0.0
  0
SEQEND
  5
12DF
  8
SAPA_PROFIL
  0
POLYLINE
  5
64B
  8
SAPA_PROFIL
 66
     1
 10
0.0
 20
0.0
 30
0.0
 70
     1
  0
VERTEX
  5
12E0
  8
SAPA_PROFIL
 10
602.72338132707898
 20
363.79386176783959
 30
0.0
 42
0.4142135623730951
  0
VERTEX
  5
12E1
  8
SAPA_PROFIL
 10
602.42338132707914
 20
364.09386176783948
 30
0.0
  0
VERTEX
  5
12E2
  8
SAPA_PROFIL
 10
599.84764539579066
 20
364.09386176783971
 30
0.0
 42
0.1989123673796294
  0
VERTEX
  5
12E3
  8
SAPA_PROFIL
 10
599.63551336143473
 20
364.00599380219552
 30
0.0
  0
VERTEX
  5
12E4
  8
SAPA_PROFIL
 10
598.81124929272278
 20
363.18172973348362
 30
0.0
 42
0.198912367379658
  0
VERTEX
  5
12E5
  8
SAPA_PROFIL
 10
598.72338132707887
 20
362.96959769912758
 30
0.0
  0
VERTEX
  5
12E6
  8
SAPA_PROFIL
 10
598.72338132707887
 20
362.39386176783961
 30
0.0
 42
0.4142135623731506
  0
VERTEX
  5
12E7
  8
SAPA_PROFIL
 10
599.02338132707882
 20
362.09386176783971
 30
0.0
  0
VERTEX
  5
12E8
  8
SAPA_PROFIL
 10
600.62338132707839
 20
362.09386176783971
 30
0.0
 42
-0.4142135623730395
  0
VERTEX
  5
12E9
  8
SAPA_PROFIL
 10
600.92338132707857
 20
361.79386176783959
 30
0.0
  0
VERTEX
  5
12EA
  8
SAPA_PROFIL
 10
600.92338132707857
 20
359.39386176783961
 30
0.0
 42
-0.4142135623729841
  0
VERTEX
  5
12EB
  8
SAPA_PROFIL
 10
600.62338132707839
 20
359.09386176783971
 30
0.0
  0
VERTEX
  5
12EC
  8
SAPA_PROFIL
 10
582.52338132707882
 20
359.09386176783948
 30
0.0
 42
-0.4142135623730951
  0
VERTEX
  5
12ED
  8
SAPA_PROFIL
 10
582.22338132707887
 20
359.39386176783961
 30
0.0
  0
VERTEX
  5
12EE
  8
SAPA_PROFIL
 10
582.22338132707887
 20
361.79386176783959
 30
0.0
 42
-0.4142135623730951
  0
VERTEX
  5
12EF
  8
SAPA_PROFIL
 10
582.52338132707882
 20
362.09386176783971
 30
0.0
  0
VERTEX
  5
12F0
  8
SAPA_PROFIL
 10
584.42338132707857
 20
362.09386176783948
 30
0.0
 42
0.4142135623732616
  0
VERTEX
  5
12F1
  8
SAPA_PROFIL
 10
584.72338132707876
 20
362.39386176783961
 30
0.0
  0
VERTEX
  5
12F2
  8
SAPA_PROFIL
 10
584.72338132707864
 20
362.96959769912769
 30
0.0
 42
0.1989123673797278
  0
VERTEX
  5
12F3
  8
SAPA_PROFIL
 10
584.63551336143473
 20
363.18172973348368
 30
0.0
  0
VERTEX
  5
12F4
  8
SAPA_PROFIL
 10
584.01124929272248
 20
363.8059938021957
 30
0.0
 42
0.1989123673795882
  0
VERTEX
  5
12F5
  8
SAPA_PROFIL
 10
583.79911725836655
 20
363.89386176783972
 30
0.0
  0
VERTEX
  5
12F6
  8
SAPA_PROFIL
 10
578.32338132707866
 20
363.89386176783961
 30
0.0
 42
0.1316524975875084
  0
VERTEX
  5
12F7
  8
SAPA_PROFIL
 10
578.17338132707857
 20
363.85366938897488
 30
0.0
  0
VERTEX
  5
12F8
  8
SAPA_PROFIL
 10
577.87338132707885
 20
363.68046430821801
 30
0.0
 42
-0.2679491924311703
  0
VERTEX
  5
12F9
  8
SAPA_PROFIL
 10
577.57338132707878
 20
363.68046430821801
 30
0.0
  0
VERTEX
  5
12FA
  8
SAPA_PROFIL
 10
577.2733813270786
 20
363.85366938897499
 30
0.0
 42
0.1316524975873767
  0
VERTEX
  5
12FB
  8
SAPA_PROFIL
 10
577.12338132707873
 20
363.89386176783961
 30
0.0
  0
VERTEX
  5
12FC
  8
SAPA_PROFIL
 10
571.64764539579051
 20
363.89386176783961
 30
0.0
 42
0.1989123673797563
  0
VERTEX
  5
12FD
  8
SAPA_PROFIL
 10
571.43551336143435
 20
363.80599380219559
 30
0.0
  0
VERTEX
  5
12FE
  8
SAPA_PROFIL
 10
570.81124929272266
 20
363.18172973348362
 30
0.0
 42
0.1989123673796291
  0
VERTEX
  5
12FF
  8
SAPA_PROFIL
 10
570.72338132707864
 20
362.96959769912769
 30
0.0
  0
VERTEX
  5
1300
  8
SAPA_PROFIL
 10
570.72338132707864
 20
362.39386176783961
 30
0.0
 42
0.4142135623732062
  0
VERTEX
  5
1301
  8
SAPA_PROFIL
 10
571.0233813270786
 20
362.09386176783948
 30
0.0
  0
VERTEX
  5
1302
  8
SAPA_PROFIL
 10
572.92338132707869
 20
362.09386176783971
 30
0.0
 42
-0.4142135623730951
  0
VERTEX
  5
1303
  8
SAPA_PROFIL
 10
573.22338132707876
 20
361.79386176783959
 30
0.0
  0
VERTEX
  5
1304
  8
SAPA_PROFIL
 10
573.22338132707876
 20
359.39386176783961
 30
0.0
 42
-0.4142135623732061
  0
VERTEX
  5
1305
  8
SAPA_PROFIL
 10
572.92338132707891
 20
359.09386176783971
 30
0.0
  0
VERTEX
  5
1306
  8
SAPA_PROFIL
 10
554.82338132707821
 20
359.09386176783971
 30
0.0
 42
-0.4142135623730951
  0
VERTEX
  5
1307
  8
SAPA_PROFIL
 10
554.52338132707825
 20
359.39386176783961
 30
0.0
  0
VERTEX
  5
1308
  8
SAPA_PROFIL
 10
554.52338132707825
 20
361.79386176783959
 30
0.0
 42
-0.4142135623729843
  0
VERTEX
  5
1309
  8
SAPA_PROFIL
 10
554.82338132707855
 20
362.09386176783971
 30
0.0
  0
VERTEX
  5
130A
  8
SAPA_PROFIL
 10
556.42338132707869
 20
362.09386176783971
 30
0.0
 42
0.4142135623730951
  0
VERTEX
  5
130B
  8
SAPA_PROFIL
 10
556.72338132707864
 20
362.39386176783961
 30
0.0
  0
VERTEX
  5
130C
  8
SAPA_PROFIL
 10
556.72338132707864
 20
362.96959769912769
 30
0.0
 42
0.1989123673796173
  0
VERTEX
  5
130D
  8
SAPA_PROFIL
 10
556.63551336143473
 20
363.18172973348368
 30
0.0
  0
VERTEX
  5
130E
  8
SAPA_PROFIL
 10
555.81124929272278
 20
364.00599380219552
 30
0.0
 42
0.1989123673796292
  0
VERTEX
  5
130F
  8
SAPA_PROFIL
 10
555.59911725836673
 20
364.09386176783971
 30
0.0
  0
VERTEX
  5
1310
  8
SAPA_PROFIL
 10
553.02338132707848
 20
364.09386176783971
 30
0.0
 42
0.4142135623730951
  0
VERTEX
  5
1311
  8
SAPA_PROFIL
 10
552.72338132707864
 20
363.7938617678397
 30
0.0
  0
VERTEX
  5
1312
  8
SAPA_PROFIL
 10
552.72338132707864
 20
214.39386176783961
 30
0.0
 42
0.4142135623730951
  0
VERTEX
  5
1313
  8
SAPA_PROFIL
 10
553.02338132707848
 20
214.09386176783971
 30
0.0
  0
VERTEX
  5
1314
  8
SAPA_PROFIL
 10
556.92338132707835
 20
214.09386176783971
 30
0.0
 42
0.4142135623730951
  0
VERTEX
  5
1315
  8
SAPA_PROFIL
 10
557.2233813270783
 20
214.39386176783961
 30
0.0
  0
VERTEX
  5
1316
  8
SAPA_PROFIL
 10
557.22338132707864
 20
215.66140623580671
 30
0.0
 42
0.2896898633026668
  0
VERTEX
  5
1317
  8
SAPA_PROFIL
 10
556.65195275564997
 20
216.5649141387112
 30
0.0
 42
0.5507604245864405
  0
VERTEX
  5
1318
  8
SAPA_PROFIL
 10
556.22338132707841
 20
216.2938617678397
 30
0.0
  0
VERTEX
  5
1319
  8
SAPA_PROFIL
 10
556.22338132707841
 20
215.64386176783961
 30
0.0
 42
-0.4142135623730951
  0
VERTEX
  5
131A
  8
SAPA_PROFIL
 10
555.92338132707835
 20
215.3438617678396
 30
0.0
  0
VERTEX
  5
131B
  8
SAPA_PROFIL
 10
554.5233813270786
 20
215.3438617678396
 30
0.0
 42
-0.4142135623730951
  0
VERTEX
  5
131C
  8
SAPA_PROFIL
 10
554.22338132707841
 20
215.64386176783961
 30
0.0
  0
VERTEX
  5
131D
  8
SAPA_PROFIL
 10
554.22338132707864
 20
224.0438617678397
 30
0.0
 42
-0.4142135623730951
  0
VERTEX
  5
131E
  8
SAPA_PROFIL
 10
554.5233813270786
 20
224.34386176783971
 30
0.0
  0
VERTEX
  5
131F
  8
SAPA_PROFIL
 10
555.92338132707835
 20
224.34386176783971
 30
0.0
 42
-0.4142135623730951
  0
VERTEX
  5
1320
  8
SAPA_PROFIL
 10
556.22338132707841
 20
224.0438617678397
 30
0.0
  0
VERTEX
  5
1321
  8
SAPA_PROFIL
 10
556.22338132707773
 20
223.39386176783961
 30
0.0
 42
0.5507604245862758
  0
VERTEX
  5
1322
  8
SAPA_PROFIL
 10
556.6519527556502
 20
223.1228093969676
 30
0.0
 42
0.2896898633026569
  0
VERTEX
  5
1323
  8
SAPA_PROFIL
 10
557.2233813270783
 20
224.0263172998728
 30
0.0
  0
VERTEX
  5
1324
  8
SAPA_PROFIL
 10
557.2233813270783
 20
225.2938617678397
 30
0.0
 42
0.4142135623730951
  0
VERTEX
  5
1325
  8
SAPA_PROFIL
 10
556.92338132707835
 20
225.5938617678396
 30
0.0
  0
VERTEX
  5
1326
  8
SAPA_PROFIL
 10
555.22338132707853
 20
225.5938617678396
 30
0.0
 42
-0.4142135623730951
  0
VERTEX
  5
1327
  8
SAPA_PROFIL
 10
554.92338132707846
 20
225.89386176783961
 30
0.0
  0
VERTEX
  5
1328
  8
SAPA_PROFIL
 10
554.92338132707869
 20
235.7938617678397
 30
0.0
 42
-0.4142135623730951
  0
VERTEX
  5
1329
  8
SAPA_PROFIL
 10
555.22338132707876
 20
236.0938617678396
 30
0.0
  0
VERTEX
  5
132A
  8
SAPA_PROFIL
 10
555.59911725836673
 20
236.0938617678396
 30
0.0
 42
0.1989123673796004
  0
VERTEX
  5
132B
  8
SAPA_PROFIL
 10
555.81124929272255
 20
236.18172973348379
 30
0.0
  0
VERTEX
  5
132C
  8
SAPA_PROFIL
 10
556.63551336143473
 20
237.00599380219569
 30
0.0
 42
0.198912367379658
  0
VERTEX
  5
132D
  8
SAPA_PROFIL
 10
556.72338132707876
 20
237.21812583655151
 30
0.0
  0
VERTEX
  5
132E
  8
SAPA_PROFIL
 10
556.72338132707864
 20
237.7938617678397
 30
0.0
 42
0.4142135623730951
  0
VERTEX
  5
132F
  8
SAPA_PROFIL
 10
556.42338132707869
 20
238.0938617678396
 30
0.0
  0
VERTEX
  5
1330
  8
SAPA_PROFIL
 10
555.22338132707876
 20
238.0938617678396
 30
0.0
 42
-0.4142135623730951
  0
VERTEX
  5
1331
  8
SAPA_PROFIL
 10
554.92338132707869
 20
238.39386176783961
 30
0.0
  0
VERTEX
  5
1332
  8
SAPA_PROFIL
 10
554.92338132707891
 20
240.7938617678397
 30
0.0
 42
-0.4142135623730951
  0
VERTEX
  5
1333
  8
SAPA_PROFIL
 10
555.22338132707876
 20
241.09386176783971
 30
0.0
  0
VERTEX
  5
1334
  8
SAPA_PROFIL
 10
564.62338132740774
 20
241.0938617678392
 30
0.0
 42
-0.4142135623730951
  0
VERTEX
  5
1335
  8
SAPA_PROFIL
 10
564.9233813274077
 20
240.7938617678393
 30
0.0
  0
VERTEX
  5
1336
  8
SAPA_PROFIL
 10
564.92338132740781
 20
236.39386176783921
 30
0.0
 42
0.4142135623729838
  0
VERTEX
  5
1337
  8
SAPA_PROFIL
 10
565.22338132740788
 20
236.09386176783929
 30
0.0
  0
VERTEX
  5
1338
  8
SAPA_PROFIL
 10
566.70746939276114
 20
236.09386176783929
 30
0.0
 42
0.2596812337302727
  0
VERTEX
  5
1339
  8
SAPA_PROFIL
 10
566.87750020430121
 20
236.18855496308751
 30
0.0
  0
VERTEX
  5
133A
  8
SAPA_PROFIL
 10
567.27842754885285
 20
236.83590156071159
 30
0.0
 42
0.5877032589249178
  0
VERTEX
  5
133B
  8
SAPA_PROFIL
 10
567.02338133154285
 20
237.29386176783919
 30
0.0
  0
VERTEX
  5
133C
  8
SAPA_PROFIL
 10
566.62338132740774
 20
237.2938617678391
 30
0.0
 42
-0.4142135623732074
  0
VERTEX
  5
133D
  8
SAPA_PROFIL
 10
566.32338132740779
 20
237.593861767839
 30
0.0
  0
VERTEX
  5
133E
  8
SAPA_PROFIL
 10
566.32338132740801
 20
240.7938617678393
 30
0.0
 42
-0.4142135623729827
  0
VERTEX
  5
133F
  8
SAPA_PROFIL
 10
566.62338132740797
 20
241.09386176783971
 30
0.0
  0
VERTEX
  5
1340
  8
SAPA_PROFIL
 10
572.92338132707869
 20
241.09386176783971
 30
0.0
 42
-0.4142135623732059
  0
VERTEX
  5
1341
  8
SAPA_PROFIL
 10
573.22338132707876
 20
240.7938617678397
 30
0.0
  0
VERTEX
  5
1342
  8
SAPA_PROFIL
 10
573.22338132707876
 20
238.39386176783981
 30
0.0
 42
-0.4142135623732061
  0
VERTEX
  5
1343
  8
SAPA_PROFIL
 10
572.92338132707869
 20
238.09386176783991
 30
0.0
  0
VERTEX
  5
1344
  8
SAPA_PROFIL
 10
571.02338132707871
 20
238.09386176783991
 30
0.0
 42
0.4142135623730951
  0
VERTEX
  5
1345
  8
SAPA_PROFIL
 10
570.72338132707864
 20
237.7938617678399
 30
0.0
  0
VERTEX
  5
1346
  8
SAPA_PROFIL
 10
570.72338132707864
 20
237.21812583655151
 30
0.0
 42
0.1989123673796003
  0
VERTEX
  5
1347
  8
SAPA_PROFIL
 10
570.81124929272266
 20
237.00599380219569
 30
0.0
  0
VERTEX
  5
1348
  8
SAPA_PROFIL
 10
571.43551336143491
 20
236.38172973348341
 30
0.0
 42
0.198912367379646
  0
VERTEX
  5
1349
  8
SAPA_PROFIL
 10
571.64764539579085
 20
236.2938617678395
 30
0.0
  0
VERTEX
  5
134A
  8
SAPA_PROFIL
 10
577.12338132769457
 20
236.2938617678395
 30
0.0
 42
0.1316524966136525
  0
VERTEX
  5
134B
  8
SAPA_PROFIL
 10
577.27338132670002
 20
236.3340541461298
 30
0.0
  0
VERTEX
  5
134C
  8
SAPA_PROFIL
 10
577.57338133034705
 20
236.50725922746099
 30
0.0
 42
-0.2679491924313599
  0
VERTEX
  5
134D
  8
SAPA_PROFIL
 10
577.87338133034723
 20
236.50725922746099
 30
0.0
  0
VERTEX
  5
134E
  8
SAPA_PROFIL
 10
578.17338132707835
 20
236.3340541467044
 30
0.0
 42
0.1316524975875084
  0
VERTEX
  5
134F
  8
SAPA_PROFIL
 10
578.32338132707855
 20
236.2938617678397
 30
0.0
  0
VERTEX
  5
1350
  8
SAPA_PROFIL
 10
583.79911725836666
 20
236.2938617678397
 30
0.0
 42
0.1989123673796867
  0
VERTEX
  5
1351
  8
SAPA_PROFIL
 10
584.01124929272271
 20
236.38172973348361
 30
0.0
  0
VERTEX
  5
1352
  8
SAPA_PROFIL
 10
584.63551336143473
 20
237.00599380219569
 30
0.0
 42
0.1989123673795884
  0
VERTEX
  5
1353
  8
SAPA_PROFIL
 10
584.72338132707876
 20
237.21812583655151
 30
0.0
  0
VERTEX
  5
1354
  8
SAPA_PROFIL
 10
584.72338132707876
 20
237.7938617678399
 30
0.0
 42
0.4142135623732059
  0
VERTEX
  5
1355
  8
SAPA_PROFIL
 10
584.42338132707857
 20
238.09386176783991
 30
0.0
  0
VERTEX
  5
1356
  8
SAPA_PROFIL
 10
582.52338132707882
 20
238.09386176784011
 30
0.0
 42
-0.4142135623732061
  0
VERTEX
  5
1357
  8
SAPA_PROFIL
 10
582.22338132707876
 20
238.39386176784001
 30
0.0
  0
VERTEX
  5
1358
  8
SAPA_PROFIL
 10
582.22338132707887
 20
240.7938617678397
 30
0.0
 42
-0.4142135623730951
  0
VERTEX
  5
1359
  8
SAPA_PROFIL
 10
582.52338132707882
 20
241.09386176783971
 30
0.0
  0
VERTEX
  5
135A
  8
SAPA_PROFIL
 10
600.62338132707839
 20
241.09386176783971
 30
0.0
 42
-0.4142135623732059
  0
VERTEX
  5
135B
  8
SAPA_PROFIL
 10
600.92338132707857
 20
240.7938617678397
 30
0.0
  0
VERTEX
  5
135C
  8
SAPA_PROFIL
 10
600.92338132707835
 20
238.39386176783961
 30
0.0
 42
-0.4142135623730951
  0
VERTEX
  5
135D
  8
SAPA_PROFIL
 10
600.62338132707839
 20
238.0938617678396
 30
0.0
  0
VERTEX
  5
135E
  8
SAPA_PROFIL
 10
599.02338132707871
 20
238.0938617678396
 30
0.0
 42
0.4142135623730951
  0
VERTEX
  5
135F
  8
SAPA_PROFIL
 10
598.72338132707876
 20
237.7938617678397
 30
0.0
  0
VERTEX
  5
1360
  8
SAPA_PROFIL
 10
598.72338132707864
 20
237.21812583655179
 30
0.0
 42
0.1989123673796292
  0
VERTEX
  5
1361
  8
SAPA_PROFIL
 10
598.81124929272278
 20
237.00599380219569
 30
0.0
  0
VERTEX
  5
1362
  8
SAPA_PROFIL
 10
599.63551336143473
 20
236.18172973348379
 30
0.0
 42
0.198912367379646
  0
VERTEX
  5
1363
  8
SAPA_PROFIL
 10
599.84764539579066
 20
236.09386176783991
 30
0.0
  0
VERTEX
  5
1364
  8
SAPA_PROFIL
 10
602.42338132707869
 20
236.0938617678396
 30
0.0
 42
0.4142135623729841
  0
VERTEX
  5
1365
  8
SAPA_PROFIL
 10
602.72338132707876
 20
236.39386176783961
 30
0.0
  0
SEQEND
  5
1366
  8
SAPA_PROFIL
  0
POLYLINE
  5
64C
  8
SAPA_PROFIL
 66
     1
 10
0.0
 20
0.0
 30
0.0
  0
VERTEX
  5
1367
  8
SAPA_PROFIL
 10
646.40182614644254
 20
177.21512484628761
 30
0.0
  0
VERTEX
  5
1368
  8
SAPA_PROFIL
 10
645.72078621258424
 20
160.0938617678373
 30
0.0
 42
0.4142135623730951
  0
VERTEX
  5
1369
  8
SAPA_PROFIL
 10
646.22078621258424
 20
159.5938617678373
 30
0.0
  0
VERTEX
  5
136A
  8
SAPA_PROFIL
 10
658.02039969559314
 20
159.59386176783741
 30
0.0
 42
0.4076767287637263
  0
VERTEX
  5
136B
  8
SAPA_PROFIL
 10
661.01964952798266
 20
162.5267581186543
 30
0.0
  0
VERTEX
  5
136C
  8
SAPA_PROFIL
 10
661.17408875009346
 20
177.21512484628761
 30
0.0
 42
0.4182129759575463
  0
VERTEX
  5
136D
  8
SAPA_PROFIL
 10
660.67857702923618
 20
177.72628595834311
 30
0.0
  0
VERTEX
  5
136E
  8
SAPA_PROFIL
 10
658.20392927311696
 20
177.73911355986891
 30
0.0
  0
VERTEX
  5
136F
  8
SAPA_PROFIL
 10
656.57787131692328
 20
179.3938021574927
 30
0.0
  0
VERTEX
  5
1370
  8
SAPA_PROFIL
 10
656.57787131692328
 20
183.94287819178089
 30
0.0
 42
-0.4293387945586749
  0
VERTEX
  5
1371
  8
SAPA_PROFIL
 10
656.89598245291268
 20
184.2396047128654
 30
0.0
  0
VERTEX
  5
1372
  8
SAPA_PROFIL
 10
657.97743817818321
 20
184.16696503673771
 30
0.0
 42
-0.4883397947196161
  0
VERTEX
  5
1373
  8
SAPA_PROFIL
 10
657.75681524398499
 20
182.6052432107293
 30
0.0
  0
VERTEX
  5
1374
  8
SAPA_PROFIL
 10
657.75681524398499
 20
179.90616193469489
 30
0.0
  0
VERTEX
  5
1375
  8
SAPA_PROFIL
 10
658.71143846418283
 20
178.9347302883188
 30
0.0
  0
VERTEX
  5
1376
  8
SAPA_PROFIL
 10
661.21056460706791
 20
178.9347302883188
 30
0.0
  0
VERTEX
  5
1377
  8
SAPA_PROFIL
 10
661.21056460706791
 20
179.40850595483369
 30
0.0
  0
VERTEX
  5
1378
  8
SAPA_PROFIL
 10
662.72338132707614
 20
179.40850595483369
 30
0.0
  0
VERTEX
  5
1379
  8
SAPA_PROFIL
 10
662.72338132707625
 20
158.39122106114519
 30
0.0
 42
-0.4116378201539302
  0
VERTEX
  5
137A
  8
SAPA_PROFIL
 10
662.42339284940579
 20
158.09386176783741
 30
0.0
  0
VERTEX
  5
137B
  8
SAPA_PROFIL
 10
634.02078621258431
 20
158.09386176783721
 30
0.0
 42
-0.414213562373095
  0
VERTEX
  5
137C
  8
SAPA_PROFIL
 10
633.72078621258424
 20
158.39386176783731
 30
0.0
  0
VERTEX
  5
137D
  8
SAPA_PROFIL
 10
633.72078621258424
 20
159.6038617678372
 30
0.0
 42
-0.4142135623731037
  0
VERTEX
  5
137E
  8
SAPA_PROFIL
 10
634.71078621258425
 20
160.5938617678373
 30
0.0
  0
VERTEX
  5
137F
  8
SAPA_PROFIL
 10
634.72078621258424
 20
160.5938617678373
 30
0.0
  0
VERTEX
  5
1380
  8
SAPA_PROFIL
 10
634.72078621258424
 20
159.3438617678373
 30
0.0
  0
VERTEX
  5
1381
  8
SAPA_PROFIL
 10
636.22078621258424
 20
159.3438617678373
 30
0.0
 42
0.4142135623730951
  0
VERTEX
  5
1382
  8
SAPA_PROFIL
 10
636.72078621258436
 20
159.8438617678373
 30
0.0
  0
VERTEX
  5
1383
  8
SAPA_PROFIL
 10
636.72078621258436
 20
167.8438617678373
 30
0.0
 42
0.4142135623730951
  0
VERTEX
  5
1384
  8
SAPA_PROFIL
 10
636.22078621258424
 20
168.3438617678373
 30
0.0
  0
VERTEX
  5
1385
  8
SAPA_PROFIL
 10
634.72078621258424
 20
168.3438617678373
 30
0.0
  0
VERTEX
  5
1386
  8
SAPA_PROFIL
 10
634.72078621258424
 20
167.0938617678373
 30
0.0
  0
VERTEX
  5
1387
  8
SAPA_PROFIL
 10
634.71078621258425
 20
167.0938617678373
 30
0.0
 42
-0.414213562373095
  0
VERTEX
  5
1388
  8
SAPA_PROFIL
 10
633.72078621258424
 20
168.08386176783719
 30
0.0
  0
VERTEX
  5
1389
  8
SAPA_PROFIL
 10
633.72078621258424
 20
168.59386176783721
 30
0.0
 42
-0.4142135623730953
  0
VERTEX
  5
138A
  8
SAPA_PROFIL
 10
634.72078621258424
 20
169.5938617678373
 30
0.0
  0
VERTEX
  5
138B
  8
SAPA_PROFIL
 10
636.22078621258424
 20
169.5938617678373
 30
0.0
 42
-0.4142135623730951
  0
VERTEX
  5
138C
  8
SAPA_PROFIL
 10
637.9207862125844
 20
167.89386176783731
 30
0.0
  0
VERTEX
  5
138D
  8
SAPA_PROFIL
 10
637.9207862125844
 20
160.0938617678373
 30
0.0
 42
0.414213562373095
  0
VERTEX
  5
138E
  8
SAPA_PROFIL
 10
638.4207862125844
 20
159.5938617678373
 30
0.0
  0
VERTEX
  5
138F
  8
SAPA_PROFIL
 10
643.9207862125844
 20
159.5938617678373
 30
0.0
 42
0.4142135623730951
  0
VERTEX
  5
1390
  8
SAPA_PROFIL
 10
644.4207862125844
 20
160.0938617678373
 30
0.0
  0
VERTEX
  5
1391
  8
SAPA_PROFIL
 10
645.09199585905071
 20
177.21512484628761
 30
0.0
  0
VERTEX
  5
1392
  8
SAPA_PROFIL
 10
645.74893430978011
 20
182.6180716100373
 30
0.0
 42
0.4666505291506209
  0
VERTEX
  5
1393
  8
SAPA_PROFIL
 10
645.48710277873545
 20
182.89787317595611
 30
0.0
  0
VERTEX
  5
1394
  8
SAPA_PROFIL
 10
644.76444668517661
 20
182.8583302820378
 30
0.0
 42
-0.7332303362618522
  0
VERTEX
  5
1395
  8
SAPA_PROFIL
 10
644.56427209660637
 20
183.39440630469011
 30
0.0
  0
VERTEX
  5
1396
  8
SAPA_PROFIL
 10
646.67437943614414
 20
184.16531642219451
 30
0.0
 42
-0.668178637919333
  0
VERTEX
  5
1397
  8
SAPA_PROFIL
 10
647.15672728823495
 20
183.8921502270002
 30
0.0
  0
VERTEX
  5
1398
  8
SAPA_PROFIL
 10
646.40182614644254
 20
177.21512484628761
 30
0.0
  0
VERTEX
  5
1399
  8
SAPA_PROFIL
 10
646.41135959860583
 20
177.21512484628761
 30
0.0
  0
SEQEND
  5
139A
  8
SAPA_PROFIL
  0
POLYLINE
  5
64D
  8
SAPA_PROFIL
 66
     1
 10
0.0
 20
0.0
 30
0.0
 70
     1
  0
VERTEX
  5
139B
  8
SAPA_PROFIL
 10
645.52338132707621
 20
230.79386176783939
 30
0.0
  0
VERTEX
  5
139C
  8
SAPA_PROFIL
 10
652.99838132707634
 20
230.79386176783939
 30
0.0
 42
-0.4142135623730951
  0
VERTEX
  5
139D
  8
SAPA_PROFIL
 10
653.49838132707634
 20
230.29386176783939
 30
0.0
  0
VERTEX
  5
139E
  8
SAPA_PROFIL
 10
653.49838132707623
 20
228.59386176783951
 30
0.0
 42
0.4142135623730951
  0
VERTEX
  5
139F
  8
SAPA_PROFIL
 10
658.09838132707625
 20
223.99386176783949
 30
0.0
  0
VERTEX
  5
13A0
  8
SAPA_PROFIL
 10
659.9233813270763
 20
223.99386176783949
 30
0.0
 42
-0.4142135623730951
  0
VERTEX
  5
13A1
  8
SAPA_PROFIL
 10
660.9233813270763
 20
222.99386176783949
 30
0.0
  0
VERTEX
  5
13A2
  8
SAPA_PROFIL
 10
660.92338132707619
 20
188.5938617678392
 30
0.0
 42
-0.4142135623730951
  0
VERTEX
  5
13A3
  8
SAPA_PROFIL
 10
659.92338132707607
 20
187.5938617678392
 30
0.0
  0
VERTEX
  5
13A4
  8
SAPA_PROFIL
 10
639.82338132707616
 20
187.5938617678392
 30
0.0
 42
0.4142135623730951
  0
VERTEX
  5
13A5
  8
SAPA_PROFIL
 10
639.32338132707605
 20
187.0938617678392
 30
0.0
  0
VERTEX
  5
13A6
  8
SAPA_PROFIL
 10
639.32338132707605
 20
186.3938617678393
 30
0.0
 42
0.4150844288340716
  0
VERTEX
  5
13A7
  8
SAPA_PROFIL
 10
639.82486752905606
 20
185.89386397664049
 30
0.0
 42
-0.3121484461588222
  0
VERTEX
  5
13A8
  8
SAPA_PROFIL
 10
640.29368093191601
 20
185.57164494490891
 30
0.0
 42
-0.482358125222547
  0
VERTEX
  5
13A9
  8
SAPA_PROFIL
 10
638.09777637031266
 20
181.86946672460331
 30
0.0
  0
VERTEX
  5
13AA
  8
SAPA_PROFIL
 10
637.72338132707625
 20
182.2438617678398
 30
0.0
  0
VERTEX
  5
13AB
  8
SAPA_PROFIL
 10
637.34898628383985
 20
181.86946672460331
 30
0.0
 42
-0.4823574778722663
  0
VERTEX
  5
13AC
  8
SAPA_PROFIL
 10
635.15307966826492
 20
185.57163954561699
 30
0.0
 42
-0.311333703729445
  0
VERTEX
  5
13AD
  8
SAPA_PROFIL
 10
635.62040724259407
 20
185.8938617678393
 30
0.0
  0
VERTEX
  5
13AE
  8
SAPA_PROFIL
 10
635.62338132707623
 20
185.8938617678393
 30
0.0
 42
0.4142135623730951
  0
VERTEX
  5
13AF
  8
SAPA_PROFIL
 10
636.12338132707623
 20
186.3938617678393
 30
0.0
  0
VERTEX
  5
13B0
  8
SAPA_PROFIL
 10
636.12338132707623
 20
187.0938617678392
 30
0.0
 42
0.4142135623731117
  0
VERTEX
  5
13B1
  8
SAPA_PROFIL
 10
635.62338132707623
 20
187.59386176783929
 30
0.0
  0
VERTEX
  5
13B2
  8
SAPA_PROFIL
 10
615.52338132707632
 20
187.59386176783929
 30
0.0
 42
-0.4142135623730951
  0
VERTEX
  5
13B3
  8
SAPA_PROFIL
 10
614.52338132707632
 20
188.59386176783929
 30
0.0
  0
VERTEX
  5
13B4
  8
SAPA_PROFIL
 10
614.52338132707632
 20
222.99386176783929
 30
0.0
 42
-0.4142135623730951
  0
VERTEX
  5
13B5
  8
SAPA_PROFIL
 10
615.52338132707632
 20
223.99386176783941
 30
0.0
  0
VERTEX
  5
13B6
  8
SAPA_PROFIL
 10
617.34838132707625
 20
223.99386176783941
 30
0.0
 42
0.4142135623730914
  0
VERTEX
  5
13B7
  8
SAPA_PROFIL
 10
621.94838132707628
 20
228.5938617678394
 30
0.0
  0
VERTEX
  5
13B8
  8
SAPA_PROFIL
 10
621.94838132707616
 20
230.2938617678393
 30
0.0
 42
-0.4142135623730951
  0
VERTEX
  5
13B9
  8
SAPA_PROFIL
 10
622.44838132707616
 20
230.7938617678393
 30
0.0
  0
VERTEX
  5
13BA
  8
SAPA_PROFIL
 10
629.92338132707607
 20
230.79386176783939
 30
0.0
 42
-0.4142135623730951
  0
VERTEX
  5
13BB
  8
SAPA_PROFIL
 10
630.22338132707614
 20
230.49386176783941
 30
0.0
  0
VERTEX
  5
13BC
  8
SAPA_PROFIL
 10
630.22338132707625
 20
230.3938617678393
 30
0.0
 42
0.4142135623730951
  0
VERTEX
  5
13BD
  8
SAPA_PROFIL
 10
630.52338132707621
 20
230.0938617678394
 30
0.0
  0
VERTEX
  5
13BE
  8
SAPA_PROFIL
 10
644.92338132707619
 20
230.0938617678394
 30
0.0
 42
0.4142135623730951
  0
VERTEX
  5
13BF
  8
SAPA_PROFIL
 10
645.22338132707614
 20
230.3938617678393
 30
0.0
  0
VERTEX
  5
13C0
  8
SAPA_PROFIL
 10
645.22338132707625
 20
230.49386176783941
 30
0.0
 42
-0.4142135623730951
  0
SEQEND
  5
13C1
  8
SAPA_PROFIL
  0
POLYLINE
  5
64E
  8
SAPA_PROFIL
 66
     1
 10
0.0
 20
0.0
 30
0.0
 70
     1
  0
VERTEX
  5
13C2
  8
SAPA_PROFIL
 10
658.72338132707625
 20
181.0938617678394
 30
0.0
  0
VERTEX
  5
13C3
  8
SAPA_PROFIL
 10
658.72338132707625
 20
182.09386176783951
 30
0.0
  0
VERTEX
  5
13C4
  8
SAPA_PROFIL
 10
660.9233813270763
 20
182.09386176783951
 30
0.0
  0
VERTEX
  5
13C5
  8
SAPA_PROFIL
 10
660.9233813270763
 20
185.09386176783951
 30
0.0
  0
VERTEX
  5
13C6
  8
SAPA_PROFIL
 10
642.22338132707625
 20
185.09386176783929
 30
0.0
  0
VERTEX
  5
13C7
  8
SAPA_PROFIL
 10
642.22338132707625
 20
182.09386176783929
 30
0.0
  0
VERTEX
  5
13C8
  8
SAPA_PROFIL
 10
644.72338132707625
 20
182.09386176783929
 30
0.0
  0
VERTEX
  5
13C9
  8
SAPA_PROFIL
 10
644.72338132707625
 20
181.09386176783929
 30
0.0
  0
VERTEX
  5
13CA
  8
SAPA_PROFIL
 10
643.92338132707607
 20
180.29386176783939
 30
0.0
  0
VERTEX
  5
13CB
  8
SAPA_PROFIL
 10
638.24299656934704
 20
180.29386176783939
 30
0.0
  0
VERTEX
  5
13CC
  8
SAPA_PROFIL
 10
637.72338132707625
 20
180.5938617678394
 30
0.0
  0
VERTEX
  5
13CD
  8
SAPA_PROFIL
 10
637.20376608480558
 20
180.29386176783939
 30
0.0
  0
VERTEX
  5
13CE
  8
SAPA_PROFIL
 10
631.52338132707632
 20
180.29386176783939
 30
0.0
  0
VERTEX
  5
13CF
  8
SAPA_PROFIL
 10
630.72338132707625
 20
181.09386176783929
 30
0.0
  0
VERTEX
  5
13D0
  8
SAPA_PROFIL
 10
630.72338132707625
 20
182.09386176783929
 30
0.0
  0
VERTEX
  5
13D1
  8
SAPA_PROFIL
 10
633.22338132707637
 20
182.09386176783929
 30
0.0
  0
VERTEX
  5
13D2
  8
SAPA_PROFIL
 10
633.22338132707625
 20
185.09386176783929
 30
0.0
  0
VERTEX
  5
13D3
  8
SAPA_PROFIL
 10
614.52338132707632
 20
185.09386176783929
 30
0.0
  0
VERTEX
  5
13D4
  8
SAPA_PROFIL
 10
614.52338132707632
 20
182.09386176783929
 30
0.0
  0
VERTEX
  5
13D5
  8
SAPA_PROFIL
 10
616.72338132707637
 20
182.09386176783929
 30
0.0
  0
VERTEX
  5
13D6
  8
SAPA_PROFIL
 10
616.72338132707637
 20
181.09386176783929
 30
0.0
  0
VERTEX
  5
13D7
  8
SAPA_PROFIL
 10
615.72338132707637
 20
180.09386176783929
 30
0.0
  0
VERTEX
  5
13D8
  8
SAPA_PROFIL
 10
614.52338132707632
 20
180.09386176783929
 30
0.0
  0
VERTEX
  5
13D9
  8
SAPA_PROFIL
 10
614.52338132707632
 20
170.0938617678394
 30
0.0
 42
0.4142135623730951
  0
VERTEX
  5
13DA
  8
SAPA_PROFIL
 10
615.02338132707632
 20
169.59386176783929
 30
0.0
  0
VERTEX
  5
13DB
  8
SAPA_PROFIL
 10
616.23338132707624
 20
169.59386176783929
 30
0.0
 42
-0.4142135623730951
  0
VERTEX
  5
13DC
  8
SAPA_PROFIL
 10
617.22338132707625
 20
168.60386176783931
 30
0.0
  0
VERTEX
  5
13DD
  8
SAPA_PROFIL
 10
617.22338132707625
 20
168.08386176783941
 30
0.0
 42
-0.4142135623730951
  0
VERTEX
  5
13DE
  8
SAPA_PROFIL
 10
616.23338132707624
 20
167.0938617678394
 30
0.0
  0
VERTEX
  5
13DF
  8
SAPA_PROFIL
 10
616.22338132707637
 20
167.0938617678394
 30
0.0
  0
VERTEX
  5
13E0
  8
SAPA_PROFIL
 10
616.22338132707637
 20
168.34386176783929
 30
0.0
  0
VERTEX
  5
13E1
  8
SAPA_PROFIL
 10
614.72338132707625
 20
168.34386176783929
 30
0.0
 42
0.4142135623730951
  0
VERTEX
  5
13E2
  8
SAPA_PROFIL
 10
614.22338132707625
 20
167.84386176783929
 30
0.0
  0
VERTEX
  5
13E3
  8
SAPA_PROFIL
 10
614.22338132707625
 20
159.8438617678394
 30
0.0
 42
0.4142135623730951
  0
VERTEX
  5
13E4
  8
SAPA_PROFIL
 10
614.72338132707625
 20
159.34386176783929
 30
0.0
  0
VERTEX
  5
13E5
  8
SAPA_PROFIL
 10
616.22338132707637
 20
159.34386176783929
 30
0.0
  0
VERTEX
  5
13E6
  8
SAPA_PROFIL
 10
616.22338132707637
 20
160.5938617678394
 30
0.0
  0
VERTEX
  5
13E7
  8
SAPA_PROFIL
 10
616.23338132707624
 20
160.5938617678394
 30
0.0
 42
-0.4142135623730951
  0
VERTEX
  5
13E8
  8
SAPA_PROFIL
 10
617.22338132707625
 20
159.60386176783931
 30
0.0
  0
VERTEX
  5
13E9
  8
SAPA_PROFIL
 10
617.22338132707625
 20
158.39386176783941
 30
0.0
 42
-0.4142135623731229
  0
VERTEX
  5
13EA
  8
SAPA_PROFIL
 10
616.92338132707641
 20
158.09386176783929
 30
0.0
  0
VERTEX
  5
13EB
  8
SAPA_PROFIL
 10
613.02338132707632
 20
158.09386176783929
 30
0.0
 42
-0.4142135623730675
  0
VERTEX
  5
13EC
  8
SAPA_PROFIL
 10
612.72338132707625
 20
158.39386176783941
 30
0.0
  0
VERTEX
  5
13ED
  8
SAPA_PROFIL
 10
612.72338132707625
 20
235.79386176783939
 30
0.0
 42
-0.4142135623731227
  0
VERTEX
  5
13EE
  8
SAPA_PROFIL
 10
613.02338132707632
 20
236.0938617678394
 30
0.0
  0
VERTEX
  5
13EF
  8
SAPA_PROFIL
 10
614.52338132707632
 20
236.0938617678394
 30
0.0
 42
-0.4142135623730951
  0
VERTEX
  5
13F0
  8
SAPA_PROFIL
 10
616.02338132707632
 20
234.5938617678394
 30
0.0
  0
VERTEX
  5
13F1
  8
SAPA_PROFIL
 10
616.02338132707632
 20
234.0938617678394
 30
0.0
  0
VERTEX
  5
13F2
  8
SAPA_PROFIL
 10
614.74838132707623
 20
234.0938617678394
 30
0.0
  0
VERTEX
  5
13F3
  8
SAPA_PROFIL
 10
614.74838132707623
 20
232.99386176783941
 30
0.0
  0
VERTEX
  5
13F4
  8
SAPA_PROFIL
 10
615.72338132707625
 20
232.99386176783941
 30
0.0
 42
-0.4142135623731227
  0
VERTEX
  5
13F5
  8
SAPA_PROFIL
 10
616.02338132707621
 20
232.69386176783939
 30
0.0
  0
VERTEX
  5
13F6
  8
SAPA_PROFIL
 10
616.02338132707621
 20
231.69386176783939
 30
0.0
  0
VERTEX
  5
13F7
  8
SAPA_PROFIL
 10
614.74838132707623
 20
231.69386176783939
 30
0.0
  0
VERTEX
  5
13F8
  8
SAPA_PROFIL
 10
614.74838132707623
 20
228.5938617678394
 30
0.0
 42
1.0
  0
VERTEX
  5
13F9
  8
SAPA_PROFIL
 10
619.94838132707616
 20
228.5938617678394
 30
0.0
  0
VERTEX
  5
13FA
  8
SAPA_PROFIL
 10
619.94838132707616
 20
231.69386176783931
 30
0.0
  0
VERTEX
  5
13FB
  8
SAPA_PROFIL
 10
618.72338132707614
 20
231.69386176783931
 30
0.0
  0
VERTEX
  5
13FC
  8
SAPA_PROFIL
 10
618.72338132707614
 20
232.69386176783939
 30
0.0
 42
-0.4142135623730673
  0
VERTEX
  5
13FD
  8
SAPA_PROFIL
 10
619.02338132707609
 20
232.99386176783941
 30
0.0
  0
VERTEX
  5
13FE
  8
SAPA_PROFIL
 10
619.94838132707616
 20
232.99386176783941
 30
0.0
  0
VERTEX
  5
13FF
  8
SAPA_PROFIL
 10
619.94838132707616
 20
234.0938617678394
 30
0.0
  0
VERTEX
  5
1400
  8
SAPA_PROFIL
 10
618.72338132707625
 20
234.0938617678394
 30
0.0
  0
VERTEX
  5
1401
  8
SAPA_PROFIL
 10
618.72338132707625
 20
234.5938617678394
 30
0.0
 42
-0.4142135623730951
  0
VERTEX
  5
1402
  8
SAPA_PROFIL
 10
620.22338132707625
 20
236.0938617678394
 30
0.0
  0
VERTEX
  5
1403
  8
SAPA_PROFIL
 10
621.67338132707619
 20
236.0938617678394
 30
0.0
 42
-0.4142135623731227
  0
VERTEX
  5
1404
  8
SAPA_PROFIL
 10
621.97338132707625
 20
235.79386176783939
 30
0.0
  0
VERTEX
  5
1405
  8
SAPA_PROFIL
 10
621.97338132707625
 20
233.29386176783939
 30
0.0
  0
VERTEX
  5
1406
  8
SAPA_PROFIL
 10
637.20376608480558
 20
233.29386176783939
 30
0.0
  0
VERTEX
  5
1407
  8
SAPA_PROFIL
 10
637.72338132707625
 20
232.99386176783941
 30
0.0
  0
VERTEX
  5
1408
  8
SAPA_PROFIL
 10
638.24299656934681
 20
233.29386176783939
 30
0.0
  0
VERTEX
  5
1409
  8
SAPA_PROFIL
 10
653.47338132707625
 20
233.29386176783939
 30
0.0
  0
VERTEX
  5
140A
  8
SAPA_PROFIL
 10
653.47338132707625
 20
235.79386176783939
 30
0.0
 42
-0.4142135623730951
  0
VERTEX
  5
140B
  8
SAPA_PROFIL
 10
653.77338132707621
 20
236.09386176783951
 30
0.0
  0
VERTEX
  5
140C
  8
SAPA_PROFIL
 10
655.22338132707625
 20
236.09386176783951
 30
0.0
 42
-0.4142135623730951
  0
VERTEX
  5
140D
  8
SAPA_PROFIL
 10
656.72338132707625
 20
234.59386176783951
 30
0.0
  0
VERTEX
  5
140E
  8
SAPA_PROFIL
 10
656.72338132707625
 20
234.09386176783951
 30
0.0
  0
VERTEX
  5
140F
  8
SAPA_PROFIL
 10
655.49838132707623
 20
234.09386176783951
 30
0.0
  0
VERTEX
  5
1410
  8
SAPA_PROFIL
 10
655.49838132707623
 20
232.99386176783941
 30
0.0
  0
VERTEX
  5
1411
  8
SAPA_PROFIL
 10
656.4233813270763
 20
232.99386176783941
 30
0.0
 42
-0.4142135623730951
  0
VERTEX
  5
1412
  8
SAPA_PROFIL
 10
656.72338132707625
 20
232.69386176783951
 30
0.0
  0
VERTEX
  5
1413
  8
SAPA_PROFIL
 10
656.72338132707625
 20
231.69386176783939
 30
0.0
  0
VERTEX
  5
1414
  8
SAPA_PROFIL
 10
655.49838132707623
 20
231.69386176783939
 30
0.0
  0
VERTEX
  5
1415
  8
SAPA_PROFIL
 10
655.49838132707623
 20
228.59386176783951
 30
0.0
 42
1.0
  0
VERTEX
  5
1416
  8
SAPA_PROFIL
 10
660.69838132707628
 20
228.59386176783951
 30
0.0
  0
VERTEX
  5
1417
  8
SAPA_PROFIL
 10
660.69838132707628
 20
231.69386176783939
 30
0.0
  0
VERTEX
  5
1418
  8
SAPA_PROFIL
 10
659.42338132707619
 20
231.69386176783939
 30
0.0
  0
VERTEX
  5
1419
  8
SAPA_PROFIL
 10
659.42338132707619
 20
232.69386176783939
 30
0.0
 42
-0.4142135623730951
  0
VERTEX
  5
141A
  8
SAPA_PROFIL
 10
659.72338132707625
 20
232.99386176783941
 30
0.0
  0
VERTEX
  5
141B
  8
SAPA_PROFIL
 10
660.69838132707628
 20
232.99386176783941
 30
0.0
  0
VERTEX
  5
141C
  8
SAPA_PROFIL
 10
660.69838132707628
 20
234.09386176783951
 30
0.0
  0
VERTEX
  5
141D
  8
SAPA_PROFIL
 10
659.42338132707619
 20
234.09386176783951
 30
0.0
  0
VERTEX
  5
141E
  8
SAPA_PROFIL
 10
659.42338132707619
 20
234.59386176783951
 30
0.0
 42
-0.4142135623730951
  0
VERTEX
  5
141F
  8
SAPA_PROFIL
 10
660.9233813270763
 20
236.09386176783951
 30
0.0
  0
VERTEX
  5
1420
  8
SAPA_PROFIL
 10
662.42338132707619
 20
236.09386176783951
 30
0.0
 42
-0.4142135623730951
  0
VERTEX
  5
1421
  8
SAPA_PROFIL
 10
662.72338132707625
 20
235.79386176783939
 30
0.0
  0
VERTEX
  5
1422
  8
SAPA_PROFIL
 10
662.72338132707625
 20
180.09386176783951
 30
0.0
  0
VERTEX
  5
1423
  8
SAPA_PROFIL
 10
659.72338132707625
 20
180.09386176783951
 30
0.0
  0
SEQEND
  5
1424
  8
SAPA_PROFIL
  0
POLYLINE
  5
65D
  8
SAPA_GLAS
 66
     1
 10
0.0
 20
0.0
 30
0.0
  0
VERTEX
  5
142E
  8
SAPA_GLAS
 10
621.12338132707634
 20
146.2938617678395
 30
0.0
  0
VERTEX
  5
142F
  8
SAPA_GLAS
 10
621.12338132707634
 20
175.0938617678396
 30
0.0
  0
VERTEX
  5
1430
  8
SAPA_GLAS
 10
627.12338132707634
 20
175.0938617678396
 30
0.0
  0
VERTEX
  5
1431
  8
SAPA_GLAS
 10
627.12338132707646
 20
146.2938617678395
 30
0.0
  0
SEQEND
  5
1432
  8
SAPA_GLAS
  0
POLYLINE
  5
66A
  8
SAPA_FOGBAND
 66
     1
 10
0.0
 20
0.0
 30
0.0
 70
     1
  0
VERTEX
  5
1493
  8
SAPA_FOGBAND
 10
633.71263258928116
 20
168.60046392749021
 30
0.0
  0
VERTEX
  5
1494
  8
SAPA_FOGBAND
 10
633.71263258928116
 20
167.40046392749011
 30
0.0
 42
0.4142135623730951
  0
VERTEX
  5
1495
  8
SAPA_FOGBAND
 10
634.01263258928111
 20
167.10046392749021
 30
0.0
  0
VERTEX
  5
1496
  8
SAPA_FOGBAND
 10
634.91263258928132
 20
167.10046392749021
 30
0.0
  0
VERTEX
  5
1497
  8
SAPA_FOGBAND
 10
634.91263258928132
 20
167.45046392749009
 30
0.0
 42
-0.6681786379192988
  0
VERTEX
  5
1498
  8
SAPA_FOGBAND
 10
635.42476462363732
 20
167.66259596184611
 30
0.0
  0
VERTEX
  5
1499
  8
SAPA_FOGBAND
 10
636.27831801423042
 20
166.8090425712528
 30
0.0
 42
-0.1989123673796552
  0
VERTEX
  5
149A
  8
SAPA_FOGBAND
 10
636.51263258928122
 20
166.24335714630359
 30
0.0
  0
VERTEX
  5
149B
  8
SAPA_FOGBAND
 10
636.51263258928122
 20
166.0806620238838
 30
0.0
 42
-0.3394542588633746
  0
VERTEX
  5
149C
  8
SAPA_FOGBAND
 10
636.29027830281188
 20
165.79088427599709
 30
0.0
  0
VERTEX
  5
149D
  8
SAPA_FOGBAND
 10
634.9349868757505
 20
165.42773503260719
 30
0.0
 42
0.3394542588633746
  0
VERTEX
  5
149E
  8
SAPA_FOGBAND
 10
634.71263258928116
 20
165.13795728472039
 30
0.0
  0
VERTEX
  5
149F
  8
SAPA_FOGBAND
 10
634.71263258928116
 20
162.56297057025989
 30
0.0
 42
0.3394542588633746
  0
VERTEX
  5
14A0
  8
SAPA_FOGBAND
 10
634.9349868757505
 20
162.2731928223732
 30
0.0
  0
VERTEX
  5
14A1
  8
SAPA_FOGBAND
 10
636.29027830281188
 20
161.91004357898299
 30
0.0
 42
-0.3394542588633744
  0
VERTEX
  5
14A2
  8
SAPA_FOGBAND
 10
636.51263258928122
 20
161.6202658310965
 30
0.0
  0
VERTEX
  5
14A3
  8
SAPA_FOGBAND
 10
636.51263258928122
 20
161.45757070867651
 30
0.0
 42
-0.1989123673796526
  0
VERTEX
  5
14A4
  8
SAPA_FOGBAND
 10
636.27831801423042
 20
160.89188528372731
 30
0.0
  0
VERTEX
  5
14A5
  8
SAPA_FOGBAND
 10
635.42476462363732
 20
160.038331893134
 30
0.0
 42
-0.6681786379193474
  0
VERTEX
  5
14A6
  8
SAPA_FOGBAND
 10
634.91263258928132
 20
160.25046392748999
 30
0.0
  0
VERTEX
  5
14A7
  8
SAPA_FOGBAND
 10
634.91263258928132
 20
160.60046392749021
 30
0.0
  0
VERTEX
  5
14A8
  8
SAPA_FOGBAND
 10
634.01263258928111
 20
160.60046392749021
 30
0.0
 42
0.4142135623730951
  0
VERTEX
  5
14A9
  8
SAPA_FOGBAND
 10
633.71263258928116
 20
160.30046392749
 30
0.0
  0
VERTEX
  5
14AA
  8
SAPA_FOGBAND
 10
633.71263258928116
 20
158.20046392749009
 30
0.0
 42
0.4142135623730951
  0
VERTEX
  5
14AB
  8
SAPA_FOGBAND
 10
634.01263258928111
 20
157.90046392749011
 30
0.0
  0
VERTEX
  5
14AC
  8
SAPA_FOGBAND
 10
635.41263258928132
 20
157.90046392749011
 30
0.0
 42
-0.7754026414786132
  0
VERTEX
  5
14AD
  8
SAPA_FOGBAND
 10
635.5573404575872
 20
157.3376719320824
 30
0.0
 42
0.1086822875051356
  0
VERTEX
  5
14AE
  8
SAPA_FOGBAND
 10
627.62925806745045
 20
153.18762377349159
 30
0.0
 42
-0.8680589103334746
  0
VERTEX
  5
14AF
  8
SAPA_FOGBAND
 10
627.27241816478852
 20
153.66254780325539
 30
0.0
  0
VERTEX
  5
14B0
  8
SAPA_FOGBAND
 10
630.10021848593237
 20
157.632583200407
 30
0.0
 42
0.1989123673796536
  0
VERTEX
  5
14B1
  8
SAPA_FOGBAND
 10
630.39311170474582
 20
158.33968998159361
 30
0.0
  0
VERTEX
  5
14B2
  8
SAPA_FOGBAND
 10
630.39311170474582
 20
161.1730089460134
 30
0.0
 42
0.577350269189628
  0
VERTEX
  5
14B3
  8
SAPA_FOGBAND
 10
629.94311170474589
 20
161.43281656714859
 30
0.0
  0
VERTEX
  5
14B4
  8
SAPA_FOGBAND
 10
627.6383576013917
 20
159.29468787073691
 30
0.0
 42
-0.8769764629927301
  0
VERTEX
  5
14B5
  8
SAPA_FOGBAND
 10
627.27622556703557
 20
159.76662752622809
 30
0.0
  0
VERTEX
  5
14B6
  8
SAPA_FOGBAND
 10
630.10021848593237
 20
163.7328555211329
 30
0.0
 42
0.198912367379658
  0
VERTEX
  5
14B7
  8
SAPA_FOGBAND
 10
630.39311170474582
 20
164.4399623023196
 30
0.0
  0
VERTEX
  5
14B8
  8
SAPA_FOGBAND
 10
630.39311170474582
 20
166.672236664541
 30
0.0
 42
0.5773502691896441
  0
VERTEX
  5
14B9
  8
SAPA_FOGBAND
 10
629.94311170474589
 20
166.93204428567651
 30
0.0
  0
VERTEX
  5
14BA
  8
SAPA_FOGBAND
 10
627.63922635457197
 20
164.79441716414721
 30
0.0
 42
-0.87697646299276
  0
VERTEX
  5
14BB
  8
SAPA_FOGBAND
 10
627.27709432021595
 20
165.2663568196385
 30
0.0
  0
VERTEX
  5
14BC
  8
SAPA_FOGBAND
 10
630.17607313324606
 20
169.30757070867659
 30
0.0
 42
-0.198912367379658
  0
VERTEX
  5
14BD
  8
SAPA_FOGBAND
 10
630.88317991443262
 20
169.6004639274901
 30
0.0
  0
VERTEX
  5
14BE
  8
SAPA_FOGBAND
 10
632.71263258928116
 20
169.6004639274901
 30
0.0
  0
VERTEX
  5
14BF
  8
SAPA_FOGBAND
 10
632.70270079896807
 20
169.6004639274901
 30
0.0
  0
SEQEND
  5
14C0
  8
SAPA_FOGBAND
  0
POLYLINE
  5
66B
  8
SAPA_FOGBAND
 66
     1
 10
0.0
 20
0.0
 30
0.0
 70
     1
  0
VERTEX
  5
14C1
  8
SAPA_FOGBAND
 10
618.2209556559377
 20
169.60045718015019
 30
0.0
 42
0.4142135623730951
  0
VERTEX
  5
14C2
  8
SAPA_FOGBAND
 10
617.22095565593759
 20
168.60045718015019
 30
0.0
  0
VERTEX
  5
14C3
  8
SAPA_FOGBAND
 10
617.22095565593759
 20
167.4004571801502
 30
0.0
 42
-0.4142135623730951
  0
VERTEX
  5
14C4
  8
SAPA_FOGBAND
 10
616.92095565593775
 20
167.10045718015019
 30
0.0
  0
VERTEX
  5
14C5
  8
SAPA_FOGBAND
 10
616.02095565593788
 20
167.10045718015019
 30
0.0
  0
VERTEX
  5
14C6
  8
SAPA_FOGBAND
 10
616.02095565593788
 20
167.45045718015029
 30
0.0
 42
0.6681786379193472
  0
VERTEX
  5
14C7
  8
SAPA_FOGBAND
 10
615.50882362158177
 20
167.66258921450611
 30
0.0
  0
VERTEX
  5
14C8
  8
SAPA_FOGBAND
 10
614.65527023098855
 20
166.80903582391289
 30
0.0
 42
0.1989123673796526
  0
VERTEX
  5
14C9
  8
SAPA_FOGBAND
 10
614.42095565593775
 20
166.24335039896371
 30
0.0
  0
VERTEX
  5
14CA
  8
SAPA_FOGBAND
 10
614.42095565593775
 20
166.08065527654389
 30
0.0
 42
0.3394542588633746
  0
VERTEX
  5
14CB
  8
SAPA_FOGBAND
 10
614.64330994240686
 20
165.79087752865709
 30
0.0
  0
VERTEX
  5
14CC
  8
SAPA_FOGBAND
 10
615.9986013694687
 20
165.42772828526719
 30
0.0
 42
-0.3394542588633744
  0
VERTEX
  5
14CD
  8
SAPA_FOGBAND
 10
616.2209556559377
 20
165.13795053738039
 30
0.0
  0
VERTEX
  5
14CE
  8
SAPA_FOGBAND
 10
616.2209556559377
 20
162.56296382292001
 30
0.0
 42
-0.3394542588633746
  0
VERTEX
  5
14CF
  8
SAPA_FOGBAND
 10
615.9986013694687
 20
162.27318607503321
 30
0.0
  0
VERTEX
  5
14D0
  8
SAPA_FOGBAND
 10
614.64330994240686
 20
161.91003683164331
 30
0.0
 42
0.3394542588633747
  0
VERTEX
  5
14D1
  8
SAPA_FOGBAND
 10
614.42095565593775
 20
161.62025908375651
 30
0.0
  0
VERTEX
  5
14D2
  8
SAPA_FOGBAND
 10
614.42095565593775
 20
161.45756396133669
 30
0.0
 42
0.1989123673796526
  0
VERTEX
  5
14D3
  8
SAPA_FOGBAND
 10
614.65527023098855
 20
160.8918785363874
 30
0.0
  0
VERTEX
  5
14D4
  8
SAPA_FOGBAND
 10
615.50882362158177
 20
160.0383251457942
 30
0.0
 42
0.6681786379193474
  0
VERTEX
  5
14D5
  8
SAPA_FOGBAND
 10
616.02095565593788
 20
160.25045718014999
 30
0.0
  0
VERTEX
  5
14D6
  8
SAPA_FOGBAND
 10
616.02095565593788
 20
160.60045718015019
 30
0.0
  0
VERTEX
  5
14D7
  8
SAPA_FOGBAND
 10
616.92095565593775
 20
160.60045718015019
 30
0.0
 42
-0.4142135623730951
  0
VERTEX
  5
14D8
  8
SAPA_FOGBAND
 10
617.22095565593759
 20
160.3004571801502
 30
0.0
  0
VERTEX
  5
14D9
  8
SAPA_FOGBAND
 10
617.22095565593759
 20
158.2004571801501
 30
0.0
 42
-0.4142135623730951
  0
VERTEX
  5
14DA
  8
SAPA_FOGBAND
 10
616.92095565593775
 20
157.90045718015011
 30
0.0
  0
VERTEX
  5
14DB
  8
SAPA_FOGBAND
 10
615.52095565593788
 20
157.90045718015011
 30
0.0
 42
0.7754026414785753
  0
VERTEX
  5
14DC
  8
SAPA_FOGBAND
 10
615.376247787632
 20
157.33766518474249
 30
0.0
  0
VERTEX
  5
14DD
  8
SAPA_FOGBAND
 10
620.64691158607263
 20
153.8179626741971
 30
0.0
 42
0.8680589103334742
  0
VERTEX
  5
14DE
  8
SAPA_FOGBAND
 10
621.00375148873434
 20
154.2928867039607
 30
0.0
  0
VERTEX
  5
14DF
  8
SAPA_FOGBAND
 10
619.01384887475115
 20
157.632576453067
 30
0.0
 42
-0.198912367379658
  0
VERTEX
  5
14E0
  8
SAPA_FOGBAND
 10
618.7209556559377
 20
158.3396832342537
 30
0.0
  0
VERTEX
  5
14E1
  8
SAPA_FOGBAND
 10
618.7209556559377
 20
161.1730021986734
 30
0.0
 42
-0.5773502691896282
  0
VERTEX
  5
14E2
  8
SAPA_FOGBAND
 10
619.17095565593775
 20
161.4328098198086
 30
0.0
  0
VERTEX
  5
14E3
  8
SAPA_FOGBAND
 10
620.63781205213161
 20
159.92502677144239
 30
0.0
 42
0.8769764629927299
  0
VERTEX
  5
14E4
  8
SAPA_FOGBAND
 10
620.99994408648752
 20
160.3969664269336
 30
0.0
  0
VERTEX
  5
14E5
  8
SAPA_FOGBAND
 10
619.01384887475115
 20
163.73284877379291
 30
0.0
 42
-0.198912367379658
  0
VERTEX
  5
14E6
  8
SAPA_FOGBAND
 10
618.7209556559377
 20
164.4399555549796
 30
0.0
  0
VERTEX
  5
14E7
  8
SAPA_FOGBAND
 10
618.7209556559377
 20
166.67222991720121
 30
0.0
 42
-0.5773502691896282
  0
VERTEX
  5
14E8
  8
SAPA_FOGBAND
 10
619.17095565593775
 20
166.93203753833649
 30
0.0
  0
VERTEX
  5
14E9
  8
SAPA_FOGBAND
 10
620.63694329895122
 20
165.4247560648528
 30
0.0
 42
0.8769764629927299
  0
VERTEX
  5
14EA
  8
SAPA_FOGBAND
 10
620.99907533330713
 20
165.89669572034401
 30
0.0
  0
VERTEX
  5
14EB
  8
SAPA_FOGBAND
 10
618.93799422743746
 20
169.3075639613366
 30
0.0
 42
0.198912367379658
  0
VERTEX
  5
14EC
  8
SAPA_FOGBAND
 10
618.2308874462509
 20
169.60045718015019
 30
0.0
  0
SEQEND
  5
14ED
  8
SAPA_FOGBAND
  0
POLYLINE
  5
66C
  8
SAPA_FOGBAND
 66
     1
 10
0.0
 20
0.0
 30
0.0
 70
     1
  0
VERTEX
  5
14EE
  8
SAPA_FOGBAND
 10
607.27786585100228
 20
220.28734897778509
 30
0.0
  0
VERTEX
  5
14EF
  8
SAPA_FOGBAND
 10
607.48472893451844
 20
220.28734897778509
 30
0.0
  0
VERTEX
  5
14F0
  8
SAPA_FOGBAND
 10
607.48472893451844
 20
224.8831262820965
 30
0.0
  0
VERTEX
  5
14F1
  8
SAPA_FOGBAND
 10
607.27786585100228
 20
224.8831262820965
 30
0.0
  0
SEQEND
  5
14F2
  8
SAPA_FOGBAND
  0
LINE
  5
66D
  8
SAPA_FOGBAND
 10
607.48472893451844
 20
223.0898228787093
 30
0.0
 11
612.38165239215186
 21
224.23971745949291
 31
0.0
  0
LINE
  5
66E
  8
SAPA_FOGBAND
 10
607.48472893451844
 20
222.79933148209821
 30
0.0
 11
612.38165239215186
 21
223.2746042255875
 31
0.0
  0
LINE
  5
66F
  8
SAPA_FOGBAND
 10
607.48472893451844
 20
222.34087260536461
 30
0.0
 11
612.42762196626654
 21
221.57416662299229
 31
0.0
  0
LINE
  5
670
  8
SAPA_FOGBAND
 10
607.48472893451844
 20
222.16811531438401
 30
0.0
 11
612.45060675332377
 21
220.76990559473779
 31
0.0
  0
LINE
  5
671
  8
SAPA_FOGBAND
 10
607.48472893451844
 20
222.5845413000462
 30
0.0
 11
612.35866760509452
 21
222.53927985689771
 31
0.0
  0
TEXT
  5
690
  8
SAPA_MATT
 62
     2
 10
531.72338132707853
 20
286.24268066547751
 30
0.0
 40
3.0
  1
150
 50
90.0
  7
ISO
  0
TEXT
  5
691
  8
SAPA_MATT
 62
     2
 10
681.72331106326931
 20
194.9938617678385
 30
0.0
 40
3.0
  1
78
 50
90.0
  7
ISO
  0
TEXT
  5
692
  8
SAPA_MATT
 62
     2
 10
635.62220022471399
 20
257.07408281469088
 30
0.0
 40
3.0
  1
50
  7
ISO
  0
TEXT
  5
693
  8
SAPA_MATT
 62
     2
 10
609.52338132707735
 20
257.07408281469088
 30
0.0
 40
3.0
  1
4
  7
ISO
  0
SOLID
  5
694
  8
SAPA_MATT
 10
615.72338132707625
 20
256.574082814691
 30
0.0
 11
615.72338132707625
 21
255.57408281469091
 31
0.0
 12
612.72338132707625
 22
256.07408281469088
 32
0.0
 13
612.72338132707625
 23
256.07408281469088
 33
0.0
  0
SOLID
  5
695
  8
SAPA_MATT
 10
605.72338132707864
 20
256.574082814691
 30
0.0
 11
605.72338132707864
 21
255.57408281469091
 31
0.0
 12
608.72338132707864
 22
256.07408281469088
 32
0.0
 13
608.72338132707864
 23
256.07408281469088
 33
0.0
  0
LINE
  5
696
  8
SAPA_MATT
 10
608.72338132707864
 20
256.07408281469088
 30
0.0
 11
612.72338132707625
 21
256.07408281469088
 31
0.0
  0
LINE
  5
697
  8
SAPA_MATT
 10
615.72338132707625
 20
256.07408281469088
 30
0.0
 11
618.72338132707625
 21
256.07408281469088
 31
0.0
  0
LINE
  5
698
  8
SAPA_MATT
 10
605.72338132707864
 20
256.07408281469088
 30
0.0
 11
602.72338132707864
 21
256.07408281469088
 31
0.0
  0
LINE
  5
699
  8
SAPA_MATT
 10
612.72338132707625
 20
237.29386176783939
 30
0.0
 11
612.72338132707625
 21
257.57408281469088
 31
0.0
  0
LINE
  5
69A
  8
SAPA_MATT
 10
608.72338132707864
 20
237.29386176783939
 30
0.0
 11
608.72338132707864
 21
257.57408281469088
 31
0.0
  0
SOLID
  5
69B
  8
SAPA_MATT
 10
659.72338132707625
 20
256.574082814691
 30
0.0
 11
659.72338132707625
 21
255.57408281469091
 31
0.0
 12
662.72338132707625
 22
256.07408281469088
 32
0.0
 13
662.72338132707625
 23
256.07408281469088
 33
0.0
  0
SOLID
  5
69C
  8
SAPA_MATT
 10
615.72338132707625
 20
256.574082814691
 30
0.0
 11
615.72338132707625
 21
255.57408281469091
 31
0.0
 12
612.72338132707625
 22
256.07408281469088
 32
0.0
 13
612.72338132707625
 23
256.07408281469088
 33
0.0
  0
LINE
  5
69D
  8
SAPA_MATT
 10
615.72338132707625
 20
256.07408281469088
 30
0.0
 11
659.72338132707625
 21
256.07408281469088
 31
0.0
  0
LINE
  5
69E
  8
SAPA_MATT
 10
662.72338132707625
 20
237.29386176783939
 30
0.0
 11
662.72338132707625
 21
257.57408281469088
 31
0.0
  0
LINE
  5
69F
  8
SAPA_MATT
 10
612.72338132707625
 20
237.29386176783939
 30
0.0
 11
612.72338132707625
 21
257.57408281469088
 31
0.0
  0
SOLID
  5
6A0
  8
SAPA_MATT
 10
682.22331106326942
 20
233.09386176783951
 30
0.0
 11
683.22331106326942
 21
233.09386176783951
 31
0.0
 12
682.72331106326942
 22
236.09386176783951
 32
0.0
 13
682.72331106326942
 23
236.09386176783951
 33
0.0
  0
SOLID
  5
6A1
  8
SAPA_MATT
 10
682.22331106326942
 20
161.09386176783721
 30
0.0
 11
683.22331106326942
 21
161.09386176783721
 31
0.0
 12
682.72331106326942
 22
158.09386176783721
 32
0.0
 13
682.72331106326942
 23
158.09386176783721
 33
0.0
  0
LINE
  5
6A2
  8
SAPA_MATT
 10
682.72331106326942
 20
161.09386176783721
 30
0.0
 11
682.72331106326942
 21
233.09386176783951
 31
0.0
  0
LINE
  5
6A3
  8
SAPA_MATT
 10
663.92338132707607
 20
236.09386176783951
 30
0.0
 11
684.22331106326942
 21
236.09386176783951
 31
0.0
  0
LINE
  5
6A4
  8
SAPA_MATT
 10
663.9233928494059
 20
158.09386176783721
 30
0.0
 11
684.22331106326942
 21
158.09386176783721
 31
0.0
  0
SOLID
  5
6A5
  8
SAPA_MATT
 10
532.22338132707864
 20
361.0938617678396
 30
0.0
 11
533.22338132707864
 21
361.0938617678396
 31
0.0
 12
532.72338132707864
 22
364.09386176783971
 32
0.0
 13
532.72338132707864
 23
364.09386176783971
 33
0.0
  0
SOLID
  5
6A6
  8
SAPA_MATT
 10
532.22338132707853
 20
217.0938617678396
 30
0.0
 11
533.22338132707853
 21
217.0938617678396
 31
0.0
 12
532.72338132707853
 22
214.0938617678396
 32
0.0
 13
532.72338132707853
 23
214.0938617678396
 33
0.0
  0
LINE
  5
6A7
  8
SAPA_MATT
 10
532.72338132707853
 20
217.0938617678396
 30
0.0
 11
532.72338132707864
 21
361.0938617678396
 31
0.0
  0
LINE
  5
6A8
  8
SAPA_MATT
 10
551.5233813270786
 20
364.09386176783971
 30
0.0
 11
531.22338132707864
 21
364.09386176783971
 31
0.0
  0
LINE
  5
6A9
  8
SAPA_MATT
 10
551.5233813270786
 20
214.0938617678396
 30
0.0
 11
531.22338132707853
 21
214.0938617678396
 31
0.0
  0
ENDSEC
  0
EOF
