  0
SECTION
  2
HEADER
  9
$ACADVER
  1
AC1009
  9
$INSBASE
 10
0.0
 20
0.0
 30
0.0
  9
$EXTMIN
 10
-95.524445940289809
 20
-47.597770331070933
 30
0.0
  9
$EXTMAX
 10
58.822858504106883
 20
41.810758944054513
 30
0.0
  9
$LIMMIN
 10
0.0
 20
0.0
  9
$LIMMAX
 10
790.0
 20
790.0
  9
$ORTHOMODE
 70
     1
  9
$REGENMODE
 70
     1
  9
$FILLMODE
 70
     1
  9
$QTEXTMODE
 70
     0
  9
$MIRRTEXT
 70
     1
  9
$DRAGMODE
 70
     2
  9
$LTSCALE
 40
4.0
  9
$OSMODE
 70
   167
  9
$ATTMODE
 70
     1
  9
$TEXTSIZE
 40
3.5
  9
$TRACEWID
 40
0.05
  9
$TEXTSTYLE
  7
ISO
  9
$CLAYER
  8
0
  9
$CELTYPE
  6
BYLAYER
  9
$CECOLOR
 62
   256
  9
$DIMSCALE
 40
0.0
  9
$DIMASZ
 40
3.0
  9
$DIMEXO
 40
1.5
  9
$DIMDLI
 40
10.0
  9
$DIMRND
 40
0.0
  9
$DIMDLE
 40
0.0
  9
$DIMEXE
 40
1.5
  9
$DIMTP
 40
0.0
  9
$DIMTM
 40
0.0
  9
$DIMTXT
 40
3.0
  9
$DIMCEN
 40
-5.0
  9
$DIMTSZ
 40
0.0
  9
$DIMTOL
 70
     0
  9
$DIMLIM
 70
     0
  9
$DIMTIH
 70
     0
  9
$DIMTOH
 70
     0
  9
$DIMSE1
 70
     0
  9
$DIMSE2
 70
     0
  9
$DIMTAD
 70
     1
  9
$DIMZIN
 70
     8
  9
$DIMBLK
  1

  9
$DIMASO
 70
     1
  9
$DIMSHO
 70
     1
  9
$DIMPOST
  1

  9
$DIMAPOST
  1

  9
$DIMALT
 70
     0
  9
$DIMALTD
 70
     0
  9
$DIMALTF
 40
25.399999999999999
  9
$DIMLFAC
 40
-1.0
  9
$DIMTOFL
 70
     1
  9
$DIMTVP
 40
0.0
  9
$DIMTIX
 70
     0
  9
$DIMSOXD
 70
     0
  9
$DIMSAH
 70
     0
  9
$DIMBLK1
  1

  9
$DIMBLK2
  1

  9
$DIMSTYLE
  2
MASKIN
  9
$DIMCLRD
 70
   256
  9
$DIMCLRE
 70
   256
  9
$DIMCLRT
 70
     2
  9
$DIMTFAC
 40
1.0
  9
$DIMGAP
 40
1.0
  9
$LUNITS
 70
     2
  9
$LUPREC
 70
     8
  9
$SKETCHINC
 40
0.1
  9
$FILLETRAD
 40
0.0
  9
$AUNITS
 70
     0
  9
$AUPREC
 70
     8
  9
$MENU
  1
ACAD
  9
$ELEVATION
 40
0.0
  9
$PELEVATION
 40
0.0
  9
$THICKNESS
 40
0.0
  9
$LIMCHECK
 70
     0
  9
$BLIPMODE
 70
     0
  9
$CHAMFERA
 40
0.0
  9
$CHAMFERB
 40
0.0
  9
$SKPOLY
 70
     0
  9
$TDCREATE
 40
2456296.4205486691
  9
$TDUPDATE
 40
2456577.6330521759
  9
$TDINDWG
 40
0.042406169
  9
$TDUSRTIMER
 40
0.0424059838
  9
$USRTIMER
 70
     1
  9
$ANGBASE
 50
0.0
  9
$ANGDIR
 70
     0
  9
$PDMODE
 70
     0
  9
$PDSIZE
 40
0.0
  9
$PLINEWID
 40
0.0
  9
$COORDS
 70
     1
  9
$SPLFRAME
 70
     0
  9
$SPLINETYPE
 70
     6
  9
$SPLINESEGS
 70
     8
  9
$ATTDIA
 70
     0
  9
$ATTREQ
 70
     1
  9
$HANDLING
 70
     1
  9
$HANDSEED
  5
1F8E
  9
$SURFTAB1
 70
     6
  9
$SURFTAB2
 70
     6
  9
$SURFTYPE
 70
     6
  9
$SURFU
 70
     6
  9
$SURFV
 70
     6
  9
$UCSNAME
  2

  9
$UCSORG
 10
0.0
 20
0.0
 30
0.0
  9
$UCSXDIR
 10
1.0
 20
0.0
 30
0.0
  9
$UCSYDIR
 10
0.0
 20
1.0
 30
0.0
  9
$PUCSNAME
  2

  9
$PUCSORG
 10
0.0
 20
0.0
 30
0.0
  9
$PUCSXDIR
 10
1.0
 20
0.0
 30
0.0
  9
$PUCSYDIR
 10
0.0
 20
1.0
 30
0.0
  9
$USERI1
 70
     0
  9
$USERI2
 70
     0
  9
$USERI3
 70
     0
  9
$USERI4
 70
     0
  9
$USERI5
 70
     0
  9
$USERR1
 40
0.0
  9
$USERR2
 40
0.0
  9
$USERR3
 40
0.0
  9
$USERR4
 40
0.0
  9
$USERR5
 40
0.0
  9
$WORLDVIEW
 70
     1
  9
$SHADEDGE
 70
     3
  9
$SHADEDIF
 70
    70
  9
$TILEMODE
 70
     1
  9
$MAXACTVP
 70
    16
  9
$PLIMCHECK
 70
     0
  9
$PEXTMIN
 10
1.0000000000000000E+020
 20
1.0000000000000000E+020
 30
1.0000000000000000E+020
  9
$PEXTMAX
 10
-1.0000000000000000E+020
 20
-1.0000000000000000E+020
 30
-1.0000000000000000E+020
  9
$PLIMMIN
 10
-5.069427490234375
 20
-5.8737497329711914
  9
$PLIMMAX
 10
291.89889526367187
 20
204.0995779037475
  9
$UNITMODE
 70
     0
  9
$VISRETAIN
 70
     1
  9
$PLINEGEN
 70
     0
  9
$PSLTSCALE
 70
     1
  0
ENDSEC
  0
SECTION
  2
TABLES
  0
TABLE
  2
VPORT
 70
     1
  0
VPORT
  2
*ACTIVE
 70
     0
 10
0.0
 20
0.0
 11
1.0
 21
1.0
 12
33.638434978310791
 22
73.790428004999185
 13
0.0
 23
0.0
 14
1.0
 24
1.0
 15
0.0
 25
0.0
 16
0.0
 26
0.0
 36
1.0
 17
0.0
 27
0.0
 37
0.0
 40
251.37475230333939
 41
2.112307692307692
 42
50.0
 43
0.0
 44
0.0
 50
0.0
 51
0.0
 71
     0
 72
   100
 73
     1
 74
     1
 75
     0
 76
     0
 77
     0
 78
     0
  0
ENDTAB
  0
TABLE
  2
LTYPE
 70
    52
  0
LTYPE
  2
CONTINUOUS
 70
     0
  3
Solid line
 72
    65
 73
     0
 40
0.0
  0
LTYPE
  2
NEWDOT
 70
     0
  3
____ . ____ . ____ . ____ . ____ . ____ . ____
 72
    65
 73
     4
 40
2.0
 49
1.0
 49
-0.5
 49
0.0
 49
-0.5
  0
LTYPE
  2
DASHDOT
 70
     0
  3
__ . __ . __ . __ . __ . __ . __ . __ . __ . __
 72
    65
 73
     4
 40
1.0
 49
0.5
 49
-0.25
 49
0.0
 49
-0.25
  0
LTYPE
  2
DASHED
 70
     0
  3
__ __ __ __ __ __ __ __ __ __ __ __ __ __ __
 72
    65
 73
     2
 40
0.75
 49
0.5
 49
-0.25
  0
LTYPE
  2
PHANTOM
 70
     0
  3
Phantom ______  __  __  ______  __  __  ______
 72
    65
 73
     6
 40
63.5
 49
31.75
 49
-6.3499999999999988
 49
6.3499999999999988
 49
-6.3499999999999988
 49
6.3499999999999988
 49
-6.3499999999999988
  0
LTYPE
  2
BYGG-018516$0$NEWDOT
 70
     0
  3
____ . ____ . ____ . ____ . ____ . ____ . ____
 72
    65
 73
     4
 40
2.0
 49
1.0
 49
-0.5
 49
0.0
 49
-0.5
  0
LTYPE
  2
BYGG-018516$0$ZIGZAG
 70
     0
  3
Zig zag /\/\/\/\/\/\/\/\/\/\/\/\/\/\/\/\/\/\/\/\/\/\/\/
 72
    65
 73
     4
 40
20.32254
 49
0.00254
 49
-5.0800000000000001
 49
-10.16
 49
-5.0800000000000001
  0
LTYPE
  2
BYGG-024894$0$DASHDOT
 70
     0
  3
__ . __ . __ . __ . __ . __ . __ . __ . __ . __
 72
    65
 73
     4
 40
1.0
 49
0.5
 49
-0.25
 49
0.0
 49
-0.25
  0
LTYPE
  2
BYGG-019612$0$NEWDOT
 70
     0
  3
____ . ____ . ____ . ____ . ____ . ____ . ____
 72
    65
 73
     4
 40
2.0
 49
1.0
 49
-0.5
 49
0.0
 49
-0.5
  0
LTYPE
  2
BYGG-019612$0$DASHDOT
 70
     0
  3
__ . __ . __ . __ . __ . __ . __ . __ . __ . __
 72
    65
 73
     4
 40
1.0
 49
0.5
 49
-0.25
 49
0.0
 49
-0.25
  0
LTYPE
  2
BYGG-019612$0$DASHED
 70
     0
  3
__ __ __ __ __ __ __ __ __ __ __ __ __ __ __
 72
    65
 73
     2
 40
0.75
 49
0.5
 49
-0.25
  0
LTYPE
  2
BYGG-019612$0$PHANTOM
 70
     0
  3
Phantom ______  __  __  ______  __  __  ______
 72
    65
 73
     6
 40
63.5
 49
31.75
 49
-6.3499999999999988
 49
6.3499999999999988
 49
-6.3499999999999988
 49
6.3499999999999988
 49
-6.3499999999999988
  0
LTYPE
  2
BYGG-018731$0$NEWDOT
 70
     0
  3
____ . ____ . ____ . ____ . ____ . ____ . ____
 72
    65
 73
     4
 40
2.0
 49
1.0
 49
-0.5
 49
0.0
 49
-0.5
  0
LTYPE
  2
BYGG-018731$0$DASHDOT
 70
     0
  3
__ . __ . __ . __ . __ . __ . __ . __ . __ . __
 72
    65
 73
     4
 40
1.0
 49
0.5
 49
-0.25
 49
0.0
 49
-0.25
  0
LTYPE
  2
BYGG-018731$0$DASHED
 70
     0
  3
__ __ __ __ __ __ __ __ __ __ __ __ __ __ __
 72
    65
 73
     2
 40
0.75
 49
0.5
 49
-0.25
  0
LTYPE
  2
BYGG-018731$0$PHANTOM
 70
     0
  3
Phantom ______  __  __  ______  __  __  ______
 72
    65
 73
     6
 40
63.5
 49
31.75
 49
-6.3499999999999988
 49
6.3499999999999988
 49
-6.3499999999999988
 49
6.3499999999999988
 49
-6.3499999999999988
  0
LTYPE
  2
BYGG-029261$0$NEWDOT
 70
     0
  3
____ . ____ . ____ . ____ . ____ . ____ . ____
 72
    65
 73
     4
 40
2.0
 49
1.0
 49
-0.5
 49
0.0
 49
-0.5
  0
LTYPE
  2
BYGG-029261$0$DASHDOT
 70
     0
  3
__ . __ . __ . __ . __ . __ . __ . __ . __ . __
 72
    65
 73
     4
 40
1.0
 49
0.5
 49
-0.25
 49
0.0
 49
-0.25
  0
LTYPE
  2
BYGG-029261$0$DASHED
 70
     0
  3
__ __ __ __ __ __ __ __ __ __ __ __ __ __ __
 72
    65
 73
     2
 40
0.75
 49
0.5
 49
-0.25
  0
LTYPE
  2
BYGG-029261$0$PHANTOM
 70
     0
  3
Phantom ______  __  __  ______  __  __  ______
 72
    65
 73
     6
 40
63.5
 49
31.75
 49
-6.3499999999999988
 49
6.3499999999999988
 49
-6.3499999999999988
 49
6.3499999999999988
 49
-6.3499999999999988
  0
LTYPE
  2
BYGG-019653$0$NEWDOT
 70
     0
  3
____ . ____ . ____ . ____ . ____ . ____ . ____
 72
    65
 73
     4
 40
2.0
 49
1.0
 49
-0.5
 49
0.0
 49
-0.5
  0
LTYPE
  2
BYGG-019653$0$DASHDOT
 70
     0
  3
__ . __ . __ . __ . __ . __ . __ . __ . __ . __
 72
    65
 73
     4
 40
1.0
 49
0.5
 49
-0.25
 49
0.0
 49
-0.25
  0
LTYPE
  2
BYGG-019653$0$DASHED
 70
     0
  3
__ __ __ __ __ __ __ __ __ __ __ __ __ __ __
 72
    65
 73
     2
 40
0.75
 49
0.5
 49
-0.25
  0
LTYPE
  2
BYGG-019653$0$PHANTOM
 70
     0
  3
Phantom ______  __  __  ______  __  __  ______
 72
    65
 73
     6
 40
63.5
 49
31.75
 49
-6.3499999999999988
 49
6.3499999999999988
 49
-6.3499999999999988
 49
6.3499999999999988
 49
-6.3499999999999988
  0
LTYPE
  2
BYGG-019652$0$NEWDOT
 70
     0
  3
____ . ____ . ____ . ____ . ____ . ____ . ____
 72
    65
 73
     4
 40
2.0
 49
1.0
 49
-0.5
 49
0.0
 49
-0.5
  0
LTYPE
  2
BYGG-019652$0$DASHDOT
 70
     0
  3
__ . __ . __ . __ . __ . __ . __ . __ . __ . __
 72
    65
 73
     4
 40
1.0
 49
0.5
 49
-0.25
 49
0.0
 49
-0.25
  0
LTYPE
  2
BYGG-019652$0$DASHED
 70
     0
  3
__ __ __ __ __ __ __ __ __ __ __ __ __ __ __
 72
    65
 73
     2
 40
0.75
 49
0.5
 49
-0.25
  0
LTYPE
  2
BYGG-019652$0$PHANTOM
 70
     0
  3
Phantom ______  __  __  ______  __  __  ______
 72
    65
 73
     6
 40
63.5
 49
31.75
 49
-6.3499999999999988
 49
6.3499999999999988
 49
-6.3499999999999988
 49
6.3499999999999988
 49
-6.3499999999999988
  0
LTYPE
  2
PHANTOM2
 70
     0
  3
Phantom (.5x) ___ _ _ ___ _ _ ___ _ _ ___ _ _
 72
    65
 73
     6
 40
1.25
 49
0.625
 49
-0.125
 49
0.125
 49
-0.125
 49
0.125
 49
-0.125
  0
LTYPE
  2
BYGG-019612$0$ZIGZAG
 70
     0
  3
Zig zag /\/\/\/\/\/\/\/\/\/\/\/\/\/\/\/\/\/\/\/\/\/\/\/
 72
    65
 73
     4
 40
20.32254
 49
0.00254
 49
-5.0800000000000001
 49
-10.16
 49
-5.0800000000000001
  0
LTYPE
  2
BYGG-022089$0$NEWDOT
 70
     0
  3
____ . ____ . ____ . ____ . ____ . ____ . ____
 72
    65
 73
     4
 40
2.0
 49
1.0
 49
-0.5
 49
0.0
 49
-0.5
  0
LTYPE
  2
BYGG-022089$0$DASHDOT
 70
     0
  3
__ . __ . __ . __ . __ . __ . __ . __ . __ . __
 72
    65
 73
     4
 40
1.0
 49
0.5
 49
-0.25
 49
0.0
 49
-0.25
  0
LTYPE
  2
BYGG-022089$0$DASHED
 70
     0
  3
__ __ __ __ __ __ __ __ __ __ __ __ __ __ __
 72
    65
 73
     2
 40
0.75
 49
0.5
 49
-0.25
  0
LTYPE
  2
BYGG-022089$0$PHANTOM
 70
     0
  3
Phantom ______  __  __  ______  __  __  ______
 72
    65
 73
     6
 40
63.5
 49
31.75
 49
-6.3499999999999988
 49
6.3499999999999988
 49
-6.3499999999999988
 49
6.3499999999999988
 49
-6.3499999999999988
  0
LTYPE
  2
BYGG-019716$0$NEWDOT
 70
     0
  3
____ . ____ . ____ . ____ . ____ . ____ . ____
 72
    65
 73
     4
 40
2.0
 49
1.0
 49
-0.5
 49
0.0
 49
-0.5
  0
LTYPE
  2
BYGG-019716$0$DASHDOT
 70
     0
  3
__ . __ . __ . __ . __ . __ . __ . __ . __ . __
 72
    65
 73
     4
 40
1.0
 49
0.5
 49
-0.25
 49
0.0
 49
-0.25
  0
LTYPE
  2
BYGG-019716$0$DASHED
 70
     0
  3
__ __ __ __ __ __ __ __ __ __ __ __ __ __ __
 72
    65
 73
     2
 40
0.75
 49
0.5
 49
-0.25
  0
LTYPE
  2
BYGG-019716$0$PHANTOM
 70
     0
  3
Phantom ______  __  __  ______  __  __  ______
 72
    65
 73
     6
 40
63.5
 49
31.75
 49
-6.3499999999999988
 49
6.3499999999999988
 49
-6.3499999999999988
 49
6.3499999999999988
 49
-6.3499999999999988
  0
LTYPE
  2
BYGG-019705$0$NEWDOT
 70
     0
  3
____ . ____ . ____ . ____ . ____ . ____ . ____
 72
    65
 73
     4
 40
2.0
 49
1.0
 49
-0.5
 49
0.0
 49
-0.5
  0
LTYPE
  2
BYGG-019705$0$DASHDOT
 70
     0
  3
__ . __ . __ . __ . __ . __ . __ . __ . __ . __
 72
    65
 73
     4
 40
1.0
 49
0.5
 49
-0.25
 49
0.0
 49
-0.25
  0
LTYPE
  2
BYGG-019705$0$DASHED
 70
     0
  3
__ __ __ __ __ __ __ __ __ __ __ __ __ __ __
 72
    65
 73
     2
 40
0.75
 49
0.5
 49
-0.25
  0
LTYPE
  2
BYGG-019705$0$PHANTOM
 70
     0
  3
Phantom ______  __  __  ______  __  __  ______
 72
    65
 73
     6
 40
63.5
 49
31.75
 49
-6.3499999999999988
 49
6.3499999999999988
 49
-6.3499999999999988
 49
6.3499999999999988
 49
-6.3499999999999988
  0
LTYPE
  2
BYGG-019718$0$NEWDOT
 70
     0
  3
____ . ____ . ____ . ____ . ____ . ____ . ____
 72
    65
 73
     4
 40
2.0
 49
1.0
 49
-0.5
 49
0.0
 49
-0.5
  0
LTYPE
  2
BYGG-019718$0$DASHDOT
 70
     0
  3
__ . __ . __ . __ . __ . __ . __ . __ . __ . __
 72
    65
 73
     4
 40
1.0
 49
0.5
 49
-0.25
 49
0.0
 49
-0.25
  0
LTYPE
  2
BYGG-019718$0$DASHED
 70
     0
  3
__ __ __ __ __ __ __ __ __ __ __ __ __ __ __
 72
    65
 73
     2
 40
0.75
 49
0.5
 49
-0.25
  0
LTYPE
  2
BYGG-019718$0$PHANTOM
 70
     0
  3
Phantom ______  __  __  ______  __  __  ______
 72
    65
 73
     6
 40
63.5
 49
31.75
 49
-6.3499999999999988
 49
6.3499999999999988
 49
-6.3499999999999988
 49
6.3499999999999988
 49
-6.3499999999999988
  0
LTYPE
  2
BYGG-022089$0$PHANTOM2
 70
     0
  3
Phantom (.5x) ___ _ _ ___ _ _ ___ _ _ ___ _ _
 72
    65
 73
     6
 40
1.25
 49
0.625
 49
-0.125
 49
0.125
 49
-0.125
 49
0.125
 49
-0.125
  0
LTYPE
  2
BYGG-019716$0$PHANTOM2
 70
     0
  3
Phantom (.5x) ___ _ _ ___ _ _ ___ _ _ ___ _ _
 72
    65
 73
     6
 40
1.25
 49
0.625
 49
-0.125
 49
0.125
 49
-0.125
 49
0.125
 49
-0.125
  0
LTYPE
  2
BYGG-019653$0$DOT_CENTER
 70
     0
  3
Dot_Center
 72
    65
 73
     4
 40
14.0
 49
12.0
 49
-1.0
 49
0.0
 49
-1.0
  0
LTYPE
  2
BYGG-019653$0$DASH_CENTER
 70
     0
  3
Dash_Center
 72
    65
 73
     4
 40
14.0
 49
11.0
 49
-1.0
 49
1.0
 49
-1.0
  0
LTYPE
  2
BYGG-019652$0$DOT_CENTER
 70
     0
  3
Dot_Center
 72
    65
 73
     4
 40
14.0
 49
12.0
 49
-1.0
 49
0.0
 49
-1.0
  0
LTYPE
  2
BYGG-019652$0$DASH_CENTER
 70
     0
  3
Dash_Center
 72
    65
 73
     4
 40
14.0
 49
11.0
 49
-1.0
 49
1.0
 49
-1.0
  0
ENDTAB
  0
TABLE
  2
LAYER
 70
   280
  0
LAYER
  2
0
 70
     0
 62
     7
  6
CONTINUOUS
  0
LAYER
  2
SAPA_ANSLUTNING
 70
     0
 62
     6
  6
CONTINUOUS
  0
LAYER
  2
SAPA_GLAS
 70
     0
 62
     4
  6
CONTINUOUS
  0
LAYER
  2
SAPA_FYLLNING
 70
     0
 62
     4
  6
CONTINUOUS
  0
LAYER
  2
SAPA_ISOLATOR
 70
     0
 62
     4
  6
CONTINUOUS
  0
LAYER
  2
SAPA_FOGBAND
 70
     0
 62
     2
  6
CONTINUOUS
  0
LAYER
  2
SAPA_PROFIL
 70
     0
 62
     7
  6
CONTINUOUS
  0
ENDTAB
  0
TABLE
  2
STYLE
 70
    34
  0
STYLE
  2
STANDARD
 70
     0
 40
0.0
 41
1.0
 50
0.0
 71
     0
 42
0.2
  3
txt
  4

  0
STYLE
  2
ISO
 70
     0
 40
0.0
 41
1.0
 50
0.0
 71
     0
 42
3.5
  3
txt
  4

  0
STYLE
  2

 70
     1
 40
0.0
 41
1.0
 50
0.0
 71
     0
 42
0.2
  3
ltypeshp.shx
  4

  0
STYLE
  2
ANNOTATIVE
 70
     0
 40
0.0
 41
1.0
 50
0.0
 71
     0
 42
0.2
  3
txt
  4

  0
STYLE
  2
BYGG-021665$0$STANDARD
 70
     0
 40
0.0
 41
1.0
 50
0.0
 71
     0
 42
0.2
  3
txt
  4

  0
STYLE
  2
BYGG-021665$0$ISO
 70
     0
 40
0.0
 41
1.0
 50
0.0
 71
     0
 42
3.5
  3
isocp3.shx
  4

  0
STYLE
  2
BYGG-018516$0$STANDARD
 70
     0
 40
0.0
 41
1.0
 50
0.0
 71
     0
 42
0.2
  3
txt
  4

  0
STYLE
  2
BYGG-018516$0$ISO
 70
     0
 40
0.0
 41
1.0
 50
0.0
 71
     0
 42
3.5
  3
isocp3.shx
  4

  0
STYLE
  2
BYGG-022089$0$STANDARD
 70
     0
 40
0.0
 41
1.0
 50
0.0
 71
     0
 42
0.2
  3
txt
  4

  0
STYLE
  2
BYGG-022089$0$ISO
 70
     0
 40
0.0
 41
1.0
 50
0.0
 71
     0
 42
3.5
  3
txt
  4

  0
STYLE
  2
BYGG-022089$0$ANNOTATIVE
 70
     0
 40
0.0
 41
1.0
 50
0.0
 71
     0
 42
0.2
  3
txt
  4

  0
STYLE
  2
BYGG-018731$0$STANDARD
 70
     0
 40
0.0
 41
1.0
 50
0.0
 71
     0
 42
0.2
  3
txt
  4

  0
STYLE
  2
BYGG-018731$0$ISO
 70
     0
 40
0.0
 41
1.0
 50
0.0
 71
     0
 42
3.5
  3
txt
  4

  0
STYLE
  2
BYGG-029261$0$STANDARD
 70
     0
 40
0.0
 41
1.0
 50
0.0
 71
     0
 42
0.2
  3
txt
  4

  0
STYLE
  2
BYGG-029261$0$ISO
 70
     0
 40
0.0
 41
1.0
 50
0.0
 71
     0
 42
3.5
  3
txt
  4

  0
STYLE
  2
BYGG-019716$0$STANDARD
 70
     0
 40
0.0
 41
1.0
 50
0.0
 71
     0
 42
0.2
  3
txt
  4

  0
STYLE
  2
BYGG-019716$0$ISO
 70
     0
 40
0.0
 41
1.0
 50
0.0
 71
     0
 42
3.5
  3
txt
  4

  0
STYLE
  2
BYGG-019716$0$ANNOTATIVE
 70
     0
 40
0.0
 41
1.0
 50
0.0
 71
     0
 42
0.2
  3
txt
  4

  0
STYLE
  2
BYGG-019653$0$STANDARD
 70
     0
 40
0.0
 41
1.0
 50
0.0
 71
     0
 42
0.2
  3
txt
  4

  0
STYLE
  2
BYGG-019653$0$ISO
 70
     0
 40
0.0
 41
1.0
 50
0.0
 71
     0
 42
3.5
  3
txt
  4

  0
STYLE
  2
BYGG-019653$0$CONVERTER_11
 70
     0
 40
0.0
 41
0.72
 50
0.0
 71
     0
 42
0.2
  3
txt.shx
  4

  0
STYLE
  2
BYGG-019652$0$STANDARD
 70
     0
 40
0.0
 41
1.0
 50
0.0
 71
     0
 42
0.2
  3
txt
  4

  0
STYLE
  2
BYGG-019652$0$ISO
 70
     0
 40
0.0
 41
1.0
 50
0.0
 71
     0
 42
3.5
  3
txt
  4

  0
STYLE
  2
BYGG-019652$0$CONVERTER_11
 70
     0
 40
0.0
 41
0.72
 50
0.0
 71
     0
 42
0.2
  3
txt.shx
  4

  0
STYLE
  2
BYGG-019705$0$STANDARD
 70
     0
 40
0.0
 41
1.0
 50
0.0
 71
     0
 42
0.2
  3
txt
  4

  0
STYLE
  2
BYGG-019705$0$ISO
 70
     0
 40
0.0
 41
1.0
 50
0.0
 71
     0
 42
3.5
  3
txt
  4

  0
STYLE
  2
BYGG-019718$0$STANDARD
 70
     0
 40
0.0
 41
1.0
 50
0.0
 71
     0
 42
0.2
  3
txt
  4

  0
STYLE
  2
BYGG-019718$0$ISO
 70
     0
 40
0.0
 41
1.0
 50
0.0
 71
     0
 42
3.5
  3
txt
  4

  0
STYLE
  2
BYGG-024973$0$STANDARD
 70
     0
 40
0.0
 41
1.0
 50
0.0
 71
     0
 42
0.2
  3
txt
  4

  0
STYLE
  2
BYGG-024973$0$ISO
 70
     0
 40
0.0
 41
1.0
 50
0.0
 71
     0
 42
3.5
  3
txt
  4

  0
STYLE
  2
BYGG-024894$0$STANDARD
 70
     0
 40
0.0
 41
1.0
 50
0.0
 71
     0
 42
0.2
  3
txt
  4

  0
STYLE
  2
BYGG-024894$0$ISO
 70
     0
 40
0.0
 41
1.0
 50
0.0
 71
     0
 42
3.5
  3
txt
  4

  0
STYLE
  2
BYGG-019612$0$STANDARD
 70
     0
 40
0.0
 41
1.0
 50
0.0
 71
     0
 42
0.2
  3
txt
  4

  0
STYLE
  2
BYGG-019612$0$ISO
 70
     0
 40
0.0
 41
1.0
 50
0.0
 71
     0
 42
3.5
  3
txt
  4

  0
ENDTAB
  0
TABLE
  2
VIEW
 70
     0
  0
ENDTAB
  0
TABLE
  2
UCS
 70
     0
  0
ENDTAB
  0
TABLE
  2
APPID
 70
    20
  0
APPID
  2
ACAD
 70
     0
  0
APPID
  2
ACAD_DSTYLE_DIMTEXT_FILL
 70
     0
  0
APPID
  2
ACAD_DSTYLE_DIMEXT_LENGTH
 70
     0
  0
APPID
  2
ACAD_DSTYLE_DIMEXT_ENABLED
 70
     0
  0
APPID
  2
ACAD_DSTYLE_DIM_LINETYPE
 70
     0
  0
APPID
  2
ACAD_DSTYLE_DIM_EXT1_LINETYPE
 70
     0
  0
APPID
  2
ACAD_DSTYLE_DIM_EXT2_LINETYPE
 70
     0
  0
APPID
  2
ACAD_DSTYLE_DIMJOGGED_JOGA
 70
     0
  0
APPID
  2
ACAD_DSTYLE_DIMARC_LENGTH_
 70
     0
  0
APPID
  2
ACAD_PSEXT
 70
     0
  0
APPID
  2
ACAD_MLEADERVER
 70
     0
  0
APPID
  2
ACAD_NAV_VCDISPLAY
 70
     0
  0
APPID
  2
ACAECLAYERSTANDARD
 70
     0
  0
APPID
  2
ACADANNOTATIVE
 70
     0
  0
APPID
  2
ACDBDYNAMICBLOCKGUID
 70
     0
  0
APPID
  2
ACDBBLOCKREPETAG
 70
     0
  0
APPID
  2
ACAD_EXEMPT_FROM_CAD_STANDARDS
 70
     0
  0
APPID
  2
GRADIENTCOLOR1ACI
 70
     0
  0
APPID
  2
GRADIENTCOLOR2ACI
 70
     0
  0
APPID
  2
ACCMTRANSPARENCY
 70
     0
  0
ENDTAB
  0
TABLE
  2
DIMSTYLE
 70
    65
  0
DIMSTYLE
  2
STANDARD
 70
     0
  3

  4

  5

  6

  7

 40
1.0
 41
0.18
 42
0.0625
 43
0.38
 44
0.18
 45
0.0
 46
0.0
 47
0.0
 48
0.0
140
0.18
141
0.09
142
0.0
143
25.399999999999999
144
1.0
145
0.0
146
1.0
147
0.09
 71
     0
 72
     0
 73
     1
 74
     1
 75
     0
 76
     0
 77
     0
 78
     0
170
     0
171
     2
172
     0
173
     0
174
     0
175
     0
176
     0
177
     0
178
     0
  0
DIMSTYLE
  2
MASKIN
 70
     0
  3

  4

  5

  6

  7

 40
0.0
 41
3.0
 42
1.5
 43
10.0
 44
1.5
 45
0.0
 46
0.0
 47
0.0
 48
0.0
140
3.0
141
-5.0
142
0.0
143
25.399999999999999
144
-1.0
145
0.0
146
1.0
147
1.0
 71
     0
 72
     0
 73
     0
 74
     0
 75
     0
 76
     0
 77
     1
 78
     8
170
     0
171
     0
172
     1
173
     0
174
     0
175
     0
176
   256
177
   256
178
     2
  0
DIMSTYLE
  2
ANNOTATIVE
 70
     0
  3

  4

  5

  6

  7

 40
1.0
 41
0.18
 42
0.0625
 43
0.38
 44
0.18
 45
0.0
 46
0.0
 47
0.0
 48
0.0
140
0.18
141
0.09
142
0.0
143
25.399999999999999
144
1.0
145
0.0
146
1.0
147
0.09
 71
     0
 72
     0
 73
     1
 74
     1
 75
     0
 76
     0
 77
     0
 78
     0
170
     0
171
     2
172
     0
173
     0
174
     0
175
     0
176
     0
177
     0
178
     0
  0
DIMSTYLE
  2
BYGG-021665$0$MASKIN
 70
     0
  3

  4

  5

  6

  7

 40
0.0
 41
3.0
 42
1.5
 43
10.0
 44
1.5
 45
0.0
 46
0.0
 47
0.0
 48
0.0
140
3.0
141
-5.0
142
0.0
143
25.399999999999999
144
-1.0
145
0.0
146
1.0
147
1.0
 71
     0
 72
     0
 73
     0
 74
     0
 75
     0
 76
     0
 77
     1
 78
     8
170
     0
171
     0
172
     1
173
     0
174
     0
175
     0
176
   256
177
   256
178
   256
  0
DIMSTYLE
  2
BYGG-018516$0$STANDARD
 70
     0
  3

  4

  5

  6

  7

 40
1.0
 41
0.18
 42
0.0625
 43
0.38
 44
0.18
 45
0.0
 46
0.0
 47
0.0
 48
0.0
140
0.18
141
0.09
142
0.0
143
25.399999999999999
144
1.0
145
0.0
146
1.0
147
0.09
 71
     0
 72
     0
 73
     1
 74
     1
 75
     0
 76
     0
 77
     0
 78
     0
170
     0
171
     2
172
     0
173
     0
174
     0
175
     0
176
     0
177
     0
178
     0
  0
DIMSTYLE
  2
BYGG-018516$0$MASKIN
 70
     0
  3

  4

  5

  6

  7

 40
0.0
 41
3.0
 42
1.5
 43
10.0
 44
1.5
 45
0.0
 46
0.0
 47
0.0
 48
0.0
140
3.0
141
-5.0
142
0.0
143
25.399999999999999
144
-1.0
145
0.0
146
1.0
147
1.0
 71
     0
 72
     0
 73
     0
 74
     0
 75
     0
 76
     0
 77
     1
 78
     8
170
     0
171
     0
172
     1
173
     0
174
     0
175
     0
176
   256
177
   256
178
     2
  0
DIMSTYLE
  2
BYGG-022089$0$STANDARD
 70
     0
  3

  4

  5

  6

  7

 40
1.0
 41
0.18
 42
0.0625
 43
0.38
 44
0.18
 45
0.0
 46
0.0
 47
0.0
 48
0.0
140
0.18
141
0.09
142
0.0
143
25.399999999999999
144
1.0
145
0.0
146
1.0
147
0.09
 71
     0
 72
     0
 73
     1
 74
     1
 75
     0
 76
     0
 77
     0
 78
     0
170
     0
171
     2
172
     0
173
     0
174
     0
175
     0
176
     0
177
     0
178
     0
  0
DIMSTYLE
  2
BYGG-022089$0$MASKIN
 70
     0
  3

  4

  5

  6

  7

 40
0.0
 41
3.0
 42
1.5
 43
10.0
 44
1.5
 45
0.0
 46
0.0
 47
0.0
 48
0.0
140
3.0
141
-5.0
142
0.0
143
25.399999999999999
144
-1.0
145
0.0
146
1.0
147
1.0
 71
     0
 72
     0
 73
     0
 74
     0
 75
     0
 76
     0
 77
     1
 78
     8
170
     0
171
     0
172
     1
173
     0
174
     0
175
     0
176
   256
177
   256
178
     2
  0
DIMSTYLE
  2
BYGG-022089$0$ANNOTATIVE
 70
     0
  3

  4

  5

  6

  7

 40
1.0
 41
0.18
 42
0.0625
 43
0.38
 44
0.18
 45
0.0
 46
0.0
 47
0.0
 48
0.0
140
0.18
141
0.09
142
0.0
143
25.399999999999999
144
1.0
145
0.0
146
1.0
147
0.09
 71
     0
 72
     0
 73
     1
 74
     1
 75
     0
 76
     0
 77
     0
 78
     0
170
     0
171
     2
172
     0
173
     0
174
     0
175
     0
176
     0
177
     0
178
     0
  0
DIMSTYLE
  2
BYGG-018731$0$STANDARD
 70
     0
  3

  4

  5

  6

  7

 40
1.0
 41
0.18
 42
0.0625
 43
0.38
 44
0.18
 45
0.0
 46
0.0
 47
0.0
 48
0.0
140
0.18
141
0.09
142
0.0
143
25.399999999999999
144
1.0
145
0.0
146
1.0
147
0.09
 71
     0
 72
     0
 73
     1
 74
     1
 75
     0
 76
     0
 77
     0
 78
     0
170
     0
171
     2
172
     0
173
     0
174
     0
175
     0
176
     0
177
     0
178
     0
  0
DIMSTYLE
  2
BYGG-018731$0$MASKIN
 70
     0
  3

  4

  5

  6

  7

 40
0.0
 41
3.0
 42
1.5
 43
10.0
 44
1.5
 45
0.0
 46
0.0
 47
0.0
 48
0.0
140
3.0
141
-5.0
142
0.0
143
25.399999999999999
144
-1.0
145
0.0
146
1.0
147
1.0
 71
     0
 72
     0
 73
     0
 74
     0
 75
     0
 76
     0
 77
     1
 78
     8
170
     0
171
     0
172
     1
173
     0
174
     0
175
     0
176
   256
177
   256
178
     2
  0
DIMSTYLE
  2
BYGG-029261$0$STANDARD
 70
     0
  3

  4

  5

  6

  7

 40
1.0
 41
0.18
 42
0.0625
 43
0.38
 44
0.18
 45
0.0
 46
0.0
 47
0.0
 48
0.0
140
0.18
141
0.09
142
0.0
143
25.399999999999999
144
1.0
145
0.0
146
1.0
147
0.09
 71
     0
 72
     0
 73
     1
 74
     1
 75
     0
 76
     0
 77
     0
 78
     0
170
     0
171
     2
172
     0
173
     0
174
     0
175
     0
176
     0
177
     0
178
     0
  0
DIMSTYLE
  2
BYGG-029261$0$MASKIN
 70
     0
  3

  4

  5

  6

  7

 40
0.0
 41
3.0
 42
1.5
 43
10.0
 44
1.5
 45
0.0
 46
0.0
 47
0.0
 48
0.0
140
3.0
141
-5.0
142
0.0
143
25.399999999999999
144
-1.0
145
0.0
146
1.0
147
1.0
 71
     0
 72
     0
 73
     0
 74
     0
 75
     0
 76
     0
 77
     1
 78
     8
170
     0
171
     0
172
     1
173
     0
174
     0
175
     0
176
   256
177
   256
178
     2
  0
DIMSTYLE
  2
BYGG-029261$0$ISO-25
 70
     0
  3

  4

  5

  6

  7

 40
1.0
 41
2.5
 42
0.625
 43
3.75
 44
1.25
 45
0.0
 46
0.0
 47
0.0
 48
0.0
140
2.5
141
2.5
142
0.0
143
0.03937007874016
144
1.0
145
0.0
146
1.0
147
0.625
 71
     0
 72
     0
 73
     0
 74
     0
 75
     0
 76
     0
 77
     1
 78
     8
170
     0
171
     3
172
     1
173
     0
174
     0
175
     0
176
     0
177
     0
178
     0
  0
DIMSTYLE
  2
BYGG-019716$0$STANDARD
 70
     0
  3

  4

  5

  6

  7

 40
1.0
 41
0.18
 42
0.0625
 43
0.38
 44
0.18
 45
0.0
 46
0.0
 47
0.0
 48
0.0
140
0.18
141
0.09
142
0.0
143
25.399999999999999
144
1.0
145
0.0
146
1.0
147
0.09
 71
     0
 72
     0
 73
     1
 74
     1
 75
     0
 76
     0
 77
     0
 78
     0
170
     0
171
     2
172
     0
173
     0
174
     0
175
     0
176
     0
177
     0
178
     0
  0
DIMSTYLE
  2
BYGG-019716$0$MASKIN
 70
     0
  3

  4

  5

  6

  7

 40
0.0
 41
3.0
 42
1.5
 43
10.0
 44
1.5
 45
0.0
 46
0.0
 47
0.0
 48
0.0
140
3.0
141
-5.0
142
0.0
143
25.399999999999999
144
-1.0
145
0.0
146
1.0
147
1.0
 71
     0
 72
     0
 73
     0
 74
     0
 75
     0
 76
     0
 77
     1
 78
     8
170
     0
171
     0
172
     1
173
     0
174
     0
175
     0
176
   256
177
   256
178
     2
  0
DIMSTYLE
  2
BYGG-019716$0$ANNOTATIVE
 70
     0
  3

  4

  5

  6

  7

 40
1.0
 41
0.18
 42
0.0625
 43
0.38
 44
0.18
 45
0.0
 46
0.0
 47
0.0
 48
0.0
140
0.18
141
0.09
142
0.0
143
25.399999999999999
144
1.0
145
0.0
146
1.0
147
0.09
 71
     0
 72
     0
 73
     1
 74
     1
 75
     0
 76
     0
 77
     0
 78
     0
170
     0
171
     2
172
     0
173
     0
174
     0
175
     0
176
     0
177
     0
178
     0
  0
DIMSTYLE
  2
BYGG-019653$0$STANDARD
 70
     0
  3

  4

  5

  6

  7

 40
1.0
 41
0.18
 42
0.0625
 43
0.38
 44
0.18
 45
0.0
 46
0.0
 47
0.0
 48
0.0
140
0.18
141
0.09
142
0.0
143
25.399999999999999
144
1.0
145
0.0
146
1.0
147
0.09
 71
     0
 72
     0
 73
     1
 74
     1
 75
     0
 76
     0
 77
     0
 78
     0
170
     0
171
     2
172
     0
173
     0
174
     0
175
     0
176
     0
177
     0
178
     0
  0
DIMSTYLE
  2
BYGG-019653$0$MASKIN
 70
     0
  3

  4

  5

  6

  7

 40
0.0
 41
3.0
 42
1.5
 43
10.0
 44
1.5
 45
0.0
 46
0.0
 47
0.0
 48
0.0
140
3.0
141
-5.0
142
0.0
143
25.399999999999999
144
-1.0
145
0.0
146
1.0
147
1.0
 71
     0
 72
     0
 73
     0
 74
     0
 75
     0
 76
     0
 77
     1
 78
     8
170
     0
171
     0
172
     1
173
     0
174
     0
175
     0
176
   256
177
   256
178
     2
  0
DIMSTYLE
  2
BYGG-019653$0$ME10_DIM_10
 70
     0
  3

  4

  5

  6

  7

 40
1.0
 41
0.7
 42
0.0
 43
0.38
 44
0.4
 45
0.0
 46
0.0
 47
0.0
 48
0.0
140
0.7
141
0.09
142
0.0
143
25.399999999999999
144
1.0
145
0.0
146
1.0
147
0.4
 71
     0
 72
     0
 73
     0
 74
     0
 75
     0
 76
     0
 77
     1
 78
     8
170
     0
171
     2
172
     1
173
     1
174
     0
175
     0
176
     1
177
     1
178
     2
  0
DIMSTYLE
  2
BYGG-019653$0$ME10_DIM_11
 70
     0
  3

  4

  5

  6

  7

 40
1.0
 41
0.7
 42
0.0
 43
0.38
 44
0.4
 45
0.0
 46
0.0
 47
0.0
 48
0.0
140
0.7
141
0.09
142
0.0
143
25.399999999999999
144
1.0
145
0.0
146
1.0
147
0.4
 71
     0
 72
     0
 73
     0
 74
     0
 75
     0
 76
     0
 77
     1
 78
     8
170
     0
171
     2
172
     1
173
     1
174
     0
175
     0
176
     1
177
     1
178
     2
  0
DIMSTYLE
  2
BYGG-019653$0$ME10_DIM_12
 70
     0
  3
(<>)
  4

  5

  6

  7

 40
1.0
 41
0.7
 42
0.0
 43
0.38
 44
0.4
 45
0.0
 46
0.0
 47
0.0
 48
0.0
140
0.7
141
0.09
142
0.0
143
25.399999999999999
144
1.0
145
0.0
146
1.0
147
0.4
 71
     0
 72
     0
 73
     0
 74
     0
 75
     0
 76
     0
 77
     1
 78
     8
170
     0
171
     2
172
     1
173
     1
174
     0
175
     0
176
     1
177
     1
178
     2
  0
DIMSTYLE
  2
BYGG-019653$0$ME10_DIM_13
 70
     0
  3

  4

  5

  6

  7

 40
1.0
 41
0.7
 42
0.0
 43
0.38
 44
0.4
 45
0.0
 46
0.0
 47
0.0
 48
0.0
140
0.7
141
0.09
142
0.0
143
25.399999999999999
144
1.0
145
0.0
146
1.0
147
0.4
 71
     0
 72
     0
 73
     0
 74
     0
 75
     0
 76
     0
 77
     1
 78
     8
170
     0
171
     2
172
     1
173
     1
174
     0
175
     0
176
     1
177
     1
178
     2
  0
DIMSTYLE
  2
BYGG-019653$0$ME10_DIM_14
 70
     0
  3

  4

  5

  6

  7

 40
1.0
 41
0.7
 42
0.0
 43
0.38
 44
0.4
 45
0.0
 46
0.0
 47
0.0
 48
0.0
140
0.7
141
0.09
142
0.0
143
25.399999999999999
144
1.0
145
0.0
146
1.0
147
0.4
 71
     0
 72
     0
 73
     0
 74
     0
 75
     0
 76
     0
 77
     1
 78
     8
170
     0
171
     2
172
     1
173
     1
174
     0
175
     0
176
     1
177
     1
178
     2
  0
DIMSTYLE
  2
BYGG-019653$0$ME10_DIM_15
 70
     0
  3

  4

  5

  6

  7

 40
1.0
 41
0.7
 42
0.0
 43
0.38
 44
0.4
 45
0.0
 46
0.0
 47
0.0
 48
0.0
140
0.7
141
0.09
142
0.0
143
25.399999999999999
144
1.0
145
0.0
146
1.0
147
0.4
 71
     0
 72
     0
 73
     0
 74
     0
 75
     0
 76
     0
 77
     1
 78
     8
170
     0
171
     2
172
     1
173
     1
174
     0
175
     0
176
     1
177
     1
178
     2
  0
DIMSTYLE
  2
BYGG-019653$0$ME10_DIM_16
 70
     0
  3

  4

  5

  6

  7

 40
1.0
 41
0.7
 42
0.0
 43
0.38
 44
0.4
 45
0.0
 46
0.0
 47
0.3
 48
0.3
140
0.7
141
0.09
142
0.0
143
25.399999999999999
144
1.0
145
0.0
146
0.6
147
0.4
 71
     1
 72
     0
 73
     0
 74
     0
 75
     0
 76
     0
 77
     1
 78
     8
170
     0
171
     2
172
     1
173
     1
174
     0
175
     0
176
     1
177
     1
178
     2
  0
DIMSTYLE
  2
BYGG-019653$0$ME10_DIM_17
 70
     0
  3

  4

  5

  6

  7

 40
1.0
 41
0.7
 42
0.0
 43
0.38
 44
0.4
 45
0.0
 46
0.0
 47
0.0
 48
0.0
140
0.7
141
0.09
142
0.0
143
25.399999999999999
144
1.0
145
0.0
146
1.0
147
0.4
 71
     0
 72
     0
 73
     0
 74
     0
 75
     0
 76
     0
 77
     1
 78
     8
170
     0
171
     2
172
     1
173
     1
174
     0
175
     0
176
     1
177
     1
178
     2
  0
DIMSTYLE
  2
BYGG-019653$0$ME10_DIM_18
 70
     0
  3

  4

  5

  6

  7

 40
1.0
 41
0.7
 42
0.0
 43
0.38
 44
0.4
 45
0.0
 46
0.0
 47
0.3
 48
0.3
140
0.7
141
0.09
142
0.0
143
25.399999999999999
144
1.0
145
0.0
146
0.6
147
0.4
 71
     1
 72
     0
 73
     0
 74
     0
 75
     0
 76
     0
 77
     1
 78
     8
170
     0
171
     2
172
     1
173
     1
174
     0
175
     0
176
     1
177
     1
178
     2
  0
DIMSTYLE
  2
BYGG-019653$0$ME10_DIM_19
 70
     0
  3

  4

  5

  6

  7

 40
1.0
 41
0.7
 42
0.0
 43
0.38
 44
0.4
 45
0.0
 46
0.0
 47
0.0
 48
0.0
140
0.7
141
0.09
142
0.0
143
25.399999999999999
144
1.0
145
0.0
146
1.0
147
0.4
 71
     0
 72
     0
 73
     0
 74
     0
 75
     0
 76
     0
 77
     1
 78
     8
170
     0
171
     2
172
     1
173
     1
174
     0
175
     0
176
     1
177
     1
178
     2
  0
DIMSTYLE
  2
BYGG-019653$0$ME10_DIM_20
 70
     0
  3

  4

  5

  6

  7

 40
1.0
 41
0.7
 42
0.0
 43
0.38
 44
0.4
 45
0.0
 46
0.0
 47
0.0
 48
0.0
140
0.7
141
0.09
142
0.0
143
25.399999999999999
144
1.0
145
0.0
146
1.0
147
0.4
 71
     0
 72
     0
 73
     0
 74
     0
 75
     0
 76
     0
 77
     1
 78
     8
170
     0
171
     2
172
     1
173
     1
174
     0
175
     0
176
     1
177
     1
178
     2
  0
DIMSTYLE
  2
BYGG-019653$0$ME10_DIM_21
 70
     0
  3
(<>)
  4

  5

  6

  7

 40
1.0
 41
0.7
 42
0.0
 43
0.38
 44
0.4
 45
0.0
 46
0.0
 47
0.0
 48
0.0
140
0.7
141
0.09
142
0.0
143
25.399999999999999
144
1.0
145
0.0
146
1.0
147
0.4
 71
     0
 72
     0
 73
     0
 74
     0
 75
     0
 76
     0
 77
     1
 78
     8
170
     0
171
     2
172
     1
173
     1
174
     0
175
     0
176
     1
177
     1
178
     2
  0
DIMSTYLE
  2
BYGG-019653$0$ME10_DIM_22
 70
     0
  3

  4

  5

  6

  7

 40
1.0
 41
0.7
 42
0.0
 43
0.38
 44
0.4
 45
0.0
 46
0.0
 47
0.0
 48
0.0
140
0.7
141
0.09
142
0.0
143
25.399999999999999
144
1.0
145
0.0
146
1.0
147
0.4
 71
     0
 72
     0
 73
     0
 74
     0
 75
     0
 76
     0
 77
     1
 78
     8
170
     0
171
     2
172
     1
173
     1
174
     0
175
     0
176
     1
177
     1
178
     2
  0
DIMSTYLE
  2
BYGG-019653$0$ME10_DIM_23
 70
     0
  3

  4

  5

  6

  7

 40
1.0
 41
0.7
 42
0.0
 43
0.38
 44
0.4
 45
0.0
 46
0.0
 47
0.0
 48
0.0
140
0.7
141
0.09
142
0.0
143
25.399999999999999
144
1.0
145
0.0
146
1.0
147
0.4
 71
     0
 72
     0
 73
     0
 74
     0
 75
     0
 76
     0
 77
     1
 78
     8
170
     0
171
     2
172
     1
173
     1
174
     0
175
     0
176
     1
177
     1
178
     2
  0
DIMSTYLE
  2
BYGG-019652$0$STANDARD
 70
     0
  3

  4

  5

  6

  7

 40
1.0
 41
0.18
 42
0.0625
 43
0.38
 44
0.18
 45
0.0
 46
0.0
 47
0.0
 48
0.0
140
0.18
141
0.09
142
0.0
143
25.399999999999999
144
1.0
145
0.0
146
1.0
147
0.09
 71
     0
 72
     0
 73
     1
 74
     1
 75
     0
 76
     0
 77
     0
 78
     0
170
     0
171
     2
172
     0
173
     0
174
     0
175
     0
176
     0
177
     0
178
     0
  0
DIMSTYLE
  2
BYGG-019652$0$MASKIN
 70
     0
  3

  4

  5

  6

  7

 40
0.0
 41
3.0
 42
1.5
 43
10.0
 44
1.5
 45
0.0
 46
0.0
 47
0.0
 48
0.0
140
3.0
141
-5.0
142
0.0
143
25.399999999999999
144
-1.0
145
0.0
146
1.0
147
1.0
 71
     0
 72
     0
 73
     0
 74
     0
 75
     0
 76
     0
 77
     1
 78
     8
170
     0
171
     0
172
     1
173
     0
174
     0
175
     0
176
   256
177
   256
178
     2
  0
DIMSTYLE
  2
BYGG-019652$0$ME10_DIM_10
 70
     0
  3

  4

  5

  6

  7

 40
1.0
 41
0.35
 42
0.0
 43
0.38
 44
0.2
 45
0.0
 46
0.0
 47
0.0
 48
0.0
140
0.35
141
0.09
142
0.0
143
25.399999999999999
144
1.0
145
0.0
146
1.0
147
0.2
 71
     0
 72
     0
 73
     0
 74
     0
 75
     0
 76
     0
 77
     1
 78
     8
170
     0
171
     2
172
     1
173
     1
174
     0
175
     0
176
     1
177
     1
178
     2
  0
DIMSTYLE
  2
BYGG-019652$0$ME10_DIM_11
 70
     0
  3

  4

  5

  6

  7

 40
1.0
 41
0.35
 42
0.0
 43
0.38
 44
0.2
 45
0.0
 46
0.0
 47
0.0
 48
0.0
140
0.35
141
0.09
142
0.0
143
25.399999999999999
144
1.0
145
0.0
146
1.0
147
0.2
 71
     0
 72
     0
 73
     0
 74
     0
 75
     0
 76
     0
 77
     1
 78
     8
170
     0
171
     2
172
     1
173
     1
174
     0
175
     0
176
     1
177
     1
178
     2
  0
DIMSTYLE
  2
BYGG-019652$0$ME10_DIM_12
 70
     0
  3

  4

  5

  6

  7

 40
1.0
 41
0.35
 42
0.0
 43
0.38
 44
0.2
 45
0.0
 46
0.0
 47
0.0
 48
0.0
140
0.35
141
0.09
142
0.0
143
25.399999999999999
144
1.0
145
0.0
146
1.0
147
0.2
 71
     0
 72
     0
 73
     0
 74
     0
 75
     0
 76
     0
 77
     1
 78
     8
170
     0
171
     2
172
     1
173
     1
174
     0
175
     0
176
     1
177
     1
178
     2
  0
DIMSTYLE
  2
BYGG-019652$0$ME10_DIM_13
 70
     0
  3

  4

  5

  6

  7

 40
1.0
 41
0.35
 42
0.0
 43
0.38
 44
0.2
 45
0.0
 46
0.0
 47
0.0
 48
0.0
140
0.35
141
0.09
142
0.0
143
25.399999999999999
144
1.0
145
0.0
146
1.0
147
0.2
 71
     0
 72
     0
 73
     0
 74
     0
 75
     0
 76
     0
 77
     1
 78
     8
170
     0
171
     2
172
     1
173
     1
174
     0
175
     0
176
     1
177
     1
178
     2
  0
DIMSTYLE
  2
BYGG-019652$0$ME10_DIM_14
 70
     0
  3

  4

  5

  6

  7

 40
1.0
 41
0.35
 42
0.0
 43
0.38
 44
0.2
 45
0.0
 46
0.0
 47
0.0
 48
0.0
140
0.35
141
0.09
142
0.0
143
25.399999999999999
144
1.0
145
0.0
146
1.0
147
0.2
 71
     0
 72
     0
 73
     0
 74
     0
 75
     0
 76
     0
 77
     1
 78
     8
170
     0
171
     2
172
     1
173
     1
174
     0
175
     0
176
     1
177
     1
178
     2
  0
DIMSTYLE
  2
BYGG-019652$0$ME10_DIM_15
 70
     0
  3

  4

  5

  6

  7

 40
1.0
 41
0.35
 42
0.0
 43
0.38
 44
0.2
 45
0.0
 46
0.0
 47
0.0
 48
0.0
140
0.35
141
0.09
142
0.0
143
25.399999999999999
144
1.0
145
0.0
146
1.0
147
0.2
 71
     0
 72
     0
 73
     0
 74
     0
 75
     0
 76
     0
 77
     1
 78
     8
170
     0
171
     2
172
     1
173
     1
174
     0
175
     0
176
     1
177
     1
178
     2
  0
DIMSTYLE
  2
BYGG-019652$0$ME10_DIM_16
 70
     0
  3

  4

  5

  6

  7

 40
1.0
 41
0.35
 42
0.0
 43
0.38
 44
0.2
 45
0.0
 46
0.0
 47
0.0
 48
0.0
140
0.35
141
0.09
142
0.0
143
25.399999999999999
144
1.0
145
0.0
146
1.0
147
0.2
 71
     0
 72
     0
 73
     0
 74
     0
 75
     0
 76
     0
 77
     1
 78
     8
170
     0
171
     2
172
     1
173
     1
174
     0
175
     0
176
     1
177
     1
178
     2
  0
DIMSTYLE
  2
BYGG-019652$0$ME10_DIM_17
 70
     0
  3

  4

  5

  6

  7

 40
1.0
 41
0.7
 42
0.0
 43
0.38
 44
0.4
 45
0.0
 46
0.0
 47
0.0
 48
0.0
140
0.7
141
0.09
142
0.0
143
25.399999999999999
144
1.0
145
0.0
146
1.0
147
0.4
 71
     0
 72
     0
 73
     0
 74
     0
 75
     0
 76
     0
 77
     1
 78
     8
170
     0
171
     2
172
     1
173
     1
174
     0
175
     0
176
     1
177
     1
178
     2
  0
DIMSTYLE
  2
BYGG-019652$0$ME10_DIM_18
 70
     0
  3

  4

  5

  6

  7

 40
1.0
 41
0.7
 42
0.0
 43
0.38
 44
0.4
 45
0.0
 46
0.0
 47
0.0
 48
0.0
140
0.7
141
0.09
142
0.0
143
25.399999999999999
144
1.0
145
0.0
146
1.0
147
0.4
 71
     0
 72
     0
 73
     0
 74
     0
 75
     0
 76
     0
 77
     1
 78
     8
170
     0
171
     2
172
     1
173
     1
174
     0
175
     0
176
     1
177
     1
178
     2
  0
DIMSTYLE
  2
BYGG-019652$0$ME10_DIM_19
 70
     0
  3

  4

  5

  6

  7

 40
1.0
 41
0.7
 42
0.0
 43
0.38
 44
0.4
 45
0.0
 46
0.0
 47
0.0
 48
0.0
140
0.7
141
0.09
142
0.0
143
25.399999999999999
144
1.0
145
0.0
146
1.0
147
0.4
 71
     0
 72
     0
 73
     0
 74
     0
 75
     0
 76
     0
 77
     1
 78
     8
170
     0
171
     2
172
     1
173
     1
174
     0
175
     0
176
     1
177
     1
178
     2
  0
DIMSTYLE
  2
BYGG-019652$0$ME10_DIM_20
 70
     0
  3

  4

  5

  6

  7

 40
1.0
 41
0.7
 42
0.0
 43
0.38
 44
0.4
 45
0.0
 46
0.0
 47
0.0
 48
0.0
140
0.7
141
0.09
142
0.0
143
25.399999999999999
144
1.0
145
0.0
146
1.0
147
0.4
 71
     0
 72
     0
 73
     0
 74
     0
 75
     0
 76
     0
 77
     1
 78
     8
170
     0
171
     2
172
     1
173
     1
174
     0
175
     0
176
     1
177
     1
178
     2
  0
DIMSTYLE
  2
BYGG-019652$0$ME10_DIM_21
 70
     0
  3

  4

  5

  6

  7

 40
1.0
 41
0.7
 42
0.0
 43
0.38
 44
0.4
 45
0.0
 46
0.0
 47
0.0
 48
0.0
140
0.7
141
0.09
142
0.0
143
25.399999999999999
144
1.0
145
0.0
146
1.0
147
0.4
 71
     0
 72
     0
 73
     0
 74
     0
 75
     0
 76
     0
 77
     1
 78
     8
170
     0
171
     2
172
     1
173
     1
174
     0
175
     0
176
     1
177
     1
178
     2
  0
DIMSTYLE
  2
BYGG-019652$0$ME10_DIM_22
 70
     0
  3

  4

  5

  6

  7

 40
1.0
 41
0.7
 42
0.0
 43
0.38
 44
0.4
 45
0.0
 46
0.0
 47
0.0
 48
0.0
140
0.7
141
0.09
142
0.0
143
25.399999999999999
144
1.0
145
0.0
146
1.0
147
0.4
 71
     0
 72
     0
 73
     0
 74
     0
 75
     0
 76
     0
 77
     1
 78
     8
170
     0
171
     2
172
     1
173
     1
174
     0
175
     0
176
     1
177
     1
178
     2
  0
DIMSTYLE
  2
BYGG-019652$0$ME10_DIM_23
 70
     0
  3

  4

  5

  6

  7

 40
1.0
 41
0.7
 42
0.0
 43
0.38
 44
0.4
 45
0.0
 46
0.0
 47
0.0
 48
0.0
140
0.7
141
0.09
142
0.0
143
25.399999999999999
144
1.0
145
0.0
146
1.0
147
0.4
 71
     0
 72
     0
 73
     0
 74
     0
 75
     0
 76
     0
 77
     1
 78
     8
170
     0
171
     2
172
     1
173
     1
174
     0
175
     0
176
     1
177
     1
178
     2
  0
DIMSTYLE
  2
BYGG-019652$0$ME10_DIM_24
 70
     0
  3

  4

  5

  6

  7

 40
1.0
 41
0.7
 42
0.0
 43
0.38
 44
0.4
 45
0.0
 46
0.0
 47
0.0
 48
0.0
140
0.7
141
0.09
142
0.0
143
25.399999999999999
144
1.0
145
0.0
146
1.0
147
0.4
 71
     0
 72
     0
 73
     0
 74
     0
 75
     0
 76
     0
 77
     1
 78
     8
170
     0
171
     2
172
     1
173
     1
174
     0
175
     0
176
     1
177
     1
178
     2
  0
DIMSTYLE
  2
BYGG-019652$0$ME10_DIM_25
 70
     0
  3

  4

  5

  6

  7

 40
1.0
 41
0.7
 42
0.0
 43
0.38
 44
0.4
 45
0.0
 46
0.0
 47
0.0
 48
0.0
140
0.7
141
0.09
142
0.0
143
25.399999999999999
144
1.0
145
0.0
146
1.0
147
0.4
 71
     0
 72
     0
 73
     0
 74
     0
 75
     0
 76
     0
 77
     1
 78
     8
170
     0
171
     2
172
     1
173
     1
174
     0
175
     0
176
     1
177
     1
178
     2
  0
DIMSTYLE
  2
BYGG-019652$0$ME10_DIM_26
 70
     0
  3

  4

  5

  6

  7

 40
1.0
 41
0.7
 42
0.0
 43
0.38
 44
0.4
 45
0.0
 46
0.0
 47
0.0
 48
0.0
140
0.7
141
0.09
142
0.0
143
25.399999999999999
144
1.0
145
0.0
146
1.0
147
0.4
 71
     0
 72
     0
 73
     0
 74
     0
 75
     0
 76
     0
 77
     1
 78
     8
170
     0
171
     2
172
     1
173
     1
174
     0
175
     0
176
     1
177
     1
178
     2
  0
DIMSTYLE
  2
BYGG-019652$0$ME10_DIM_27
 70
     0
  3

  4

  5

  6

  7

 40
1.0
 41
0.7
 42
0.0
 43
0.38
 44
0.4
 45
0.0
 46
0.0
 47
0.0
 48
0.0
140
0.7
141
0.09
142
0.0
143
25.399999999999999
144
1.0
145
0.0
146
1.0
147
0.4
 71
     0
 72
     0
 73
     0
 74
     0
 75
     0
 76
     0
 77
     1
 78
     8
170
     0
171
     2
172
     1
173
     1
174
     0
175
     0
176
     1
177
     1
178
     2
  0
DIMSTYLE
  2
BYGG-019652$0$ME10_DIM_28
 70
     0
  3

  4

  5

  6

  7

 40
1.0
 41
0.7
 42
0.0
 43
0.38
 44
0.4
 45
0.0
 46
0.0
 47
0.0
 48
0.0
140
0.7
141
0.09
142
0.0
143
25.399999999999999
144
1.0
145
0.0
146
1.0
147
0.4
 71
     0
 72
     0
 73
     0
 74
     0
 75
     0
 76
     0
 77
     1
 78
     8
170
     0
171
     2
172
     1
173
     1
174
     0
175
     0
176
     1
177
     1
178
     2
  0
DIMSTYLE
  2
BYGG-019652$0$ME10_DIM_29
 70
     0
  3

  4

  5

  6

  7

 40
1.0
 41
0.7
 42
0.0
 43
0.38
 44
0.4
 45
0.0
 46
0.0
 47
0.0
 48
0.0
140
0.7
141
0.09
142
0.0
143
25.399999999999999
144
1.0
145
0.0
146
1.0
147
0.4
 71
     0
 72
     0
 73
     0
 74
     0
 75
     0
 76
     0
 77
     1
 78
     8
170
     0
171
     2
172
     1
173
     1
174
     0
175
     0
176
     1
177
     1
178
     2
  0
DIMSTYLE
  2
BYGG-019705$0$STANDARD
 70
     0
  3

  4

  5

  6

  7

 40
1.0
 41
0.18
 42
0.0625
 43
0.38
 44
0.18
 45
0.0
 46
0.0
 47
0.0
 48
0.0
140
0.18
141
0.09
142
0.0
143
25.399999999999999
144
1.0
145
0.0
146
1.0
147
0.09
 71
     0
 72
     0
 73
     1
 74
     1
 75
     0
 76
     0
 77
     0
 78
     0
170
     0
171
     2
172
     0
173
     0
174
     0
175
     0
176
     0
177
     0
178
     0
  0
DIMSTYLE
  2
BYGG-019705$0$MASKIN
 70
     0
  3

  4

  5

  6

  7

 40
0.0
 41
3.0
 42
1.5
 43
10.0
 44
1.5
 45
0.0
 46
0.0
 47
0.0
 48
0.0
140
3.0
141
-5.0
142
0.0
143
25.399999999999999
144
-1.0
145
0.0
146
1.0
147
1.0
 71
     0
 72
     0
 73
     0
 74
     0
 75
     0
 76
     0
 77
     1
 78
     8
170
     0
171
     0
172
     1
173
     0
174
     0
175
     0
176
   256
177
   256
178
     2
  0
DIMSTYLE
  2
BYGG-019718$0$STANDARD
 70
     0
  3

  4

  5

  6

  7

 40
1.0
 41
0.18
 42
0.0625
 43
0.38
 44
0.18
 45
0.0
 46
0.0
 47
0.0
 48
0.0
140
0.18
141
0.09
142
0.0
143
25.399999999999999
144
1.0
145
0.0
146
1.0
147
0.09
 71
     0
 72
     0
 73
     1
 74
     1
 75
     0
 76
     0
 77
     0
 78
     0
170
     0
171
     2
172
     0
173
     0
174
     0
175
     0
176
     0
177
     0
178
     0
  0
DIMSTYLE
  2
BYGG-019718$0$MASKIN
 70
     0
  3

  4

  5

  6

  7

 40
0.0
 41
3.0
 42
1.5
 43
10.0
 44
1.5
 45
0.0
 46
0.0
 47
0.0
 48
0.0
140
3.0
141
-5.0
142
0.0
143
25.399999999999999
144
-1.0
145
0.0
146
1.0
147
1.0
 71
     0
 72
     0
 73
     0
 74
     0
 75
     0
 76
     0
 77
     1
 78
     8
170
     0
171
     0
172
     1
173
     0
174
     0
175
     0
176
   256
177
   256
178
     2
  0
DIMSTYLE
  2
BYGG-024973$0$STANDARD
 70
     0
  3

  4

  5

  6

  7

 40
1.0
 41
0.18
 42
0.0625
 43
0.38
 44
0.18
 45
0.0
 46
0.0
 47
0.0
 48
0.0
140
0.18
141
0.09
142
0.0
143
25.399999999999999
144
1.0
145
0.0
146
1.0
147
0.09
 71
     0
 72
     0
 73
     1
 74
     1
 75
     0
 76
     0
 77
     0
 78
     0
170
     0
171
     2
172
     0
173
     0
174
     0
175
     0
176
     0
177
     0
178
     0
  0
DIMSTYLE
  2
BYGG-024973$0$MASKIN
 70
     0
  3

  4

  5

  6

  7

 40
0.0
 41
3.0
 42
1.5
 43
10.0
 44
1.5
 45
0.0
 46
0.0
 47
0.0
 48
0.0
140
3.0
141
-5.0
142
0.0
143
25.399999999999999
144
-1.0
145
0.0
146
1.0
147
1.0
 71
     0
 72
     0
 73
     0
 74
     0
 75
     0
 76
     0
 77
     1
 78
     8
170
     0
171
     0
172
     1
173
     0
174
     0
175
     0
176
   256
177
   256
178
     2
  0
DIMSTYLE
  2
BYGG-024894$0$STANDARD
 70
     0
  3

  4

  5

  6

  7

 40
1.0
 41
0.18
 42
0.0625
 43
0.38
 44
0.18
 45
0.0
 46
0.0
 47
0.0
 48
0.0
140
0.18
141
0.09
142
0.0
143
25.399999999999999
144
1.0
145
0.0
146
1.0
147
0.09
 71
     0
 72
     0
 73
     1
 74
     1
 75
     0
 76
     0
 77
     0
 78
     0
170
     0
171
     2
172
     0
173
     0
174
     0
175
     0
176
     0
177
     0
178
     0
  0
DIMSTYLE
  2
BYGG-024894$0$MASKIN
 70
     0
  3

  4

  5

  6

  7

 40
0.0
 41
3.0
 42
1.5
 43
10.0
 44
1.5
 45
0.0
 46
0.0
 47
0.0
 48
0.0
140
3.0
141
-5.0
142
0.0
143
25.399999999999999
144
-1.0
145
0.0
146
1.0
147
1.0
 71
     0
 72
     0
 73
     0
 74
     0
 75
     0
 76
     0
 77
     1
 78
     8
170
     0
171
     0
172
     1
173
     0
174
     0
175
     0
176
   256
177
   256
178
     2
  0
DIMSTYLE
  2
BYGG-019612$0$STANDARD
 70
     0
  3

  4

  5

  6

  7

 40
1.0
 41
0.18
 42
0.0625
 43
0.38
 44
0.18
 45
0.0
 46
0.0
 47
0.0
 48
0.0
140
0.18
141
0.09
142
0.0
143
25.399999999999999
144
1.0
145
0.0
146
1.0
147
0.09
 71
     0
 72
     0
 73
     1
 74
     1
 75
     0
 76
     0
 77
     0
 78
     0
170
     0
171
     2
172
     0
173
     0
174
     0
175
     0
176
     0
177
     0
178
     0
  0
DIMSTYLE
  2
BYGG-019612$0$MASKIN
 70
     0
  3

  4

  5

  6

  7

 40
0.0
 41
3.0
 42
1.5
 43
10.0
 44
1.5
 45
0.0
 46
0.0
 47
0.0
 48
0.0
140
3.0
141
-5.0
142
0.0
143
25.399999999999999
144
-1.0
145
0.0
146
1.0
147
1.0
 71
     0
 72
     0
 73
     0
 74
     0
 75
     0
 76
     0
 77
     1
 78
     8
170
     0
171
     0
172
     1
173
     0
174
     0
175
     0
176
   256
177
   256
178
     2
  0
ENDTAB
  0
ENDSEC
  0
SECTION
  2
BLOCKS
  0
BLOCK
  8
0
  2
$MODEL_SPACE
 70
     0
 10
0.0
 20
0.0
 30
0.0
  3
$MODEL_SPACE
  1

  0
ENDBLK
  5
37
  8
0
  0
BLOCK
 67
     1
  8
0
  2
$PAPER_SPACE
 70
     0
 10
0.0
 20
0.0
 30
0.0
  3
$PAPER_SPACE
  1

  0
ENDBLK
  5
35
 67
     1
  8
0
  0
BLOCK
  8
0
  2
*X9
 70
     1
 10
0.0
 20
0.0
 30
0.0
  3
*X9
  1

  0
LINE
  5
CC1
  8
0
 62
     0
 10
652.5
 20
643.02386247000004
 30
0.0
 11
653.43749999999989
 21
643.02386247000004
 31
0.0
  0
LINE
  5
CC2
  8
0
 62
     0
 10
655.3125
 20
643.02386247000004
 30
0.0
 11
656.25
 21
643.02386247000004
 31
0.0
  0
LINE
  5
CC3
  8
0
 62
     0
 10
658.12499999999989
 20
643.02386247000004
 30
0.0
 11
659.0625
 21
643.02386247000004
 31
0.0
  0
LINE
  5
CC4
  8
0
 62
     0
 10
660.9375
 20
643.02386247000004
 30
0.0
 11
661.875
 21
643.02386247000004
 31
0.0
  0
LINE
  5
CC5
  8
0
 62
     0
 10
663.75
 20
643.02386247000004
 30
0.0
 11
664.6875
 21
643.02386247000004
 31
0.0
  0
LINE
  5
CC6
  8
0
 62
     0
 10
652.5
 20
644.64766010250003
 30
0.0
 11
653.43749999999989
 21
644.64766010250003
 31
0.0
  0
LINE
  5
CC7
  8
0
 62
     0
 10
655.3125
 20
644.64766010250003
 30
0.0
 11
656.25
 21
644.64766010250003
 31
0.0
  0
LINE
  5
CC8
  8
0
 62
     0
 10
658.12499999999989
 20
644.64766010250003
 30
0.0
 11
659.0625
 21
644.64766010250003
 31
0.0
  0
LINE
  5
CC9
  8
0
 62
     0
 10
660.9375
 20
644.64766010250003
 30
0.0
 11
661.875
 21
644.64766010250003
 31
0.0
  0
LINE
  5
CCA
  8
0
 62
     0
 10
663.75
 20
644.64766010250003
 30
0.0
 11
664.6875
 21
644.64766010250003
 31
0.0
  0
LINE
  5
CCB
  8
0
 62
     0
 10
652.5
 20
646.2714577349999
 30
0.0
 11
653.43749999999989
 21
646.2714577349999
 31
0.0
  0
LINE
  5
CCC
  8
0
 62
     0
 10
655.3125
 20
646.2714577349999
 30
0.0
 11
656.25
 21
646.2714577349999
 31
0.0
  0
LINE
  5
CCD
  8
0
 62
     0
 10
658.12499999999989
 20
646.2714577349999
 30
0.0
 11
659.0625
 21
646.2714577349999
 31
0.0
  0
LINE
  5
CCE
  8
0
 62
     0
 10
660.9375
 20
646.2714577349999
 30
0.0
 11
661.875
 21
646.2714577349999
 31
0.0
  0
LINE
  5
CCF
  8
0
 62
     0
 10
663.75
 20
646.2714577349999
 30
0.0
 11
664.67805486722375
 21
646.2714577349999
 31
0.0
  0
LINE
  5
CD0
  8
0
 62
     0
 10
652.5
 20
647.8952553675
 30
0.0
 11
653.43749999999989
 21
647.8952553675
 31
0.0
  0
LINE
  5
CD1
  8
0
 62
     0
 10
655.3125
 20
647.8952553675
 30
0.0
 11
656.25
 21
647.8952553675
 31
0.0
  0
LINE
  5
CD2
  8
0
 62
     0
 10
658.12499999999989
 20
647.8952553675
 30
0.0
 11
659.0625
 21
647.8952553675
 31
0.0
  0
LINE
  5
CD3
  8
0
 62
     0
 10
660.9375
 20
647.8952553675
 30
0.0
 11
661.875
 21
647.8952553675
 31
0.0
  0
LINE
  5
CD4
  8
0
 62
     0
 10
663.75
 20
647.8952553675
 30
0.0
 11
664.19384133892459
 21
647.8952553675
 31
0.0
  0
LINE
  5
CD5
  8
0
 62
     0
 10
652.5
 20
649.51905299999999
 30
0.0
 11
653.43749999999989
 21
649.51905299999999
 31
0.0
  0
LINE
  5
CD6
  8
0
 62
     0
 10
655.3125
 20
649.51905299999999
 30
0.0
 11
656.25
 21
649.51905299999999
 31
0.0
  0
LINE
  5
CD7
  8
0
 62
     0
 10
658.12499999999989
 20
649.51905299999999
 30
0.0
 11
659.0625
 21
649.51905299999999
 31
0.0
  0
LINE
  5
CD8
  8
0
 62
     0
 10
660.9375
 20
649.51905299999999
 30
0.0
 11
661.875
 21
649.51905299999999
 31
0.0
  0
LINE
  5
CD9
  8
0
 62
     0
 10
655.3125
 20
651.14285063250009
 30
0.0
 11
656.25
 21
651.14285063250009
 31
0.0
  0
LINE
  5
CDA
  8
0
 62
     0
 10
658.12499999999989
 20
651.14285063250009
 30
0.0
 11
659.0625
 21
651.14285063250009
 31
0.0
  0
LINE
  5
CDB
  8
0
 62
     0
 10
660.9375
 20
651.14285063250009
 30
0.0
 11
661.87200755723472
 21
651.14285063250009
 31
0.0
  0
LINE
  5
CDC
  8
0
 62
     0
 10
652.5
 20
641.40006483750005
 30
0.0
 11
653.43749999999989
 21
641.40006483750005
 31
0.0
  0
LINE
  5
CDD
  8
0
 62
     0
 10
655.3125
 20
641.40006483750005
 30
0.0
 11
656.25
 21
641.40006483750005
 31
0.0
  0
LINE
  5
CDE
  8
0
 62
     0
 10
658.12499999999989
 20
641.40006483750005
 30
0.0
 11
659.0625
 21
641.40006483750005
 31
0.0
  0
LINE
  5
CDF
  8
0
 62
     0
 10
660.9375
 20
641.40006483750005
 30
0.0
 11
661.875
 21
641.40006483750005
 31
0.0
  0
LINE
  5
CE0
  8
0
 62
     0
 10
663.75
 20
641.40006483750005
 30
0.0
 11
664.21401629789841
 21
641.40006483750005
 31
0.0
  0
LINE
  5
CE1
  8
0
 62
     0
 10
652.5
 20
639.77626720499995
 30
0.0
 11
653.43749999999989
 21
639.77626720499995
 31
0.0
  0
LINE
  5
CE2
  8
0
 62
     0
 10
655.3125
 20
639.77626720499995
 30
0.0
 11
656.25
 21
639.77626720499995
 31
0.0
  0
LINE
  5
CE3
  8
0
 62
     0
 10
658.12499999999989
 20
639.77626720499995
 30
0.0
 11
659.0625
 21
639.77626720499995
 31
0.0
  0
LINE
  5
CE4
  8
0
 62
     0
 10
660.9375
 20
639.77626720499995
 30
0.0
 11
661.875
 21
639.77626720499995
 31
0.0
  0
LINE
  5
CE5
  8
0
 62
     0
 10
655.3125
 20
638.15246957249997
 30
0.0
 11
656.25
 21
638.15246957249997
 31
0.0
  0
LINE
  5
CE6
  8
0
 62
     0
 10
658.12499999999989
 20
638.15246957249997
 30
0.0
 11
659.0625
 21
638.15246957249997
 31
0.0
  0
LINE
  5
CE7
  8
0
 62
     0
 10
660.9375
 20
638.15246957249997
 30
0.0
 11
661.875
 21
638.15246957249997
 31
0.0
  0
LINE
  5
CE8
  8
0
 62
     0
 10
660.93750019216554
 20
638.15246952460484
 30
0.0
 11
660.46875019216554
 21
638.96436834065275
 31
0.0
  0
LINE
  5
CE9
  8
0
 62
     0
 10
659.53125019216554
 20
640.58816597274847
 30
0.0
 11
659.06250019216554
 21
641.4000647887965
 31
0.0
  0
LINE
  5
CEA
  8
0
 62
     0
 10
658.12500019216554
 20
643.02386242089233
 30
0.0
 11
657.65625019216554
 21
643.83576123694024
 31
0.0
  0
LINE
  5
CEB
  8
0
 62
     0
 10
656.71875019216554
 20
645.45955886903596
 30
0.0
 11
656.25000019216554
 21
646.27145768508399
 31
0.0
  0
LINE
  5
CEC
  8
0
 62
     0
 10
655.31250019216554
 20
647.89525531717982
 30
0.0
 11
654.84375019216554
 21
648.70715413322773
 31
0.0
  0
LINE
  5
CED
  8
0
 62
     0
 10
653.90625019216554
 20
650.33095176532345
 30
0.0
 11
653.51494448795324
 21
651.00871312631091
 31
0.0
  0
LINE
  5
CEE
  8
0
 62
     0
 10
659.53125019181539
 20
637.34057070835479
 30
0.0
 11
659.0625001918155
 21
638.1524695244027
 31
0.0
  0
LINE
  5
CEF
  8
0
 62
     0
 10
658.1250001918155
 20
639.77626715649853
 30
0.0
 11
657.6562501918155
 21
640.58816597254645
 31
0.0
  0
LINE
  5
CF0
  8
0
 62
     0
 10
656.7187501918155
 20
642.21196360464216
 30
0.0
 11
656.2500001918155
 21
643.02386242069019
 31
0.0
  0
LINE
  5
CF1
  8
0
 62
     0
 10
655.3125001918155
 20
644.64766005278591
 30
0.0
 11
654.84375019181539
 21
645.45955886883394
 31
0.0
  0
LINE
  5
CF2
  8
0
 62
     0
 10
653.9062501918155
 20
647.08335650092965
 30
0.0
 11
653.4375001918155
 21
647.89525531697768
 31
0.0
  0
LINE
  5
CF3
  8
0
 62
     0
 10
652.50000019181539
 20
649.5190529490734
 30
0.0
 11
652.37394461146403
 21
649.73738761881975
 31
0.0
  0
LINE
  5
CF4
  8
0
 62
     0
 10
658.00591026387121
 20
636.73494169736773
 30
0.0
 11
657.65625019146535
 21
637.34057070815265
 31
0.0
  0
LINE
  5
CF5
  8
0
 62
     0
 10
656.71875019146535
 20
638.9643683402486
 30
0.0
 11
656.25000019146546
 21
639.77626715629651
 31
0.0
  0
LINE
  5
CF6
  8
0
 62
     0
 10
655.31250019146535
 20
641.40006478839234
 30
0.0
 11
654.84375019146535
 21
642.21196360444014
 31
0.0
  0
LINE
  5
CF7
  8
0
 62
     0
 10
653.90625019146546
 20
643.83576123653597
 30
0.0
 11
653.43750019146535
 21
644.647660052584
 31
0.0
  0
LINE
  5
CF8
  8
0
 62
     0
 10
652.50000019146535
 20
646.27145768467983
 30
0.0
 11
652.03125019146535
 21
647.08335650072775
 31
0.0
  0
LINE
  5
CF9
  8
0
 62
     0
 10
655.3125001911153
 20
638.15246952399855
 30
0.0
 11
654.8437501911153
 21
638.96436834004635
 31
0.0
  0
LINE
  5
CFA
  8
0
 62
     0
 10
653.9062501911153
 20
640.58816597214229
 30
0.0
 11
653.43750019111519
 21
641.40006478819021
 31
0.0
  0
LINE
  5
CFB
  8
0
 62
     0
 10
652.5000001911153
 20
643.02386242028604
 30
0.0
 11
652.0312501911153
 21
643.83576123633395
 31
0.0
  0
LINE
  5
CFC
  8
0
 62
     0
 10
651.09375019111519
 20
645.45955886842978
 30
0.0
 11
650.80423117281941
 21
645.96102051787568
 31
0.0
  0
LINE
  5
CFD
  8
0
 62
     0
 10
652.50000019076526
 20
639.77626715589236
 30
0.0
 11
652.03125019076526
 21
640.58816597194016
 31
0.0
  0
LINE
  5
CFE
  8
0
 62
     0
 10
651.09375019076538
 20
642.2119636040361
 30
0.0
 11
650.99485068706429
 21
642.38326256928951
 31
0.0
  0
LINE
  5
CFF
  8
0
 62
     0
 10
662.34375019251547
 20
638.96436834085478
 30
0.0
 11
661.87500019251559
 21
639.7762671569028
 31
0.0
  0
LINE
  5
D00
  8
0
 62
     0
 10
660.93750019251559
 20
641.40006478899863
 30
0.0
 11
660.46875019251547
 21
642.21196360504655
 31
0.0
  0
LINE
  5
D01
  8
0
 62
     0
 10
659.53125019251559
 20
643.83576123714226
 30
0.0
 11
659.06250019251559
 21
644.64766005319018
 31
0.0
  0
LINE
  5
D02
  8
0
 62
     0
 10
658.12500019251547
 20
646.27145768528612
 30
0.0
 11
657.65625019251547
 21
647.08335650133404
 31
0.0
  0
LINE
  5
D03
  8
0
 62
     0
 10
656.71875019251559
 20
648.70715413342975
 30
0.0
 11
656.25000019251559
 21
649.51905294947767
 31
0.0
  0
LINE
  5
D04
  8
0
 62
     0
 10
655.31250019251547
 20
651.14285058157361
 30
0.0
 11
654.98947507134699
 21
651.7023465035586
 31
0.0
  0
LINE
  5
D05
  8
0
 62
     0
 10
663.56178133362096
 20
640.10227178425896
 30
0.0
 11
663.28125019286563
 21
640.58816597315274
 31
0.0
  0
LINE
  5
D06
  8
0
 62
     0
 10
662.34375019286551
 20
642.21196360524846
 30
0.0
 11
661.87500019286563
 21
643.02386242129637
 31
0.0
  0
LINE
  5
D07
  8
0
 62
     0
 10
660.93750019286563
 20
644.64766005339231
 30
0.0
 11
660.46875019286563
 21
645.45955886944023
 31
0.0
  0
LINE
  5
D08
  8
0
 62
     0
 10
659.53125019286563
 20
647.08335650153595
 30
0.0
 11
659.06250019286563
 21
647.89525531758386
 31
0.0
  0
LINE
  5
D09
  8
0
 62
     0
 10
658.12500019286563
 20
649.5190529496798
 30
0.0
 11
657.65625019286551
 21
650.33095176572772
 31
0.0
  0
LINE
  5
D0A
  8
0
 62
     0
 10
663.75000019321556
 20
643.02386242149862
 30
0.0
 11
663.28125019321556
 21
643.83576123754654
 31
0.0
  0
LINE
  5
D0B
  8
0
 62
     0
 10
662.34375019321556
 20
645.45955886964225
 30
0.0
 11
661.87500019321556
 21
646.27145768569017
 31
0.0
  0
LINE
  5
D0C
  8
0
 62
     0
 10
660.93750019321556
 20
647.89525531778611
 30
0.0
 11
660.46875019321556
 21
648.70715413383402
 31
0.0
  0
LINE
  5
D0D
  8
0
 62
     0
 10
659.53125019321556
 20
650.33095176592985
 30
0.0
 11
659.06250019321556
 21
651.14285058197765
 31
0.0
  0
LINE
  5
D0E
  8
0
 62
     0
 10
664.83358285314341
 20
644.39463746530294
 30
0.0
 11
664.68750019356548
 21
644.64766005379636
 31
0.0
  0
LINE
  5
D0F
  8
0
 62
     0
 10
663.7500001935656
 20
646.2714576858923
 30
0.0
 11
663.2812501935656
 21
647.08335650194022
 31
0.0
  0
LINE
  5
D10
  8
0
 62
     0
 10
662.34375019356548
 20
648.70715413403605
 30
0.0
 11
661.8750001935656
 21
649.51905295008385
 31
0.0
  0
LINE
  5
D11
  8
0
 62
     0
 10
660.9375001935656
 20
651.14285058217979
 30
0.0
 11
660.61464782451731
 21
651.70204728871533
 31
0.0
  0
LINE
  5
D12
  8
0
 62
     0
 10
653.43750005285438
 20
639.77626701523855
 30
0.0
 11
653.90625005285438
 21
640.58816583128635
 31
0.0
  0
LINE
  5
D13
  8
0
 62
     0
 10
654.84375005285426
 20
642.21196346338229
 30
0.0
 11
655.31250005285426
 21
643.0238622794302
 31
0.0
  0
LINE
  5
D14
  8
0
 62
     0
 10
656.25000005285438
 20
644.64765991152603
 30
0.0
 11
656.71875005285426
 21
645.45955872757395
 31
0.0
  0
LINE
  5
D15
  8
0
 62
     0
 10
657.65625005285426
 20
647.08335635966978
 30
0.0
 11
658.12500005285438
 21
647.89525517571769
 31
0.0
  0
LINE
  5
D16
  8
0
 62
     0
 10
659.06250005285426
 20
649.51905280781352
 30
0.0
 11
659.53125005285426
 21
650.33095162386144
 31
0.0
  0
LINE
  5
D17
  8
0
 62
     0
 10
652.03125005250433
 20
640.5881658314886
 30
0.0
 11
652.50000005250433
 21
641.40006464753651
 31
0.0
  0
LINE
  5
D18
  8
0
 62
     0
 10
653.43750005250433
 20
643.02386227963234
 30
0.0
 11
653.90625005250433
 21
643.83576109568025
 31
0.0
  0
LINE
  5
D19
  8
0
 62
     0
 10
654.84375005250433
 20
645.45955872777597
 30
0.0
 11
655.31250005250433
 21
646.271457543824
 31
0.0
  0
LINE
  5
D1A
  8
0
 62
     0
 10
656.25000005250433
 20
647.89525517591983
 30
0.0
 11
656.71875005250433
 21
648.70715399196774
 31
0.0
  0
LINE
  5
D1B
  8
0
 62
     0
 10
657.65625005250433
 20
650.33095162406346
 30
0.0
 11
658.12500005250433
 21
651.14285044011149
 31
0.0
  0
LINE
  5
D1C
  8
0
 62
     0
 10
651.05988341627722
 20
642.15330472976609
 30
0.0
 11
651.09375005215418
 21
642.21196346378656
 31
0.0
  0
LINE
  5
D1D
  8
0
 62
     0
 10
652.03125005215418
 20
643.83576109588228
 30
0.0
 11
652.50000005215429
 21
644.6476599119303
 31
0.0
  0
LINE
  5
D1E
  8
0
 62
     0
 10
653.43750005215418
 20
646.27145754402613
 30
0.0
 11
653.90625005215418
 21
647.08335636007405
 31
0.0
  0
LINE
  5
D1F
  8
0
 62
     0
 10
654.84375005215429
 20
648.70715399216976
 30
0.0
 11
655.31250005215429
 21
649.51905280821779
 31
0.0
  0
LINE
  5
D20
  8
0
 62
     0
 10
656.25000005215418
 20
651.14285044031362
 30
0.0
 11
656.57297662478243
 21
651.70226227375997
 31
0.0
  0
LINE
  5
D21
  8
0
 62
     0
 10
650.70149549931818
 20
644.78015391377414
 30
0.0
 11
651.09375005180425
 21
645.45955872818024
 31
0.0
  0
LINE
  5
D22
  8
0
 62
     0
 10
652.03125005180425
 20
647.08335636027596
 30
0.0
 11
652.50000005180425
 21
647.89525517632399
 31
0.0
  0
LINE
  5
D23
  8
0
 62
     0
 10
653.43750005180425
 20
649.51905280841981
 30
0.0
 11
653.90625005180425
 21
650.33095162446773
 31
0.0
  0
LINE
  5
D24
  8
0
 62
     0
 10
654.84375005320442
 20
638.96436819898861
 30
0.0
 11
655.31250005320442
 21
639.77626701503652
 31
0.0
  0
LINE
  5
D25
  8
0
 62
     0
 10
656.25000005320442
 20
641.40006464713235
 30
0.0
 11
656.7187500532043
 21
642.21196346318015
 31
0.0
  0
LINE
  5
D26
  8
0
 62
     0
 10
657.65625005320442
 20
643.8357610952761
 30
0.0
 11
658.12500005320442
 21
644.64765991132401
 31
0.0
  0
LINE
  5
D27
  8
0
 62
     0
 10
659.0625000532043
 20
646.27145754341984
 30
0.0
 11
659.53125005320442
 21
647.08335635946764
 31
0.0
  0
LINE
  5
D28
  8
0
 62
     0
 10
660.46875005320442
 20
648.70715399156359
 30
0.0
 11
660.93750005320442
 21
649.5190528076115
 31
0.0
  0
LINE
  5
D29
  8
0
 62
     0
 10
656.25000005355434
 20
638.15246938273845
 30
0.0
 11
656.71875005355434
 21
638.96436819878636
 31
0.0
  0
LINE
  5
D2A
  8
0
 62
     0
 10
657.65625005355434
 20
640.5881658308823
 30
0.0
 11
658.12500005355434
 21
641.40006464693022
 31
0.0
  0
LINE
  5
D2B
  8
0
 62
     0
 10
659.06250005355434
 20
643.02386227902605
 30
0.0
 11
659.53125005355434
 21
643.83576109507385
 31
0.0
  0
LINE
  5
D2C
  8
0
 62
     0
 10
660.46875005355434
 20
645.45955872716979
 30
0.0
 11
660.93750005355434
 21
646.27145754321771
 31
0.0
  0
LINE
  5
D2D
  8
0
 62
     0
 10
661.87500005355434
 20
647.89525517531354
 30
0.0
 11
662.34375005355434
 21
648.70715399136145
 31
0.0
  0
LINE
  5
D2E
  8
0
 62
     0
 10
657.65625005390439
 20
637.34057056648851
 30
0.0
 11
658.12500005390439
 21
638.15246938253642
 31
0.0
  0
LINE
  5
D2F
  8
0
 62
     0
 10
659.06250005390427
 20
639.77626701463225
 30
0.0
 11
659.53125005390427
 21
640.58816583068005
 31
0.0
  0
LINE
  5
D30
  8
0
 62
     0
 10
660.46875005390439
 20
642.211963462776
 30
0.0
 11
660.93750005390439
 21
643.0238622788238
 31
0.0
  0
LINE
  5
D31
  8
0
 62
     0
 10
661.87500005390427
 20
644.64765991091974
 30
0.0
 11
662.34375005390439
 21
645.45955872696754
 31
0.0
  0
LINE
  5
D32
  8
0
 62
     0
 10
663.28125005390439
 20
647.08335635906349
 30
0.0
 11
663.75000005390427
 21
647.89525517511129
 31
0.0
  0
LINE
  5
D33
  8
0
 62
     0
 10
659.18159006375561
 20
636.73494169736853
 30
0.0
 11
659.53125005425443
 21
637.34057056628649
 31
0.0
  0
LINE
  5
D34
  8
0
 62
     0
 10
660.46875005425443
 20
638.96436819838232
 30
0.0
 11
660.93750005425443
 21
639.77626701443023
 31
0.0
  0
LINE
  5
D35
  8
0
 62
     0
 10
661.87500005425443
 20
641.40006464652595
 30
0.0
 11
662.34375005425443
 21
642.21196346257386
 31
0.0
  0
LINE
  5
D36
  8
0
 62
     0
 10
663.28125005425443
 20
643.83576109466981
 30
0.0
 11
663.75000005425443
 21
644.64765991071772
 31
0.0
  0
LINE
  5
D37
  8
0
 62
     0
 10
661.87500005460436
 20
638.15246938213215
 30
0.0
 11
662.34375005460436
 21
638.96436819818018
 31
0.0
  0
LINE
  5
D38
  8
0
 62
     0
 10
663.28125005460436
 20
640.58816583027601
 30
0.0
 11
663.75000005460447
 21
641.40006464632393
 31
0.0
  0
LINE
  5
D39
  8
0
 62
     0
 10
664.68750005460436
 20
643.02386227841976
 30
0.0
 11
664.68760953831224
 21
643.02405190976435
 31
0.0
  0
ENDBLK
  5
D3A
  8
0
  0
BLOCK
  8
0
  2
*X10
 70
     1
 10
0.0
 20
0.0
 30
0.0
  3
*X10
  1

  0
LINE
  5
D3D
  8
0
 62
     0
 10
664.09178699241295
 20
641.11081660385003
 30
0.0
 11
674.71335800871032
 21
651.73238762014739
 31
0.0
  0
LINE
  5
D3E
  8
0
 62
     0
 10
664.77077248925355
 20
643.55756905365706
 30
0.0
 11
672.94162144396012
 21
651.72841800836363
 31
0.0
  0
LINE
  5
D3F
  8
0
 62
     0
 10
664.80514764081295
 20
645.35971115818279
 30
0.0
 11
671.1698848792098
 21
651.72444839657965
 31
0.0
  0
LINE
  5
D40
  8
0
 62
     0
 10
664.54135172436111
 20
646.86368219469728
 30
0.0
 11
669.39814831445983
 21
651.72047878479589
 31
0.0
  0
LINE
  5
D41
  8
0
 62
     0
 10
664.07721491841846
 20
648.16731234172096
 30
0.0
 11
667.62641174970963
 21
651.71650917301224
 31
0.0
  0
LINE
  5
D42
  8
0
 62
     0
 10
663.45507075806029
 20
649.31293513432934
 30
0.0
 11
665.85467518495955
 21
651.71253956122848
 31
0.0
  0
LINE
  5
D43
  8
0
 62
     0
 10
662.69527746216227
 20
650.32090879139764
 30
0.0
 11
664.08293862020935
 21
651.70856994944461
 31
0.0
  0
LINE
  5
D44
  8
0
 62
     0
 10
661.80624212129135
 20
651.19964040349305
 30
0.0
 11
662.31120205545915
 21
651.70460033766085
 31
0.0
  0
LINE
  5
D45
  8
0
 62
     0
 10
661.48367903889755
 20
636.7349416973683
 30
0.0
 11
674.96855701858385
 21
650.21981967705472
 31
0.0
  0
LINE
  5
D46
  8
0
 62
     0
 10
663.25144599186308
 20
636.7349416973675
 30
0.0
 11
673.99871814906226
 21
647.48221385456657
 31
0.0
  0
LINE
  5
D47
  8
0
 62
     0
 10
665.01921294482895
 20
636.73494169736693
 30
0.0
 11
673.71020570551673
 21
645.42593445805471
 31
0.0
  0
LINE
  5
D48
  8
0
 62
     0
 10
666.78697989779459
 20
636.73494169736625
 30
0.0
 11
673.73571980871316
 21
643.68368160828493
 31
0.0
  0
LINE
  5
D49
  8
0
 62
     0
 10
668.55474685076024
 20
636.73494169736546
 30
0.0
 11
673.9646008262381
 21
642.14479567284332
 31
0.0
  0
LINE
  5
D4A
  8
0
 62
     0
 10
670.32251380372577
 20
636.73494169736466
 30
0.0
 11
674.34587723605989
 21
640.75830512969878
 31
0.0
  0
LINE
  5
D4B
  8
0
 62
     0
 10
672.09028075669164
 20
636.73494169736409
 30
0.0
 11
674.85162751525343
 21
639.49628845592599
 31
0.0
  0
LINE
  5
D4C
  8
0
 62
     0
 10
673.85804770965717
 20
636.73494169736341
 30
0.0
 11
675.46525045857607
 21
638.3421444462823
 31
0.0
  0
LINE
  5
D4D
  8
0
 62
     0
 10
675.62581466262293
 20
636.73494169736273
 30
0.0
 11
676.17667142569439
 21
637.28579846043431
 31
0.0
  0
LINE
  5
D4E
  8
0
 62
     0
 10
674.94813740368249
 20
636.73494169736296
 30
0.0
 11
664.42571164845106
 21
647.25736745259451
 31
0.0
  0
LINE
  5
D4F
  8
0
 62
     0
 10
673.18037045071549
 20
636.73494169736375
 30
0.0
 11
664.82388750735845
 21
645.0914246407209
 31
0.0
  0
LINE
  5
D50
  8
0
 62
     0
 10
671.41260349774848
 20
636.73494169736443
 30
0.0
 11
664.74947775175656
 21
643.39806744335624
 31
0.0
  0
LINE
  5
D51
  8
0
 62
     0
 10
669.64483654478136
 20
636.73494169736512
 30
0.0
 11
664.417425608092
 21
641.96235263405447
 31
0.0
  0
LINE
  5
D52
  8
0
 62
     0
 10
667.87706959181435
 20
636.7349416973658
 30
0.0
 11
663.90155215498339
 21
640.71045913419675
 31
0.0
  0
LINE
  5
D53
  8
0
 62
     0
 10
666.10930263884734
 20
636.73494169736648
 30
0.0
 11
663.23559263250309
 21
639.60865170371073
 31
0.0
  0
LINE
  5
D54
  8
0
 62
     0
 10
664.34153568588022
 20
636.73494169736705
 30
0.0
 11
662.43561015776459
 21
638.64086722548279
 31
0.0
  0
LINE
  5
D55
  8
0
 62
     0
 10
662.57376873291321
 20
636.73494169736784
 30
0.0
 11
661.50716293782148
 21
637.80154749245946
 31
0.0
  0
LINE
  5
D56
  8
0
 62
     0
 10
660.80600177994597
 20
636.73494169736864
 30
0.0
 11
660.44733879488956
 21
637.09360468242505
 31
0.0
  0
LINE
  5
D57
  8
0
 62
     0
 10
676.21241305586818
 20
637.23843299814371
 30
0.0
 11
661.74750868280955
 21
651.70333737120245
 31
0.0
  0
LINE
  5
D58
  8
0
 62
     0
 10
674.28942041755818
 20
640.92919258942015
 30
0.0
 11
663.51132377221882
 21
651.70728923475963
 31
0.0
  0
LINE
  5
D59
  8
0
 62
     0
 10
673.78646674670892
 20
643.19991321323585
 30
0.0
 11
665.27513886162785
 21
651.71124109831692
 31
0.0
  0
LINE
  5
D5A
  8
0
 62
     0
 10
673.69521395697404
 20
645.05893295593705
 30
0.0
 11
667.03895395103677
 21
651.71519296187421
 31
0.0
  0
LINE
  5
D5B
  8
0
 62
     0
 10
673.84391769434785
 20
646.67799617152957
 30
0.0
 11
668.80276904044604
 21
651.71914482543139
 31
0.0
  0
LINE
  5
D5C
  8
0
 62
     0
 10
674.16320206832222
 20
648.12647875052164
 30
0.0
 11
670.56658412985496
 21
651.72309668898868
 31
0.0
  0
LINE
  5
D5D
  8
0
 62
     0
 10
674.61728679401642
 20
649.44016097779388
 30
0.0
 11
672.33039921926422
 21
651.72704855254597
 31
0.0
  0
LINE
  5
D5E
  8
0
 62
     0
 10
675.1854759545937
 20
650.63973877018293
 30
0.0
 11
674.09421430867326
 21
651.73100041610326
 31
0.0
  0
ENDBLK
  5
D5F
  8
0
  0
BLOCK
  8
0
  2
*X80
 70
     1
 10
0.0
 20
0.0
 30
0.0
  3
*X80
  1

  0
LINE
  5
157D
  8
0
 62
     0
 10
-72.480494727145668
 20
25.365503404480119
 30
0.0
 11
-72.417535120949665
 21
25.329153658894789
 31
0.0
  0
LINE
  5
157E
  8
0
 62
     0
 10
-70.355312292441909
 20
25.726028374398702
 30
0.0
 11
-69.667904628188012
 21
25.3291533743987
 31
0.0
  0
LINE
  5
157F
  8
0
 62
     0
 10
-72.417535285203599
 20
26.916653374398699
 30
0.0
 11
-71.730127620949702
 21
26.519778374398701
 31
0.0
  0
LINE
  5
1580
  8
0
 62
     0
 10
-67.605681799680198
 20
25.726028089902599
 30
0.0
 11
-66.918274135426302
 21
25.329153089902601
 31
0.0
  0
LINE
  5
1581
  8
0
 62
     0
 10
-69.667904792441874
 20
26.916653089902599
 30
0.0
 11
-68.980497128187992
 21
26.519778089902601
 31
0.0
  0
LINE
  5
1582
  8
0
 62
     0
 10
-71.730127785203578
 20
28.107278089902611
 30
0.0
 11
-71.042720120949681
 21
27.710403089902599
 31
0.0
  0
LINE
  5
1583
  8
0
 62
     0
 10
-64.856051306918516
 20
25.72602780540652
 30
0.0
 11
-64.16864364266462
 21
25.329152805406519
 31
0.0
  0
LINE
  5
1584
  8
0
 62
     0
 10
-66.918274299680206
 20
26.916652805406521
 30
0.0
 11
-66.23086663542631
 21
26.51977780540652
 31
0.0
  0
LINE
  5
1585
  8
0
 62
     0
 10
-68.980497292441896
 20
28.107277805406522
 30
0.0
 11
-68.293089628187985
 21
27.71040280540652
 31
0.0
  0
LINE
  5
1586
  8
0
 62
     0
 10
-71.042720285203586
 20
29.297902805406519
 30
0.0
 11
-70.35531262094969
 21
28.901027805406521
 31
0.0
  0
LINE
  5
1587
  8
0
 62
     0
 10
-72.48049472714564
 20
30.128002266495731
 30
0.0
 11
-72.417535613711379
 21
30.091652805406522
 31
0.0
  0
LINE
  5
1588
  8
0
 62
     0
 10
-62.10642081415682
 20
25.726027520910399
 30
0.0
 11
-61.419013149902923
 21
25.329152520910402
 31
0.0
  0
LINE
  5
1589
  8
0
 62
     0
 10
-64.16864380691851
 20
26.9166525209104
 30
0.0
 11
-63.481236142664613
 21
26.519777520910399
 31
0.0
  0
LINE
  5
158A
  8
0
 62
     0
 10
-66.2308667996802
 20
28.107277520910401
 30
0.0
 11
-65.543459135426303
 21
27.710402520910399
 31
0.0
  0
LINE
  5
158B
  8
0
 62
     0
 10
-68.29308979244189
 20
29.297902520910402
 30
0.0
 11
-67.605682128187993
 21
28.9010275209104
 31
0.0
  0
LINE
  5
158C
  8
0
 62
     0
 10
-70.35531278520358
 20
30.488527520910399
 30
0.0
 11
-69.667905120949683
 21
30.091652520910401
 31
0.0
  0
LINE
  5
158D
  8
0
 62
     0
 10
-72.41753577796527
 20
31.679152520910399
 30
0.0
 11
-71.730128113711373
 21
31.282277520910402
 31
0.0
  0
LINE
  5
158E
  8
0
 62
     0
 10
-59.356790321395103
 20
25.726027236414328
 30
0.0
 11
-58.66938265714122
 21
25.32915223641433
 31
0.0
  0
LINE
  5
158F
  8
0
 62
     0
 10
-61.4190133141568
 20
26.916652236414329
 30
0.0
 11
-60.731605649902903
 21
26.519777236414331
 31
0.0
  0
LINE
  5
1590
  8
0
 62
     0
 10
-63.48123630691849
 20
28.10727723641433
 30
0.0
 11
-62.793828642664593
 21
27.710402236414328
 31
0.0
  0
LINE
  5
1591
  8
0
 62
     0
 10
-65.54345929968018
 20
29.29790223641433
 30
0.0
 11
-64.856051635426283
 21
28.901027236414329
 31
0.0
  0
LINE
  5
1592
  8
0
 62
     0
 10
-67.60568229244187
 20
30.488527236414338
 30
0.0
 11
-66.918274628187973
 21
30.09165223641434
 31
0.0
  0
LINE
  5
1593
  8
0
 62
     0
 10
-69.667905285203545
 20
31.679152236414339
 30
0.0
 11
-68.980497620949663
 21
31.282277236414341
 31
0.0
  0
LINE
  5
1594
  8
0
 62
     0
 10
-71.73012827796525
 20
32.869777236414343
 30
0.0
 11
-71.042720613711353
 21
32.472902236414342
 31
0.0
  0
LINE
  5
1595
  8
0
 62
     0
 10
-58.669382821395189
 20
26.91665195191824
 30
0.0
 11
-57.981975157141292
 21
26.519776951918239
 31
0.0
  0
LINE
  5
1596
  8
0
 62
     0
 10
-60.731605814156879
 20
28.107276951918241
 30
0.0
 11
-60.044198149902982
 21
27.710401951918239
 31
0.0
  0
LINE
  5
1597
  8
0
 62
     0
 10
-62.793828806918569
 20
29.297901951918242
 30
0.0
 11
-62.106421142664672
 21
28.90102695191824
 31
0.0
  0
LINE
  5
1598
  8
0
 62
     0
 10
-64.856051799680245
 20
30.488526951918239
 30
0.0
 11
-64.168644135426362
 21
30.091651951918241
 31
0.0
  0
LINE
  5
1599
  8
0
 62
     0
 10
-66.918274792441949
 20
31.679151951918239
 30
0.0
 11
-66.230867128188052
 21
31.282276951918242
 31
0.0
  0
LINE
  5
159A
  8
0
 62
     0
 10
-68.980497785203639
 20
32.86977695191824
 30
0.0
 11
-68.293090120949742
 21
32.472901951918239
 31
0.0
  0
LINE
  5
159B
  8
0
 62
     0
 10
-71.042720777965329
 20
34.060401951918237
 30
0.0
 11
-70.355313113711432
 21
33.66352695191825
 31
0.0
  0
LINE
  5
159C
  8
0
 62
     0
 10
-72.480494727145611
 20
34.890501128511318
 30
0.0
 11
-72.417536106473122
 21
34.854151951918247
 31
0.0
  0
LINE
  5
159D
  8
0
 62
     0
 10
-57.981975321395169
 20
28.107276667422159
 30
0.0
 11
-57.480494727145647
 21
27.817746711338831
 31
0.0
  0
LINE
  5
159E
  8
0
 62
     0
 10
-60.044198314156858
 20
29.29790166742217
 30
0.0
 11
-59.356790649902962
 21
28.901026667422158
 31
0.0
  0
LINE
  5
159F
  8
0
 62
     0
 10
-62.106421306918548
 20
30.488526667422171
 30
0.0
 11
-61.419013642664652
 21
30.091651667422159
 31
0.0
  0
LINE
  5
15A0
  8
0
 62
     0
 10
-64.168644299680238
 20
31.679151667422168
 30
0.0
 11
-63.481236635426342
 21
31.28227666742216
 31
0.0
  0
LINE
  5
15A1
  8
0
 62
     0
 10
-66.230867292441914
 20
32.869776667422173
 30
0.0
 11
-65.543459628188032
 21
32.472901667422157
 31
0.0
  0
LINE
  5
15A2
  8
0
 62
     0
 10
-68.293090285203618
 20
34.06040166742217
 30
0.0
 11
-67.605682620949722
 21
33.663526667422168
 31
0.0
  0
LINE
  5
15A3
  8
0
 62
     0
 10
-70.355313277965308
 20
35.251026667422167
 30
0.0
 11
-69.667905613711412
 21
34.854151667422173
 31
0.0
  0
LINE
  5
15A4
  8
0
 62
     0
 10
-72.417536270726998
 20
36.441651667422178
 30
0.0
 11
-71.730128606473102
 21
36.044776667422177
 31
0.0
  0
LINE
  5
15A5
  8
0
 62
     0
 10
-59.356790814156867
 20
30.48852638292605
 30
0.0
 11
-58.66938314990297
 21
30.091651382926049
 31
0.0
  0
LINE
  5
15A6
  8
0
 62
     0
 10
-61.419013806918549
 20
31.679151382926051
 30
0.0
 11
-60.73160614266466
 21
31.28227638292605
 31
0.0
  0
LINE
  5
15A7
  8
0
 62
     0
 10
-63.481236799680246
 20
32.869776382926048
 30
0.0
 11
-62.79382913542635
 21
32.472901382926047
 31
0.0
  0
LINE
  5
15A8
  8
0
 62
     0
 10
-65.543459792441936
 20
34.060401382926052
 30
0.0
 11
-64.856052128188026
 21
33.663526382926051
 31
0.0
  0
LINE
  5
15A9
  8
0
 62
     0
 10
-67.605682785203626
 20
35.251026382926057
 30
0.0
 11
-66.91827512094973
 21
34.854151382926048
 31
0.0
  0
LINE
  5
15AA
  8
0
 62
     0
 10
-69.667905777965316
 20
36.441651382926061
 30
0.0
 11
-68.98049811371142
 21
36.044776382926059
 31
0.0
  0
LINE
  5
15AB
  8
0
 62
     0
 10
-71.730128770727006
 20
37.632276382926072
 30
0.0
 11
-71.04272110647311
 21
37.235401382926057
 31
0.0
  0
LINE
  5
15AC
  8
0
 62
     0
 10
-58.66938331415686
 20
31.679151098429951
 30
0.0
 11
-57.981975649902957
 21
31.28227609842995
 31
0.0
  0
LINE
  5
15AD
  8
0
 62
     0
 10
-60.73160630691855
 20
32.869776098429952
 30
0.0
 11
-60.044198642664647
 21
32.472901098429951
 31
0.0
  0
LINE
  5
15AE
  8
0
 62
     0
 10
-62.79382929968024
 20
34.060401098429963
 30
0.0
 11
-62.106421635426337
 21
33.663526098429962
 31
0.0
  0
LINE
  5
15AF
  8
0
 62
     0
 10
-64.85605229244193
 20
35.251026098429961
 30
0.0
 11
-64.168644628188034
 21
34.854151098429959
 31
0.0
  0
LINE
  5
15B0
  8
0
 62
     0
 10
-66.91827528520362
 20
36.441651098429972
 30
0.0
 11
-66.230867620949724
 21
36.044776098429971
 31
0.0
  0
LINE
  5
15B1
  8
0
 62
     0
 10
-68.98049827796531
 20
37.632276098429969
 30
0.0
 11
-68.293090613711414
 21
37.235401098429968
 31
0.0
  0
LINE
  5
15B2
  8
0
 62
     0
 10
-71.042721270727
 20
38.82290109842998
 30
0.0
 11
-70.355313606473104
 21
38.426026098429972
 31
0.0
  0
LINE
  5
15B3
  8
0
 62
     0
 10
-72.480494727145583
 20
39.652999990526951
 30
0.0
 11
-72.417536599234793
 21
39.616651098429983
 31
0.0
  0
LINE
  5
15B4
  8
0
 62
     0
 10
-57.981975814156819
 20
32.869775813933792
 30
0.0
 11
-57.480494727145647
 21
32.580245573354382
 31
0.0
  0
LINE
  5
15B5
  8
0
 62
     0
 10
-60.044198806918523
 20
34.060400813933789
 30
0.0
 11
-59.356791142664619
 21
33.663525813933788
 31
0.0
  0
LINE
  5
15B6
  8
0
 62
     0
 10
-62.106421799680199
 20
35.251025813933801
 30
0.0
 11
-61.419014135426309
 21
34.854150813933792
 31
0.0
  0
LINE
  5
15B7
  8
0
 62
     0
 10
-64.168644792441896
 20
36.441650813933798
 30
0.0
 11
-63.481237128187999
 21
36.044775813933803
 31
0.0
  0
LINE
  5
15B8
  8
0
 62
     0
 10
-66.230867785203586
 20
37.632275813933802
 30
0.0
 11
-65.543460120949689
 21
37.235400813933801
 31
0.0
  0
LINE
  5
15B9
  8
0
 62
     0
 10
-68.293090777965276
 20
38.822900813933813
 30
0.0
 11
-67.605683113711365
 21
38.426025813933812
 31
0.0
  0
LINE
  5
15BA
  8
0
 62
     0
 10
-70.341726694700583
 20
40.00568131193247
 30
0.0
 11
-69.667906106473069
 21
39.616650813933809
 31
0.0
  0
LINE
  5
15BB
  8
0
 62
     0
 10
-59.356791306918559
 20
35.251025529437761
 30
0.0
 11
-58.669383642664663
 21
34.854150529437753
 31
0.0
  0
LINE
  5
15BC
  8
0
 62
     0
 10
-61.419014299680263
 20
36.441650529437759
 30
0.0
 11
-60.73160663542636
 21
36.044775529437757
 31
0.0
  0
LINE
  5
15BD
  8
0
 62
     0
 10
-63.481237292441939
 20
37.63227552943777
 30
0.0
 11
-62.79382962818805
 21
37.235400529437761
 31
0.0
  0
LINE
  5
15BE
  8
0
 62
     0
 10
-65.543460285203636
 20
38.822900529437767
 30
0.0
 11
-64.85605262094974
 21
38.426025529437773
 31
0.0
  0
LINE
  5
15BF
  8
0
 62
     0
 10
-67.592096694700587
 20
40.005681311932499
 30
0.0
 11
-66.91827561371143
 21
39.61665052943777
 31
0.0
  0
LINE
  5
15C0
  8
0
 62
     0
 10
-58.669383806918553
 20
36.44165024494162
 30
0.0
 11
-57.981976142664649
 21
36.044775244941619
 31
0.0
  0
LINE
  5
15C1
  8
0
 62
     0
 10
-60.731606799680229
 20
37.632275244941617
 30
0.0
 11
-60.044199135426332
 21
37.235400244941623
 31
0.0
  0
LINE
  5
15C2
  8
0
 62
     0
 10
-62.793829792441933
 20
38.822900244941629
 30
0.0
 11
-62.106422128188029
 21
38.426025244941627
 31
0.0
  0
LINE
  5
15C3
  8
0
 62
     0
 10
-64.842466694700562
 20
40.005681311932463
 30
0.0
 11
-64.168645120949719
 21
39.616650244941631
 31
0.0
  0
LINE
  5
15C4
  8
0
 62
     0
 10
-57.981976306918469
 20
37.632274960445528
 30
0.0
 11
-57.480494727145597
 21
37.34274443537003
 31
0.0
  0
LINE
  5
15C5
  8
0
 62
     0
 10
-60.044199299680152
 20
38.822899960445532
 30
0.0
 11
-59.356791635426262
 21
38.426024960445531
 31
0.0
  0
LINE
  5
15C6
  8
0
 62
     0
 10
-62.092836694700573
 20
40.005681311932499
 30
0.0
 11
-61.419014628187952
 21
39.616649960445542
 31
0.0
  0
LINE
  5
15C7
  8
0
 62
     0
 10
-59.343206694700598
 20
40.005681311932491
 30
0.0
 11
-58.669384135426341
 21
39.616649675949454
 31
0.0
  0
LINE
  5
15C8
  8
0
 62
     0
 10
-58.66938479244228
 20
25.329207713152911
 30
0.0
 11
-57.981977128188383
 21
25.726082713152909
 31
0.0
  0
LINE
  5
15C9
  8
0
 62
     0
 10
-59.356792292442229
 20
26.519832428656851
 30
0.0
 11
-58.66938462818834
 21
26.916707428656849
 31
0.0
  0
LINE
  5
15CA
  8
0
 62
     0
 10
-61.419015285203919
 20
25.329207428656861
 30
0.0
 11
-60.73160762095003
 21
25.726082428656859
 31
0.0
  0
LINE
  5
15CB
  8
0
 62
     0
 10
-57.981976799680623
 20
28.9010821441607
 30
0.0
 11
-57.48049472714564
 21
29.19061295373254
 31
0.0
  0
LINE
  5
15CC
  8
0
 62
     0
 10
-60.044199792442313
 20
27.71045714416071
 30
0.0
 11
-59.356792128188417
 21
28.107332144160711
 31
0.0
  0
LINE
  5
15CD
  8
0
 62
     0
 10
-62.106422785204003
 20
26.519832144160709
 30
0.0
 11
-61.4190151209501
 21
26.916707144160711
 31
0.0
  0
LINE
  5
15CE
  8
0
 62
     0
 10
-64.168645777965693
 20
25.329207144160719
 30
0.0
 11
-63.481238113711797
 21
25.726082144160721
 31
0.0
  0
LINE
  5
15CF
  8
0
 62
     0
 10
-58.669384299680551
 20
30.09170685966464
 30
0.0
 11
-57.981976635426648
 21
30.488581859664642
 31
0.0
  0
LINE
  5
15D0
  8
0
 62
     0
 10
-60.731607292442227
 20
28.90108185966465
 30
0.0
 11
-60.044199628188331
 21
29.297956859664641
 31
0.0
  0
LINE
  5
15D1
  8
0
 62
     0
 10
-62.793830285203917
 20
27.710456859664649
 30
0.0
 11
-62.106422620950028
 21
28.107331859664651
 31
0.0
  0
LINE
  5
15D2
  8
0
 62
     0
 10
-64.856053277965614
 20
26.519831859664659
 30
0.0
 11
-64.168645613711718
 21
26.916706859664661
 31
0.0
  0
LINE
  5
15D3
  8
0
 62
     0
 10
-66.918276270727304
 20
25.329206859664669
 30
0.0
 11
-66.230868606473393
 21
25.72608185966466
 31
0.0
  0
LINE
  5
15D4
  8
0
 62
     0
 10
-59.356791799680593
 20
31.282331575168531
 30
0.0
 11
-58.669384135426689
 21
31.679206575168521
 31
0.0
  0
LINE
  5
15D5
  8
0
 62
     0
 10
-61.41901479244229
 20
30.09170657516853
 30
0.0
 11
-60.731607128188386
 21
30.488581575168531
 31
0.0
  0
LINE
  5
15D6
  8
0
 62
     0
 10
-63.481237785203973
 20
28.90108157516854
 30
0.0
 11
-62.793830120950069
 21
29.297956575168541
 31
0.0
  0
LINE
  5
15D7
  8
0
 62
     0
 10
-65.543460777965663
 20
27.710456575168539
 30
0.0
 11
-64.856053113711766
 21
28.107331575168541
 31
0.0
  0
LINE
  5
15D8
  8
0
 62
     0
 10
-67.605683770727353
 20
26.519831575168549
 30
0.0
 11
-66.918276106473456
 21
26.916706575168551
 31
0.0
  0
LINE
  5
15D9
  8
0
 62
     0
 10
-69.667906763489043
 20
25.329206575168559
 30
0.0
 11
-68.980499099235146
 21
25.72608157516855
 31
0.0
  0
LINE
  5
15DA
  8
0
 62
     0
 10
-57.981976306918938
 20
33.663581290672397
 30
0.0
 11
-57.480494727145668
 21
33.953111815748137
 31
0.0
  0
LINE
  5
15DB
  8
0
 62
     0
 10
-60.044199299680621
 20
32.472956290672407
 30
0.0
 11
-59.356791635426731
 21
32.869831290672408
 31
0.0
  0
LINE
  5
15DC
  8
0
 62
     0
 10
-62.106422292442318
 20
31.28233129067242
 30
0.0
 11
-61.419014628188421
 21
31.679206290672411
 31
0.0
  0
LINE
  5
15DD
  8
0
 62
     0
 10
-64.168645285204008
 20
30.09170629067242
 30
0.0
 11
-63.481237620950111
 21
30.488581290672421
 31
0.0
  0
LINE
  5
15DE
  8
0
 62
     0
 10
-66.230868277965683
 20
28.90108129067243
 30
0.0
 11
-65.543460613711801
 21
29.297956290672431
 31
0.0
  0
LINE
  5
15DF
  8
0
 62
     0
 10
-68.293091270727388
 20
27.71045629067244
 30
0.0
 11
-67.605683606473491
 21
28.10733129067243
 31
0.0
  0
LINE
  5
15E0
  8
0
 62
     0
 10
-70.355314263489063
 20
26.519831290672439
 30
0.0
 11
-69.667906599235181
 21
26.91670629067244
 31
0.0
  0
LINE
  5
15E1
  8
0
 62
     0
 10
-72.417537256250768
 20
25.329206290672449
 30
0.0
 11
-71.730129591996871
 21
25.72608129067245
 31
0.0
  0
LINE
  5
15E2
  8
0
 62
     0
 10
-58.669383806918901
 20
34.854206006176319
 30
0.0
 11
-57.981976142664998
 21
35.251081006176307
 31
0.0
  0
LINE
  5
15E3
  8
0
 62
     0
 10
-60.731606799680591
 20
33.663581006176308
 30
0.0
 11
-60.044199135426688
 21
34.060456006176317
 31
0.0
  0
LINE
  5
15E4
  8
0
 62
     0
 10
-62.793829792442281
 20
32.472956006176318
 30
0.0
 11
-62.106422128188377
 21
32.869831006176319
 31
0.0
  0
LINE
  5
15E5
  8
0
 62
     0
 10
-64.856052785203971
 20
31.282331006176321
 30
0.0
 11
-64.168645120950075
 21
31.679206006176319
 31
0.0
  0
LINE
  5
15E6
  8
0
 62
     0
 10
-66.918275777965661
 20
30.091706006176331
 30
0.0
 11
-66.230868113711765
 21
30.488581006176322
 31
0.0
  0
LINE
  5
15E7
  8
0
 62
     0
 10
-68.980498770727351
 20
28.90108100617633
 30
0.0
 11
-68.293091106473454
 21
29.297956006176332
 31
0.0
  0
LINE
  5
15E8
  8
0
 62
     0
 10
-71.042721763489041
 20
27.71045600617634
 30
0.0
 11
-70.355314099235144
 21
28.107331006176342
 31
0.0
  0
LINE
  5
15E9
  8
0
 62
     0
 10
-72.480494727145611
 20
26.880357398575661
 30
0.0
 11
-72.417537091996834
 21
26.916706006176341
 31
0.0
  0
LINE
  5
15EA
  8
0
 62
     0
 10
-59.356791306918872
 20
36.044830721680249
 30
0.0
 11
-58.669383642664968
 21
36.44170572168025
 31
0.0
  0
LINE
  5
15EB
  8
0
 62
     0
 10
-61.419014299680548
 20
34.854205721680252
 30
0.0
 11
-60.731606635426651
 21
35.25108072168026
 31
0.0
  0
LINE
  5
15EC
  8
0
 62
     0
 10
-63.481237292442252
 20
33.663580721680262
 30
0.0
 11
-62.793829628188348
 21
34.060455721680263
 31
0.0
  0
LINE
  5
15ED
  8
0
 62
     0
 10
-65.543460285203935
 20
32.472955721680258
 30
0.0
 11
-64.856052620950024
 21
32.869830721680259
 31
0.0
  0
LINE
  5
15EE
  8
0
 62
     0
 10
-67.605683277965625
 20
31.28233072168026
 30
0.0
 11
-66.918275613711728
 21
31.679205721680258
 31
0.0
  0
LINE
  5
15EF
  8
0
 62
     0
 10
-69.667906270727315
 20
30.09170572168027
 30
0.0
 11
-68.980498606473418
 21
30.488580721680268
 31
0.0
  0
LINE
  5
15F0
  8
0
 62
     0
 10
-71.730129263489005
 20
28.90108072168028
 30
0.0
 11
-71.042721599235094
 21
29.297955721680271
 31
0.0
  0
LINE
  5
15F1
  8
0
 62
     0
 10
-57.981975814157202
 20
38.426080437184119
 30
0.0
 11
-57.48049472714559
 21
38.715610677763777
 31
0.0
  0
LINE
  5
15F2
  8
0
 62
     0
 10
-60.044198806918899
 20
37.235455437184122
 30
0.0
 11
-59.356791142665003
 21
37.632330437184123
 31
0.0
  0
LINE
  5
15F3
  8
0
 62
     0
 10
-62.106421799680589
 20
36.044830437184117
 30
0.0
 11
-61.419014135426693
 21
36.441705437184133
 31
0.0
  0
LINE
  5
15F4
  8
0
 62
     0
 10
-64.168644792442279
 20
34.854205437184127
 30
0.0
 11
-63.481237128188383
 21
35.251080437184129
 31
0.0
  0
LINE
  5
15F5
  8
0
 62
     0
 10
-66.230867785203969
 20
33.66358043718413
 30
0.0
 11
-65.543460120950073
 21
34.060455437184132
 31
0.0
  0
LINE
  5
15F6
  8
0
 62
     0
 10
-68.293090777965645
 20
32.47295543718414
 30
0.0
 11
-67.605683113711763
 21
32.869830437184127
 31
0.0
  0
LINE
  5
15F7
  8
0
 62
     0
 10
-70.355313770727349
 20
31.28233043718414
 30
0.0
 11
-69.667906106473453
 21
31.679205437184141
 31
0.0
  0
LINE
  5
15F8
  8
0
 62
     0
 10
-72.417536763489039
 20
30.091705437184149
 30
0.0
 11
-71.730129099235143
 21
30.488580437184151
 31
0.0
  0
LINE
  5
15F9
  8
0
 62
     0
 10
-58.669383314157159
 20
39.61670515268807
 30
0.0
 11
-57.995656843412739
 21
40.005681311932527
 31
0.0
  0
LINE
  5
15FA
  8
0
 62
     0
 10
-60.731606306918849
 20
38.426080152688073
 30
0.0
 11
-60.044198642664952
 21
38.822955152688081
 31
0.0
  0
LINE
  5
15FB
  8
0
 62
     0
 10
-62.793829299680539
 20
37.235455152688083
 30
0.0
 11
-62.106421635426642
 21
37.632330152688077
 31
0.0
  0
LINE
  5
15FC
  8
0
 62
     0
 10
-64.856052292442229
 20
36.044830152688078
 30
0.0
 11
-64.168644628188332
 21
36.44170515268808
 31
0.0
  0
LINE
  5
15FD
  8
0
 62
     0
 10
-66.918275285203904
 20
34.854205152688081
 30
0.0
 11
-66.230867620950022
 21
35.251080152688083
 31
0.0
  0
LINE
  5
15FE
  8
0
 62
     0
 10
-68.980498277965609
 20
33.663580152688077
 30
0.0
 11
-68.293090613711712
 21
34.060455152688093
 31
0.0
  0
LINE
  5
15FF
  8
0
 62
     0
 10
-71.042721270727299
 20
32.472955152688087
 30
0.0
 11
-70.355313606473402
 21
32.869830152688088
 31
0.0
  0
LINE
  5
1600
  8
0
 62
     0
 10
-72.48049472714564
 20
31.642856260591259
 30
0.0
 11
-72.417536599235092
 21
31.679205152688091
 31
0.0
  0
LINE
  5
1601
  8
0
 62
     0
 10
-61.419013806918883
 20
39.616704868191938
 30
0.0
 11
-60.74528684341275
 21
40.00568131193252
 31
0.0
  0
LINE
  5
1602
  8
0
 62
     0
 10
-63.48123679968058
 20
38.426079868191948
 30
0.0
 11
-62.793829135426677
 21
38.82295486819195
 31
0.0
  0
LINE
  5
1603
  8
0
 62
     0
 10
-65.543459792442263
 20
37.235454868191951
 30
0.0
 11
-64.856052128188367
 21
37.63232986819196
 31
0.0
  0
LINE
  5
1604
  8
0
 62
     0
 10
-67.605682785203953
 20
36.044829868191961
 30
0.0
 11
-66.918275120950057
 21
36.441704868191948
 31
0.0
  0
LINE
  5
1605
  8
0
 62
     0
 10
-69.667905777965643
 20
34.854204868191957
 30
0.0
 11
-68.980498113711747
 21
35.251079868191958
 31
0.0
  0
LINE
  5
1606
  8
0
 62
     0
 10
-71.730128770727333
 20
33.66357986819196
 30
0.0
 11
-71.042721106473437
 21
34.060454868191961
 31
0.0
  0
LINE
  5
1607
  8
0
 62
     0
 10
-64.168644299680537
 20
39.616704583695878
 30
0.0
 11
-63.49491684341276
 21
40.00568131193252
 31
0.0
  0
LINE
  5
1608
  8
0
 62
     0
 10
-66.230867292442227
 20
38.426079583695881
 30
0.0
 11
-65.54345962818833
 21
38.822954583695882
 31
0.0
  0
LINE
  5
1609
  8
0
 62
     0
 10
-68.293090285203917
 20
37.235454583695891
 30
0.0
 11
-67.60568262095002
 21
37.632329583695878
 31
0.0
  0
LINE
  5
160A
  8
0
 62
     0
 10
-70.355313277965607
 20
36.044829583695893
 30
0.0
 11
-69.66790561371171
 21
36.441704583695888
 31
0.0
  0
LINE
  5
160B
  8
0
 62
     0
 10
-72.417536270727297
 20
34.854204583695889
 30
0.0
 11
-71.7301286064734
 21
35.251079583695891
 31
0.0
  0
LINE
  5
160C
  8
0
 62
     0
 10
-66.918274792442304
 20
39.616704299199768
 30
0.0
 11
-66.244546843412806
 21
40.00568131193252
 31
0.0
  0
LINE
  5
160D
  8
0
 62
     0
 10
-68.980497785203994
 20
38.42607929919977
 30
0.0
 11
-68.293090120950083
 21
38.822954299199772
 31
0.0
  0
LINE
  5
160E
  8
0
 62
     0
 10
-71.042720777965684
 20
37.235454299199773
 30
0.0
 11
-70.355313113711787
 21
37.632329299199782
 31
0.0
  0
LINE
  5
160F
  8
0
 62
     0
 10
-72.48049472714564
 20
36.405355122606892
 30
0.0
 11
-72.417536106473463
 21
36.441704299199777
 31
0.0
  0
LINE
  5
1610
  8
0
 62
     0
 10
-69.667905285203972
 20
39.616704014703643
 30
0.0
 11
-68.99417684341276
 21
40.005681311932499
 31
0.0
  0
LINE
  5
1611
  8
0
 62
     0
 10
-71.730128277965662
 20
38.426079014703653
 30
0.0
 11
-71.042720613711765
 21
38.822954014703647
 31
0.0
  0
LINE
  5
1612
  8
0
 62
     0
 10
-72.417535777965654
 20
39.616703730207561
 30
0.0
 11
-71.743806843412756
 21
40.00568131193252
 31
0.0
  0
LINE
  5
1613
  8
0
 62
     0
 10
-71.730174104802842
 20
26.519803125559221
 30
0.0
 11
-71.730174104802842
 21
25.726053125559218
 31
0.0
  0
LINE
  5
1614
  8
0
 62
     0
 10
-71.730174104802842
 20
28.901053125559219
 30
0.0
 11
-71.730174104802842
 21
28.10730312555922
 31
0.0
  0
LINE
  5
1615
  8
0
 62
     0
 10
-71.730174104802842
 20
31.282303125559221
 30
0.0
 11
-71.730174104802842
 21
30.488553125559221
 31
0.0
  0
LINE
  5
1616
  8
0
 62
     0
 10
-71.730174104802842
 20
33.663553125559218
 30
0.0
 11
-71.730174104802842
 21
32.869803125559223
 31
0.0
  0
LINE
  5
1617
  8
0
 62
     0
 10
-71.730174104802842
 20
36.04480312555922
 30
0.0
 11
-71.730174104802842
 21
35.251053125559217
 31
0.0
  0
LINE
  5
1618
  8
0
 62
     0
 10
-71.730174104802842
 20
38.426053125559221
 30
0.0
 11
-71.730174104802842
 21
37.632303125559218
 31
0.0
  0
LINE
  5
1619
  8
0
 62
     0
 10
-70.35535910480283
 20
26.519803125559221
 30
0.0
 11
-70.35535910480283
 21
25.726053125559218
 31
0.0
  0
LINE
  5
161A
  8
0
 62
     0
 10
-70.35535910480283
 20
28.901053125559219
 30
0.0
 11
-70.35535910480283
 21
28.10730312555922
 31
0.0
  0
LINE
  5
161B
  8
0
 62
     0
 10
-70.35535910480283
 20
31.282303125559221
 30
0.0
 11
-70.35535910480283
 21
30.488553125559221
 31
0.0
  0
LINE
  5
161C
  8
0
 62
     0
 10
-70.35535910480283
 20
33.663553125559218
 30
0.0
 11
-70.35535910480283
 21
32.869803125559223
 31
0.0
  0
LINE
  5
161D
  8
0
 62
     0
 10
-70.35535910480283
 20
36.04480312555922
 30
0.0
 11
-70.35535910480283
 21
35.251053125559217
 31
0.0
  0
LINE
  5
161E
  8
0
 62
     0
 10
-70.35535910480283
 20
38.426053125559221
 30
0.0
 11
-70.35535910480283
 21
37.632303125559218
 31
0.0
  0
LINE
  5
161F
  8
0
 62
     0
 10
-68.980544104802846
 20
26.519803125559221
 30
0.0
 11
-68.980544104802846
 21
25.726053125559218
 31
0.0
  0
LINE
  5
1620
  8
0
 62
     0
 10
-68.980544104802846
 20
28.901053125559219
 30
0.0
 11
-68.980544104802846
 21
28.10730312555922
 31
0.0
  0
LINE
  5
1621
  8
0
 62
     0
 10
-68.980544104802846
 20
31.282303125559221
 30
0.0
 11
-68.980544104802846
 21
30.488553125559221
 31
0.0
  0
LINE
  5
1622
  8
0
 62
     0
 10
-68.980544104802846
 20
33.663553125559218
 30
0.0
 11
-68.980544104802846
 21
32.869803125559223
 31
0.0
  0
LINE
  5
1623
  8
0
 62
     0
 10
-68.980544104802846
 20
36.04480312555922
 30
0.0
 11
-68.980544104802846
 21
35.251053125559217
 31
0.0
  0
LINE
  5
1624
  8
0
 62
     0
 10
-68.980544104802846
 20
38.426053125559221
 30
0.0
 11
-68.980544104802846
 21
37.632303125559218
 31
0.0
  0
LINE
  5
1625
  8
0
 62
     0
 10
-67.605729104802833
 20
26.519803125559221
 30
0.0
 11
-67.605729104802833
 21
25.726053125559218
 31
0.0
  0
LINE
  5
1626
  8
0
 62
     0
 10
-67.605729104802833
 20
28.901053125559219
 30
0.0
 11
-67.605729104802833
 21
28.10730312555922
 31
0.0
  0
LINE
  5
1627
  8
0
 62
     0
 10
-67.605729104802833
 20
31.282303125559221
 30
0.0
 11
-67.605729104802833
 21
30.488553125559221
 31
0.0
  0
LINE
  5
1628
  8
0
 62
     0
 10
-67.605729104802833
 20
33.663553125559218
 30
0.0
 11
-67.605729104802833
 21
32.869803125559223
 31
0.0
  0
LINE
  5
1629
  8
0
 62
     0
 10
-67.605729104802833
 20
36.04480312555922
 30
0.0
 11
-67.605729104802833
 21
35.251053125559217
 31
0.0
  0
LINE
  5
162A
  8
0
 62
     0
 10
-67.605729104802833
 20
38.426053125559221
 30
0.0
 11
-67.605729104802833
 21
37.632303125559218
 31
0.0
  0
LINE
  5
162B
  8
0
 62
     0
 10
-66.230914104802821
 20
26.519803125559221
 30
0.0
 11
-66.230914104802821
 21
25.726053125559218
 31
0.0
  0
LINE
  5
162C
  8
0
 62
     0
 10
-66.230914104802821
 20
28.901053125559219
 30
0.0
 11
-66.230914104802821
 21
28.10730312555922
 31
0.0
  0
LINE
  5
162D
  8
0
 62
     0
 10
-66.230914104802821
 20
31.282303125559221
 30
0.0
 11
-66.230914104802821
 21
30.488553125559221
 31
0.0
  0
LINE
  5
162E
  8
0
 62
     0
 10
-66.230914104802821
 20
33.663553125559218
 30
0.0
 11
-66.230914104802821
 21
32.869803125559223
 31
0.0
  0
LINE
  5
162F
  8
0
 62
     0
 10
-66.230914104802821
 20
36.04480312555922
 30
0.0
 11
-66.230914104802821
 21
35.251053125559217
 31
0.0
  0
LINE
  5
1630
  8
0
 62
     0
 10
-66.230914104802821
 20
38.426053125559221
 30
0.0
 11
-66.230914104802821
 21
37.632303125559218
 31
0.0
  0
LINE
  5
1631
  8
0
 62
     0
 10
-64.856099104802865
 20
26.519803125559221
 30
0.0
 11
-64.856099104802865
 21
25.726053125559218
 31
0.0
  0
LINE
  5
1632
  8
0
 62
     0
 10
-64.856099104802865
 20
28.901053125559219
 30
0.0
 11
-64.856099104802865
 21
28.10730312555922
 31
0.0
  0
LINE
  5
1633
  8
0
 62
     0
 10
-64.856099104802865
 20
31.282303125559221
 30
0.0
 11
-64.856099104802865
 21
30.488553125559221
 31
0.0
  0
LINE
  5
1634
  8
0
 62
     0
 10
-64.856099104802865
 20
33.663553125559218
 30
0.0
 11
-64.856099104802865
 21
32.869803125559223
 31
0.0
  0
LINE
  5
1635
  8
0
 62
     0
 10
-64.856099104802865
 20
36.04480312555922
 30
0.0
 11
-64.856099104802865
 21
35.251053125559217
 31
0.0
  0
LINE
  5
1636
  8
0
 62
     0
 10
-64.856099104802865
 20
38.426053125559221
 30
0.0
 11
-64.856099104802865
 21
37.632303125559218
 31
0.0
  0
LINE
  5
1637
  8
0
 62
     0
 10
-63.481284104802853
 20
26.519803125559221
 30
0.0
 11
-63.481284104802853
 21
25.726053125559218
 31
0.0
  0
LINE
  5
1638
  8
0
 62
     0
 10
-63.481284104802853
 20
28.901053125559219
 30
0.0
 11
-63.481284104802853
 21
28.10730312555922
 31
0.0
  0
LINE
  5
1639
  8
0
 62
     0
 10
-63.481284104802853
 20
31.282303125559221
 30
0.0
 11
-63.481284104802853
 21
30.488553125559221
 31
0.0
  0
LINE
  5
163A
  8
0
 62
     0
 10
-63.481284104802853
 20
33.663553125559218
 30
0.0
 11
-63.481284104802853
 21
32.869803125559223
 31
0.0
  0
LINE
  5
163B
  8
0
 62
     0
 10
-63.481284104802853
 20
36.04480312555922
 30
0.0
 11
-63.481284104802853
 21
35.251053125559217
 31
0.0
  0
LINE
  5
163C
  8
0
 62
     0
 10
-63.481284104802853
 20
38.426053125559221
 30
0.0
 11
-63.481284104802853
 21
37.632303125559218
 31
0.0
  0
LINE
  5
163D
  8
0
 62
     0
 10
-62.106469104802841
 20
26.519803125559221
 30
0.0
 11
-62.106469104802841
 21
25.726053125559218
 31
0.0
  0
LINE
  5
163E
  8
0
 62
     0
 10
-62.106469104802841
 20
28.901053125559219
 30
0.0
 11
-62.106469104802841
 21
28.10730312555922
 31
0.0
  0
LINE
  5
163F
  8
0
 62
     0
 10
-62.106469104802841
 20
31.282303125559221
 30
0.0
 11
-62.106469104802841
 21
30.488553125559221
 31
0.0
  0
LINE
  5
1640
  8
0
 62
     0
 10
-62.106469104802841
 20
33.663553125559218
 30
0.0
 11
-62.106469104802841
 21
32.869803125559223
 31
0.0
  0
LINE
  5
1641
  8
0
 62
     0
 10
-62.106469104802841
 20
36.04480312555922
 30
0.0
 11
-62.106469104802841
 21
35.251053125559217
 31
0.0
  0
LINE
  5
1642
  8
0
 62
     0
 10
-62.106469104802841
 20
38.426053125559221
 30
0.0
 11
-62.106469104802841
 21
37.632303125559218
 31
0.0
  0
LINE
  5
1643
  8
0
 62
     0
 10
-60.731654104802828
 20
26.519803125559221
 30
0.0
 11
-60.731654104802828
 21
25.726053125559218
 31
0.0
  0
LINE
  5
1644
  8
0
 62
     0
 10
-60.731654104802828
 20
28.901053125559219
 30
0.0
 11
-60.731654104802828
 21
28.10730312555922
 31
0.0
  0
LINE
  5
1645
  8
0
 62
     0
 10
-60.731654104802828
 20
31.282303125559221
 30
0.0
 11
-60.731654104802828
 21
30.488553125559221
 31
0.0
  0
LINE
  5
1646
  8
0
 62
     0
 10
-60.731654104802828
 20
33.663553125559218
 30
0.0
 11
-60.731654104802828
 21
32.869803125559223
 31
0.0
  0
LINE
  5
1647
  8
0
 62
     0
 10
-60.731654104802828
 20
36.04480312555922
 30
0.0
 11
-60.731654104802828
 21
35.251053125559217
 31
0.0
  0
LINE
  5
1648
  8
0
 62
     0
 10
-60.731654104802828
 20
38.426053125559221
 30
0.0
 11
-60.731654104802828
 21
37.632303125559218
 31
0.0
  0
LINE
  5
1649
  8
0
 62
     0
 10
-59.356839104802823
 20
26.519803125559221
 30
0.0
 11
-59.356839104802823
 21
25.726053125559218
 31
0.0
  0
LINE
  5
164A
  8
0
 62
     0
 10
-59.356839104802823
 20
28.901053125559219
 30
0.0
 11
-59.356839104802823
 21
28.10730312555922
 31
0.0
  0
LINE
  5
164B
  8
0
 62
     0
 10
-59.356839104802823
 20
31.282303125559221
 30
0.0
 11
-59.356839104802823
 21
30.488553125559221
 31
0.0
  0
LINE
  5
164C
  8
0
 62
     0
 10
-59.356839104802823
 20
33.663553125559218
 30
0.0
 11
-59.356839104802823
 21
32.869803125559223
 31
0.0
  0
LINE
  5
164D
  8
0
 62
     0
 10
-59.356839104802823
 20
36.04480312555922
 30
0.0
 11
-59.356839104802823
 21
35.251053125559217
 31
0.0
  0
LINE
  5
164E
  8
0
 62
     0
 10
-59.356839104802823
 20
38.426053125559221
 30
0.0
 11
-59.356839104802823
 21
37.632303125559218
 31
0.0
  0
LINE
  5
164F
  8
0
 62
     0
 10
-57.982024104802861
 20
26.519803125559221
 30
0.0
 11
-57.982024104802861
 21
25.726053125559218
 31
0.0
  0
LINE
  5
1650
  8
0
 62
     0
 10
-57.982024104802861
 20
28.901053125559219
 30
0.0
 11
-57.982024104802861
 21
28.10730312555922
 31
0.0
  0
LINE
  5
1651
  8
0
 62
     0
 10
-57.982024104802861
 20
31.282303125559221
 30
0.0
 11
-57.982024104802861
 21
30.488553125559221
 31
0.0
  0
LINE
  5
1652
  8
0
 62
     0
 10
-57.982024104802861
 20
33.663553125559218
 30
0.0
 11
-57.982024104802861
 21
32.869803125559223
 31
0.0
  0
LINE
  5
1653
  8
0
 62
     0
 10
-57.982024104802861
 20
36.04480312555922
 30
0.0
 11
-57.982024104802861
 21
35.251053125559217
 31
0.0
  0
LINE
  5
1654
  8
0
 62
     0
 10
-57.982024104802861
 20
38.426053125559221
 30
0.0
 11
-57.982024104802861
 21
37.632303125559218
 31
0.0
  0
ENDBLK
  5
1656
  8
0
  0
BLOCK
  8
0
  2
*X81
 70
     1
 10
0.0
 20
0.0
 30
0.0
  3
*X81
  1

  0
LINE
  5
1BE2
  8
0
 62
     0
 10
-68.999999999999474
 20
-11.822305089622869
 30
0.0
 11
-69.822305089622773
 21
-10.999999999999581
 31
0.0
  0
LINE
  5
1BE3
  8
0
 62
     0
 10
-68.999999999999474
 20
-12.94483710475652
 30
0.0
 11
-70.944837104756431
 21
-10.999999999999581
 31
0.0
  0
LINE
  5
1BE4
  8
0
 62
     0
 10
-68.999999999999474
 20
-14.067369119890159
 30
0.0
 11
-71.999999999999488
 21
-11.06736911989017
 31
0.0
  0
LINE
  5
1BE5
  8
0
 62
     0
 10
-68.999999999999474
 20
-15.18990113502382
 30
0.0
 11
-71.999999999999488
 21
-12.18990113502381
 31
0.0
  0
LINE
  5
1BE6
  8
0
 62
     0
 10
-68.999999999999474
 20
-16.31243315015746
 30
0.0
 11
-71.999999999999488
 21
-13.31243315015746
 31
0.0
  0
LINE
  5
1BE7
  8
0
 62
     0
 10
-68.999999999999474
 20
-17.4349651652911
 30
0.0
 11
-71.999999999999488
 21
-14.4349651652911
 31
0.0
  0
LINE
  5
1BE8
  8
0
 62
     0
 10
-68.999999999999474
 20
-18.55749718042474
 30
0.0
 11
-71.999999999999488
 21
-15.55749718042475
 31
0.0
  0
LINE
  5
1BE9
  8
0
 62
     0
 10
-68.999999999999474
 20
-19.68002919555839
 30
0.0
 11
-71.999999999999488
 21
-16.68002919555839
 31
0.0
  0
LINE
  5
1BEA
  8
0
 62
     0
 10
-68.999999999999474
 20
-20.80256121069203
 30
0.0
 11
-71.999999999999488
 21
-17.802561210692041
 31
0.0
  0
LINE
  5
1BEB
  8
0
 62
     0
 10
-68.999999999999474
 20
-21.92509322582568
 30
0.0
 11
-71.999999999999488
 21
-18.92509322582568
 31
0.0
  0
LINE
  5
1BEC
  8
0
 62
     0
 10
-68.999999999999474
 20
-23.04762524095932
 30
0.0
 11
-71.999999999999488
 21
-20.04762524095932
 31
0.0
  0
LINE
  5
1BED
  8
0
 62
     0
 10
-81.999999999999488
 20
-11.17015725609297
 30
0.0
 11
-82.170157256092864
 21
-10.99999999999959
 31
0.0
  0
LINE
  5
1BEE
  8
0
 62
     0
 10
-68.999999999999474
 20
-24.17015725609296
 30
0.0
 11
-72.190755116731424
 21
-20.979402139361021
 31
0.0
  0
LINE
  5
1BEF
  8
0
 62
     0
 10
-81.999999999999488
 20
-12.29268927122661
 30
0.0
 11
-83.292689271226536
 21
-10.999999999999581
 31
0.0
  0
LINE
  5
1BF0
  8
0
 62
     0
 10
-68.999999999999474
 20
-25.29268927122661
 30
0.0
 11
-73.292689271226521
 21
-20.999999999999581
 31
0.0
  0
LINE
  5
1BF1
  8
0
 62
     0
 10
-81.999999999999488
 20
-13.41522128636025
 30
0.0
 11
-84.415221286360136
 21
-10.999999999999581
 31
0.0
  0
LINE
  5
1BF2
  8
0
 62
     0
 10
-69.415221286360151
 20
-25.999999999999599
 30
0.0
 11
-74.415221286360165
 21
-20.999999999999581
 31
0.0
  0
LINE
  5
1BF3
  8
0
 62
     0
 10
-81.999999999999488
 20
-14.53775330149389
 30
0.0
 11
-84.999999999999474
 21
-11.5377533014939
 31
0.0
  0
LINE
  5
1BF4
  8
0
 62
     0
 10
-70.537753301493794
 20
-25.999999999999591
 30
0.0
 11
-75.537753301493808
 21
-20.999999999999581
 31
0.0
  0
LINE
  5
1BF5
  8
0
 62
     0
 10
-81.999999999999488
 20
-15.66028531662754
 30
0.0
 11
-84.999999999999474
 21
-12.66028531662754
 31
0.0
  0
LINE
  5
1BF6
  8
0
 62
     0
 10
-71.660285316627423
 20
-25.999999999999591
 30
0.0
 11
-76.660285316627451
 21
-20.999999999999581
 31
0.0
  0
LINE
  5
1BF7
  8
0
 62
     0
 10
-81.999999999999488
 20
-16.782817331761191
 30
0.0
 11
-84.999999999999474
 21
-13.782817331761191
 31
0.0
  0
LINE
  5
1BF8
  8
0
 62
     0
 10
-72.782817331761095
 20
-25.999999999999591
 30
0.0
 11
-77.782817331761095
 21
-20.999999999999581
 31
0.0
  0
LINE
  5
1BF9
  8
0
 62
     0
 10
-81.999999999999488
 20
-17.90534934689482
 30
0.0
 11
-84.999999999999474
 21
-14.90534934689483
 31
0.0
  0
LINE
  5
1BFA
  8
0
 62
     0
 10
-73.905349346894724
 20
-25.999999999999599
 30
0.0
 11
-78.905349346894724
 21
-20.999999999999591
 31
0.0
  0
LINE
  5
1BFB
  8
0
 62
     0
 10
-81.999999999999488
 20
-19.02788136202847
 30
0.0
 11
-84.999999999999474
 21
-16.02788136202847
 31
0.0
  0
LINE
  5
1BFC
  8
0
 62
     0
 10
-75.027881362028381
 20
-25.999999999999591
 30
0.0
 11
-80.027881362028381
 21
-20.999999999999591
 31
0.0
  0
LINE
  5
1BFD
  8
0
 62
     0
 10
-81.999999999999488
 20
-20.15041337716211
 30
0.0
 11
-84.999999999999474
 21
-17.15041337716211
 31
0.0
  0
LINE
  5
1BFE
  8
0
 62
     0
 10
-76.150413377162025
 20
-25.999999999999581
 30
0.0
 11
-81.15041337716201
 21
-20.999999999999591
 31
0.0
  0
LINE
  5
1BFF
  8
0
 62
     0
 10
-77.272945392295668
 20
-25.999999999999591
 30
0.0
 11
-84.999999999999474
 21
-18.27294539229576
 31
0.0
  0
LINE
  5
1C00
  8
0
 62
     0
 10
-78.395477407429311
 20
-25.999999999999581
 30
0.0
 11
-84.999999999999474
 21
-19.3954774074294
 31
0.0
  0
LINE
  5
1C01
  8
0
 62
     0
 10
-79.518009422562955
 20
-25.999999999999591
 30
0.0
 11
-84.999999999999474
 21
-20.51800942256305
 31
0.0
  0
LINE
  5
1C02
  8
0
 62
     0
 10
-80.640541437696584
 20
-25.999999999999581
 30
0.0
 11
-84.999999999999474
 21
-21.640541437696701
 31
0.0
  0
LINE
  5
1C03
  8
0
 62
     0
 10
-81.763073452830241
 20
-25.999999999999591
 30
0.0
 11
-84.999999999999474
 21
-22.763073452830341
 31
0.0
  0
LINE
  5
1C04
  8
0
 62
     0
 10
-82.885605467963885
 20
-25.999999999999591
 30
0.0
 11
-84.999999999999474
 21
-23.885605467963991
 31
0.0
  0
LINE
  5
1C05
  8
0
 62
     0
 10
-84.008137483097528
 20
-25.999999999999591
 30
0.0
 11
-84.999999999999474
 21
-25.008137483097631
 31
0.0
  0
LINE
  5
1C06
  8
0
 62
     0
 10
-69.77874859021172
 20
-25.999999999999591
 30
0.0
 11
-68.999999999999474
 21
-25.221251409787349
 31
0.0
  0
LINE
  5
1C07
  8
0
 62
     0
 10
-70.901280605345363
 20
-25.999999999999591
 30
0.0
 11
-68.999999999999474
 21
-24.09871939465371
 31
0.0
  0
LINE
  5
1C08
  8
0
 62
     0
 10
-72.023812620479021
 20
-25.999999999999599
 30
0.0
 11
-68.999999999999474
 21
-22.976187379520059
 31
0.0
  0
LINE
  5
1C09
  8
0
 62
     0
 10
-73.14634463561265
 20
-25.999999999999591
 30
0.0
 11
-68.999999999999474
 21
-21.85365536438643
 31
0.0
  0
LINE
  5
1C0A
  8
0
 62
     0
 10
-74.268876650746293
 20
-25.999999999999591
 30
0.0
 11
-68.999999999999474
 21
-20.73112334925278
 31
0.0
  0
LINE
  5
1C0B
  8
0
 62
     0
 10
-75.391408665879936
 20
-25.999999999999591
 30
0.0
 11
-68.999999999999474
 21
-19.608591334119129
 31
0.0
  0
LINE
  5
1C0C
  8
0
 62
     0
 10
-76.513940681013565
 20
-25.999999999999581
 30
0.0
 11
-68.999999999999474
 21
-18.48605931898549
 31
0.0
  0
LINE
  5
1C0D
  8
0
 62
     0
 10
-71.999999999999488
 20
-20.36352730385185
 30
0.0
 11
-68.999999999999474
 21
-17.363527303851839
 31
0.0
  0
LINE
  5
1C0E
  8
0
 62
     0
 10
-77.636472696147223
 20
-25.999999999999581
 30
0.0
 11
-72.636472696147223
 21
-20.999999999999599
 31
0.0
  0
LINE
  5
1C0F
  8
0
 62
     0
 10
-71.999999999999488
 20
-19.240995288718199
 30
0.0
 11
-68.999999999999474
 21
-16.240995288718199
 31
0.0
  0
LINE
  5
1C10
  8
0
 62
     0
 10
-78.759004711280866
 20
-25.999999999999591
 30
0.0
 11
-73.759004711280866
 21
-20.999999999999591
 31
0.0
  0
LINE
  5
1C11
  8
0
 62
     0
 10
-71.999999999999488
 20
-18.11846327358456
 30
0.0
 11
-68.999999999999474
 21
-15.11846327358456
 31
0.0
  0
LINE
  5
1C12
  8
0
 62
     0
 10
-79.88153672641451
 20
-25.999999999999581
 30
0.0
 11
-74.88153672641451
 21
-20.999999999999591
 31
0.0
  0
LINE
  5
1C13
  8
0
 62
     0
 10
-71.999999999999488
 20
-16.995931258450909
 30
0.0
 11
-68.999999999999474
 21
-13.995931258450909
 31
0.0
  0
LINE
  5
1C14
  8
0
 62
     0
 10
-81.004068741548167
 20
-25.999999999999591
 30
0.0
 11
-76.004068741548153
 21
-20.999999999999591
 31
0.0
  0
LINE
  5
1C15
  8
0
 62
     0
 10
-71.999999999999488
 20
-15.873399243317269
 30
0.0
 11
-68.999999999999474
 21
-12.873399243317261
 31
0.0
  0
LINE
  5
1C16
  8
0
 62
     0
 10
-82.126600756681796
 20
-25.999999999999581
 30
0.0
 11
-77.12660075668181
 21
-20.999999999999599
 31
0.0
  0
LINE
  5
1C17
  8
0
 62
     0
 10
-71.999999999999488
 20
-14.75086722818363
 30
0.0
 11
-68.999999999999474
 21
-11.75086722818363
 31
0.0
  0
LINE
  5
1C18
  8
0
 62
     0
 10
-83.249132771815425
 20
-25.999999999999591
 30
0.0
 11
-78.249132771815425
 21
-20.999999999999591
 31
0.0
  0
LINE
  5
1C19
  8
0
 62
     0
 10
-71.999999999999488
 20
-13.628335213049979
 30
0.0
 11
-69.371664786949097
 21
-10.99999999999959
 31
0.0
  0
LINE
  5
1C1A
  8
0
 62
     0
 10
-84.371664786949083
 20
-25.999999999999591
 30
0.0
 11
-79.371664786949083
 21
-20.999999999999591
 31
0.0
  0
LINE
  5
1C1B
  8
0
 62
     0
 10
-71.999999999999488
 20
-12.50580319791634
 30
0.0
 11
-70.494196802082726
 21
-10.999999999999581
 31
0.0
  0
LINE
  5
1C1C
  8
0
 62
     0
 10
-84.999999999999474
 20
-25.505803197916329
 30
0.0
 11
-80.494196802082726
 21
-20.999999999999581
 31
0.0
  0
LINE
  5
1C1D
  8
0
 62
     0
 10
-71.999999999999488
 20
-11.383271182782689
 30
0.0
 11
-71.616728817216384
 21
-10.99999999999959
 31
0.0
  0
LINE
  5
1C1E
  8
0
 62
     0
 10
-84.999999999999474
 20
-24.383271182782689
 30
0.0
 11
-81.616728817216384
 21
-20.999999999999591
 31
0.0
  0
LINE
  5
1C1F
  8
0
 62
     0
 10
-84.999999999999474
 20
-23.260739167649039
 30
0.0
 11
-81.999999999999474
 21
-20.260739167649039
 31
0.0
  0
LINE
  5
1C20
  8
0
 62
     0
 10
-84.999999999999474
 20
-22.13820715251541
 30
0.0
 11
-81.999999999999474
 21
-19.138207152515399
 31
0.0
  0
LINE
  5
1C21
  8
0
 62
     0
 10
-84.999999999999474
 20
-21.01567513738177
 30
0.0
 11
-81.999999999999474
 21
-18.015675137381759
 31
0.0
  0
LINE
  5
1C22
  8
0
 62
     0
 10
-84.999999999999474
 20
-19.893143122248109
 30
0.0
 11
-81.999999999999488
 21
-16.893143122248109
 31
0.0
  0
LINE
  5
1C23
  8
0
 62
     0
 10
-84.999999999999474
 20
-18.770611107114469
 30
0.0
 11
-81.999999999999488
 21
-15.770611107114471
 31
0.0
  0
LINE
  5
1C24
  8
0
 62
     0
 10
-84.999999999999474
 20
-17.648079091980819
 30
0.0
 11
-81.999999999999488
 21
-14.64807909198082
 31
0.0
  0
LINE
  5
1C25
  8
0
 62
     0
 10
-84.999999999999474
 20
-16.525547076847189
 30
0.0
 11
-81.999999999999488
 21
-13.525547076847181
 31
0.0
  0
LINE
  5
1C26
  8
0
 62
     0
 10
-84.999999999999474
 20
-15.403015061713541
 30
0.0
 11
-81.999999999999488
 21
-12.403015061713541
 31
0.0
  0
LINE
  5
1C27
  8
0
 62
     0
 10
-84.999999999999474
 20
-14.28048304657989
 30
0.0
 11
-81.999999999999488
 21
-11.280483046579899
 31
0.0
  0
LINE
  5
1C28
  8
0
 62
     0
 10
-84.999999999999474
 20
-13.157951031446251
 30
0.0
 11
-82.842048968552803
 21
-10.999999999999581
 31
0.0
  0
LINE
  5
1C29
  8
0
 62
     0
 10
-84.999999999999474
 20
-12.035419016312609
 30
0.0
 11
-83.964580983686446
 21
-10.999999999999581
 31
0.0
  0
ENDBLK
  5
1C2B
  8
0
  0
BLOCK
  8
0
  2
*X82
 70
     1
 10
0.0
 20
0.0
 30
0.0
  3
*X82
  1

  0
LINE
  5
1C44
  8
0
 62
     0
 10
-68.999999999999474
 20
-11.822305089622869
 30
0.0
 11
-69.822305089622773
 21
-10.999999999999581
 31
0.0
  0
LINE
  5
1C45
  8
0
 62
     0
 10
-68.999999999999474
 20
-12.94483710475652
 30
0.0
 11
-70.944837104756431
 21
-10.999999999999581
 31
0.0
  0
LINE
  5
1C46
  8
0
 62
     0
 10
-68.999999999999474
 20
-14.067369119890159
 30
0.0
 11
-71.999999999999488
 21
-11.06736911989017
 31
0.0
  0
LINE
  5
1C47
  8
0
 62
     0
 10
-68.999999999999474
 20
-15.18990113502382
 30
0.0
 11
-71.999999999999488
 21
-12.18990113502381
 31
0.0
  0
LINE
  5
1C48
  8
0
 62
     0
 10
-68.999999999999474
 20
-16.31243315015746
 30
0.0
 11
-71.999999999999488
 21
-13.31243315015746
 31
0.0
  0
LINE
  5
1C49
  8
0
 62
     0
 10
-68.999999999999474
 20
-17.4349651652911
 30
0.0
 11
-71.999999999999488
 21
-14.4349651652911
 31
0.0
  0
LINE
  5
1C4A
  8
0
 62
     0
 10
-68.999999999999474
 20
-18.55749718042474
 30
0.0
 11
-71.999999999999488
 21
-15.55749718042475
 31
0.0
  0
LINE
  5
1C4B
  8
0
 62
     0
 10
-68.999999999999474
 20
-19.68002919555839
 30
0.0
 11
-71.999999999999488
 21
-16.68002919555839
 31
0.0
  0
LINE
  5
1C4C
  8
0
 62
     0
 10
-68.999999999999474
 20
-20.80256121069203
 30
0.0
 11
-71.999999999999488
 21
-17.802561210692041
 31
0.0
  0
LINE
  5
1C4D
  8
0
 62
     0
 10
-68.999999999999474
 20
-21.92509322582568
 30
0.0
 11
-71.999999999999488
 21
-18.92509322582568
 31
0.0
  0
LINE
  5
1C4E
  8
0
 62
     0
 10
-68.999999999999474
 20
-23.04762524095932
 30
0.0
 11
-71.999999999999488
 21
-20.04762524095932
 31
0.0
  0
LINE
  5
1C4F
  8
0
 62
     0
 10
-81.999999999999488
 20
-11.17015725609297
 30
0.0
 11
-82.170157256092864
 21
-10.99999999999959
 31
0.0
  0
LINE
  5
1C50
  8
0
 62
     0
 10
-68.999999999999474
 20
-24.17015725609296
 30
0.0
 11
-72.190755116731424
 21
-20.979402139361021
 31
0.0
  0
LINE
  5
1C51
  8
0
 62
     0
 10
-81.999999999999488
 20
-12.29268927122661
 30
0.0
 11
-83.292689271226536
 21
-10.999999999999581
 31
0.0
  0
LINE
  5
1C52
  8
0
 62
     0
 10
-68.999999999999474
 20
-25.29268927122661
 30
0.0
 11
-73.292689271226521
 21
-20.999999999999581
 31
0.0
  0
LINE
  5
1C53
  8
0
 62
     0
 10
-81.999999999999488
 20
-13.41522128636025
 30
0.0
 11
-84.415221286360136
 21
-10.999999999999581
 31
0.0
  0
LINE
  5
1C54
  8
0
 62
     0
 10
-69.415221286360151
 20
-25.999999999999599
 30
0.0
 11
-74.415221286360165
 21
-20.999999999999581
 31
0.0
  0
LINE
  5
1C55
  8
0
 62
     0
 10
-81.999999999999488
 20
-14.53775330149389
 30
0.0
 11
-84.999999999999474
 21
-11.5377533014939
 31
0.0
  0
LINE
  5
1C56
  8
0
 62
     0
 10
-70.537753301493794
 20
-25.999999999999591
 30
0.0
 11
-75.537753301493808
 21
-20.999999999999581
 31
0.0
  0
LINE
  5
1C57
  8
0
 62
     0
 10
-81.999999999999488
 20
-15.66028531662754
 30
0.0
 11
-84.999999999999474
 21
-12.66028531662754
 31
0.0
  0
LINE
  5
1C58
  8
0
 62
     0
 10
-71.660285316627423
 20
-25.999999999999591
 30
0.0
 11
-76.660285316627451
 21
-20.999999999999581
 31
0.0
  0
LINE
  5
1C59
  8
0
 62
     0
 10
-81.999999999999488
 20
-16.782817331761191
 30
0.0
 11
-84.999999999999474
 21
-13.782817331761191
 31
0.0
  0
LINE
  5
1C5A
  8
0
 62
     0
 10
-72.782817331761095
 20
-25.999999999999591
 30
0.0
 11
-77.782817331761095
 21
-20.999999999999581
 31
0.0
  0
LINE
  5
1C5B
  8
0
 62
     0
 10
-81.999999999999488
 20
-17.90534934689482
 30
0.0
 11
-84.999999999999474
 21
-14.90534934689483
 31
0.0
  0
LINE
  5
1C5C
  8
0
 62
     0
 10
-73.905349346894724
 20
-25.999999999999599
 30
0.0
 11
-78.905349346894724
 21
-20.999999999999591
 31
0.0
  0
LINE
  5
1C5D
  8
0
 62
     0
 10
-81.999999999999488
 20
-19.02788136202847
 30
0.0
 11
-84.999999999999474
 21
-16.02788136202847
 31
0.0
  0
LINE
  5
1C5E
  8
0
 62
     0
 10
-75.027881362028381
 20
-25.999999999999591
 30
0.0
 11
-80.027881362028381
 21
-20.999999999999591
 31
0.0
  0
LINE
  5
1C5F
  8
0
 62
     0
 10
-81.999999999999488
 20
-20.15041337716211
 30
0.0
 11
-84.999999999999474
 21
-17.15041337716211
 31
0.0
  0
LINE
  5
1C60
  8
0
 62
     0
 10
-76.150413377162025
 20
-25.999999999999581
 30
0.0
 11
-81.15041337716201
 21
-20.999999999999591
 31
0.0
  0
LINE
  5
1C61
  8
0
 62
     0
 10
-77.272945392295668
 20
-25.999999999999591
 30
0.0
 11
-84.999999999999474
 21
-18.27294539229576
 31
0.0
  0
LINE
  5
1C62
  8
0
 62
     0
 10
-78.395477407429311
 20
-25.999999999999581
 30
0.0
 11
-84.999999999999474
 21
-19.3954774074294
 31
0.0
  0
LINE
  5
1C63
  8
0
 62
     0
 10
-79.518009422562955
 20
-25.999999999999591
 30
0.0
 11
-84.999999999999474
 21
-20.51800942256305
 31
0.0
  0
LINE
  5
1C64
  8
0
 62
     0
 10
-80.640541437696584
 20
-25.999999999999581
 30
0.0
 11
-84.999999999999474
 21
-21.640541437696701
 31
0.0
  0
LINE
  5
1C65
  8
0
 62
     0
 10
-81.763073452830241
 20
-25.999999999999591
 30
0.0
 11
-84.999999999999474
 21
-22.763073452830341
 31
0.0
  0
LINE
  5
1C66
  8
0
 62
     0
 10
-82.885605467963885
 20
-25.999999999999591
 30
0.0
 11
-84.999999999999474
 21
-23.885605467963991
 31
0.0
  0
LINE
  5
1C67
  8
0
 62
     0
 10
-84.008137483097528
 20
-25.999999999999591
 30
0.0
 11
-84.999999999999474
 21
-25.008137483097631
 31
0.0
  0
LINE
  5
1C68
  8
0
 62
     0
 10
-69.77874859021172
 20
-25.999999999999591
 30
0.0
 11
-68.999999999999474
 21
-25.221251409787349
 31
0.0
  0
LINE
  5
1C69
  8
0
 62
     0
 10
-70.901280605345363
 20
-25.999999999999591
 30
0.0
 11
-68.999999999999474
 21
-24.09871939465371
 31
0.0
  0
LINE
  5
1C6A
  8
0
 62
     0
 10
-72.023812620479021
 20
-25.999999999999599
 30
0.0
 11
-68.999999999999474
 21
-22.976187379520059
 31
0.0
  0
LINE
  5
1C6B
  8
0
 62
     0
 10
-73.14634463561265
 20
-25.999999999999591
 30
0.0
 11
-68.999999999999474
 21
-21.85365536438643
 31
0.0
  0
LINE
  5
1C6C
  8
0
 62
     0
 10
-74.268876650746293
 20
-25.999999999999591
 30
0.0
 11
-68.999999999999474
 21
-20.73112334925278
 31
0.0
  0
LINE
  5
1C6D
  8
0
 62
     0
 10
-75.391408665879936
 20
-25.999999999999591
 30
0.0
 11
-68.999999999999474
 21
-19.608591334119129
 31
0.0
  0
LINE
  5
1C6E
  8
0
 62
     0
 10
-76.513940681013565
 20
-25.999999999999581
 30
0.0
 11
-68.999999999999474
 21
-18.48605931898549
 31
0.0
  0
LINE
  5
1C6F
  8
0
 62
     0
 10
-71.999999999999488
 20
-20.36352730385185
 30
0.0
 11
-68.999999999999474
 21
-17.363527303851839
 31
0.0
  0
LINE
  5
1C70
  8
0
 62
     0
 10
-77.636472696147223
 20
-25.999999999999581
 30
0.0
 11
-72.636472696147223
 21
-20.999999999999599
 31
0.0
  0
LINE
  5
1C71
  8
0
 62
     0
 10
-71.999999999999488
 20
-19.240995288718199
 30
0.0
 11
-68.999999999999474
 21
-16.240995288718199
 31
0.0
  0
LINE
  5
1C72
  8
0
 62
     0
 10
-78.759004711280866
 20
-25.999999999999591
 30
0.0
 11
-73.759004711280866
 21
-20.999999999999591
 31
0.0
  0
LINE
  5
1C73
  8
0
 62
     0
 10
-71.999999999999488
 20
-18.11846327358456
 30
0.0
 11
-68.999999999999474
 21
-15.11846327358456
 31
0.0
  0
LINE
  5
1C74
  8
0
 62
     0
 10
-79.88153672641451
 20
-25.999999999999581
 30
0.0
 11
-74.88153672641451
 21
-20.999999999999591
 31
0.0
  0
LINE
  5
1C75
  8
0
 62
     0
 10
-71.999999999999488
 20
-16.995931258450909
 30
0.0
 11
-68.999999999999474
 21
-13.995931258450909
 31
0.0
  0
LINE
  5
1C76
  8
0
 62
     0
 10
-81.004068741548167
 20
-25.999999999999591
 30
0.0
 11
-76.004068741548153
 21
-20.999999999999591
 31
0.0
  0
LINE
  5
1C77
  8
0
 62
     0
 10
-71.999999999999488
 20
-15.873399243317269
 30
0.0
 11
-68.999999999999474
 21
-12.873399243317261
 31
0.0
  0
LINE
  5
1C78
  8
0
 62
     0
 10
-82.126600756681796
 20
-25.999999999999581
 30
0.0
 11
-77.12660075668181
 21
-20.999999999999599
 31
0.0
  0
LINE
  5
1C79
  8
0
 62
     0
 10
-71.999999999999488
 20
-14.75086722818363
 30
0.0
 11
-68.999999999999474
 21
-11.75086722818363
 31
0.0
  0
LINE
  5
1C7A
  8
0
 62
     0
 10
-83.249132771815425
 20
-25.999999999999591
 30
0.0
 11
-78.249132771815425
 21
-20.999999999999591
 31
0.0
  0
LINE
  5
1C7B
  8
0
 62
     0
 10
-71.999999999999488
 20
-13.628335213049979
 30
0.0
 11
-69.371664786949097
 21
-10.99999999999959
 31
0.0
  0
LINE
  5
1C7C
  8
0
 62
     0
 10
-84.371664786949083
 20
-25.999999999999591
 30
0.0
 11
-79.371664786949083
 21
-20.999999999999591
 31
0.0
  0
LINE
  5
1C7D
  8
0
 62
     0
 10
-71.999999999999488
 20
-12.50580319791634
 30
0.0
 11
-70.494196802082726
 21
-10.999999999999581
 31
0.0
  0
LINE
  5
1C7E
  8
0
 62
     0
 10
-84.999999999999474
 20
-25.505803197916329
 30
0.0
 11
-80.494196802082726
 21
-20.999999999999581
 31
0.0
  0
LINE
  5
1C7F
  8
0
 62
     0
 10
-71.999999999999488
 20
-11.383271182782689
 30
0.0
 11
-71.616728817216384
 21
-10.99999999999959
 31
0.0
  0
LINE
  5
1C80
  8
0
 62
     0
 10
-84.999999999999474
 20
-24.383271182782689
 30
0.0
 11
-81.616728817216384
 21
-20.999999999999591
 31
0.0
  0
LINE
  5
1C81
  8
0
 62
     0
 10
-84.999999999999474
 20
-23.260739167649039
 30
0.0
 11
-81.999999999999474
 21
-20.260739167649039
 31
0.0
  0
LINE
  5
1C82
  8
0
 62
     0
 10
-84.999999999999474
 20
-22.13820715251541
 30
0.0
 11
-81.999999999999474
 21
-19.138207152515399
 31
0.0
  0
LINE
  5
1C83
  8
0
 62
     0
 10
-84.999999999999474
 20
-21.01567513738177
 30
0.0
 11
-81.999999999999474
 21
-18.015675137381759
 31
0.0
  0
LINE
  5
1C84
  8
0
 62
     0
 10
-84.999999999999474
 20
-19.893143122248109
 30
0.0
 11
-81.999999999999488
 21
-16.893143122248109
 31
0.0
  0
LINE
  5
1C85
  8
0
 62
     0
 10
-84.999999999999474
 20
-18.770611107114469
 30
0.0
 11
-81.999999999999488
 21
-15.770611107114471
 31
0.0
  0
LINE
  5
1C86
  8
0
 62
     0
 10
-84.999999999999474
 20
-17.648079091980819
 30
0.0
 11
-81.999999999999488
 21
-14.64807909198082
 31
0.0
  0
LINE
  5
1C87
  8
0
 62
     0
 10
-84.999999999999474
 20
-16.525547076847189
 30
0.0
 11
-81.999999999999488
 21
-13.525547076847181
 31
0.0
  0
LINE
  5
1C88
  8
0
 62
     0
 10
-84.999999999999474
 20
-15.403015061713541
 30
0.0
 11
-81.999999999999488
 21
-12.403015061713541
 31
0.0
  0
LINE
  5
1C89
  8
0
 62
     0
 10
-84.999999999999474
 20
-14.28048304657989
 30
0.0
 11
-81.999999999999488
 21
-11.280483046579899
 31
0.0
  0
LINE
  5
1C8A
  8
0
 62
     0
 10
-84.999999999999474
 20
-13.157951031446251
 30
0.0
 11
-82.842048968552803
 21
-10.999999999999581
 31
0.0
  0
LINE
  5
1C8B
  8
0
 62
     0
 10
-84.999999999999474
 20
-12.035419016312609
 30
0.0
 11
-83.964580983686446
 21
-10.999999999999581
 31
0.0
  0
ENDBLK
  5
1C8D
  8
0
  0
BLOCK
  8
0
  2
*X83
 70
     1
 10
0.0
 20
0.0
 30
0.0
  3
*X83
  1

  0
LINE
  5
1C8F
  8
0
 62
     0
 10
-82.842048968552817
 20
-10.99999999999957
 30
0.0
 11
-82.692210119047814
 21
-10.85016115049458
 31
0.0
  0
LINE
  5
1C90
  8
0
 62
     0
 10
-83.964580983686446
 20
-10.999999999999581
 30
0.0
 11
-82.924789992018816
 21
-9.9602090083319368
 31
0.0
  0
LINE
  5
1C91
  8
0
 62
     0
 10
-85.087112998820118
 20
-10.999999999999581
 30
0.0
 11
-83.157369864989846
 21
-9.0702568661693093
 31
0.0
  0
LINE
  5
1C92
  8
0
 62
     0
 10
-86.209645013953747
 20
-10.99999999999957
 30
0.0
 11
-83.389949737960848
 21
-8.1803047240066817
 31
0.0
  0
LINE
  5
1C93
  8
0
 62
     0
 10
-87.332177029087376
 20
-10.99999999999957
 30
0.0
 11
-83.537127019604597
 21
-7.2049499905167593
 31
0.0
  0
LINE
  5
1C94
  8
0
 62
     0
 10
-88.454709044221033
 20
-10.99999999999957
 30
0.0
 11
-83.665331754897011
 21
-6.2106227106755441
 31
0.0
  0
LINE
  5
1C95
  8
0
 62
     0
 10
-89.577241059354691
 20
-10.999999999999581
 30
0.0
 11
-83.776030265416054
 21
-5.1987892060609724
 31
0.0
  0
LINE
  5
1C96
  8
0
 62
     0
 10
-90.69977307448832
 20
-10.99999999999957
 30
0.0
 11
-83.868384332397355
 21
-4.1686112579086014
 31
0.0
  0
LINE
  5
1C97
  8
0
 62
     0
 10
-90.913812280422135
 20
-10.09150719079974
 30
0.0
 11
-83.941463756407316
 21
-3.1191586667849189
 31
0.0
  0
LINE
  5
1C98
  8
0
 62
     0
 10
-90.819478712302967
 20
-8.8746416075468986
 30
0.0
 11
-83.994231998124036
 21
-2.0493948933680031
 31
0.0
  0
LINE
  5
1C99
  8
0
 62
     0
 10
-90.750433265167075
 20
-7.6830641452773909
 30
0.0
 11
-84.025528754226443
 21
-0.9581596343367664
 31
0.0
  0
LINE
  5
1C9A
  8
0
 62
     0
 10
-90.70508448979021
 20
-6.5151833547668749
 30
0.0
 11
-84.034048627454453
 21
0.1558525075688593
 31
0.0
  0
LINE
  5
1C9B
  8
0
 62
     0
 10
-90.682024539460613
 20
-5.3695913893036504
 30
0.0
 11
-84.018314762168274
 21
1.2941183879886891
 31
0.0
  0
LINE
  5
1C9C
  8
0
 62
     0
 10
-90.680000900526579
 20
-4.245035735235966
 30
0.0
 11
-83.976645908908026
 21
2.4583192563825662
 31
0.0
  0
LINE
  5
1C9D
  8
0
 62
     0
 10
-90.697893514180279
 20
-3.140396333756029
 30
0.0
 11
-83.907114793307926
 21
3.6503823871163301
 31
0.0
  0
LINE
  5
1C9E
  8
0
 62
     0
 10
-90.734696082068623
 20
-2.0546668865107369
 30
0.0
 11
-83.807494800104976
 21
4.8725343954529086
 31
0.0
  0
LINE
  5
1C9F
  8
0
 62
     0
 10
-90.789500655744263
 20
-0.9869394450527124
 30
0.0
 11
-83.675190684565251
 21
6.1273705261262768
 31
0.0
  0
LINE
  5
1CA0
  8
0
 62
     0
 10
-90.861484830420707
 20
0.0636083954044793
 30
0.0
 11
-83.507147026694099
 21
7.4179461991310873
 31
0.0
  0
LINE
  5
1CA1
  8
0
 62
     0
 10
-90.949901023858686
 20
1.0977242171001429
 30
0.0
 11
-83.068011820002184
 21
8.9796134209566532
 31
0.0
  0
LINE
  5
1CA2
  8
0
 62
     0
 10
-91.054067439405955
 20
2.116089816686503
 30
0.0
 11
-82.324296518654947
 21
10.845860737437521
 31
0.0
  0
LINE
  5
1CA3
  8
0
 62
     0
 10
-91.173360400389868
 20
3.1193288708362621
 30
0.0
 11
-83.292689271195883
 21
11.000000000030241
 31
0.0
  0
LINE
  5
1CA4
  8
0
 62
     0
 10
-91.307207809579126
 20
4.1080134767806484
 30
0.0
 11
-84.415221286331374
 21
11.00000000002837
 31
0.0
  0
LINE
  5
1CA5
  8
0
 62
     0
 10
-91.455083538134588
 20
5.0826697633588083
 30
0.0
 11
-85.537753301466907
 21
11.00000000002651
 31
0.0
  0
LINE
  5
1CA6
  8
0
 62
     0
 10
-91.616502587486522
 20
6.0437827291405384
 30
0.0
 11
-86.660285316602426
 21
11.00000000002464
 31
0.0
  0
LINE
  5
1CA7
  8
0
 62
     0
 10
-91.791016897874414
 20
6.9918004338862971
 30
0.0
 11
-87.782817331737931
 21
11.000000000022769
 31
0.0
  0
LINE
  5
1CA8
  8
0
 62
     0
 10
-91.978211701009073
 20
7.9271376458852671
 30
0.0
 11
-88.905349346873436
 21
11.000000000020909
 31
0.0
  0
LINE
  5
1CA9
  8
0
 62
     0
 10
-92.177702333036876
 20
8.8501790289911142
 30
0.0
 11
-90.027881362008941
 21
11.000000000019041
 31
0.0
  0
LINE
  5
1CAA
  8
0
 62
     0
 10
-92.389131438869313
 20
9.7612819382923064
 30
0.0
 11
-91.150413377144446
 21
11.000000000017179
 31
0.0
  0
LINE
  5
1CAB
  8
0
 62
     0
 10
-92.612166510853527
 20
10.660778881441731
 30
0.0
 11
-92.272945392279965
 21
11.00000000001531
 31
0.0
  0
LINE
  5
1CAC
  8
0
 62
     0
 10
-90.915629714318158
 20
-10.11225164770979
 30
0.0
 11
-90.027881362028381
 21
-10.99999999999957
 31
0.0
  0
LINE
  5
1CAD
  8
0
 62
     0
 10
-90.833154060031418
 20
-9.0721952868628861
 30
0.0
 11
-88.905349346894738
 21
-10.99999999999957
 31
0.0
  0
LINE
  5
1CAE
  8
0
 62
     0
 10
-90.767376360560888
 20
-8.0154409711997712
 30
0.0
 11
-87.782817331761095
 21
-10.99999999999957
 31
0.0
  0
LINE
  5
1CAF
  8
0
 62
     0
 10
-90.719070492946344
 20
-6.9412148236806672
 30
0.0
 11
-86.660285316627437
 21
-10.99999999999957
 31
0.0
  0
LINE
  5
1CB0
  8
0
 62
     0
 10
-90.68908887193362
 20
-5.8486644295597472
 30
0.0
 11
-85.537753301493808
 21
-10.99999999999957
 31
0.0
  0
LINE
  5
1CB1
  8
0
 62
     0
 10
-90.678373883322735
 20
-4.73684740303701
 30
0.0
 11
-84.415221286360165
 21
-10.99999999999957
 31
0.0
  0
LINE
  5
1CB2
  8
0
 62
     0
 10
-90.687971577103383
 20
-3.604717694122705
 30
0.0
 11
-83.292689271226536
 21
-10.99999999999957
 31
0.0
  0
LINE
  5
1CB3
  8
0
 62
     0
 10
-90.719048192638141
 20
-2.4511090634542958
 30
0.0
 11
-82.823900322640782
 21
-10.346256933451651
 31
0.0
  0
LINE
  5
1CB4
  8
0
 62
     0
 10
-90.772910268071016
 20
-1.2747149728877709
 30
0.0
 11
-83.221054820512649
 21
-8.8265704204461581
 31
0.0
  0
LINE
  5
1CB5
  8
0
 62
     0
 10
-90.851029334737206
 20
-0.0740638910879383
 30
0.0
 11
-83.507147026693204
 21
-7.417946199131932
 31
0.0
  0
LINE
  5
1CB6
  8
0
 62
     0
 10
-90.955072545966132
 20
1.152511335274631
 30
0.0
 11
-83.675190684564555
 21
-6.1273705261269447
 31
0.0
  0
LINE
  5
1CB7
  8
0
 62
     0
 10
-91.086941086551576
 20
2.4069118909937179
 30
0.0
 11
-83.80749480010445
 21
-4.872534395453413
 31
0.0
  0
LINE
  5
1CB8
  8
0
 62
     0
 10
-91.248818930154926
 20
3.6913217497307178
 30
0.0
 11
-83.907114793307514
 21
-3.6503823871166921
 31
0.0
  0
LINE
  5
1CB9
  8
0
 62
     0
 10
-91.44323557904471
 20
5.0082704137541318
 30
0.0
 11
-83.976645908907784
 21
-2.4583192563827789
 31
0.0
  0
LINE
  5
1CBA
  8
0
 62
     0
 10
-91.673148035326335
 20
6.360714885169414
 30
0.0
 11
-84.018314762168146
 21
-1.294118387988781
 31
0.0
  0
LINE
  5
1CBB
  8
0
 62
     0
 10
-91.942049757504606
 20
7.7521486224813279
 30
0.0
 11
-84.034048627454453
 21
-0.1558525075688237
 31
0.0
  0
LINE
  5
1CBC
  8
0
 62
     0
 10
-92.254118351641964
 20
9.18674923175233
 30
0.0
 11
-84.025528754226556
 21
0.9581596343369085
 31
0.0
  0
LINE
  5
1CBD
  8
0
 62
     0
 10
-92.614420326426782
 20
10.66958322167079
 30
0.0
 11
-83.994231998124235
 21
2.0493948933682509
 31
0.0
  0
LINE
  5
1CBE
  8
0
 62
     0
 10
-91.822305089638434
 20
11.00000000001608
 30
0.0
 11
-83.941463756407629
 21
3.1191586667852742
 31
0.0
  0
LINE
  5
1CBF
  8
0
 62
     0
 10
-90.699773074506652
 20
11.00000000001795
 30
0.0
 11
-83.868384332397767
 21
4.1686112579090562
 31
0.0
  0
LINE
  5
1CC0
  8
0
 62
     0
 10
-89.57724105937487
 20
11.000000000019799
 30
0.0
 11
-83.776030265416537
 21
5.1987892060614911
 31
0.0
  0
LINE
  5
1CC1
  8
0
 62
     0
 10
-88.454709044243074
 20
11.00000000002167
 30
0.0
 11
-83.665331754897565
 21
6.210622710676148
 31
0.0
  0
LINE
  5
1CC2
  8
0
 62
     0
 10
-87.332177029111307
 20
11.00000000002353
 30
0.0
 11
-83.537127019605208
 21
7.2049499905174406
 31
0.0
  0
LINE
  5
1CC3
  8
0
 62
     0
 10
-86.209645013979525
 20
11.000000000025389
 30
0.0
 11
-83.387513815316296
 21
8.1778688013621661
 31
0.0
  0
LINE
  5
1CC4
  8
0
 62
     0
 10
-85.087112998847743
 20
11.000000000027271
 30
0.0
 11
-83.067645542029766
 21
8.9805325432092857
 31
0.0
  0
LINE
  5
1CC5
  8
0
 62
     0
 10
-83.964580983715962
 20
11.00000000002912
 30
0.0
 11
-82.747777268743235
 21
9.7831962850564125
 31
0.0
  0
LINE
  5
1CC6
  8
0
 62
     0
 10
-82.842048968584166
 20
11.00000000003099
 30
0.0
 11
-82.427908995456747
 21
10.585860026903539
 31
0.0
  0
ENDBLK
  5
1CC8
  8
0
  0
BLOCK
  8
0
  2
*X84
 70
     1
 10
0.0
 20
0.0
 30
0.0
  3
*X84
  1

  0
LINE
  5
1CCA
  8
0
 62
     0
 10
-82.842048968552817
 20
-10.99999999999957
 30
0.0
 11
-82.692210119047814
 21
-10.85016115049458
 31
0.0
  0
LINE
  5
1CCB
  8
0
 62
     0
 10
-83.964580983686446
 20
-10.999999999999581
 30
0.0
 11
-82.924789992018816
 21
-9.9602090083319368
 31
0.0
  0
LINE
  5
1CCC
  8
0
 62
     0
 10
-85.087112998820118
 20
-10.999999999999581
 30
0.0
 11
-83.157369864989846
 21
-9.0702568661693093
 31
0.0
  0
LINE
  5
1CCD
  8
0
 62
     0
 10
-86.209645013953747
 20
-10.99999999999957
 30
0.0
 11
-83.389949737960848
 21
-8.1803047240066817
 31
0.0
  0
LINE
  5
1CCE
  8
0
 62
     0
 10
-87.332177029087376
 20
-10.99999999999957
 30
0.0
 11
-83.537127019604597
 21
-7.2049499905167593
 31
0.0
  0
LINE
  5
1CCF
  8
0
 62
     0
 10
-88.454709044221033
 20
-10.99999999999957
 30
0.0
 11
-83.665331754897011
 21
-6.2106227106755441
 31
0.0
  0
LINE
  5
1CD0
  8
0
 62
     0
 10
-89.577241059354691
 20
-10.999999999999581
 30
0.0
 11
-83.776030265416054
 21
-5.1987892060609724
 31
0.0
  0
LINE
  5
1CD1
  8
0
 62
     0
 10
-90.69977307448832
 20
-10.99999999999957
 30
0.0
 11
-83.868384332397355
 21
-4.1686112579086014
 31
0.0
  0
LINE
  5
1CD2
  8
0
 62
     0
 10
-90.913812280422135
 20
-10.09150719079974
 30
0.0
 11
-83.941463756407316
 21
-3.1191586667849189
 31
0.0
  0
LINE
  5
1CD3
  8
0
 62
     0
 10
-90.819478712302967
 20
-8.8746416075468986
 30
0.0
 11
-83.994231998124036
 21
-2.0493948933680031
 31
0.0
  0
LINE
  5
1CD4
  8
0
 62
     0
 10
-90.750433265167075
 20
-7.6830641452773909
 30
0.0
 11
-84.025528754226443
 21
-0.9581596343367664
 31
0.0
  0
LINE
  5
1CD5
  8
0
 62
     0
 10
-90.70508448979021
 20
-6.5151833547668749
 30
0.0
 11
-84.034048627454453
 21
0.1558525075688593
 31
0.0
  0
LINE
  5
1CD6
  8
0
 62
     0
 10
-90.682024539460613
 20
-5.3695913893036504
 30
0.0
 11
-84.018314762168274
 21
1.2941183879886891
 31
0.0
  0
LINE
  5
1CD7
  8
0
 62
     0
 10
-90.680000900526579
 20
-4.245035735235966
 30
0.0
 11
-83.976645908908026
 21
2.4583192563825662
 31
0.0
  0
LINE
  5
1CD8
  8
0
 62
     0
 10
-90.697893514180279
 20
-3.140396333756029
 30
0.0
 11
-83.907114793307926
 21
3.6503823871163301
 31
0.0
  0
LINE
  5
1CD9
  8
0
 62
     0
 10
-90.734696082068623
 20
-2.0546668865107369
 30
0.0
 11
-83.807494800104976
 21
4.8725343954529086
 31
0.0
  0
LINE
  5
1CDA
  8
0
 62
     0
 10
-90.789500655744263
 20
-0.9869394450527124
 30
0.0
 11
-83.675190684565251
 21
6.1273705261262768
 31
0.0
  0
LINE
  5
1CDB
  8
0
 62
     0
 10
-90.861484830420707
 20
0.0636083954044793
 30
0.0
 11
-83.507147026694099
 21
7.4179461991310873
 31
0.0
  0
LINE
  5
1CDC
  8
0
 62
     0
 10
-90.949901023858686
 20
1.0977242171001429
 30
0.0
 11
-83.068011820002184
 21
8.9796134209566532
 31
0.0
  0
LINE
  5
1CDD
  8
0
 62
     0
 10
-91.054067439405955
 20
2.116089816686503
 30
0.0
 11
-82.324296518654947
 21
10.845860737437521
 31
0.0
  0
LINE
  5
1CDE
  8
0
 62
     0
 10
-91.173360400389868
 20
3.1193288708362621
 30
0.0
 11
-83.292689271195883
 21
11.000000000030241
 31
0.0
  0
LINE
  5
1CDF
  8
0
 62
     0
 10
-91.307207809579126
 20
4.1080134767806484
 30
0.0
 11
-84.415221286331374
 21
11.00000000002837
 31
0.0
  0
LINE
  5
1CE0
  8
0
 62
     0
 10
-91.455083538134588
 20
5.0826697633588083
 30
0.0
 11
-85.537753301466907
 21
11.00000000002651
 31
0.0
  0
LINE
  5
1CE1
  8
0
 62
     0
 10
-91.616502587486522
 20
6.0437827291405384
 30
0.0
 11
-86.660285316602426
 21
11.00000000002464
 31
0.0
  0
LINE
  5
1CE2
  8
0
 62
     0
 10
-91.791016897874414
 20
6.9918004338862971
 30
0.0
 11
-87.782817331737931
 21
11.000000000022769
 31
0.0
  0
LINE
  5
1CE3
  8
0
 62
     0
 10
-91.978211701009073
 20
7.9271376458852671
 30
0.0
 11
-88.905349346873436
 21
11.000000000020909
 31
0.0
  0
LINE
  5
1CE4
  8
0
 62
     0
 10
-92.177702333036876
 20
8.8501790289911142
 30
0.0
 11
-90.027881362008941
 21
11.000000000019041
 31
0.0
  0
LINE
  5
1CE5
  8
0
 62
     0
 10
-92.389131438869313
 20
9.7612819382923064
 30
0.0
 11
-91.150413377144446
 21
11.000000000017179
 31
0.0
  0
LINE
  5
1CE6
  8
0
 62
     0
 10
-92.612166510853527
 20
10.660778881441731
 30
0.0
 11
-92.272945392279965
 21
11.00000000001531
 31
0.0
  0
LINE
  5
1CE7
  8
0
 62
     0
 10
-90.915629714318158
 20
-10.11225164770979
 30
0.0
 11
-90.027881362028381
 21
-10.99999999999957
 31
0.0
  0
LINE
  5
1CE8
  8
0
 62
     0
 10
-90.833154060031418
 20
-9.0721952868628861
 30
0.0
 11
-88.905349346894738
 21
-10.99999999999957
 31
0.0
  0
LINE
  5
1CE9
  8
0
 62
     0
 10
-90.767376360560888
 20
-8.0154409711997712
 30
0.0
 11
-87.782817331761095
 21
-10.99999999999957
 31
0.0
  0
LINE
  5
1CEA
  8
0
 62
     0
 10
-90.719070492946344
 20
-6.9412148236806672
 30
0.0
 11
-86.660285316627437
 21
-10.99999999999957
 31
0.0
  0
LINE
  5
1CEB
  8
0
 62
     0
 10
-90.68908887193362
 20
-5.8486644295597472
 30
0.0
 11
-85.537753301493808
 21
-10.99999999999957
 31
0.0
  0
LINE
  5
1CEC
  8
0
 62
     0
 10
-90.678373883322735
 20
-4.73684740303701
 30
0.0
 11
-84.415221286360165
 21
-10.99999999999957
 31
0.0
  0
LINE
  5
1CED
  8
0
 62
     0
 10
-90.687971577103383
 20
-3.604717694122705
 30
0.0
 11
-83.292689271226536
 21
-10.99999999999957
 31
0.0
  0
LINE
  5
1CEE
  8
0
 62
     0
 10
-90.719048192638141
 20
-2.4511090634542958
 30
0.0
 11
-82.823900322640782
 21
-10.346256933451651
 31
0.0
  0
LINE
  5
1CEF
  8
0
 62
     0
 10
-90.772910268071016
 20
-1.2747149728877709
 30
0.0
 11
-83.221054820512649
 21
-8.8265704204461581
 31
0.0
  0
LINE
  5
1CF0
  8
0
 62
     0
 10
-90.851029334737206
 20
-0.0740638910879383
 30
0.0
 11
-83.507147026693204
 21
-7.417946199131932
 31
0.0
  0
LINE
  5
1CF1
  8
0
 62
     0
 10
-90.955072545966132
 20
1.152511335274631
 30
0.0
 11
-83.675190684564555
 21
-6.1273705261269447
 31
0.0
  0
LINE
  5
1CF2
  8
0
 62
     0
 10
-91.086941086551576
 20
2.4069118909937179
 30
0.0
 11
-83.80749480010445
 21
-4.872534395453413
 31
0.0
  0
LINE
  5
1CF3
  8
0
 62
     0
 10
-91.248818930154926
 20
3.6913217497307178
 30
0.0
 11
-83.907114793307514
 21
-3.6503823871166921
 31
0.0
  0
LINE
  5
1CF4
  8
0
 62
     0
 10
-91.44323557904471
 20
5.0082704137541318
 30
0.0
 11
-83.976645908907784
 21
-2.4583192563827789
 31
0.0
  0
LINE
  5
1CF5
  8
0
 62
     0
 10
-91.673148035326335
 20
6.360714885169414
 30
0.0
 11
-84.018314762168146
 21
-1.294118387988781
 31
0.0
  0
LINE
  5
1CF6
  8
0
 62
     0
 10
-91.942049757504606
 20
7.7521486224813279
 30
0.0
 11
-84.034048627454453
 21
-0.1558525075688237
 31
0.0
  0
LINE
  5
1CF7
  8
0
 62
     0
 10
-92.254118351641964
 20
9.18674923175233
 30
0.0
 11
-84.025528754226556
 21
0.9581596343369085
 31
0.0
  0
LINE
  5
1CF8
  8
0
 62
     0
 10
-92.614420326426782
 20
10.66958322167079
 30
0.0
 11
-83.994231998124235
 21
2.0493948933682509
 31
0.0
  0
LINE
  5
1CF9
  8
0
 62
     0
 10
-91.822305089638434
 20
11.00000000001608
 30
0.0
 11
-83.941463756407629
 21
3.1191586667852742
 31
0.0
  0
LINE
  5
1CFA
  8
0
 62
     0
 10
-90.699773074506652
 20
11.00000000001795
 30
0.0
 11
-83.868384332397767
 21
4.1686112579090562
 31
0.0
  0
LINE
  5
1CFB
  8
0
 62
     0
 10
-89.57724105937487
 20
11.000000000019799
 30
0.0
 11
-83.776030265416537
 21
5.1987892060614911
 31
0.0
  0
LINE
  5
1CFC
  8
0
 62
     0
 10
-88.454709044243074
 20
11.00000000002167
 30
0.0
 11
-83.665331754897565
 21
6.210622710676148
 31
0.0
  0
LINE
  5
1CFD
  8
0
 62
     0
 10
-87.332177029111307
 20
11.00000000002353
 30
0.0
 11
-83.537127019605208
 21
7.2049499905174406
 31
0.0
  0
LINE
  5
1CFE
  8
0
 62
     0
 10
-86.209645013979525
 20
11.000000000025389
 30
0.0
 11
-83.387513815316296
 21
8.1778688013621661
 31
0.0
  0
LINE
  5
1CFF
  8
0
 62
     0
 10
-85.087112998847743
 20
11.000000000027271
 30
0.0
 11
-83.067645542029766
 21
8.9805325432092857
 31
0.0
  0
LINE
  5
1D00
  8
0
 62
     0
 10
-83.964580983715962
 20
11.00000000002912
 30
0.0
 11
-82.747777268743235
 21
9.7831962850564125
 31
0.0
  0
LINE
  5
1D01
  8
0
 62
     0
 10
-82.842048968584166
 20
11.00000000003099
 30
0.0
 11
-82.427908995456747
 21
10.585860026903539
 31
0.0
  0
ENDBLK
  5
1D03
  8
0
  0
BLOCK
  8
0
  2
*X85
 70
     1
 10
0.0
 20
0.0
 30
0.0
  3
*X85
  1

  0
LINE
  5
1D05
  8
0
 62
     0
 10
-66.388750149734662
 20
22.926347879283281
 30
0.0
 11
-66.388750149734662
 21
19.123869792373601
 31
0.0
  0
LINE
  5
1D06
  8
0
 62
     0
 10
-65.277500149734664
 20
21.893271668519638
 30
0.0
 11
-65.277500149734664
 21
19.765450279010551
 31
0.0
  0
LINE
  5
1D07
  8
0
 62
     0
 10
-64.166250149734665
 20
22.265654313871021
 30
0.0
 11
-64.166250149734665
 21
20.02566506578416
 31
0.0
  0
LINE
  5
1D08
  8
0
 62
     0
 10
-63.05500014973466
 20
24.89690516756561
 30
0.0
 11
-63.05500014973466
 21
20.15871292882537
 31
0.0
  0
LINE
  5
1D09
  8
0
 62
     0
 10
-61.943750149734662
 20
24.92040478478209
 30
0.0
 11
-61.943750149734662
 21
22.524314078282831
 31
0.0
  0
LINE
  5
1D0A
  8
0
 62
     0
 10
-60.832500149734663
 20
24.920404784782079
 30
0.0
 11
-60.832500149734663
 21
23.120404784782131
 31
0.0
  0
LINE
  5
1D0B
  8
0
 62
     0
 10
-59.721250149734658
 20
24.920404784782079
 30
0.0
 11
-59.721250149734658
 21
23.120404784782121
 31
0.0
  0
LINE
  5
1D0C
  8
0
 62
     0
 10
-58.61000014973466
 20
24.920404784782072
 30
0.0
 11
-58.61000014973466
 21
23.12040478478211
 31
0.0
  0
LINE
  5
1D0D
  8
0
 62
     0
 10
-57.498750149734661
 20
24.920404784782072
 30
0.0
 11
-57.498750149734661
 21
23.120404784782099
 31
0.0
  0
LINE
  5
1D0E
  8
0
 62
     0
 10
-56.387500149734663
 20
24.920404784782072
 30
0.0
 11
-56.387500149734663
 21
23.120404784782099
 31
0.0
  0
LINE
  5
1D0F
  8
0
 62
     0
 10
-55.276250149734658
 20
24.920404784782072
 30
0.0
 11
-55.276250149734658
 21
23.120404784782089
 31
0.0
  0
LINE
  5
1D10
  8
0
 62
     0
 10
-54.165000149734666
 20
24.920404784782061
 30
0.0
 11
-54.165000149734666
 21
23.120404784782089
 31
0.0
  0
LINE
  5
1D11
  8
0
 62
     0
 10
-53.053750149734661
 20
24.920404784782061
 30
0.0
 11
-53.053750149734661
 21
23.120404784782082
 31
0.0
  0
LINE
  5
1D12
  8
0
 62
     0
 10
-51.942500149734663
 20
24.920404784782061
 30
0.0
 11
-51.942500149734663
 21
23.120404784782082
 31
0.0
  0
LINE
  5
1D13
  8
0
 62
     0
 10
-50.83125014973465
 20
24.92040478478205
 30
0.0
 11
-50.83125014973465
 21
23.120404784782082
 31
0.0
  0
LINE
  5
1D14
  8
0
 62
     0
 10
-49.720000149734659
 20
24.92040478478204
 30
0.0
 11
-49.720000149734659
 21
23.120404784782082
 31
0.0
  0
LINE
  5
1D15
  8
0
 62
     0
 10
-48.608750149734661
 20
24.92040478478204
 30
0.0
 11
-48.608750149734661
 21
23.120404784782082
 31
0.0
  0
LINE
  5
1D16
  8
0
 62
     0
 10
-47.497500149734663
 20
24.920404784782029
 30
0.0
 11
-47.497500149734663
 21
23.120404784782071
 31
0.0
  0
LINE
  5
1D17
  8
0
 62
     0
 10
-46.386250149734657
 20
24.920404784782018
 30
0.0
 11
-46.386250149734657
 21
23.120404784782071
 31
0.0
  0
LINE
  5
1D18
  8
0
 62
     0
 10
-45.275000149734659
 20
24.920404784782018
 30
0.0
 11
-45.275000149734659
 21
23.120404784782071
 31
0.0
  0
LINE
  5
1D19
  8
0
 62
     0
 10
-44.163750149734668
 20
24.920404784782011
 30
0.0
 11
-44.163750149734668
 21
23.120404784782071
 31
0.0
  0
LINE
  5
1D1A
  8
0
 62
     0
 10
-43.052500149734662
 20
24.920404784782001
 30
0.0
 11
-43.052500149734662
 21
22.514011866685848
 31
0.0
  0
LINE
  5
1D1B
  8
0
 62
     0
 10
-41.941250149734657
 20
24.895538675204659
 30
0.0
 11
-41.941250149734657
 21
20.156568073255379
 31
0.0
  0
LINE
  5
1D1C
  8
0
 62
     0
 10
-40.830000149734673
 20
22.255352102273999
 30
0.0
 11
-40.830000149734673
 21
20.025665065784029
 31
0.0
  0
LINE
  5
1D1D
  8
0
 62
     0
 10
-39.71875014973466
 20
21.895899444963611
 30
0.0
 11
-39.71875014973466
 21
19.763285389648171
 31
0.0
  0
LINE
  5
1D1E
  8
0
 62
     0
 10
-38.607500149734662
 20
22.929647700749062
 30
0.0
 11
-38.607500149734662
 21
19.12170490301116
 31
0.0
  0
ENDBLK
  5
1D20
  8
0
  0
BLOCK
  8
0
  2
*X86
 70
     1
 10
0.0
 20
0.0
 30
0.0
  3
*X86
  1

  0
LINE
  5
1D22
  8
0
 62
     0
 10
-63.373488152602242
 20
5.5562499999999986
 30
0.0
 11
-41.62651184523552
 21
5.5562499999999986
 31
0.0
  0
LINE
  5
1D23
  8
0
 62
     0
 10
-63.777950075430539
 20
6.6674999999999978
 30
0.0
 11
-41.222049922407201
 21
6.6674999999999978
 31
0.0
  0
LINE
  5
1D24
  8
0
 62
     0
 10
-42.945943544530657
 20
7.7787499999999978
 30
0.0
 11
-40.81756682394478
 21
7.7787499999999978
 31
0.0
  0
LINE
  5
1D25
  8
0
 62
     0
 10
-64.182434439960801
 20
7.7787499999999978
 30
0.0
 11
-62.054056453307048
 21
7.7787499999999978
 31
0.0
  0
LINE
  5
1D26
  8
0
 62
     0
 10
-39.631136872385092
 20
7.7787499999999978
 30
0.0
 11
-37.499999998918888
 21
7.7787499999999978
 31
0.0
  0
LINE
  5
1D27
  8
0
 62
     0
 10
-67.499999998918895
 20
7.7787499999999978
 30
0.0
 11
-65.368863125452592
 21
7.7787499999999978
 31
0.0
  0
LINE
  5
1D28
  8
0
 62
     0
 10
-42.541481621702353
 20
8.8899999999999988
 30
0.0
 11
-37.499999998918867
 21
8.8899999999999988
 31
0.0
  0
LINE
  5
1D29
  8
0
 62
     0
 10
-67.499999998918895
 20
8.8899999999999988
 30
0.0
 11
-62.458518376135352
 21
8.8899999999999988
 31
0.0
  0
LINE
  5
1D2A
  8
0
 62
     0
 10
-40.242015526676298
 20
10.001250000000001
 30
0.0
 11
-37.499999998918859
 21
10.001250000000001
 31
0.0
  0
LINE
  5
1D2B
  8
0
 62
     0
 10
-67.499999998918895
 20
10.001250000000001
 30
0.0
 11
-64.75798447116513
 21
10.001250000000001
 31
0.0
  0
ENDBLK
  5
1D2D
  8
0
  0
BLOCK
  8
0
  2
*X87
 70
     1
 10
0.0
 20
0.0
 30
0.0
  3
*X87
  1

  0
LINE
  5
1D75
  8
0
 62
     0
 10
-66.388750149734662
 20
22.926347879283281
 30
0.0
 11
-66.388750149734662
 21
19.123869792373601
 31
0.0
  0
LINE
  5
1D76
  8
0
 62
     0
 10
-65.277500149734664
 20
21.893271668519638
 30
0.0
 11
-65.277500149734664
 21
19.765450279010551
 31
0.0
  0
LINE
  5
1D77
  8
0
 62
     0
 10
-64.166250149734665
 20
22.265654313871021
 30
0.0
 11
-64.166250149734665
 21
20.02566506578416
 31
0.0
  0
LINE
  5
1D78
  8
0
 62
     0
 10
-63.05500014973466
 20
24.89690516756561
 30
0.0
 11
-63.05500014973466
 21
20.15871292882537
 31
0.0
  0
LINE
  5
1D79
  8
0
 62
     0
 10
-61.943750149734662
 20
24.92040478478209
 30
0.0
 11
-61.943750149734662
 21
22.524314078282831
 31
0.0
  0
LINE
  5
1D7A
  8
0
 62
     0
 10
-60.832500149734663
 20
24.920404784782079
 30
0.0
 11
-60.832500149734663
 21
23.120404784782131
 31
0.0
  0
LINE
  5
1D7B
  8
0
 62
     0
 10
-59.721250149734658
 20
24.920404784782079
 30
0.0
 11
-59.721250149734658
 21
23.120404784782121
 31
0.0
  0
LINE
  5
1D7C
  8
0
 62
     0
 10
-58.61000014973466
 20
24.920404784782072
 30
0.0
 11
-58.61000014973466
 21
23.12040478478211
 31
0.0
  0
LINE
  5
1D7D
  8
0
 62
     0
 10
-57.498750149734661
 20
24.920404784782072
 30
0.0
 11
-57.498750149734661
 21
23.120404784782099
 31
0.0
  0
LINE
  5
1D7E
  8
0
 62
     0
 10
-56.387500149734663
 20
24.920404784782072
 30
0.0
 11
-56.387500149734663
 21
23.120404784782099
 31
0.0
  0
LINE
  5
1D7F
  8
0
 62
     0
 10
-55.276250149734658
 20
24.920404784782072
 30
0.0
 11
-55.276250149734658
 21
23.120404784782089
 31
0.0
  0
LINE
  5
1D80
  8
0
 62
     0
 10
-54.165000149734666
 20
24.920404784782061
 30
0.0
 11
-54.165000149734666
 21
23.120404784782089
 31
0.0
  0
LINE
  5
1D81
  8
0
 62
     0
 10
-53.053750149734661
 20
24.920404784782061
 30
0.0
 11
-53.053750149734661
 21
23.120404784782082
 31
0.0
  0
LINE
  5
1D82
  8
0
 62
     0
 10
-51.942500149734663
 20
24.920404784782061
 30
0.0
 11
-51.942500149734663
 21
23.120404784782082
 31
0.0
  0
LINE
  5
1D83
  8
0
 62
     0
 10
-50.83125014973465
 20
24.92040478478205
 30
0.0
 11
-50.83125014973465
 21
23.120404784782082
 31
0.0
  0
LINE
  5
1D84
  8
0
 62
     0
 10
-49.720000149734659
 20
24.92040478478204
 30
0.0
 11
-49.720000149734659
 21
23.120404784782082
 31
0.0
  0
LINE
  5
1D85
  8
0
 62
     0
 10
-48.608750149734661
 20
24.92040478478204
 30
0.0
 11
-48.608750149734661
 21
23.120404784782082
 31
0.0
  0
LINE
  5
1D86
  8
0
 62
     0
 10
-47.497500149734663
 20
24.920404784782029
 30
0.0
 11
-47.497500149734663
 21
23.120404784782071
 31
0.0
  0
LINE
  5
1D87
  8
0
 62
     0
 10
-46.386250149734657
 20
24.920404784782018
 30
0.0
 11
-46.386250149734657
 21
23.120404784782071
 31
0.0
  0
LINE
  5
1D88
  8
0
 62
     0
 10
-45.275000149734659
 20
24.920404784782018
 30
0.0
 11
-45.275000149734659
 21
23.120404784782071
 31
0.0
  0
LINE
  5
1D89
  8
0
 62
     0
 10
-44.163750149734668
 20
24.920404784782011
 30
0.0
 11
-44.163750149734668
 21
23.120404784782071
 31
0.0
  0
LINE
  5
1D8A
  8
0
 62
     0
 10
-43.052500149734662
 20
24.920404784782001
 30
0.0
 11
-43.052500149734662
 21
22.514011866685848
 31
0.0
  0
LINE
  5
1D8B
  8
0
 62
     0
 10
-41.941250149734657
 20
24.895538675204659
 30
0.0
 11
-41.941250149734657
 21
20.156568073255379
 31
0.0
  0
LINE
  5
1D8C
  8
0
 62
     0
 10
-40.830000149734673
 20
22.255352102273999
 30
0.0
 11
-40.830000149734673
 21
20.025665065784029
 31
0.0
  0
LINE
  5
1D8D
  8
0
 62
     0
 10
-39.71875014973466
 20
21.895899444963611
 30
0.0
 11
-39.71875014973466
 21
19.763285389648171
 31
0.0
  0
LINE
  5
1D8E
  8
0
 62
     0
 10
-38.607500149734662
 20
22.929647700749062
 30
0.0
 11
-38.607500149734662
 21
19.12170490301116
 31
0.0
  0
ENDBLK
  5
1D90
  8
0
  0
BLOCK
  8
0
  2
*X88
 70
     1
 10
0.0
 20
0.0
 30
0.0
  3
*X88
  1

  0
LINE
  5
1D92
  8
0
 62
     0
 10
-63.373488152602242
 20
5.5562499999999986
 30
0.0
 11
-41.62651184523552
 21
5.5562499999999986
 31
0.0
  0
LINE
  5
1D93
  8
0
 62
     0
 10
-63.777950075430539
 20
6.6674999999999978
 30
0.0
 11
-41.222049922407201
 21
6.6674999999999978
 31
0.0
  0
LINE
  5
1D94
  8
0
 62
     0
 10
-42.945943544530657
 20
7.7787499999999978
 30
0.0
 11
-40.81756682394478
 21
7.7787499999999978
 31
0.0
  0
LINE
  5
1D95
  8
0
 62
     0
 10
-64.182434439960801
 20
7.7787499999999978
 30
0.0
 11
-62.054056453307048
 21
7.7787499999999978
 31
0.0
  0
LINE
  5
1D96
  8
0
 62
     0
 10
-39.631136872385092
 20
7.7787499999999978
 30
0.0
 11
-37.499999998918888
 21
7.7787499999999978
 31
0.0
  0
LINE
  5
1D97
  8
0
 62
     0
 10
-67.499999998918895
 20
7.7787499999999978
 30
0.0
 11
-65.368863125452592
 21
7.7787499999999978
 31
0.0
  0
LINE
  5
1D98
  8
0
 62
     0
 10
-42.541481621702353
 20
8.8899999999999988
 30
0.0
 11
-37.499999998918867
 21
8.8899999999999988
 31
0.0
  0
LINE
  5
1D99
  8
0
 62
     0
 10
-67.499999998918895
 20
8.8899999999999988
 30
0.0
 11
-62.458518376135352
 21
8.8899999999999988
 31
0.0
  0
LINE
  5
1D9A
  8
0
 62
     0
 10
-40.242015526676298
 20
10.001250000000001
 30
0.0
 11
-37.499999998918859
 21
10.001250000000001
 31
0.0
  0
LINE
  5
1D9B
  8
0
 62
     0
 10
-67.499999998918895
 20
10.001250000000001
 30
0.0
 11
-64.75798447116513
 21
10.001250000000001
 31
0.0
  0
ENDBLK
  5
1D9D
  8
0
  0
BLOCK
  8
0
  2
*X89
 70
     1
 10
0.0
 20
0.0
 30
0.0
  3
*X89
  1

  0
LINE
  5
1DE5
  8
0
 62
     0
 10
-36.706147989029731
 20
-23.42580223497048
 30
0.0
 11
-34.643475774863688
 21
-21.36313002080443
 31
0.0
  0
LINE
  5
1DE6
  8
0
 62
     0
 10
-37.890567614686361
 20
-23.48768984549346
 30
0.0
 11
-35.096345030720627
 21
-20.69346726152774
 31
0.0
  0
LINE
  5
1DE7
  8
0
 62
     0
 10
-38.842667329095732
 20
-23.31725754476922
 30
0.0
 11
-35.781534197824797
 21
-20.256124413498281
 31
0.0
  0
LINE
  5
1DE8
  8
0
 62
     0
 10
-39.626003146760262
 20
-22.978061347300109
 30
0.0
 11
-36.635487261673838
 21
-19.987545462213689
 31
0.0
  0
LINE
  5
1DE9
  8
0
 62
     0
 10
-40.226655032776307
 20
-22.45618121818255
 30
0.0
 11
-37.672124257171333
 21
-19.901650442577559
 31
0.0
  0
LINE
  5
1DEA
  8
0
 62
     0
 10
-40.49567800981729
 20
-21.60267218008984
 30
0.0
 11
-39.040390161644027
 21
-20.14738433191657
 31
0.0
  0
LINE
  5
1DEB
  8
0
 62
     0
 10
-34.630667912575291
 20
-21.968526629521989
 30
0.0
 11
-36.605656804935848
 21
-19.993537737161429
 31
0.0
  0
LINE
  5
1DEC
  8
0
 62
     0
 10
-35.054277990456292
 20
-22.66744856677462
 30
0.0
 11
-37.814270122581661
 21
-19.907456434649252
 31
0.0
  0
LINE
  5
1DED
  8
0
 62
     0
 10
-35.726133410029441
 20
-23.118125162335101
 30
0.0
 11
-38.779703584521712
 21
-20.064554987842769
 31
0.0
  0
LINE
  5
1DEE
  8
0
 62
     0
 10
-36.568165280667927
 20
-23.39862530683035
 30
0.0
 11
-39.574960595396647
 21
-20.391829992101631
 31
0.0
  0
LINE
  5
1DEF
  8
0
 62
     0
 10
-37.58952118183629
 20
-23.49980142079562
 30
0.0
 11
-40.190893575741541
 21
-20.898429026890369
 31
0.0
  0
LINE
  5
1DF0
  8
0
 62
     0
 10
-38.917768446594103
 20
-23.29408617117144
 30
0.0
 11
-40.499935192496977
 21
-21.711919425268551
 31
0.0
  0
ENDBLK
  5
1DF2
  8
0
  0
BLOCK
  8
0
  2
*X90
 70
     1
 10
0.0
 20
0.0
 30
0.0
  3
*X90
  1

  0
LINE
  5
1E38
  8
0
 62
     0
 10
-36.706147989029731
 20
-23.42580223497048
 30
0.0
 11
-34.643475774863688
 21
-21.36313002080443
 31
0.0
  0
LINE
  5
1E39
  8
0
 62
     0
 10
-37.890567614686361
 20
-23.48768984549346
 30
0.0
 11
-35.096345030720627
 21
-20.69346726152774
 31
0.0
  0
LINE
  5
1E3A
  8
0
 62
     0
 10
-38.842667329095732
 20
-23.31725754476922
 30
0.0
 11
-35.781534197824797
 21
-20.256124413498281
 31
0.0
  0
LINE
  5
1E3B
  8
0
 62
     0
 10
-39.626003146760262
 20
-22.978061347300109
 30
0.0
 11
-36.635487261673838
 21
-19.987545462213689
 31
0.0
  0
LINE
  5
1E3C
  8
0
 62
     0
 10
-40.226655032776307
 20
-22.45618121818255
 30
0.0
 11
-37.672124257171333
 21
-19.901650442577559
 31
0.0
  0
LINE
  5
1E3D
  8
0
 62
     0
 10
-40.49567800981729
 20
-21.60267218008984
 30
0.0
 11
-39.040390161644027
 21
-20.14738433191657
 31
0.0
  0
LINE
  5
1E3E
  8
0
 62
     0
 10
-34.630667912575291
 20
-21.968526629521989
 30
0.0
 11
-36.605656804935848
 21
-19.993537737161429
 31
0.0
  0
LINE
  5
1E3F
  8
0
 62
     0
 10
-35.054277990456292
 20
-22.66744856677462
 30
0.0
 11
-37.814270122581661
 21
-19.907456434649252
 31
0.0
  0
LINE
  5
1E40
  8
0
 62
     0
 10
-35.726133410029441
 20
-23.118125162335101
 30
0.0
 11
-38.779703584521712
 21
-20.064554987842769
 31
0.0
  0
LINE
  5
1E41
  8
0
 62
     0
 10
-36.568165280667927
 20
-23.39862530683035
 30
0.0
 11
-39.574960595396647
 21
-20.391829992101631
 31
0.0
  0
LINE
  5
1E42
  8
0
 62
     0
 10
-37.58952118183629
 20
-23.49980142079562
 30
0.0
 11
-40.190893575741541
 21
-20.898429026890369
 31
0.0
  0
LINE
  5
1E43
  8
0
 62
     0
 10
-38.917768446594103
 20
-23.29408617117144
 30
0.0
 11
-40.499935192496977
 21
-21.711919425268551
 31
0.0
  0
ENDBLK
  5
1E45
  8
0
  0
ENDSEC
  0
SECTION
  2
ENTITIES
  0
POLYLINE
  5
DCA
  8
SAPA_ANSLUTNING
 66
     1
 10
0.0
 20
0.0
 30
0.0
  0
VERTEX
  5
154E
  8
SAPA_ANSLUTNING
 10
18.112957719598601
 20
38.005684996557562
 30
0.0
  0
VERTEX
  5
154F
  8
SAPA_ANSLUTNING
 10
18.11295771959837
 20
27.00568315424508
 30
0.0
 42
-0.9999999999999998
  0
VERTEX
  5
1550
  8
SAPA_ANSLUTNING
 10
14.112957719598599
 20
27.00568315424508
 30
0.0
  0
VERTEX
  5
1551
  8
SAPA_ANSLUTNING
 10
14.112957719598599
 20
38.005683154245077
 30
0.0
 42
0.9999999999999998
  0
VERTEX
  5
1552
  8
SAPA_ANSLUTNING
 10
10.11295771960291
 20
38.00568315424502
 30
0.0
  0
VERTEX
  5
1553
  8
SAPA_ANSLUTNING
 10
10.11295771960269
 20
27.005681311932541
 30
0.0
 42
-0.9999999999999998
  0
VERTEX
  5
1554
  8
SAPA_ANSLUTNING
 10
6.1129577196029166
 20
27.005681311932541
 30
0.0
  0
VERTEX
  5
1555
  8
SAPA_ANSLUTNING
 10
6.1129577196029166
 20
38.005681311932541
 30
0.0
 42
0.9999999999999998
  0
VERTEX
  5
1556
  8
SAPA_ANSLUTNING
 10
2.1129577196072371
 20
38.005681311932541
 30
0.0
  0
VERTEX
  5
1557
  8
SAPA_ANSLUTNING
 10
2.112957719607464
 20
27.005681311932541
 30
0.0
 42
-0.9999999999999998
  0
VERTEX
  5
1558
  8
SAPA_ANSLUTNING
 10
-1.887042280392762
 20
27.005681311932541
 30
0.0
  0
VERTEX
  5
1559
  8
SAPA_ANSLUTNING
 10
-1.8870422803925351
 20
38.005681311932541
 30
0.0
 42
0.9999999999999998
  0
VERTEX
  5
155A
  8
SAPA_ANSLUTNING
 10
-5.8870422803882141
 20
38.005681311932541
 30
0.0
  0
VERTEX
  5
155B
  8
SAPA_ANSLUTNING
 10
-5.8870422803879867
 20
27.005681311932541
 30
0.0
 42
-0.9999999999999998
  0
VERTEX
  5
155C
  8
SAPA_ANSLUTNING
 10
-9.8870422803882132
 20
27.005681311932541
 30
0.0
  0
VERTEX
  5
155D
  8
SAPA_ANSLUTNING
 10
-9.8870422803879876
 20
38.005681311932541
 30
0.0
 42
0.9999999999999998
  0
VERTEX
  5
155E
  8
SAPA_ANSLUTNING
 10
-13.887042280383669
 20
38.005681311932541
 30
0.0
  0
VERTEX
  5
155F
  8
SAPA_ANSLUTNING
 10
-13.88704228038344
 20
27.005681311932541
 30
0.0
 42
-0.9999999999999998
  0
VERTEX
  5
1560
  8
SAPA_ANSLUTNING
 10
-17.887042280383671
 20
27.005681311932541
 30
0.0
  0
VERTEX
  5
1561
  8
SAPA_ANSLUTNING
 10
-17.88704228038344
 20
38.005681311932541
 30
0.0
 42
0.9999999999999998
  0
VERTEX
  5
1562
  8
SAPA_ANSLUTNING
 10
-21.88704228037912
 20
38.005681311932541
 30
0.0
  0
VERTEX
  5
1563
  8
SAPA_ANSLUTNING
 10
-21.88704228037912
 20
27.005681311932541
 30
0.0
 42
-0.9999999999999998
  0
VERTEX
  5
1564
  8
SAPA_ANSLUTNING
 10
-25.887042280378889
 20
27.005681311932541
 30
0.0
  0
VERTEX
  5
1565
  8
SAPA_ANSLUTNING
 10
-25.887042280374569
 20
38.005681311932541
 30
0.0
 42
0.9999999999999998
  0
VERTEX
  5
1566
  8
SAPA_ANSLUTNING
 10
-29.887042280374342
 20
38.005681311932541
 30
0.0
  0
VERTEX
  5
1567
  8
SAPA_ANSLUTNING
 10
-29.887042280374342
 20
27.005681311932541
 30
0.0
 42
-0.9999999999999998
  0
VERTEX
  5
1568
  8
SAPA_ANSLUTNING
 10
-33.887042280374573
 20
27.005681311932541
 30
0.0
  0
VERTEX
  5
1569
  8
SAPA_ANSLUTNING
 10
-33.887042280374352
 20
38.005681311932541
 30
0.0
 42
0.9999987492793
  0
VERTEX
  5
156A
  8
SAPA_ANSLUTNING
 10
-37.887042280363659
 20
38.005686314818462
 30
0.0
  0
VERTEX
  5
156B
  8
SAPA_ANSLUTNING
 10
-37.887042280363893
 20
27.00568447250598
 30
0.0
 42
-0.9999999999999998
  0
VERTEX
  5
156C
  8
SAPA_ANSLUTNING
 10
-41.887042280363659
 20
27.00568447250598
 30
0.0
  0
VERTEX
  5
156D
  8
SAPA_ANSLUTNING
 10
-41.887042280363659
 20
38.005684472505969
 30
0.0
 42
0.9999999999999998
  0
VERTEX
  5
156E
  8
SAPA_ANSLUTNING
 10
-45.887042280359339
 20
38.005684472505919
 30
0.0
  0
VERTEX
  5
156F
  8
SAPA_ANSLUTNING
 10
-45.887042280359573
 20
27.005682630193441
 30
0.0
 42
-0.9999999999999998
  0
VERTEX
  5
1570
  8
SAPA_ANSLUTNING
 10
-49.887042280359339
 20
27.005682630193441
 30
0.0
  0
VERTEX
  5
1571
  8
SAPA_ANSLUTNING
 10
-49.887042280359339
 20
38.005682630193427
 30
0.0
 42
0.9999999999999998
  0
VERTEX
  5
1572
  8
SAPA_ANSLUTNING
 10
-53.887042280355018
 20
38.005682630193427
 30
0.0
  0
VERTEX
  5
1573
  8
SAPA_ANSLUTNING
 10
-53.887042280354791
 20
27.005682630193441
 30
0.0
 42
-0.6947281567971685
  0
VERTEX
  5
1574
  8
SAPA_ANSLUTNING
 10
-57.400009796202227
 20
25.697657670190271
 30
0.0
  0
SEQEND
  5
1575
  8
SAPA_ANSLUTNING
  0
POLYLINE
  5
DCB
  8
SAPA_ANSLUTNING
 66
     1
 10
0.0
 20
0.0
 30
0.0
  0
VERTEX
  5
1576
  8
SAPA_ANSLUTNING
 10
-72.480494727145583
 20
25.067830110443818
 30
0.0
  0
VERTEX
  5
1577
  8
SAPA_ANSLUTNING
 10
-57.480494727145611
 20
25.113988187408779
 30
0.0
  0
VERTEX
  5
1578
  8
SAPA_ANSLUTNING
 10
-57.480494727145611
 20
40.005681311932499
 30
0.0
  0
VERTEX
  5
1579
  8
SAPA_ANSLUTNING
 10
-72.480494727145583
 20
40.005681311932499
 30
0.0
  0
VERTEX
  5
157A
  8
SAPA_ANSLUTNING
 10
-72.480494727145583
 20
25.067830110443818
 30
0.0
  0
SEQEND
  5
157B
  8
SAPA_ANSLUTNING
  0
INSERT
  5
DCC
  8
SAPA_ANSLUTNING
  2
*X10
 10
-632.61526454994703
 20
-611.73494132382405
 30
0.0
  0
ARC
  5
DCD
  8
SAPA_ANSLUTNING
 10
23.569103473349148
 20
32.88780891509748
 30
0.0
 40
8.6522224087403927
 50
294.26546463095372
 51
54.905237923328748
  0
INSERT
  5
DCE
  8
SAPA_ANSLUTNING
  2
*X9
 10
-632.61526454994703
 20
-611.73494132382405
 30
0.0
  0
ARC
  5
DCF
  8
SAPA_ANSLUTNING
 10
26.736591691074501
 20
32.887531478042888
 30
0.0
 40
8.6517977492931522
 50
125.083408610373
 51
245.73630323658591
  0
ARC
  5
DD0
  8
SAPA_ANSLUTNING
 10
53.483870312700112
 20
33.001107298147993
 30
0.0
 40
12.40812266731845
 50
145.66314081641681
 51
220.1527928163591
  0
INSERT
  5
DD1
  8
SAPA_ANSLUTNING
  6
CONTINUOUS
  2
*X80
 10
0.0
 20
0.0
 30
0.0
1001
ACAD
1000
HATCH
1002
{
1070
    19
1000
HEX
1040
0.25
1040
-1.5707963267948959
1000
R14_HATCH_DATA
1000
DD1
1011
1.0
1021
0.0
1031
0.0
1021
0.0
1031
0.0
1011
0.0
1021
0.0
1031
0.0
1021
1.0
1031
0.0
1011
0.0
1021
0.0
1031
0.0
1021
0.0
1031
1.0
1040
0.0
1010
0.0
1020
0.0
1030
1.0
1000
HEX
1070
     0
1070
     0
1071
        1
1071
        7
1070
     0
1070
     1
1071
        4
1040
-72.48049472714564
1040
25.067830110443818
1040
-57.480494727145611
1040
25.113988187408779
1040
-57.480494727145611
1040
40.005681311932499
1040
-72.480494727145583
1040
40.005681311932499
1071
        0
1070
     0
1070
     1
1040
-1.5707963267948959
1040
0.25
1070
     0
1070
     3
1040
4.7123889803846888
1040
-326.07094910480282
1040
36.04480312555927
1040
1.374814999999999
1040
-0.0000000000000003
1070
     2
1040
0.79375
1040
-1.587499999999999
1040
0.5235987755982982
1040
-326.07094910480282
1040
36.04480312555927
1040
-0.6874074999999995
1040
1.1906247155039029
1070
     2
1040
0.7937499999999983
1040
-1.5874999999999959
1040
5.7595865315812871
1040
-326.07094910480282
1040
35.251053125559281
1040
0.6874075000000003
1040
1.190624715503902
1070
     2
1040
0.7937499999999998
1040
-1.587499999999999
1040
0.0491501688804417
1071
        1
1040
-62.653134327899942
1040
24.91451603954539
1040
0.0
1002
}
  0
LINE
  5
DD2
  8
SAPA_ANSLUTNING
 62
     3
 10
58.822858504106883
 20
40.000000373540217
 30
0.0
 11
-95.524445940289809
 21
40.000000373540239
 31
0.0
  0
POLYLINE
  5
14A4
  8
SAPA_PROFIL
  6
CONTINUOUS
 62
     7
 66
     1
 10
0.0
 20
0.0
 30
0.0
 70
     1
  0
VERTEX
  5
1917
  8
SAPA_PROFIL
  6
CONTINUOUS
 62
     7
 10
-74.000000000957144
 20
16.49999999999822
 30
0.0
  0
VERTEX
  5
1918
  8
SAPA_PROFIL
  6
CONTINUOUS
 62
     7
 10
-77.000000000003354
 20
16.49999999999822
 30
0.0
 42
0.4142135623732074
  0
VERTEX
  5
1919
  8
SAPA_PROFIL
  6
CONTINUOUS
 62
     7
 10
-77.500000000003368
 20
15.999999999998019
 30
0.0
  0
VERTEX
  5
191A
  8
SAPA_PROFIL
  6
CONTINUOUS
 62
     7
 10
-77.499999999999545
 20
7.3999999999979273
 30
0.0
 42
-0.4142135623730951
  0
VERTEX
  5
191B
  8
SAPA_PROFIL
  6
CONTINUOUS
 62
     7
 10
-77.999999999999545
 20
6.8999999999979273
 30
0.0
  0
VERTEX
  5
191C
  8
SAPA_PROFIL
  6
CONTINUOUS
 62
     7
 10
-80.300000000000196
 20
6.8999999999979273
 30
0.0
 42
0.4142135623730951
  0
VERTEX
  5
191D
  8
SAPA_PROFIL
  6
CONTINUOUS
 62
     7
 10
-81.300000000000225
 20
5.8999999999979273
 30
0.0
  0
VERTEX
  5
191E
  8
SAPA_PROFIL
  6
CONTINUOUS
 62
     7
 10
-81.300000000000225
 20
5.0873697418225241
 30
0.0
 42
0.2216946626429368
  0
VERTEX
  5
191F
  8
SAPA_PROFIL
  6
CONTINUOUS
 62
     7
 10
-81.192836282906171
 20
4.8575564088868317
 30
0.0
  0
VERTEX
  5
1920
  8
SAPA_PROFIL
  6
CONTINUOUS
 62
     7
 10
-80.492836282905628
 20
4.270186667062279
 30
0.0
 42
0.6370702608061857
  0
VERTEX
  5
1921
  8
SAPA_PROFIL
  6
CONTINUOUS
 62
     7
 10
-80.000000000000014
 20
4.4999999999982201
 30
0.0
  0
VERTEX
  5
1922
  8
SAPA_PROFIL
  6
CONTINUOUS
 62
     7
 10
-80.000000000000014
 20
5.2999999999984162
 30
0.0
 42
-0.4142135623730951
  0
VERTEX
  5
1923
  8
SAPA_PROFIL
  6
CONTINUOUS
 62
     7
 10
-79.699999999999804
 20
5.5999999999986123
 30
0.0
  0
VERTEX
  5
1924
  8
SAPA_PROFIL
  6
CONTINUOUS
 62
     7
 10
-75.299999999999272
 20
5.5999999999976717
 30
0.0
 42
-0.4142135623730504
  0
VERTEX
  5
1925
  8
SAPA_PROFIL
  6
CONTINUOUS
 62
     7
 10
-74.999999999999545
 20
5.2999999999975191
 30
0.0
  0
VERTEX
  5
1926
  8
SAPA_PROFIL
  6
CONTINUOUS
 62
     7
 10
-74.999999999999559
 20
-5.3000000000019263
 30
0.0
 42
-0.4142135623730878
  0
VERTEX
  5
1927
  8
SAPA_PROFIL
  6
CONTINUOUS
 62
     7
 10
-75.299999999999258
 20
-5.6000000000021011
 30
0.0
  0
VERTEX
  5
1928
  8
SAPA_PROFIL
  6
CONTINUOUS
 62
     7
 10
-79.699999999999804
 20
-5.60000000000203
 30
0.0
 42
-0.4142135623735842
  0
VERTEX
  5
1929
  8
SAPA_PROFIL
  6
CONTINUOUS
 62
     7
 10
-79.999999999999517
 20
-5.3000000000028278
 30
0.0
  0
VERTEX
  5
192A
  8
SAPA_PROFIL
  6
CONTINUOUS
 62
     7
 10
-80.000000000000014
 20
-4.5000000000008411
 30
0.0
 42
0.6370702608069853
  0
VERTEX
  5
192B
  8
SAPA_PROFIL
  6
CONTINUOUS
 62
     7
 10
-80.492836282905628
 20
-4.2701866670657536
 30
0.0
  0
VERTEX
  5
192C
  8
SAPA_PROFIL
  6
CONTINUOUS
 62
     7
 10
-81.192836282906171
 20
-4.8575564088903143
 30
0.0
 42
0.2216946626431
  0
VERTEX
  5
192D
  8
SAPA_PROFIL
  6
CONTINUOUS
 62
     7
 10
-81.300000000000225
 20
-5.0873697418261967
 30
0.0
  0
VERTEX
  5
192E
  8
SAPA_PROFIL
  6
CONTINUOUS
 62
     7
 10
-81.299999999999713
 20
-5.9000000000031916
 30
0.0
 42
0.4142135623730951
  0
VERTEX
  5
192F
  8
SAPA_PROFIL
  6
CONTINUOUS
 62
     7
 10
-80.299999999999713
 20
-6.9000000000031916
 30
0.0
  0
VERTEX
  5
1930
  8
SAPA_PROFIL
  6
CONTINUOUS
 62
     7
 10
-72.799999999999969
 20
-6.9000000000022972
 30
0.0
 42
0.3178372451964626
  0
VERTEX
  5
1931
  8
SAPA_PROFIL
  6
CONTINUOUS
 62
     7
 10
-72.517157287525123
 20
-6.7000000000015687
 30
0.0
 42
-0.3178372451966722
  0
VERTEX
  5
1932
  8
SAPA_PROFIL
  6
CONTINUOUS
 62
     7
 10
-72.23431457505005
 20
-6.5000000000008411
 30
0.0
  0
VERTEX
  5
1933
  8
SAPA_PROFIL
  6
CONTINUOUS
 62
     7
 10
-70.799999999999727
 20
-6.500000000001747
 30
0.0
 42
0.4142135623726539
  0
VERTEX
  5
1934
  8
SAPA_PROFIL
  6
CONTINUOUS
 62
     7
 10
-70.5
 20
-6.200000000001566
 30
0.0
  0
VERTEX
  5
1935
  8
SAPA_PROFIL
  6
CONTINUOUS
 62
     7
 10
-70.500000000000014
 20
-5.6000000000010166
 30
0.0
 42
0.4142135623730836
  0
VERTEX
  5
1936
  8
SAPA_PROFIL
  6
CONTINUOUS
 62
     7
 10
-70.799999999999727
 20
-5.3000000000017522
 30
0.0
  0
VERTEX
  5
1937
  8
SAPA_PROFIL
  6
CONTINUOUS
 62
     7
 10
-72.199999999999804
 20
-5.3000000000017407
 30
0.0
 42
-0.4142135623730951
  0
VERTEX
  5
1938
  8
SAPA_PROFIL
  6
CONTINUOUS
 62
     7
 10
-72.499999999999986
 20
-5.0000000000015659
 30
0.0
  0
VERTEX
  5
1939
  8
SAPA_PROFIL
  6
CONTINUOUS
 62
     7
 10
-72.499999999999986
 20
4.9999999999990141
 30
0.0
 42
-0.4142135623730743
  0
VERTEX
  5
193A
  8
SAPA_PROFIL
  6
CONTINUOUS
 62
     7
 10
-72.199999999999804
 20
5.2999999999982217
 30
0.0
  0
VERTEX
  5
193B
  8
SAPA_PROFIL
  6
CONTINUOUS
 62
     7
 10
-70.799999999999727
 20
5.2999999999991099
 30
0.0
 42
0.4142135623721762
  0
VERTEX
  5
193C
  8
SAPA_PROFIL
  6
CONTINUOUS
 62
     7
 10
-70.499999999999957
 20
5.5999999999984178
 30
0.0
  0
VERTEX
  5
193D
  8
SAPA_PROFIL
  6
CONTINUOUS
 62
     7
 10
-70.499999999999545
 20
6.1999999999990312
 30
0.0
 42
0.4142135623730534
  0
VERTEX
  5
193E
  8
SAPA_PROFIL
  6
CONTINUOUS
 62
     7
 10
-70.799999999999713
 20
6.4999999999982458
 30
0.0
  0
VERTEX
  5
193F
  8
SAPA_PROFIL
  6
CONTINUOUS
 62
     7
 10
-72.234314575050433
 20
6.499999999999134
 30
0.0
 42
-0.3178372451963242
  0
VERTEX
  5
1940
  8
SAPA_PROFIL
  6
CONTINUOUS
 62
     7
 10
-72.517157287525123
 20
6.699999999998079
 30
0.0
 42
0.3178372451964607
  0
VERTEX
  5
1941
  8
SAPA_PROFIL
  6
CONTINUOUS
 62
     7
 10
-72.799999999999955
 20
6.8999999999987924
 30
0.0
  0
VERTEX
  5
1942
  8
SAPA_PROFIL
  6
CONTINUOUS
 62
     7
 10
-74.500000000000043
 20
6.8999999999990118
 30
0.0
 42
-0.4142135623730597
  0
VERTEX
  5
1943
  8
SAPA_PROFIL
  6
CONTINUOUS
 62
     7
 10
-74.999999999999986
 20
7.3999999999990118
 30
0.0
  0
VERTEX
  5
1944
  8
SAPA_PROFIL
  6
CONTINUOUS
 62
     7
 10
-74.999999999999986
 20
12.40192378920622
 30
0.0
 42
-0.2679491923306345
  0
VERTEX
  5
1945
  8
SAPA_PROFIL
  6
CONTINUOUS
 62
     7
 10
-74.750000000156874
 20
12.834936490995521
 30
0.0
 42
0.2679491923317589
  0
VERTEX
  5
1946
  8
SAPA_PROFIL
  6
CONTINUOUS
 62
     7
 10
-73.500000000957129
 20
14.999999999998209
 30
0.0
  0
VERTEX
  5
1947
  8
SAPA_PROFIL
  6
CONTINUOUS
 62
     7
 10
-73.500000000957925
 20
15.99999999999822
 30
0.0
 42
0.4142135623730951
  0
SEQEND
  5
1948
  8
SAPA_PROFIL
  6
CONTINUOUS
 62
     7
  0
POLYLINE
  5
14A5
  8
SAPA_PROFIL
 62
     4
 66
     1
 10
0.0
 20
0.0
 30
0.0
 70
     1
  0
VERTEX
  5
1949
  8
SAPA_PROFIL
 62
     4
 10
-64.462221528366854
 20
22.026757195034929
 30
0.0
 42
0.3137019356282051
  0
VERTEX
  5
194A
  8
SAPA_PROFIL
 62
     4
 10
-64.181271744820549
 20
22.224382820568351
 30
0.0
  0
VERTEX
  5
194B
  8
SAPA_PROFIL
 62
     4
 10
-63.295794031949349
 20
24.657212842112369
 30
0.0
 42
-0.3152987888779321
  0
VERTEX
  5
194C
  8
SAPA_PROFIL
 62
     4
 10
-62.919916983632959
 20
24.92040478478209
 30
0.0
  0
VERTEX
  5
194D
  8
SAPA_PROFIL
 62
     4
 10
-52.499999998918831
 20
24.920404784782061
 30
0.0
  0
VERTEX
  5
194E
  8
SAPA_PROFIL
 62
     4
 10
-42.080083014200738
 20
24.920404784782001
 30
0.0
 42
-0.3152987888779395
  0
VERTEX
  5
194F
  8
SAPA_PROFIL
 62
     4
 10
-41.70420596588837
 20
24.65721284211228
 30
0.0
  0
VERTEX
  5
1950
  8
SAPA_PROFIL
 62
     4
 10
-40.818728253020197
 20
22.22438282057659
 30
0.0
 42
0.3138982169096283
  0
VERTEX
  5
1951
  8
SAPA_PROFIL
 62
     4
 10
-40.537778469506009
 20
22.026757195036229
 30
0.0
 42
0.0157923906855865
  0
VERTEX
  5
1952
  8
SAPA_PROFIL
 62
     4
 10
-40.186319937167163
 20
22.023354065396632
 30
0.0
  0
VERTEX
  5
1953
  8
SAPA_PROFIL
 62
     4
 10
-39.946136872384869
 20
21.884684308290112
 30
0.0
 42
0.5773502691889272
  0
VERTEX
  5
1954
  8
SAPA_PROFIL
 62
     4
 10
-39.631136872385163
 20
22.066549643084912
 30
0.0
  0
VERTEX
  5
1955
  8
SAPA_PROFIL
 62
     4
 10
-39.631136872385042
 20
22.333664171297819
 30
0.0
  0
VERTEX
  5
1956
  8
SAPA_PROFIL
 62
     4
 10
-39.29999999891885
 20
22.52988623708212
 30
0.0
  0
VERTEX
  5
1957
  8
SAPA_PROFIL
 62
     4
 10
-38.316679860938329
 20
23.097530400579569
 30
0.0
 42
-0.1316524975869703
  0
VERTEX
  5
1958
  8
SAPA_PROFIL
 62
     4
 10
-38.211679860939512
 20
23.12566506578413
 30
0.0
  0
VERTEX
  5
1959
  8
SAPA_PROFIL
 62
     4
 10
-37.89999999891694
 20
23.12566506578424
 30
0.0
 42
-0.4142135623775584
  0
VERTEX
  5
195A
  8
SAPA_PROFIL
 62
     4
 10
-37.499999998918902
 20
22.725665065783922
 30
0.0
  0
VERTEX
  5
195B
  8
SAPA_PROFIL
 62
     4
 10
-37.499999998918838
 20
19.325665065784172
 30
0.0
 42
-0.4142135623773978
  0
VERTEX
  5
195C
  8
SAPA_PROFIL
 62
     4
 10
-37.899999998918872
 20
18.925665065784191
 30
0.0
  0
VERTEX
  5
195D
  8
SAPA_PROFIL
 62
     4
 10
-38.211679860942517
 20
18.925665065784191
 30
0.0
 42
-0.1316524975869708
  0
VERTEX
  5
195E
  8
SAPA_PROFIL
 62
     4
 10
-38.316679860939473
 20
18.953799730989431
 30
0.0
  0
VERTEX
  5
195F
  8
SAPA_PROFIL
 62
     4
 10
-39.29999999891885
 20
19.521519877351469
 30
0.0
  0
VERTEX
  5
1960
  8
SAPA_PROFIL
 62
     4
 10
-39.894744110589727
 20
19.864895550323588
 30
0.0
 42
0.1316524975869772
  0
VERTEX
  5
1961
  8
SAPA_PROFIL
 62
     4
 10
-40.494744110593103
 20
20.025665065784111
 30
0.0
  0
VERTEX
  5
1962
  8
SAPA_PROFIL
 62
     4
 10
-41.446608443479533
 20
20.025665065783869
 30
0.0
 42
-0.3152987888780149
  0
VERTEX
  5
1963
  8
SAPA_PROFIL
 62
     4
 10
-42.386301064251029
 20
20.683644922458271
 30
0.0
  0
VERTEX
  5
1964
  8
SAPA_PROFIL
 62
     4
 10
-43.177415089160881
 20
22.857212842111959
 30
0.0
 42
0.3152987888779391
  0
VERTEX
  5
1965
  8
SAPA_PROFIL
 62
     4
 10
-43.553292137475403
 20
23.120404784782071
 30
0.0
  0
VERTEX
  5
1966
  8
SAPA_PROFIL
 62
     4
 10
-52.499999998918831
 20
23.120404784782071
 30
0.0
  0
VERTEX
  5
1967
  8
SAPA_PROFIL
 62
     4
 10
-61.446707860362331
 20
23.120404784782139
 30
0.0
 42
0.3152987888779318
  0
VERTEX
  5
1968
  8
SAPA_PROFIL
 62
     4
 10
-61.822584908675481
 20
22.857212842115711
 30
0.0
  0
VERTEX
  5
1969
  8
SAPA_PROFIL
 62
     4
 10
-62.613698933586591
 20
20.683644922458502
 30
0.0
 42
-0.3152987888779361
  0
VERTEX
  5
196A
  8
SAPA_PROFIL
 62
     4
 10
-63.55339155438719
 20
20.02566506578416
 30
0.0
  0
VERTEX
  5
196B
  8
SAPA_PROFIL
 62
     4
 10
-64.505255887244687
 20
20.02566506578416
 30
0.0
 42
0.1316524975869766
  0
VERTEX
  5
196C
  8
SAPA_PROFIL
 62
     4
 10
-65.105255887237888
 20
19.86489555032944
 30
0.0
  0
VERTEX
  5
196D
  8
SAPA_PROFIL
 62
     4
 10
-65.692820321946385
 20
19.525665065784221
 30
0.0
  0
VERTEX
  5
196E
  8
SAPA_PROFIL
 62
     4
 10
-66.683320136898317
 20
18.953799730989498
 30
0.0
 42
-0.1316524975869832
  0
VERTEX
  5
196F
  8
SAPA_PROFIL
 62
     4
 10
-66.788320136901405
 20
18.925665065784251
 30
0.0
  0
VERTEX
  5
1970
  8
SAPA_PROFIL
 62
     4
 10
-67.099999998918904
 20
18.925665065784202
 30
0.0
 42
-0.414213562371655
  0
VERTEX
  5
1971
  8
SAPA_PROFIL
 62
     4
 10
-67.499999998918895
 20
19.325665065788151
 30
0.0
  0
VERTEX
  5
1972
  8
SAPA_PROFIL
 62
     4
 10
-67.499999998918895
 20
22.725665065784209
 30
0.0
 42
-0.4142135623716633
  0
VERTEX
  5
1973
  8
SAPA_PROFIL
 62
     4
 10
-67.099999998916871
 20
23.12566506578419
 30
0.0
  0
VERTEX
  5
1974
  8
SAPA_PROFIL
 62
     4
 10
-66.788320136898221
 20
23.12566506578419
 30
0.0
 42
-0.1316524975869709
  0
VERTEX
  5
1975
  8
SAPA_PROFIL
 62
     4
 10
-66.683320136897635
 20
23.097530400578599
 30
0.0
  0
VERTEX
  5
1976
  8
SAPA_PROFIL
 62
     4
 10
-65.368863125452634
 20
22.333664171297819
 30
0.0
  0
VERTEX
  5
1977
  8
SAPA_PROFIL
 62
     4
 10
-65.368863125452521
 20
22.066549643084912
 30
0.0
 42
0.5773502691889269
  0
VERTEX
  5
1978
  8
SAPA_PROFIL
 62
     4
 10
-65.053863125452807
 20
21.884684308290112
 30
0.0
  0
VERTEX
  5
1979
  8
SAPA_PROFIL
 62
     4
 10
-64.813680060670507
 20
22.023354065396639
 30
0.0
 42
0.015792390685586
  0
SEQEND
  5
197A
  8
SAPA_PROFIL
 62
     4
  0
POLYLINE
  5
14A6
  8
SAPA_PROFIL
 66
     1
 10
0.0
 20
0.0
 30
0.0
 70
     1
  0
VERTEX
  5
197B
  8
SAPA_PROFIL
 10
-37.499999998918859
 20
22.952058268065301
 30
0.0
 42
-0.2134217652834366
  0
VERTEX
  5
197C
  8
SAPA_PROFIL
 10
-37.399999998918673
 20
23.175665065815402
 30
0.0
 42
0.7625858545243175
  0
VERTEX
  5
197D
  8
SAPA_PROFIL
 10
-37.584579201116149
 20
23.505991146832411
 30
0.0
  0
VERTEX
  5
197E
  8
SAPA_PROFIL
 10
-37.77596220110987
 20
23.447917509843311
 30
0.0
  0
VERTEX
  5
197F
  8
SAPA_PROFIL
 10
-39.661805892970918
 20
22.363353062871571
 30
0.0
  0
VERTEX
  5
1980
  8
SAPA_PROFIL
 10
-39.651244526743959
 20
22.04159533465333
 30
0.0
 42
-0.5773502691897529
  0
VERTEX
  5
1981
  8
SAPA_PROFIL
 10
-39.945400826998792
 20
21.858641594543151
 30
0.0
  0
VERTEX
  5
1982
  8
SAPA_PROFIL
 10
-40.230083110230467
 20
22.01077550565191
 30
0.0
 42
-0.2216946626430025
  0
VERTEX
  5
1983
  8
SAPA_PROFIL
 10
-40.635892015385217
 20
22.5516553371287
 30
0.0
  0
VERTEX
  5
1984
  8
SAPA_PROFIL
 10
-41.017338611512933
 20
24.364885807786958
 30
0.0
 42
-0.4769755326981438
  0
VERTEX
  5
1985
  8
SAPA_PROFIL
 10
-40.715085787006473
 20
24.736542682732821
 30
0.0
  0
VERTEX
  5
1986
  8
SAPA_PROFIL
 10
-39.211984706244458
 20
24.736459074849169
 30
0.0
  0
VERTEX
  5
1987
  8
SAPA_PROFIL
 10
-39.197466296997362
 20
24.688613324850689
 30
0.0
 42
0.4142135623731001
  0
VERTEX
  5
1988
  8
SAPA_PROFIL
 10
-38.82328134152155
 20
24.488649280343289
 30
0.0
  0
VERTEX
  5
1989
  8
SAPA_PROFIL
 10
-37.500280500000279
 20
25.00000000000075
 30
0.0
  0
VERTEX
  5
198A
  8
SAPA_PROFIL
 10
-35.800000000001788
 20
25.00000000000075
 30
0.0
 42
-0.4142135623730951
  0
VERTEX
  5
198B
  8
SAPA_PROFIL
 10
-35.50000000000184
 20
24.700000000000571
 30
0.0
  0
VERTEX
  5
198C
  8
SAPA_PROFIL
 10
-35.500000000001727
 20
21.699999999999878
 30
0.0
 42
0.4142135623730951
  0
VERTEX
  5
198D
  8
SAPA_PROFIL
 10
-35.200000000001772
 20
21.399999999999931
 30
0.0
  0
VERTEX
  5
198E
  8
SAPA_PROFIL
 10
-34.800000000001972
 20
21.399999999999931
 30
0.0
 42
-0.4142135623731506
  0
VERTEX
  5
198F
  8
SAPA_PROFIL
 10
-34.500000000001961
 20
21.099999999999969
 30
0.0
  0
VERTEX
  5
1990
  8
SAPA_PROFIL
 10
-34.500000000002068
 20
19.70000000000022
 30
0.0
 42
-0.4142135623731505
  0
VERTEX
  5
1991
  8
SAPA_PROFIL
 10
-34.800000000002079
 20
19.400000000000269
 30
0.0
  0
VERTEX
  5
1992
  8
SAPA_PROFIL
 10
-35.200000000001829
 20
19.400000000000269
 30
0.0
 42
0.4142135623731506
  0
VERTEX
  5
1993
  8
SAPA_PROFIL
 10
-35.50000000000184
 20
19.100000000000311
 30
0.0
  0
VERTEX
  5
1994
  8
SAPA_PROFIL
 10
-35.500000000001847
 20
10.8999999999939
 30
0.0
 42
0.4142135623731506
  0
VERTEX
  5
1995
  8
SAPA_PROFIL
 10
-35.200000000001843
 20
10.59999999999394
 30
0.0
  0
VERTEX
  5
1996
  8
SAPA_PROFIL
 10
-34.800000000002029
 20
10.599999999993891
 30
0.0
 42
-0.4142135623730951
  0
VERTEX
  5
1997
  8
SAPA_PROFIL
 10
-34.500000000002018
 20
10.29999999999399
 30
0.0
  0
VERTEX
  5
1998
  8
SAPA_PROFIL
 10
-34.500000000001847
 20
8.8999999999942432
 30
0.0
 42
-0.4142135623731505
  0
VERTEX
  5
1999
  8
SAPA_PROFIL
 10
-34.800000000001859
 20
8.5999999999942887
 30
0.0
  0
VERTEX
  5
199A
  8
SAPA_PROFIL
 10
-35.200000000001779
 20
8.5999999999942318
 30
0.0
 42
0.4142135623730951
  0
VERTEX
  5
199B
  8
SAPA_PROFIL
 10
-35.500000000001791
 20
8.2999999999943341
 30
0.0
  0
VERTEX
  5
199C
  8
SAPA_PROFIL
 10
-35.500000000001911
 20
5.2999999999935952
 30
0.0
 42
-0.4142135623743715
  0
VERTEX
  5
199D
  8
SAPA_PROFIL
 10
-35.800000000001802
 20
4.9999999999934133
 30
0.0
  0
VERTEX
  5
199E
  8
SAPA_PROFIL
 10
-37.500280500035068
 20
4.9999999999934133
 30
0.0
  0
VERTEX
  5
199F
  8
SAPA_PROFIL
 10
-38.82328134152155
 20
5.511350719637341
 30
0.0
 42
0.4142135623730744
  0
VERTEX
  5
19A0
  8
SAPA_PROFIL
 10
-39.197466296997362
 20
5.3113866751299446
 30
0.0
  0
VERTEX
  5
19A1
  8
SAPA_PROFIL
 10
-39.211984706244458
 20
5.2635409251314584
 30
0.0
  0
VERTEX
  5
19A2
  8
SAPA_PROFIL
 10
-40.715085787006473
 20
5.2634573172478047
 30
0.0
 42
-0.4769755326981443
  0
VERTEX
  5
19A3
  8
SAPA_PROFIL
 10
-41.01733861151294
 20
5.6351141921936749
 30
0.0
  0
VERTEX
  5
19A4
  8
SAPA_PROFIL
 10
-40.635892015385281
 20
7.4483446628519303
 30
0.0
 42
-0.2216946626430325
  0
VERTEX
  5
19A5
  8
SAPA_PROFIL
 10
-40.230083110230417
 20
7.9892244943287158
 30
0.0
  0
VERTEX
  5
19A6
  8
SAPA_PROFIL
 10
-39.945400826998792
 20
8.1413584054374795
 30
0.0
 42
-0.5773502691897529
  0
VERTEX
  5
19A7
  8
SAPA_PROFIL
 10
-39.651244526743973
 20
7.9584046653272997
 30
0.0
  0
VERTEX
  5
19A8
  8
SAPA_PROFIL
 10
-39.661805892970932
 20
7.6366469371090551
 30
0.0
  0
VERTEX
  5
19A9
  8
SAPA_PROFIL
 10
-37.775962201109877
 20
6.552082490137316
 30
0.0
  0
VERTEX
  5
19AA
  8
SAPA_PROFIL
 10
-37.584579201116163
 20
6.494008853148336
 30
0.0
 42
0.7625858545243173
  0
VERTEX
  5
19AB
  8
SAPA_PROFIL
 10
-37.39999999891873
 20
6.8243349341652291
 30
0.0
 42
-0.2134217652834366
  0
VERTEX
  5
19AC
  8
SAPA_PROFIL
 10
-37.499999998918867
 20
7.047941731915337
 30
0.0
  0
VERTEX
  5
19AD
  8
SAPA_PROFIL
 10
-37.499999998918859
 20
10.900728136491351
 30
0.0
 42
0.4142135623730951
  0
VERTEX
  5
19AE
  8
SAPA_PROFIL
 10
-37.799999998918807
 20
11.20072813649131
 30
0.0
  0
VERTEX
  5
19AF
  8
SAPA_PROFIL
 10
-38.09999999891923
 20
11.20072813649131
 30
0.0
  0
VERTEX
  5
19B0
  8
SAPA_PROFIL
 10
-39.699999998918678
 20
10.27696770578769
 30
0.0
 42
-0.577350269189529
  0
VERTEX
  5
19B1
  8
SAPA_PROFIL
 10
-39.999999998918859
 20
10.45017278654473
 30
0.0
  0
VERTEX
  5
19B2
  8
SAPA_PROFIL
 10
-39.999999998918859
 20
19.549827213449419
 30
0.0
 42
-0.577350269189529
  0
VERTEX
  5
19B3
  8
SAPA_PROFIL
 10
-39.699999998918678
 20
19.723032294206469
 30
0.0
  0
VERTEX
  5
19B4
  8
SAPA_PROFIL
 10
-38.09999999891923
 20
18.799271863502842
 30
0.0
  0
VERTEX
  5
19B5
  8
SAPA_PROFIL
 10
-37.799999998918807
 20
18.799271863502842
 30
0.0
 42
0.4142135623730951
  0
VERTEX
  5
19B6
  8
SAPA_PROFIL
 10
-37.499999998918859
 20
19.0992718635028
 30
0.0
  0
SEQEND
  5
19B7
  8
SAPA_PROFIL
  0
POLYLINE
  5
14A7
  8
SAPA_PROFIL
  6
CONTINUOUS
 62
     7
 66
     1
 10
0.0
 20
0.0
 30
0.0
 70
     1
  0
VERTEX
  5
19B8
  8
SAPA_PROFIL
  6
CONTINUOUS
 62
     7
 10
-87.300003047092844
 20
23.00000000003552
 30
0.0
  0
VERTEX
  5
19B9
  8
SAPA_PROFIL
  6
CONTINUOUS
 62
     7
 10
-87.300003047092844
 20
21.35000000004316
 30
0.0
 42
0.4142135623729003
  0
VERTEX
  5
19BA
  8
SAPA_PROFIL
  6
CONTINUOUS
 62
     7
 10
-87.000003047092889
 20
21.050000000042971
 30
0.0
  0
VERTEX
  5
19BB
  8
SAPA_PROFIL
  6
CONTINUOUS
 62
     7
 10
-85.400000001070865
 20
21.050000000042971
 30
0.0
 42
-0.1806877882261281
  0
VERTEX
  5
19BC
  8
SAPA_PROFIL
  6
CONTINUOUS
 62
     7
 10
-83.400283406662723
 20
20.302961906125301
 30
0.0
 42
-0.9538213995949648
  0
VERTEX
  5
19BD
  8
SAPA_PROFIL
  6
CONTINUOUS
 62
     7
 10
-84.328106923347434
 20
19.126474928900318
 30
0.0
  0
VERTEX
  5
19BE
  8
SAPA_PROFIL
  6
CONTINUOUS
 62
     7
 10
-84.585303985957879
 20
19.05755918367872
 30
0.0
 42
-0.4142135623719595
  0
VERTEX
  5
19BF
  8
SAPA_PROFIL
  6
CONTINUOUS
 62
     7
 10
-84.891481088747057
 20
19.23433061639393
 30
0.0
  0
VERTEX
  5
19C0
  8
SAPA_PROFIL
  6
CONTINUOUS
 62
     7
 10
-84.958891075394575
 20
19.485908111498329
 30
0.0
 42
0.4299878773908156
  0
VERTEX
  5
19C1
  8
SAPA_PROFIL
  6
CONTINUOUS
 62
     7
 10
-86.907390018256649
 20
18.360936748081301
 30
0.0
  0
VERTEX
  5
19C2
  8
SAPA_PROFIL
  6
CONTINUOUS
 62
     7
 10
-86.723221125915671
 20
18.176767855739872
 30
0.0
 42
-0.4142135623718706
  0
VERTEX
  5
19C3
  8
SAPA_PROFIL
  6
CONTINUOUS
 62
     7
 10
-86.723221125915714
 20
17.82322499030947
 30
0.0
  0
VERTEX
  5
19C4
  8
SAPA_PROFIL
  6
CONTINUOUS
 62
     7
 10
-86.907388636179277
 20
17.639057480044801
 30
0.0
 42
0.429987877699598
  0
VERTEX
  5
19C5
  8
SAPA_PROFIL
  6
CONTINUOUS
 62
     7
 10
-84.958885384142661
 20
16.514093578112849
 30
0.0
  0
VERTEX
  5
19C6
  8
SAPA_PROFIL
  6
CONTINUOUS
 62
     7
 10
-84.891474890507965
 20
16.765672965318949
 30
0.0
 42
-0.4142135623733942
  0
VERTEX
  5
19C7
  8
SAPA_PROFIL
  6
CONTINUOUS
 62
     7
 10
-84.585297787718744
 20
16.942444398034279
 30
0.0
  0
VERTEX
  5
19C8
  8
SAPA_PROFIL
  6
CONTINUOUS
 62
     7
 10
-84.328101588455098
 20
16.873528884146388
 30
0.0
 42
-0.9538172250823233
  0
VERTEX
  5
19C9
  8
SAPA_PROFIL
  6
CONTINUOUS
 62
     7
 10
-83.400283406534726
 20
15.697038093814751
 30
0.0
 42
-0.1806877881352354
  0
VERTEX
  5
19CA
  8
SAPA_PROFIL
  6
CONTINUOUS
 62
     7
 10
-85.40000000107085
 20
14.95000000004352
 30
0.0
  0
VERTEX
  5
19CB
  8
SAPA_PROFIL
  6
CONTINUOUS
 62
     7
 10
-87.300000003219836
 20
14.95000000004352
 30
0.0
 42
0.4142135623728949
  0
VERTEX
  5
19CC
  8
SAPA_PROFIL
  6
CONTINUOUS
 62
     7
 10
-87.600000003220714
 20
14.65000000004242
 30
0.0
  0
VERTEX
  5
19CD
  8
SAPA_PROFIL
  6
CONTINUOUS
 62
     7
 10
-87.600000003219805
 20
13.00000000004543
 30
0.0
 42
0.4142135623747599
  0
VERTEX
  5
19CE
  8
SAPA_PROFIL
  6
CONTINUOUS
 62
     7
 10
-87.300000003218699
 20
12.70000000004533
 30
0.0
  0
VERTEX
  5
19CF
  8
SAPA_PROFIL
  6
CONTINUOUS
 62
     7
 10
-82.599999998920126
 20
12.70000000005656
 30
0.0
 42
-0.414213562374087
  0
VERTEX
  5
19D0
  8
SAPA_PROFIL
  6
CONTINUOUS
 62
     7
 10
-82.299999998920214
 20
12.40000000005638
 30
0.0
  0
VERTEX
  5
19D1
  8
SAPA_PROFIL
  6
CONTINUOUS
 62
     7
 10
-82.299999998919077
 20
11.30000000002501
 30
0.0
 42
-0.4142135623632305
  0
VERTEX
  5
19D2
  8
SAPA_PROFIL
  6
CONTINUOUS
 62
     7
 10
-82.599999998918165
 20
11.0000000000318
 30
0.0
  0
VERTEX
  5
19D3
  8
SAPA_PROFIL
  6
CONTINUOUS
 62
     7
 10
-92.700000003219714
 20
11.0000000000146
 30
0.0
 42
-0.4142135623563092
  0
VERTEX
  5
19D4
  8
SAPA_PROFIL
  6
CONTINUOUS
 62
     7
 10
-93.000000003220805
 20
11.30000000001478
 30
0.0
  0
VERTEX
  5
19D5
  8
SAPA_PROFIL
  6
CONTINUOUS
 62
     7
 10
-93.000000003221714
 20
19.200000000013421
 30
0.0
 42
-0.414213562392466
  0
VERTEX
  5
19D6
  8
SAPA_PROFIL
  6
CONTINUOUS
 62
     7
 10
-92.70000000322085
 20
19.500000000014602
 30
0.0
  0
VERTEX
  5
19D7
  8
SAPA_PROFIL
  6
CONTINUOUS
 62
     7
 10
-91.600000003220714
 20
19.50000000003552
 30
0.0
 42
-0.4142135623952085
  0
VERTEX
  5
19D8
  8
SAPA_PROFIL
  6
CONTINUOUS
 62
     7
 10
-91.300000003220745
 20
19.20000000001351
 30
0.0
  0
VERTEX
  5
19D9
  8
SAPA_PROFIL
  6
CONTINUOUS
 62
     7
 10
-91.300000003219836
 20
13.70000000003806
 30
0.0
 42
0.9999999999999998
  0
VERTEX
  5
19DA
  8
SAPA_PROFIL
  6
CONTINUOUS
 62
     7
 10
-89.30000000321985
 20
13.70000000003806
 30
0.0
  0
VERTEX
  5
19DB
  8
SAPA_PROFIL
  6
CONTINUOUS
 62
     7
 10
-89.30000000321985
 20
15.60541036337422
 30
0.0
 42
-0.1539147210606419
  0
VERTEX
  5
19DC
  8
SAPA_PROFIL
  6
CONTINUOUS
 62
     7
 10
-89.245745616505758
 20
15.77748329428055
 30
0.0
  0
VERTEX
  5
19DD
  8
SAPA_PROFIL
  6
CONTINUOUS
 62
     7
 10
-88.354254389933772
 20
17.05066471253847
 30
0.0
 42
0.1539147210594121
  0
VERTEX
  5
19DE
  8
SAPA_PROFIL
  6
CONTINUOUS
 62
     7
 10
-88.300000003220305
 20
17.22273764344304
 30
0.0
  0
VERTEX
  5
19DF
  8
SAPA_PROFIL
  6
CONTINUOUS
 62
     7
 10
-88.300000003219864
 20
19.989341626523171
 30
0.0
 42
0.1872522264746358
  0
VERTEX
  5
19E0
  8
SAPA_PROFIL
  6
CONTINUOUS
 62
     7
 10
-88.378547314063383
 20
20.191724201034098
 30
0.0
  0
VERTEX
  5
19E1
  8
SAPA_PROFIL
  6
CONTINUOUS
 62
     7
 10
-89.221452692375919
 20
21.114054906551349
 30
0.0
 42
-0.1872522264746339
  0
VERTEX
  5
19E2
  8
SAPA_PROFIL
  6
CONTINUOUS
 62
     7
 10
-89.30000000321985
 20
21.3164374810613
 30
0.0
  0
VERTEX
  5
19E3
  8
SAPA_PROFIL
  6
CONTINUOUS
 62
     7
 10
-89.30000000321985
 20
24.700000000013588
 30
0.0
 42
-0.4142135623952092
  0
VERTEX
  5
19E4
  8
SAPA_PROFIL
  6
CONTINUOUS
 62
     7
 10
-89.000000003219967
 20
25.00000000003336
 30
0.0
  0
VERTEX
  5
19E5
  8
SAPA_PROFIL
  6
CONTINUOUS
 62
     7
 10
-86.08038780482218
 20
25.000000000033371
 30
0.0
 42
-0.131652497587394
  0
VERTEX
  5
19E6
  8
SAPA_PROFIL
  6
CONTINUOUS
 62
     7
 10
-85.930387804822189
 20
24.9598076211687
 30
0.0
  0
VERTEX
  5
19E7
  8
SAPA_PROFIL
  6
CONTINUOUS
 62
     7
 10
-85.550003047092858
 20
24.74019237889804
 30
0.0
 42
0.2679491924311264
  0
VERTEX
  5
19E8
  8
SAPA_PROFIL
  6
CONTINUOUS
 62
     7
 10
-85.250003047092846
 20
24.740192378898051
 30
0.0
  0
VERTEX
  5
19E9
  8
SAPA_PROFIL
  6
CONTINUOUS
 62
     7
 10
-84.869618289367963
 20
24.959807621166149
 30
0.0
 42
-0.1316524975876173
  0
VERTEX
  5
19EA
  8
SAPA_PROFIL
  6
CONTINUOUS
 62
     7
 10
-84.719618289367716
 20
25.000000000030809
 30
0.0
  0
VERTEX
  5
19EB
  8
SAPA_PROFIL
  6
CONTINUOUS
 62
     7
 10
-67.499719497750803
 20
25.00000000001549
 30
0.0
  0
VERTEX
  5
19EC
  8
SAPA_PROFIL
  6
CONTINUOUS
 62
     7
 10
-66.176718656316211
 20
24.488649280391609
 30
0.0
 42
0.4142135623730732
  0
VERTEX
  5
19ED
  8
SAPA_PROFIL
  6
CONTINUOUS
 62
     7
 10
-65.802533700840399
 20
24.688613324899009
 30
0.0
  0
VERTEX
  5
19EE
  8
SAPA_PROFIL
  6
CONTINUOUS
 62
     7
 10
-65.788015291593297
 20
24.7364590748975
 30
0.0
  0
VERTEX
  5
19EF
  8
SAPA_PROFIL
  6
CONTINUOUS
 62
     7
 10
-64.284914210831289
 20
24.736542682781149
 30
0.0
 42
-0.4769755326981473
  0
VERTEX
  5
19F0
  8
SAPA_PROFIL
  6
CONTINUOUS
 62
     7
 10
-63.982661386324821
 20
24.364885807835279
 30
0.0
  0
VERTEX
  5
19F1
  8
SAPA_PROFIL
  6
CONTINUOUS
 62
     7
 10
-64.364107982452481
 20
22.551655337177021
 30
0.0
 42
-0.2216946626430328
  0
VERTEX
  5
19F2
  8
SAPA_PROFIL
  6
CONTINUOUS
 62
     7
 10
-64.769916887607323
 20
22.010775505700241
 30
0.0
  0
VERTEX
  5
19F3
  8
SAPA_PROFIL
  6
CONTINUOUS
 62
     7
 10
-65.054599170838955
 20
21.858641594591479
 30
0.0
 42
-0.5773502691897292
  0
VERTEX
  5
19F4
  8
SAPA_PROFIL
  6
CONTINUOUS
 62
     7
 10
-65.348755471093796
 20
22.041595334701661
 30
0.0
  0
VERTEX
  5
19F5
  8
SAPA_PROFIL
  6
CONTINUOUS
 62
     7
 10
-65.33819410486683
 20
22.363353062919899
 30
0.0
  0
VERTEX
  5
19F6
  8
SAPA_PROFIL
  6
CONTINUOUS
 62
     7
 10
-67.224037796727885
 20
23.447917509891639
 30
0.0
  0
VERTEX
  5
19F7
  8
SAPA_PROFIL
  6
CONTINUOUS
 62
     7
 10
-67.415420796721605
 20
23.505991146880621
 30
0.0
 42
0.7625858545243111
  0
VERTEX
  5
19F8
  8
SAPA_PROFIL
  6
CONTINUOUS
 62
     7
 10
-67.599999998919031
 20
23.175665065863729
 30
0.0
 42
-0.2134217652834384
  0
VERTEX
  5
19F9
  8
SAPA_PROFIL
  6
CONTINUOUS
 62
     7
 10
-67.499999998918895
 20
22.952058268078009
 30
0.0
  0
VERTEX
  5
19FA
  8
SAPA_PROFIL
  6
CONTINUOUS
 62
     7
 10
-67.499999998918895
 20
19.099271863494359
 30
0.0
 42
0.4142135623719642
  0
VERTEX
  5
19FB
  8
SAPA_PROFIL
  6
CONTINUOUS
 62
     7
 10
-67.199999998918955
 20
18.799271863493271
 30
0.0
  0
VERTEX
  5
19FC
  8
SAPA_PROFIL
  6
CONTINUOUS
 62
     7
 10
-66.899999998918759
 20
18.79927186349418
 30
0.0
  0
VERTEX
  5
19FD
  8
SAPA_PROFIL
  6
CONTINUOUS
 62
     7
 10
-65.299999998918878
 20
19.723032294198699
 30
0.0
 42
-0.5773502691885648
  0
VERTEX
  5
19FE
  8
SAPA_PROFIL
  6
CONTINUOUS
 62
     7
 10
-64.999999998918895
 20
19.549827213440992
 30
0.0
  0
VERTEX
  5
19FF
  8
SAPA_PROFIL
  6
CONTINUOUS
 62
     7
 10
-64.999999998918895
 20
10.45017278662276
 30
0.0
 42
-0.5773502691885171
  0
VERTEX
  5
1A00
  8
SAPA_PROFIL
  6
CONTINUOUS
 62
     7
 10
-65.299999998918835
 20
10.27696770586503
 30
0.0
  0
VERTEX
  5
1A01
  8
SAPA_PROFIL
  6
CONTINUOUS
 62
     7
 10
-66.899999998918759
 20
11.200728136569561
 30
0.0
  0
VERTEX
  5
1A02
  8
SAPA_PROFIL
  6
CONTINUOUS
 62
     7
 10
-67.199999998918955
 20
11.200728136569561
 30
0.0
 42
0.4142135623719644
  0
VERTEX
  5
1A03
  8
SAPA_PROFIL
  6
CONTINUOUS
 62
     7
 10
-67.499999998917986
 20
10.900728136569381
 30
0.0
  0
VERTEX
  5
1A04
  8
SAPA_PROFIL
  6
CONTINUOUS
 62
     7
 10
-67.499999998918895
 20
7.047941731963661
 30
0.0
 42
-0.2134217652834359
  0
VERTEX
  5
1A05
  8
SAPA_PROFIL
  6
CONTINUOUS
 62
     7
 10
-67.599999998919088
 20
6.8243349342135531
 30
0.0
 42
0.7625858545243172
  0
VERTEX
  5
1A06
  8
SAPA_PROFIL
  6
CONTINUOUS
 62
     7
 10
-67.415420796721605
 20
6.4940088531965472
 30
0.0
  0
VERTEX
  5
1A07
  8
SAPA_PROFIL
  6
CONTINUOUS
 62
     7
 10
-67.224037796727885
 20
6.55208249018564
 30
0.0
  0
VERTEX
  5
1A08
  8
SAPA_PROFIL
  6
CONTINUOUS
 62
     7
 10
-65.33819410486683
 20
7.6366469371573791
 30
0.0
  0
VERTEX
  5
1A09
  8
SAPA_PROFIL
  6
CONTINUOUS
 62
     7
 10
-65.348755471093796
 20
7.9584046653756237
 30
0.0
 42
-0.5773502691897293
  0
VERTEX
  5
1A0A
  8
SAPA_PROFIL
  6
CONTINUOUS
 62
     7
 10
-65.054599170838955
 20
8.1413584054858035
 30
0.0
  0
VERTEX
  5
1A0B
  8
SAPA_PROFIL
  6
CONTINUOUS
 62
     7
 10
-64.76991688760728
 20
7.9892244943770399
 30
0.0
 42
-0.2216946626430043
  0
VERTEX
  5
1A0C
  8
SAPA_PROFIL
  6
CONTINUOUS
 62
     7
 10
-64.364107982452538
 20
7.4483446629002543
 30
0.0
  0
VERTEX
  5
1A0D
  8
SAPA_PROFIL
  6
CONTINUOUS
 62
     7
 10
-63.982661386324821
 20
5.6351141922419963
 30
0.0
 42
-0.4769755326981317
  0
VERTEX
  5
1A0E
  8
SAPA_PROFIL
  6
CONTINUOUS
 62
     7
 10
-64.284914210831289
 20
5.2634573172961288
 30
0.0
  0
VERTEX
  5
1A0F
  8
SAPA_PROFIL
  6
CONTINUOUS
 62
     7
 10
-65.788015291593297
 20
5.2635409251797816
 30
0.0
  0
VERTEX
  5
1A10
  8
SAPA_PROFIL
  6
CONTINUOUS
 62
     7
 10
-65.802533700840399
 20
5.3113866751782686
 30
0.0
 42
0.4142135623730951
  0
VERTEX
  5
1A11
  8
SAPA_PROFIL
  6
CONTINUOUS
 62
     7
 10
-66.176718656316211
 20
5.511350719685665
 30
0.0
  0
VERTEX
  5
1A12
  8
SAPA_PROFIL
  6
CONTINUOUS
 62
     7
 10
-67.499719497766961
 20
5.0000000000554641
 30
0.0
  0
VERTEX
  5
1A13
  8
SAPA_PROFIL
  6
CONTINUOUS
 62
     7
 10
-69.699999998919864
 20
5.0000000000672307
 30
0.0
 42
-0.4142135623531162
  0
VERTEX
  5
1A14
  8
SAPA_PROFIL
  6
CONTINUOUS
 62
     7
 10
-69.999999998919108
 20
5.3000000000469214
 30
0.0
  0
VERTEX
  5
1A15
  8
SAPA_PROFIL
  6
CONTINUOUS
 62
     7
 10
-69.999999998919108
 20
10.000000000031219
 30
0.0
 42
0.4142135623737027
  0
VERTEX
  5
1A16
  8
SAPA_PROFIL
  6
CONTINUOUS
 62
     7
 10
-70.999999998921183
 20
11.000000000031219
 30
0.0
  0
VERTEX
  5
1A17
  8
SAPA_PROFIL
  6
CONTINUOUS
 62
     7
 10
-73.99999999891844
 20
11.00000000002499
 30
0.0
 42
-0.4142135623737057
  0
VERTEX
  5
1A18
  8
SAPA_PROFIL
  6
CONTINUOUS
 62
     7
 10
-74.299999998919063
 20
11.30000000002501
 30
0.0
  0
VERTEX
  5
1A19
  8
SAPA_PROFIL
  6
CONTINUOUS
 62
     7
 10
-74.299999998919063
 20
12.57343848380286
 30
0.0
 42
-0.1962615682814401
  0
VERTEX
  5
1A1A
  8
SAPA_PROFIL
  6
CONTINUOUS
 62
     7
 10
-74.214285713204774
 20
12.783394747470551
 30
0.0
 42
0.1962615682813938
  0
VERTEX
  5
1A1B
  8
SAPA_PROFIL
  6
CONTINUOUS
 62
     7
 10
-73.499999998919094
 20
14.53303027802975
 30
0.0
  0
VERTEX
  5
1A1C
  8
SAPA_PROFIL
  6
CONTINUOUS
 62
     7
 10
-73.499999998919094
 20
23.000000000035001
 30
0.0
 42
0.414213562373709
  0
VERTEX
  5
1A1D
  8
SAPA_PROFIL
  6
CONTINUOUS
 62
     7
 10
-73.799999998919063
 20
23.300000000036039
 30
0.0
  0
VERTEX
  5
1A1E
  8
SAPA_PROFIL
  6
CONTINUOUS
 62
     7
 10
-87.000003047092875
 20
23.300000000035698
 30
0.0
 42
0.4142135623728949
  0
SEQEND
  5
1A1F
  8
SAPA_PROFIL
  6
CONTINUOUS
 62
     7
  0
POLYLINE
  5
14A8
  8
SAPA_PROFIL
 62
     4
 66
     1
 10
0.0
 20
0.0
 30
0.0
 70
     1
  0
VERTEX
  5
1A20
  8
SAPA_PROFIL
 62
     4
 10
-64.462221528366854
 20
7.9732428049592379
 30
0.0
 42
-0.3137019356282051
  0
VERTEX
  5
1A21
  8
SAPA_PROFIL
 62
     4
 10
-64.181271744820549
 20
7.7756171794258186
 30
0.0
  0
VERTEX
  5
1A22
  8
SAPA_PROFIL
 62
     4
 10
-63.295794031949349
 20
5.3427871578817978
 30
0.0
 42
0.3152987888779321
  0
VERTEX
  5
1A23
  8
SAPA_PROFIL
 62
     4
 10
-62.919916983632959
 20
5.0795952152120769
 30
0.0
  0
VERTEX
  5
1A24
  8
SAPA_PROFIL
 62
     4
 10
-52.499999998918831
 20
5.0795952152121027
 30
0.0
  0
VERTEX
  5
1A25
  8
SAPA_PROFIL
 62
     4
 10
-42.080083014200738
 20
5.0795952152121577
 30
0.0
 42
0.3152987888779395
  0
VERTEX
  5
1A26
  8
SAPA_PROFIL
 62
     4
 10
-41.70420596588837
 20
5.3427871578818786
 30
0.0
  0
VERTEX
  5
1A27
  8
SAPA_PROFIL
 62
     4
 10
-40.818728253020197
 20
7.7756171794175719
 30
0.0
 42
-0.3138982169096283
  0
VERTEX
  5
1A28
  8
SAPA_PROFIL
 62
     4
 10
-40.537778469506009
 20
7.973242804957926
 30
0.0
 42
-0.0157923906855865
  0
VERTEX
  5
1A29
  8
SAPA_PROFIL
 62
     4
 10
-40.186319937167163
 20
7.9766459345975207
 30
0.0
  0
VERTEX
  5
1A2A
  8
SAPA_PROFIL
 62
     4
 10
-39.946136872384869
 20
8.1153156917040477
 30
0.0
 42
-0.5773502691889272
  0
VERTEX
  5
1A2B
  8
SAPA_PROFIL
 62
     4
 10
-39.631136872385163
 20
7.9334503569092529
 30
0.0
  0
VERTEX
  5
1A2C
  8
SAPA_PROFIL
 62
     4
 10
-39.631136872385042
 20
7.6663358286963392
 30
0.0
  0
VERTEX
  5
1A2D
  8
SAPA_PROFIL
 62
     4
 10
-39.29999999891885
 20
7.4701137629120407
 30
0.0
  0
VERTEX
  5
1A2E
  8
SAPA_PROFIL
 62
     4
 10
-38.316679860938329
 20
6.9024695994145926
 30
0.0
 42
0.1316524975869703
  0
VERTEX
  5
1A2F
  8
SAPA_PROFIL
 62
     4
 10
-38.211679860939512
 20
6.8743349342100322
 30
0.0
  0
VERTEX
  5
1A30
  8
SAPA_PROFIL
 62
     4
 10
-37.89999999891694
 20
6.8743349342099167
 30
0.0
 42
0.4142135623775584
  0
VERTEX
  5
1A31
  8
SAPA_PROFIL
 62
     4
 10
-37.499999998918902
 20
7.274334934210235
 30
0.0
  0
VERTEX
  5
1A32
  8
SAPA_PROFIL
 62
     4
 10
-37.499999998918838
 20
10.67433493420998
 30
0.0
 42
0.4142135623773978
  0
VERTEX
  5
1A33
  8
SAPA_PROFIL
 62
     4
 10
-37.899999998918872
 20
11.07433493420996
 30
0.0
  0
VERTEX
  5
1A34
  8
SAPA_PROFIL
 62
     4
 10
-38.211679860942517
 20
11.07433493420996
 30
0.0
 42
0.1316524975869708
  0
VERTEX
  5
1A35
  8
SAPA_PROFIL
 62
     4
 10
-38.316679860939473
 20
11.04620026900472
 30
0.0
  0
VERTEX
  5
1A36
  8
SAPA_PROFIL
 62
     4
 10
-39.29999999891885
 20
10.478480122642679
 30
0.0
  0
VERTEX
  5
1A37
  8
SAPA_PROFIL
 62
     4
 10
-39.894744110589727
 20
10.135104449670569
 30
0.0
 42
-0.1316524975869772
  0
VERTEX
  5
1A38
  8
SAPA_PROFIL
 62
     4
 10
-40.494744110593103
 20
9.9743349342100558
 30
0.0
  0
VERTEX
  5
1A39
  8
SAPA_PROFIL
 62
     4
 10
-41.446608443479533
 20
9.9743349342102832
 30
0.0
 42
0.3152987888780149
  0
VERTEX
  5
1A3A
  8
SAPA_PROFIL
 62
     4
 10
-42.386301064251029
 20
9.3163550775358956
 30
0.0
  0
VERTEX
  5
1A3B
  8
SAPA_PROFIL
 62
     4
 10
-43.177415089160881
 20
7.1427871578822026
 30
0.0
 42
-0.3152987888779391
  0
VERTEX
  5
1A3C
  8
SAPA_PROFIL
 62
     4
 10
-43.553292137475403
 20
6.8795952152120838
 30
0.0
  0
VERTEX
  5
1A3D
  8
SAPA_PROFIL
 62
     4
 10
-52.499999998918831
 20
6.8795952152120856
 30
0.0
  0
VERTEX
  5
1A3E
  8
SAPA_PROFIL
 62
     4
 10
-61.446707860362331
 20
6.8795952152120314
 30
0.0
 42
-0.3152987888779318
  0
VERTEX
  5
1A3F
  8
SAPA_PROFIL
 62
     4
 10
-61.822584908675481
 20
7.1427871578784554
 30
0.0
  0
VERTEX
  5
1A40
  8
SAPA_PROFIL
 62
     4
 10
-62.613698933586591
 20
9.3163550775356718
 30
0.0
 42
0.3152987888779361
  0
VERTEX
  5
1A41
  8
SAPA_PROFIL
 62
     4
 10
-63.55339155438719
 20
9.9743349342100025
 30
0.0
  0
VERTEX
  5
1A42
  8
SAPA_PROFIL
 62
     4
 10
-64.505255887244687
 20
9.9743349342100025
 30
0.0
 42
-0.1316524975869766
  0
VERTEX
  5
1A43
  8
SAPA_PROFIL
 62
     4
 10
-65.105255887237888
 20
10.13510444966472
 30
0.0
  0
VERTEX
  5
1A44
  8
SAPA_PROFIL
 62
     4
 10
-65.692820321946385
 20
10.474334934209949
 30
0.0
  0
VERTEX
  5
1A45
  8
SAPA_PROFIL
 62
     4
 10
-66.683320136898317
 20
11.04620026900467
 30
0.0
 42
0.1316524975869832
  0
VERTEX
  5
1A46
  8
SAPA_PROFIL
 62
     4
 10
-66.788320136901405
 20
11.07433493420991
 30
0.0
  0
VERTEX
  5
1A47
  8
SAPA_PROFIL
 62
     4
 10
-67.099999998918904
 20
11.07433493420997
 30
0.0
 42
0.414213562371655
  0
VERTEX
  5
1A48
  8
SAPA_PROFIL
 62
     4
 10
-67.499999998918895
 20
10.67433493420601
 30
0.0
  0
VERTEX
  5
1A49
  8
SAPA_PROFIL
 62
     4
 10
-67.499999998918895
 20
7.2743349342099579
 30
0.0
 42
0.4142135623716633
  0
VERTEX
  5
1A4A
  8
SAPA_PROFIL
 62
     4
 10
-67.099999998916871
 20
6.8743349342099807
 30
0.0
  0
VERTEX
  5
1A4B
  8
SAPA_PROFIL
 62
     4
 10
-66.788320136898221
 20
6.8743349342099807
 30
0.0
 42
0.1316524975869709
  0
VERTEX
  5
1A4C
  8
SAPA_PROFIL
 62
     4
 10
-66.683320136897635
 20
6.902469599415566
 30
0.0
  0
VERTEX
  5
1A4D
  8
SAPA_PROFIL
 62
     4
 10
-65.368863125452634
 20
7.6663358286963446
 30
0.0
  0
VERTEX
  5
1A4E
  8
SAPA_PROFIL
 62
     4
 10
-65.368863125452521
 20
7.93345035690926
 30
0.0
 42
-0.5773502691889269
  0
VERTEX
  5
1A4F
  8
SAPA_PROFIL
 62
     4
 10
-65.053863125452807
 20
8.1153156917040512
 30
0.0
  0
VERTEX
  5
1A50
  8
SAPA_PROFIL
 62
     4
 10
-64.813680060670507
 20
7.9766459345975287
 30
0.0
 42
-0.015792390685586
  0
SEQEND
  5
1A51
  8
SAPA_PROFIL
 62
     4
  0
POLYLINE
  5
14A9
  8
SAPA_PROFIL
  6
CONTINUOUS
 62
     7
 66
     1
 10
0.0
 20
0.0
 30
0.0
 70
     1
  0
VERTEX
  5
1A52
  8
SAPA_PROFIL
  6
CONTINUOUS
 62
     7
 10
-74.000000000956746
 20
-16.499999999996991
 30
0.0
  0
VERTEX
  5
1A53
  8
SAPA_PROFIL
  6
CONTINUOUS
 62
     7
 10
-77.00000000000297
 20
-16.499999999996991
 30
0.0
 42
-0.4142135623732074
  0
VERTEX
  5
1A54
  8
SAPA_PROFIL
  6
CONTINUOUS
 62
     7
 10
-77.50000000000297
 20
-15.99999999999679
 30
0.0
  0
VERTEX
  5
1A55
  8
SAPA_PROFIL
  6
CONTINUOUS
 62
     7
 10
-77.499999999999133
 20
-7.3999999999967008
 30
0.0
 42
0.4142135623730951
  0
VERTEX
  5
1A56
  8
SAPA_PROFIL
  6
CONTINUOUS
 62
     7
 10
-77.999999999999147
 20
-6.8999999999967008
 30
0.0
  0
VERTEX
  5
1A57
  8
SAPA_PROFIL
  6
CONTINUOUS
 62
     7
 10
-80.299999999999812
 20
-6.8999999999967008
 30
0.0
 42
-0.4142135623730951
  0
VERTEX
  5
1A58
  8
SAPA_PROFIL
  6
CONTINUOUS
 62
     7
 10
-81.299999999999812
 20
-5.8999999999967008
 30
0.0
  0
VERTEX
  5
1A59
  8
SAPA_PROFIL
  6
CONTINUOUS
 62
     7
 10
-81.299999999999812
 20
-5.0873697418212984
 30
0.0
 42
-0.2216946626429368
  0
VERTEX
  5
1A5A
  8
SAPA_PROFIL
  6
CONTINUOUS
 62
     7
 10
-81.192836282905773
 20
-4.857556408885606
 30
0.0
  0
VERTEX
  5
1A5B
  8
SAPA_PROFIL
  6
CONTINUOUS
 62
     7
 10
-80.492836282905216
 20
-4.2701866670610542
 30
0.0
 42
-0.6370702608061857
  0
VERTEX
  5
1A5C
  8
SAPA_PROFIL
  6
CONTINUOUS
 62
     7
 10
-79.999999999999616
 20
-4.4999999999969944
 30
0.0
  0
VERTEX
  5
1A5D
  8
SAPA_PROFIL
  6
CONTINUOUS
 62
     7
 10
-79.999999999999616
 20
-5.2999999999971896
 30
0.0
 42
0.4142135623730951
  0
VERTEX
  5
1A5E
  8
SAPA_PROFIL
  6
CONTINUOUS
 62
     7
 10
-79.699999999999406
 20
-5.5999999999973857
 30
0.0
  0
VERTEX
  5
1A5F
  8
SAPA_PROFIL
  6
CONTINUOUS
 62
     7
 10
-75.299999999998875
 20
-5.599999999996446
 30
0.0
 42
0.4142135623730504
  0
VERTEX
  5
1A60
  8
SAPA_PROFIL
  6
CONTINUOUS
 62
     7
 10
-74.999999999999133
 20
-5.2999999999962926
 30
0.0
  0
VERTEX
  5
1A61
  8
SAPA_PROFIL
  6
CONTINUOUS
 62
     7
 10
-74.999999999999162
 20
5.3000000000031511
 30
0.0
 42
0.4142135623730878
  0
VERTEX
  5
1A62
  8
SAPA_PROFIL
  6
CONTINUOUS
 62
     7
 10
-75.29999999999886
 20
5.6000000000033259
 30
0.0
  0
VERTEX
  5
1A63
  8
SAPA_PROFIL
  6
CONTINUOUS
 62
     7
 10
-79.69999999999942
 20
5.6000000000032548
 30
0.0
 42
0.4142135623735842
  0
VERTEX
  5
1A64
  8
SAPA_PROFIL
  6
CONTINUOUS
 62
     7
 10
-79.999999999999119
 20
5.3000000000040544
 30
0.0
  0
VERTEX
  5
1A65
  8
SAPA_PROFIL
  6
CONTINUOUS
 62
     7
 10
-79.999999999999616
 20
4.5000000000020668
 30
0.0
 42
-0.6370702608069853
  0
VERTEX
  5
1A66
  8
SAPA_PROFIL
  6
CONTINUOUS
 62
     7
 10
-80.492836282905216
 20
4.2701866670669801
 30
0.0
  0
VERTEX
  5
1A67
  8
SAPA_PROFIL
  6
CONTINUOUS
 62
     7
 10
-81.192836282905773
 20
4.8575564088915391
 30
0.0
 42
-0.2216946626431
  0
VERTEX
  5
1A68
  8
SAPA_PROFIL
  6
CONTINUOUS
 62
     7
 10
-81.299999999999812
 20
5.0873697418274233
 30
0.0
  0
VERTEX
  5
1A69
  8
SAPA_PROFIL
  6
CONTINUOUS
 62
     7
 10
-81.299999999999329
 20
5.9000000000044182
 30
0.0
 42
-0.4142135623730951
  0
VERTEX
  5
1A6A
  8
SAPA_PROFIL
  6
CONTINUOUS
 62
     7
 10
-80.299999999999329
 20
6.9000000000044182
 30
0.0
  0
VERTEX
  5
1A6B
  8
SAPA_PROFIL
  6
CONTINUOUS
 62
     7
 10
-72.799999999999571
 20
6.9000000000035264
 30
0.0
 42
-0.3178372451964626
  0
VERTEX
  5
1A6C
  8
SAPA_PROFIL
  6
CONTINUOUS
 62
     7
 10
-72.517157287524725
 20
6.7000000000027979
 30
0.0
 42
0.3178372451966722
  0
VERTEX
  5
1A6D
  8
SAPA_PROFIL
  6
CONTINUOUS
 62
     7
 10
-72.234314575049652
 20
6.5000000000020712
 30
0.0
  0
VERTEX
  5
1A6E
  8
SAPA_PROFIL
  6
CONTINUOUS
 62
     7
 10
-70.799999999999329
 20
6.5000000000029727
 30
0.0
 42
-0.4142135623726539
  0
VERTEX
  5
1A6F
  8
SAPA_PROFIL
  6
CONTINUOUS
 62
     7
 10
-70.499999999999602
 20
6.2000000000027908
 30
0.0
  0
VERTEX
  5
1A70
  8
SAPA_PROFIL
  6
CONTINUOUS
 62
     7
 10
-70.499999999999616
 20
5.6000000000022432
 30
0.0
 42
-0.4142135623730836
  0
VERTEX
  5
1A71
  8
SAPA_PROFIL
  6
CONTINUOUS
 62
     7
 10
-70.799999999999329
 20
5.300000000002977
 30
0.0
  0
VERTEX
  5
1A72
  8
SAPA_PROFIL
  6
CONTINUOUS
 62
     7
 10
-72.19999999999942
 20
5.3000000000029699
 30
0.0
 42
0.4142135623730951
  0
VERTEX
  5
1A73
  8
SAPA_PROFIL
  6
CONTINUOUS
 62
     7
 10
-72.499999999999588
 20
5.0000000000027951
 30
0.0
  0
VERTEX
  5
1A74
  8
SAPA_PROFIL
  6
CONTINUOUS
 62
     7
 10
-72.499999999999588
 20
-4.9999999999977884
 30
0.0
 42
0.4142135623730743
  0
VERTEX
  5
1A75
  8
SAPA_PROFIL
  6
CONTINUOUS
 62
     7
 10
-72.19999999999942
 20
-5.299999999996996
 30
0.0
  0
VERTEX
  5
1A76
  8
SAPA_PROFIL
  6
CONTINUOUS
 62
     7
 10
-70.799999999999329
 20
-5.2999999999978851
 30
0.0
 42
-0.4142135623721762
  0
VERTEX
  5
1A77
  8
SAPA_PROFIL
  6
CONTINUOUS
 62
     7
 10
-70.499999999999559
 20
-5.599999999997193
 30
0.0
  0
VERTEX
  5
1A78
  8
SAPA_PROFIL
  6
CONTINUOUS
 62
     7
 10
-70.499999999999147
 20
-6.1999999999978046
 30
0.0
 42
-0.4142135623730534
  0
VERTEX
  5
1A79
  8
SAPA_PROFIL
  6
CONTINUOUS
 62
     7
 10
-70.799999999999315
 20
-6.499999999997021
 30
0.0
  0
VERTEX
  5
1A7A
  8
SAPA_PROFIL
  6
CONTINUOUS
 62
     7
 10
-72.234314575050036
 20
-6.4999999999979092
 30
0.0
 42
0.3178372451963242
  0
VERTEX
  5
1A7B
  8
SAPA_PROFIL
  6
CONTINUOUS
 62
     7
 10
-72.517157287524725
 20
-6.6999999999968534
 30
0.0
 42
-0.3178372451964607
  0
VERTEX
  5
1A7C
  8
SAPA_PROFIL
  6
CONTINUOUS
 62
     7
 10
-72.799999999999557
 20
-6.8999999999975659
 30
0.0
  0
VERTEX
  5
1A7D
  8
SAPA_PROFIL
  6
CONTINUOUS
 62
     7
 10
-74.499999999999645
 20
-6.899999999997787
 30
0.0
 42
0.4142135623730597
  0
VERTEX
  5
1A7E
  8
SAPA_PROFIL
  6
CONTINUOUS
 62
     7
 10
-74.999999999999588
 20
-7.399999999997787
 30
0.0
  0
VERTEX
  5
1A7F
  8
SAPA_PROFIL
  6
CONTINUOUS
 62
     7
 10
-74.999999999999588
 20
-12.401923789205
 30
0.0
 42
0.2679491923306345
  0
VERTEX
  5
1A80
  8
SAPA_PROFIL
  6
CONTINUOUS
 62
     7
 10
-74.750000000156476
 20
-12.83493649099429
 30
0.0
 42
-0.2679491923317589
  0
VERTEX
  5
1A81
  8
SAPA_PROFIL
  6
CONTINUOUS
 62
     7
 10
-73.500000000956732
 20
-14.99999999999698
 30
0.0
  0
VERTEX
  5
1A82
  8
SAPA_PROFIL
  6
CONTINUOUS
 62
     7
 10
-73.500000000957527
 20
-15.999999999996991
 30
0.0
 42
-0.4142135623730951
  0
SEQEND
  5
1A83
  8
SAPA_PROFIL
  6
CONTINUOUS
 62
     7
  0
POLYLINE
  5
14AA
  8
SAPA_PROFIL
  6
CONTINUOUS
 62
     7
 66
     1
 10
0.0
 20
0.0
 30
0.0
 70
     1
  0
VERTEX
  5
1A84
  8
SAPA_PROFIL
  6
CONTINUOUS
 62
     7
 10
-43.000000000000448
 20
-23.200000000001719
 30
0.0
  0
VERTEX
  5
1A85
  8
SAPA_PROFIL
  6
CONTINUOUS
 62
     7
 10
-43.000000000000448
 20
-20.499999999991321
 30
0.0
 42
0.4142135623730951
  0
VERTEX
  5
1A86
  8
SAPA_PROFIL
  6
CONTINUOUS
 62
     7
 10
-43.300000000000452
 20
-20.199999999991331
 30
0.0
  0
VERTEX
  5
1A87
  8
SAPA_PROFIL
  6
CONTINUOUS
 62
     7
 10
-44.500000000000853
 20
-20.199999999991331
 30
0.0
 42
-0.4142135623730931
  0
VERTEX
  5
1A88
  8
SAPA_PROFIL
  6
CONTINUOUS
 62
     7
 10
-45.500000000000853
 20
-19.199999999991341
 30
0.0
  0
VERTEX
  5
1A89
  8
SAPA_PROFIL
  6
CONTINUOUS
 62
     7
 10
-45.500000000000888
 20
-16.70000000000157
 30
0.0
 42
0.4142135623739343
  0
VERTEX
  5
1A8A
  8
SAPA_PROFIL
  6
CONTINUOUS
 62
     7
 10
-45.80000000000085
 20
-16.400000000000709
 30
0.0
  0
VERTEX
  5
1A8B
  8
SAPA_PROFIL
  6
CONTINUOUS
 62
     7
 10
-50.200000000000877
 20
-16.400000000000698
 30
0.0
 42
0.4142135623730951
  0
VERTEX
  5
1A8C
  8
SAPA_PROFIL
  6
CONTINUOUS
 62
     7
 10
-50.500000000000888
 20
-16.700000000001719
 30
0.0
  0
VERTEX
  5
1A8D
  8
SAPA_PROFIL
  6
CONTINUOUS
 62
     7
 10
-50.500000000000483
 20
-18.400000000000698
 30
0.0
 42
-0.7105995015650853
  0
VERTEX
  5
1A8E
  8
SAPA_PROFIL
  6
CONTINUOUS
 62
     7
 10
-51.035076580435863
 20
-18.586384015761681
 30
0.0
  0
VERTEX
  5
1A8F
  8
SAPA_PROFIL
  6
CONTINUOUS
 62
     7
 10
-51.445897150363187
 20
-18.068237143795969
 30
0.0
 42
-0.1691807452123823
  0
VERTEX
  5
1A90
  8
SAPA_PROFIL
  6
CONTINUOUS
 62
     7
 10
-51.500000000000831
 20
-17.912917130662091
 30
0.0
  0
VERTEX
  5
1A91
  8
SAPA_PROFIL
  6
CONTINUOUS
 62
     7
 10
-51.500000000000888
 20
-10.099999999992709
 30
0.0
 42
-0.4142135623760433
  0
VERTEX
  5
1A92
  8
SAPA_PROFIL
  6
CONTINUOUS
 62
     7
 10
-51.199999999997857
 20
-9.7999999999926981
 30
0.0
  0
VERTEX
  5
1A93
  8
SAPA_PROFIL
  6
CONTINUOUS
 62
     7
 10
-33.000000000004249
 20
-9.7999999999911154
 30
0.0
 42
-0.5773502691893336
  0
VERTEX
  5
1A94
  8
SAPA_PROFIL
  6
CONTINUOUS
 62
     7
 10
-32.740192378868279
 20
-10.249999999991729
 30
0.0
  0
VERTEX
  5
1A95
  8
SAPA_PROFIL
  6
CONTINUOUS
 62
     7
 10
-33.317542648061419
 20
-11.249999999994641
 30
0.0
 42
-0.6629740412223103
  0
VERTEX
  5
1A96
  8
SAPA_PROFIL
  6
CONTINUOUS
 62
     7
 10
-33.865977684948881
 20
-11.18181818181217
 30
0.0
 42
0.3354367396460152
  0
VERTEX
  5
1A97
  8
SAPA_PROFIL
  6
CONTINUOUS
 62
     7
 10
-34.106500531409431
 20
-10.999999999991781
 30
0.0
  0
VERTEX
  5
1A98
  8
SAPA_PROFIL
  6
CONTINUOUS
 62
     7
 10
-35.199999999994958
 20
-10.99999999999166
 30
0.0
 42
0.4142135623741014
  0
VERTEX
  5
1A99
  8
SAPA_PROFIL
  6
CONTINUOUS
 62
     7
 10
-35.499999999995993
 20
-11.299999999991689
 30
0.0
  0
VERTEX
  5
1A9A
  8
SAPA_PROFIL
  6
CONTINUOUS
 62
     7
 10
-35.499999999996007
 20
-11.7999999999927
 30
0.0
 42
-0.4142135623730466
  0
VERTEX
  5
1A9B
  8
SAPA_PROFIL
  6
CONTINUOUS
 62
     7
 10
-35.799999999995968
 20
-12.099999999992709
 30
0.0
  0
VERTEX
  5
1A9C
  8
SAPA_PROFIL
  6
CONTINUOUS
 62
     7
 10
-36.399999999997021
 20
-12.09999999999167
 30
0.0
 42
-0.4142135623730951
  0
VERTEX
  5
1A9D
  8
SAPA_PROFIL
  6
CONTINUOUS
 62
     7
 10
-36.699999999995981
 20
-11.7999999999927
 30
0.0
  0
VERTEX
  5
1A9E
  8
SAPA_PROFIL
  6
CONTINUOUS
 62
     7
 10
-36.699999999994972
 20
-11.39999999999147
 30
0.0
 42
0.4142135623731088
  0
VERTEX
  5
1A9F
  8
SAPA_PROFIL
  6
CONTINUOUS
 62
     7
 10
-36.999999999994976
 20
-11.099999999991489
 30
0.0
  0
VERTEX
  5
1AA0
  8
SAPA_PROFIL
  6
CONTINUOUS
 62
     7
 10
-49.699999999995349
 20
-11.099999999991489
 30
0.0
 42
0.4142135623730847
  0
VERTEX
  5
1AA1
  8
SAPA_PROFIL
  6
CONTINUOUS
 62
     7
 10
-49.999999999996042
 20
-11.39999999999147
 30
0.0
  0
VERTEX
  5
1AA2
  8
SAPA_PROFIL
  6
CONTINUOUS
 62
     7
 10
-49.999999999996028
 20
-14.60000000000071
 30
0.0
 42
0.4142135623730951
  0
VERTEX
  5
1AA3
  8
SAPA_PROFIL
  6
CONTINUOUS
 62
     7
 10
-49.699999999995342
 20
-14.900000000000951
 30
0.0
  0
VERTEX
  5
1AA4
  8
SAPA_PROFIL
  6
CONTINUOUS
 62
     7
 10
-45.500000000000952
 20
-14.90000000000078
 30
0.0
 42
-0.4142135623731122
  0
VERTEX
  5
1AA5
  8
SAPA_PROFIL
  6
CONTINUOUS
 62
     7
 10
-44.000000000000902
 20
-16.400000000000809
 30
0.0
  0
VERTEX
  5
1AA6
  8
SAPA_PROFIL
  6
CONTINUOUS
 62
     7
 10
-44.000000000000931
 20
-18.39999999999171
 30
0.0
 42
0.4142135623730951
  0
VERTEX
  5
1AA7
  8
SAPA_PROFIL
  6
CONTINUOUS
 62
     7
 10
-43.700000000000919
 20
-18.699999999991711
 30
0.0
  0
VERTEX
  5
1AA8
  8
SAPA_PROFIL
  6
CONTINUOUS
 62
     7
 10
-36.999999999998849
 20
-18.699999999991721
 30
0.0
 42
0.4142135623731017
  0
VERTEX
  5
1AA9
  8
SAPA_PROFIL
  6
CONTINUOUS
 62
     7
 10
-36.69999999999979
 20
-18.399999999992659
 30
0.0
  0
VERTEX
  5
1AAA
  8
SAPA_PROFIL
  6
CONTINUOUS
 62
     7
 10
-36.699999999997878
 20
-17.799999999995709
 30
0.0
 42
-0.4142135623730951
  0
VERTEX
  5
1AAB
  8
SAPA_PROFIL
  6
CONTINUOUS
 62
     7
 10
-36.399999999997902
 20
-17.499999999995708
 30
0.0
  0
VERTEX
  5
1AAC
  8
SAPA_PROFIL
  6
CONTINUOUS
 62
     7
 10
-35.799999999998867
 20
-17.499999999994682
 30
0.0
 42
-0.4142135623740693
  0
VERTEX
  5
1AAD
  8
SAPA_PROFIL
  6
CONTINUOUS
 62
     7
 10
-35.499999999998842
 20
-17.79999999999368
 30
0.0
  0
VERTEX
  5
1AAE
  8
SAPA_PROFIL
  6
CONTINUOUS
 62
     7
 10
-35.499999999998842
 20
-18.39999999999468
 30
0.0
 42
0.4142135623730951
  0
VERTEX
  5
1AAF
  8
SAPA_PROFIL
  6
CONTINUOUS
 62
     7
 10
-35.199999999998838
 20
-18.699999999994681
 30
0.0
  0
VERTEX
  5
1AB0
  8
SAPA_PROFIL
  6
CONTINUOUS
 62
     7
 10
-34.239949493650222
 20
-18.699999999993601
 30
0.0
 42
0.2360679774982354
  0
VERTEX
  5
1AB1
  8
SAPA_PROFIL
  6
CONTINUOUS
 62
     7
 10
-34.0399494936512
 20
-18.599999999994559
 30
0.0
 42
-0.4564120107634379
  0
VERTEX
  5
1AB2
  8
SAPA_PROFIL
  6
CONTINUOUS
 62
     7
 10
-32.532842712472487
 20
-18.492893218808081
 30
0.0
  0
VERTEX
  5
1AB3
  8
SAPA_PROFIL
  6
CONTINUOUS
 62
     7
 10
-31.637867965644869
 20
-19.387867965635699
 30
0.0
 42
-0.6681786379193021
  0
VERTEX
  5
1AB4
  8
SAPA_PROFIL
  6
CONTINUOUS
 62
     7
 10
-31.850000000000851
 20
-19.899999999991699
 30
0.0
  0
VERTEX
  5
1AB5
  8
SAPA_PROFIL
  6
CONTINUOUS
 62
     7
 10
-40.199999999999953
 20
-19.89999999999468
 30
0.0
 42
0.4142135623730951
  0
VERTEX
  5
1AB6
  8
SAPA_PROFIL
  6
CONTINUOUS
 62
     7
 10
-40.499999999999943
 20
-20.199999999994681
 30
0.0
  0
VERTEX
  5
1AB7
  8
SAPA_PROFIL
  6
CONTINUOUS
 62
     7
 10
-40.500000000000981
 20
-23.199999999994699
 30
0.0
 42
0.4142135623730951
  0
VERTEX
  5
1AB8
  8
SAPA_PROFIL
  6
CONTINUOUS
 62
     7
 10
-40.200000000000983
 20
-23.499999999994689
 30
0.0
  0
VERTEX
  5
1AB9
  8
SAPA_PROFIL
  6
CONTINUOUS
 62
     7
 10
-35.800000000001667
 20
-23.499999999994699
 30
0.0
 42
-0.4142135623730951
  0
VERTEX
  5
1ABA
  8
SAPA_PROFIL
  6
CONTINUOUS
 62
     7
 10
-35.500000000001677
 20
-23.799999999994689
 30
0.0
  0
VERTEX
  5
1ABB
  8
SAPA_PROFIL
  6
CONTINUOUS
 62
     7
 10
-35.500000000001677
 20
-24.750000000000711
 30
0.0
 42
-0.4142135623730951
  0
VERTEX
  5
1ABC
  8
SAPA_PROFIL
  6
CONTINUOUS
 62
     7
 10
-35.750000000001677
 20
-25.000000000000711
 30
0.0
  0
VERTEX
  5
1ABD
  8
SAPA_PROFIL
  6
CONTINUOUS
 62
     7
 10
-51.199999999997857
 20
-25.000000000000711
 30
0.0
 42
-0.4142135623750965
  0
VERTEX
  5
1ABE
  8
SAPA_PROFIL
  6
CONTINUOUS
 62
     7
 10
-51.500000000001862
 20
-24.69999999999467
 30
0.0
  0
VERTEX
  5
1ABF
  8
SAPA_PROFIL
  6
CONTINUOUS
 62
     7
 10
-51.500000000000867
 20
-22.487082869339371
 30
0.0
 42
-0.1691807452124803
  0
VERTEX
  5
1AC0
  8
SAPA_PROFIL
  6
CONTINUOUS
 62
     7
 10
-51.445897150363102
 20
-22.33176285620544
 30
0.0
  0
VERTEX
  5
1AC1
  8
SAPA_PROFIL
  6
CONTINUOUS
 62
     7
 10
-51.035076580435863
 20
-21.81361598424072
 30
0.0
 42
-0.7105995015660667
  0
VERTEX
  5
1AC2
  8
SAPA_PROFIL
  6
CONTINUOUS
 62
     7
 10
-50.500000000000838
 20
-22.0000000000007
 30
0.0
  0
VERTEX
  5
1AC3
  8
SAPA_PROFIL
  6
CONTINUOUS
 62
     7
 10
-50.500000000000888
 20
-23.20000000000072
 30
0.0
 42
0.4142135623730951
  0
VERTEX
  5
1AC4
  8
SAPA_PROFIL
  6
CONTINUOUS
 62
     7
 10
-50.200000000000877
 20
-23.500000000000728
 30
0.0
  0
VERTEX
  5
1AC5
  8
SAPA_PROFIL
  6
CONTINUOUS
 62
     7
 10
-43.300000000000473
 20
-23.5000000000007
 30
0.0
 42
0.4142135623731053
  0
SEQEND
  5
1AC6
  8
SAPA_PROFIL
  6
CONTINUOUS
 62
     7
  0
POLYLINE
  5
14AB
  8
SAPA_PROFIL
 66
     1
 10
0.0
 20
0.0
 30
0.0
 70
     1
  0
VERTEX
  5
1AC7
  8
SAPA_PROFIL
 10
-25.000000000002888
 20
22.600000373537799
 30
0.0
 42
-0.767326987974136
  0
VERTEX
  5
1AC8
  8
SAPA_PROFIL
 10
-24.849999999999731
 20
22.04019275240433
 30
0.0
 42
0.2679491924279902
  0
VERTEX
  5
1AC9
  8
SAPA_PROFIL
 10
-25.000000000002441
 20
21.78038513128082
 30
0.0
  0
VERTEX
  5
1ACA
  8
SAPA_PROFIL
 10
-25.000000000001808
 20
18.800000373537561
 30
0.0
 42
0.4142135623730395
  0
VERTEX
  5
1ACB
  8
SAPA_PROFIL
 10
-23.500000000001751
 20
17.300000373537848
 30
0.0
  0
VERTEX
  5
1ACC
  8
SAPA_PROFIL
 10
-22.400000000002361
 20
17.300000373537848
 30
0.0
 42
0.4142135623730951
  0
VERTEX
  5
1ACD
  8
SAPA_PROFIL
 10
-22.1000000000024
 20
17.600000373537569
 30
0.0
  0
VERTEX
  5
1ACE
  8
SAPA_PROFIL
 10
-22.1000000000024
 20
18.100000373537569
 30
0.0
 42
0.4142135623730948
  0
VERTEX
  5
1ACF
  8
SAPA_PROFIL
 10
-22.400000000002361
 20
18.400000373537761
 30
0.0
  0
VERTEX
  5
1AD0
  8
SAPA_PROFIL
 10
-22.736626924636528
 20
18.400000373537761
 30
0.0
 42
-0.5643553431119927
  0
VERTEX
  5
1AD1
  8
SAPA_PROFIL
 10
-20.87439504323947
 20
22.724395416772051
 30
0.0
  0
VERTEX
  5
1AD2
  8
SAPA_PROFIL
 10
-20.50000000000249
 20
22.350000373539849
 30
0.0
  0
VERTEX
  5
1AD3
  8
SAPA_PROFIL
 10
-20.12560495676961
 20
22.72439541677296
 30
0.0
 42
-0.564355343112654
  0
VERTEX
  5
1AD4
  8
SAPA_PROFIL
 10
-18.263373075367092
 20
18.400000373537761
 30
0.0
  0
VERTEX
  5
1AD5
  8
SAPA_PROFIL
 10
-18.60000000000263
 20
18.400000373537761
 30
0.0
 42
0.4142135623729843
  0
VERTEX
  5
1AD6
  8
SAPA_PROFIL
 10
-18.900000000002699
 20
18.10000037353803
 30
0.0
  0
VERTEX
  5
1AD7
  8
SAPA_PROFIL
 10
-18.900000000002581
 20
17.600000373537569
 30
0.0
 42
0.4142135623730951
  0
VERTEX
  5
1AD8
  8
SAPA_PROFIL
 10
-18.60000000000263
 20
17.300000373537848
 30
0.0
  0
VERTEX
  5
1AD9
  8
SAPA_PROFIL
 10
-16.300000000002669
 20
17.300000373537848
 30
0.0
 42
0.4142135623732062
  0
VERTEX
  5
1ADA
  8
SAPA_PROFIL
 10
-16.00000000000238
 20
17.600000373537569
 30
0.0
  0
VERTEX
  5
1ADB
  8
SAPA_PROFIL
 10
-16.00000000000249
 20
22.00000037353772
 30
0.0
 42
-0.4142135623731117
  0
VERTEX
  5
1ADC
  8
SAPA_PROFIL
 10
-15.00000000000249
 20
23.000000373537841
 30
0.0
  0
VERTEX
  5
1ADD
  8
SAPA_PROFIL
 10
19.99999999999557
 20
23.000000373538061
 30
0.0
 42
-0.7673269879789009
  0
VERTEX
  5
1ADE
  8
SAPA_PROFIL
 10
20.24999999999574
 20
22.066987671645901
 30
0.0
 42
0.2679491924311131
  0
VERTEX
  5
1ADF
  8
SAPA_PROFIL
 10
19.999999999995861
 20
21.633974969753641
 30
0.0
  0
VERTEX
  5
1AE0
  8
SAPA_PROFIL
 10
19.99999999999665
 20
18.800000373537781
 30
0.0
 42
0.4142135623730395
  0
VERTEX
  5
1AE1
  8
SAPA_PROFIL
 10
21.49999999999671
 20
17.300000373538069
 30
0.0
  0
VERTEX
  5
1AE2
  8
SAPA_PROFIL
 10
22.599999999996111
 20
17.300000373538069
 30
0.0
 42
0.4142135623730951
  0
VERTEX
  5
1AE3
  8
SAPA_PROFIL
 10
22.899999999996059
 20
17.600000373537789
 30
0.0
  0
VERTEX
  5
1AE4
  8
SAPA_PROFIL
 10
22.899999999996059
 20
18.100000373537789
 30
0.0
 42
0.4142135623730948
  0
VERTEX
  5
1AE5
  8
SAPA_PROFIL
 10
22.599999999996111
 20
18.400000373537981
 30
0.0
  0
VERTEX
  5
1AE6
  8
SAPA_PROFIL
 10
22.26337307536193
 20
18.400000373537981
 30
0.0
 42
-0.5643553431119927
  0
VERTEX
  5
1AE7
  8
SAPA_PROFIL
 10
24.125604956758998
 20
22.724395416772271
 30
0.0
  0
VERTEX
  5
1AE8
  8
SAPA_PROFIL
 10
24.499999999995971
 20
22.35000037354007
 30
0.0
  0
VERTEX
  5
1AE9
  8
SAPA_PROFIL
 10
24.874395043228851
 20
22.724395416773181
 30
0.0
 42
-0.564355343112654
  0
VERTEX
  5
1AEA
  8
SAPA_PROFIL
 10
26.736626924631381
 20
18.400000373537981
 30
0.0
  0
VERTEX
  5
1AEB
  8
SAPA_PROFIL
 10
26.399999999995838
 20
18.400000373537981
 30
0.0
 42
0.4142135623729843
  0
VERTEX
  5
1AEC
  8
SAPA_PROFIL
 10
26.09999999999577
 20
18.100000373538251
 30
0.0
  0
VERTEX
  5
1AED
  8
SAPA_PROFIL
 10
26.09999999999588
 20
17.600000373537789
 30
0.0
 42
0.4142135623730951
  0
VERTEX
  5
1AEE
  8
SAPA_PROFIL
 10
26.399999999995838
 20
17.300000373538069
 30
0.0
  0
VERTEX
  5
1AEF
  8
SAPA_PROFIL
 10
28.699999999995789
 20
17.300000373538069
 30
0.0
 42
0.4142135623732062
  0
VERTEX
  5
1AF0
  8
SAPA_PROFIL
 10
28.999999999996088
 20
17.600000373537789
 30
0.0
  0
VERTEX
  5
1AF1
  8
SAPA_PROFIL
 10
28.999999999995971
 20
22.00000037353794
 30
0.0
 42
-0.4142135623730951
  0
VERTEX
  5
1AF2
  8
SAPA_PROFIL
 10
29.999999999995971
 20
23.00000037353794
 30
0.0
  0
VERTEX
  5
1AF3
  8
SAPA_PROFIL
 10
34.699999999996358
 20
23.000000373538111
 30
0.0
 42
-0.4142135623730984
  0
VERTEX
  5
1AF4
  8
SAPA_PROFIL
 10
34.999999999996369
 20
22.700000373538099
 30
0.0
  0
VERTEX
  5
1AF5
  8
SAPA_PROFIL
 10
34.999999999996369
 20
21.400000373538091
 30
0.0
 42
0.4142135623730951
  0
VERTEX
  5
1AF6
  8
SAPA_PROFIL
 10
35.29999999999638
 20
21.10000037353808
 30
0.0
  0
VERTEX
  5
1AF7
  8
SAPA_PROFIL
 10
35.875735931284403
 20
21.10000037353808
 30
0.0
 42
0.198912367379637
  0
VERTEX
  5
1AF8
  8
SAPA_PROFIL
 10
36.087867965640392
 20
21.187868339182099
 30
0.0
  0
VERTEX
  5
1AF9
  8
SAPA_PROFIL
 10
37.812132034352153
 20
22.912132407893981
 30
0.0
 42
-0.1989123673796579
  0
VERTEX
  5
1AFA
  8
SAPA_PROFIL
 10
38.024264068708142
 20
23.000000373538001
 30
0.0
  0
VERTEX
  5
1AFB
  8
SAPA_PROFIL
 10
41.499999999996483
 20
23.000000373538061
 30
0.0
 42
-0.4142135623730951
  0
VERTEX
  5
1AFC
  8
SAPA_PROFIL
 10
42.499999999996483
 20
22.00000037353805
 30
0.0
  0
VERTEX
  5
1AFD
  8
SAPA_PROFIL
 10
42.499999999996469
 20
-21.99999962646184
 30
0.0
 42
-0.4142135623730951
  0
VERTEX
  5
1AFE
  8
SAPA_PROFIL
 10
41.499999999996461
 20
-22.99999962646184
 30
0.0
  0
VERTEX
  5
1AFF
  8
SAPA_PROFIL
 10
38.024264068708071
 20
-22.999999626461779
 30
0.0
 42
-0.1989123673796579
  0
VERTEX
  5
1B00
  8
SAPA_PROFIL
 10
37.812132034352082
 20
-22.91213166081776
 30
0.0
  0
VERTEX
  5
1B01
  8
SAPA_PROFIL
 10
36.087867965640427
 20
-21.187867592105931
 30
0.0
 42
0.198912367379658
  0
VERTEX
  5
1B02
  8
SAPA_PROFIL
 10
35.875735931284453
 20
-21.099999626461909
 30
0.0
  0
VERTEX
  5
1B03
  8
SAPA_PROFIL
 10
35.299999999996373
 20
-21.099999626461909
 30
0.0
 42
0.4142135623730951
  0
VERTEX
  5
1B04
  8
SAPA_PROFIL
 10
34.999999999996362
 20
-21.39999962646192
 30
0.0
  0
VERTEX
  5
1B05
  8
SAPA_PROFIL
 10
34.999999999996362
 20
-22.699999626461821
 30
0.0
 42
-0.4142135623730984
  0
VERTEX
  5
1B06
  8
SAPA_PROFIL
 10
34.699999999996351
 20
-22.999999626461829
 30
0.0
  0
VERTEX
  5
1B07
  8
SAPA_PROFIL
 10
29.999999999995961
 20
-22.999999626461719
 30
0.0
 42
-0.4142135623730951
  0
VERTEX
  5
1B08
  8
SAPA_PROFIL
 10
28.999999999995961
 20
-21.999999626461719
 30
0.0
  0
VERTEX
  5
1B09
  8
SAPA_PROFIL
 10
28.999999999996071
 20
-17.599999626461571
 30
0.0
 42
0.4142135623732062
  0
VERTEX
  5
1B0A
  8
SAPA_PROFIL
 10
28.699999999995779
 20
-17.29999962646184
 30
0.0
  0
VERTEX
  5
1B0B
  8
SAPA_PROFIL
 10
26.399999999995821
 20
-17.29999962646184
 30
0.0
 42
0.4142135623730951
  0
VERTEX
  5
1B0C
  8
SAPA_PROFIL
 10
26.09999999999587
 20
-17.599999626461571
 30
0.0
  0
VERTEX
  5
1B0D
  8
SAPA_PROFIL
 10
26.099999999995749
 20
-18.099999626462019
 30
0.0
 42
0.414213562372984
  0
VERTEX
  5
1B0E
  8
SAPA_PROFIL
 10
26.399999999995821
 20
-18.399999626461749
 30
0.0
  0
VERTEX
  5
1B0F
  8
SAPA_PROFIL
 10
26.736626924631359
 20
-18.399999626461749
 30
0.0
 42
-0.5643553431126542
  0
VERTEX
  5
1B10
  8
SAPA_PROFIL
 10
24.874395043228841
 20
-22.724394669696949
 30
0.0
  0
VERTEX
  5
1B11
  8
SAPA_PROFIL
 10
24.499999999995961
 20
-22.349999626463841
 30
0.0
  0
VERTEX
  5
1B12
  8
SAPA_PROFIL
 10
24.125604956758991
 20
-22.724394669696039
 30
0.0
 42
-0.5643553431119927
  0
VERTEX
  5
1B13
  8
SAPA_PROFIL
 10
22.263373075361919
 20
-18.399999626461749
 30
0.0
  0
VERTEX
  5
1B14
  8
SAPA_PROFIL
 10
22.59999999999609
 20
-18.399999626461749
 30
0.0
 42
0.414213562373095
  0
VERTEX
  5
1B15
  8
SAPA_PROFIL
 10
22.899999999996052
 20
-18.099999626461571
 30
0.0
  0
VERTEX
  5
1B16
  8
SAPA_PROFIL
 10
22.899999999996052
 20
-17.599999626461571
 30
0.0
 42
0.4142135623730953
  0
VERTEX
  5
1B17
  8
SAPA_PROFIL
 10
22.59999999999609
 20
-17.29999962646184
 30
0.0
  0
VERTEX
  5
1B18
  8
SAPA_PROFIL
 10
21.499999999996689
 20
-17.299999626461609
 30
0.0
 42
0.4142135623730508
  0
VERTEX
  5
1B19
  8
SAPA_PROFIL
 10
19.999999999996639
 20
-18.799999626461329
 30
0.0
  0
VERTEX
  5
1B1A
  8
SAPA_PROFIL
 10
19.9999999999959
 20
-21.633974222677178
 30
0.0
 42
0.2679491924311283
  0
VERTEX
  5
1B1B
  8
SAPA_PROFIL
 10
20.24999999999573
 20
-22.066986924569449
 30
0.0
 42
-0.7673269879788167
  0
VERTEX
  5
1B1C
  8
SAPA_PROFIL
 10
19.999999999995559
 20
-22.999999626461602
 30
0.0
  0
VERTEX
  5
1B1D
  8
SAPA_PROFIL
 10
-15.000000000002499
 20
-22.999999626461371
 30
0.0
 42
-0.4142135623730951
  0
VERTEX
  5
1B1E
  8
SAPA_PROFIL
 10
-16.000000000002501
 20
-21.999999626461371
 30
0.0
  0
VERTEX
  5
1B1F
  8
SAPA_PROFIL
 10
-16.000000000002391
 20
-17.599999626461219
 30
0.0
 42
0.4142135623732062
  0
VERTEX
  5
1B20
  8
SAPA_PROFIL
 10
-16.300000000002679
 20
-17.299999626461489
 30
0.0
  0
VERTEX
  5
1B21
  8
SAPA_PROFIL
 10
-18.600000000002641
 20
-17.299999626461489
 30
0.0
 42
0.4142135623730951
  0
VERTEX
  5
1B22
  8
SAPA_PROFIL
 10
-18.900000000002589
 20
-17.599999626461219
 30
0.0
  0
VERTEX
  5
1B23
  8
SAPA_PROFIL
 10
-18.900000000002699
 20
-18.09999962646167
 30
0.0
 42
0.414213562372984
  0
VERTEX
  5
1B24
  8
SAPA_PROFIL
 10
-18.600000000002641
 20
-18.399999626461401
 30
0.0
  0
VERTEX
  5
1B25
  8
SAPA_PROFIL
 10
-18.263373075367099
 20
-18.399999626461401
 30
0.0
 42
-0.5643553431126542
  0
VERTEX
  5
1B26
  8
SAPA_PROFIL
 10
-20.125604956769621
 20
-22.724394669696601
 30
0.0
  0
VERTEX
  5
1B27
  8
SAPA_PROFIL
 10
-20.500000000002501
 20
-22.349999626463489
 30
0.0
  0
VERTEX
  5
1B28
  8
SAPA_PROFIL
 10
-20.87439504323947
 20
-22.724394669695691
 30
0.0
 42
-0.5643553431119927
  0
VERTEX
  5
1B29
  8
SAPA_PROFIL
 10
-22.736626924636539
 20
-18.399999626461401
 30
0.0
  0
VERTEX
  5
1B2A
  8
SAPA_PROFIL
 10
-22.400000000002361
 20
-18.399999626461401
 30
0.0
 42
0.414213562373095
  0
VERTEX
  5
1B2B
  8
SAPA_PROFIL
 10
-22.10000000000241
 20
-18.099999626461219
 30
0.0
  0
VERTEX
  5
1B2C
  8
SAPA_PROFIL
 10
-22.10000000000241
 20
-17.599999626461219
 30
0.0
 42
0.4142135623730951
  0
VERTEX
  5
1B2D
  8
SAPA_PROFIL
 10
-22.400000000002361
 20
-17.299999626461378
 30
0.0
  0
VERTEX
  5
1B2E
  8
SAPA_PROFIL
 10
-23.500000000001759
 20
-17.299999626461378
 30
0.0
 42
0.4142135623730508
  0
VERTEX
  5
1B2F
  8
SAPA_PROFIL
 10
-25.000000000001819
 20
-18.799999626461091
 30
0.0
  0
VERTEX
  5
1B30
  8
SAPA_PROFIL
 10
-25.000000000002451
 20
-21.780384384204339
 30
0.0
 42
0.2679491924279903
  0
VERTEX
  5
1B31
  8
SAPA_PROFIL
 10
-24.849999999999739
 20
-22.04019200532786
 30
0.0
 42
-0.767326987974136
  0
VERTEX
  5
1B32
  8
SAPA_PROFIL
 10
-25.000000000002899
 20
-22.59999962646139
 30
0.0
  0
VERTEX
  5
1B33
  8
SAPA_PROFIL
 10
-27.000000000001819
 20
-22.59999962646134
 30
0.0
 42
-0.4142135623730951
  0
VERTEX
  5
1B34
  8
SAPA_PROFIL
 10
-28.000000000001819
 20
-21.599999626461329
 30
0.0
  0
VERTEX
  5
1B35
  8
SAPA_PROFIL
 10
-28.000000000001808
 20
21.600000373537799
 30
0.0
 42
-0.4142135623731284
  0
VERTEX
  5
1B36
  8
SAPA_PROFIL
 10
-27.000000000001808
 20
22.60000037353792
 30
0.0
  0
SEQEND
  5
1B37
  8
SAPA_PROFIL
  0
POLYLINE
  5
14AC
  8
SAPA_PROFIL
 66
     1
 10
0.0
 20
0.0
 30
0.0
 70
     1
  0
VERTEX
  5
1B38
  8
SAPA_PROFIL
 10
-30.999999999011781
 20
-2.6999996264622652
 30
0.0
  0
VERTEX
  5
1B39
  8
SAPA_PROFIL
 10
-31.249999999011781
 20
-2.6999996264622652
 30
0.0
  0
VERTEX
  5
1B3A
  8
SAPA_PROFIL
 10
-31.24999999901183
 20
-2.3499996264623562
 30
0.0
 42
0.5450207774094042
  0
VERTEX
  5
1B3B
  8
SAPA_PROFIL
 10
-31.67376540333731
 20
-2.0767193222103439
 30
0.0
  0
VERTEX
  5
1B3C
  8
SAPA_PROFIL
 10
-33.049999999011959
 20
-2.6999996264622652
 30
0.0
  0
VERTEX
  5
1B3D
  8
SAPA_PROFIL
 10
-33.04999999901208
 20
-2.3499996264623562
 30
0.0
 42
0.5450207774090177
  0
VERTEX
  5
1B3E
  8
SAPA_PROFIL
 10
-33.473765403337161
 20
-2.0767193222102298
 30
0.0
  0
VERTEX
  5
1B3F
  8
SAPA_PROFIL
 10
-34.849999999011906
 20
-2.6999996264622652
 30
0.0
  0
VERTEX
  5
1B40
  8
SAPA_PROFIL
 10
-34.84999999901197
 20
-2.3499996264623562
 30
0.0
 42
0.5450207774094042
  0
VERTEX
  5
1B41
  8
SAPA_PROFIL
 10
-35.27376540333745
 20
-2.0767193222103439
 30
0.0
  0
VERTEX
  5
1B42
  8
SAPA_PROFIL
 10
-36.649999999011868
 20
-2.6999996264622652
 30
0.0
  0
VERTEX
  5
1B43
  8
SAPA_PROFIL
 10
-36.649999999011868
 20
-2.3499996264623562
 30
0.0
 42
0.545020777409516
  0
VERTEX
  5
1B44
  8
SAPA_PROFIL
 10
-37.073765403337518
 20
-2.0767193222103439
 30
0.0
  0
VERTEX
  5
1B45
  8
SAPA_PROFIL
 10
-38.44999999901205
 20
-2.6999996264622652
 30
0.0
  0
VERTEX
  5
1B46
  8
SAPA_PROFIL
 10
-38.44999999901205
 20
-2.3499996264623562
 30
0.0
 42
0.545020777409516
  0
VERTEX
  5
1B47
  8
SAPA_PROFIL
 10
-38.8737654033377
 20
-2.0767193222103439
 30
0.0
  0
VERTEX
  5
1B48
  8
SAPA_PROFIL
 10
-40.249999999012232
 20
-2.6999996264622652
 30
0.0
  0
VERTEX
  5
1B49
  8
SAPA_PROFIL
 10
-40.249999999012232
 20
-2.3499996264623562
 30
0.0
 42
0.5450207774090177
  0
VERTEX
  5
1B4A
  8
SAPA_PROFIL
 10
-40.67376540333742
 20
-2.0767193222102298
 30
0.0
  0
VERTEX
  5
1B4B
  8
SAPA_PROFIL
 10
-41.449999999012043
 20
-2.4282667520476902
 30
0.0
  0
VERTEX
  5
1B4C
  8
SAPA_PROFIL
 10
-41.449999999012107
 20
1.0006707898188649
 30
0.0
  0
VERTEX
  5
1B4D
  8
SAPA_PROFIL
 10
-41.449999999012107
 20
2.7000003735378288
 30
0.0
  0
VERTEX
  5
1B4E
  8
SAPA_PROFIL
 10
-41.149999999012088
 20
2.7000003735378288
 30
0.0
  0
VERTEX
  5
1B4F
  8
SAPA_PROFIL
 10
-39.773765403337791
 20
2.0767200692854528
 30
0.0
 42
0.5450207774093642
  0
VERTEX
  5
1B50
  8
SAPA_PROFIL
 10
-39.349999999012368
 20
2.350000373537692
 30
0.0
  0
VERTEX
  5
1B51
  8
SAPA_PROFIL
 10
-39.349999999012141
 20
2.7000003735378288
 30
0.0
  0
VERTEX
  5
1B52
  8
SAPA_PROFIL
 10
-37.973765403337609
 20
2.0767200692856238
 30
0.0
 42
0.5450207774088696
  0
VERTEX
  5
1B53
  8
SAPA_PROFIL
 10
-37.549999999012421
 20
2.350000373537692
 30
0.0
  0
VERTEX
  5
1B54
  8
SAPA_PROFIL
 10
-37.549999999012194
 20
2.7000003735378288
 30
0.0
  0
VERTEX
  5
1B55
  8
SAPA_PROFIL
 10
-36.173765403337647
 20
2.0767200692856238
 30
0.0
 42
0.5450207774094402
  0
VERTEX
  5
1B56
  8
SAPA_PROFIL
 10
-35.749999999012353
 20
2.350000373537692
 30
0.0
  0
VERTEX
  5
1B57
  8
SAPA_PROFIL
 10
-35.749999999012232
 20
2.7000003735378288
 30
0.0
  0
VERTEX
  5
1B58
  8
SAPA_PROFIL
 10
-34.373765403337927
 20
2.0767200692854528
 30
0.0
 42
0.5450207774093642
  0
VERTEX
  5
1B59
  8
SAPA_PROFIL
 10
-33.949999999012512
 20
2.350000373537692
 30
0.0
  0
VERTEX
  5
1B5A
  8
SAPA_PROFIL
 10
-33.949999999012277
 20
2.7000003735378288
 30
0.0
  0
VERTEX
  5
1B5B
  8
SAPA_PROFIL
 10
-32.573765403337752
 20
2.0767200692856238
 30
0.0
 42
0.5450207774088696
  0
VERTEX
  5
1B5C
  8
SAPA_PROFIL
 10
-32.149999999012607
 20
2.350000373537692
 30
0.0
  0
VERTEX
  5
1B5D
  8
SAPA_PROFIL
 10
-32.149999999011868
 20
2.7000003735378288
 30
0.0
  0
VERTEX
  5
1B5E
  8
SAPA_PROFIL
 10
-30.999999999011781
 20
2.7000003735378248
 30
0.0
 42
-0.4142135623730951
  0
VERTEX
  5
1B5F
  8
SAPA_PROFIL
 10
-29.999999999011781
 20
1.7000003735378251
 30
0.0
  0
VERTEX
  5
1B60
  8
SAPA_PROFIL
 10
-29.999999999011781
 20
-1.699999626462265
 30
0.0
 42
-0.4142135623730951
  0
SEQEND
  5
1B61
  8
SAPA_PROFIL
  0
POLYLINE
  5
14AD
  8
SAPA_PROFIL
 66
     1
 10
0.0
 20
0.0
 30
0.0
 70
     1
  0
VERTEX
  5
1B62
  8
SAPA_PROFIL
 10
-30.000000000001759
 20
16.700000373538678
 30
0.0
  0
VERTEX
  5
1B63
  8
SAPA_PROFIL
 10
-30.000000000001759
 20
23.200000373538341
 30
0.0
 42
0.4142135623732062
  0
VERTEX
  5
1B64
  8
SAPA_PROFIL
 10
-30.30000000000182
 20
23.500000373538288
 30
0.0
  0
VERTEX
  5
1B65
  8
SAPA_PROFIL
 10
-34.20000000000158
 20
23.500000373538288
 30
0.0
 42
0.4142135623730951
  0
VERTEX
  5
1B66
  8
SAPA_PROFIL
 10
-34.500000000001528
 20
23.200000373538341
 30
0.0
  0
VERTEX
  5
1B67
  8
SAPA_PROFIL
 10
-34.500000000001648
 20
22.000000373538459
 30
0.0
 42
-0.7105995015650612
  0
VERTEX
  5
1B68
  8
SAPA_PROFIL
 10
-35.03507658043651
 20
21.813616357777629
 30
0.0
  0
VERTEX
  5
1B69
  8
SAPA_PROFIL
 10
-35.283588601450958
 20
22.12705179835735
 30
0.0
 42
-0.169180745212488
  0
VERTEX
  5
1B6A
  8
SAPA_PROFIL
 10
-35.500000000001762
 20
22.748331850893241
 30
0.0
  0
VERTEX
  5
1B6B
  8
SAPA_PROFIL
 10
-35.500000000001641
 20
24.700000373538511
 30
0.0
 42
-0.4142135623730951
  0
VERTEX
  5
1B6C
  8
SAPA_PROFIL
 10
-35.200000000001687
 20
25.000000373538469
 30
0.0
  0
VERTEX
  5
1B6D
  8
SAPA_PROFIL
 10
43.999999999996419
 20
25.000000373538111
 30
0.0
 42
-0.4142135623730951
  0
VERTEX
  5
1B6E
  8
SAPA_PROFIL
 10
44.499999999996433
 20
24.500000373538111
 30
0.0
  0
VERTEX
  5
1B6F
  8
SAPA_PROFIL
 10
44.499999999996412
 20
-24.499999626461889
 30
0.0
 42
-0.4142135623730951
  0
VERTEX
  5
1B70
  8
SAPA_PROFIL
 10
43.999999999996412
 20
-24.999999626461889
 30
0.0
  0
VERTEX
  5
1B71
  8
SAPA_PROFIL
 10
-35.200000000001808
 20
-24.999999626461989
 30
0.0
 42
-0.4142135623730951
  0
VERTEX
  5
1B72
  8
SAPA_PROFIL
 10
-35.500000000001769
 20
-24.699999626462041
 30
0.0
  0
VERTEX
  5
1B73
  8
SAPA_PROFIL
 10
-35.500000000001769
 20
-22.748331103816948
 30
0.0
 42
-0.1691807452125303
  0
VERTEX
  5
1B74
  8
SAPA_PROFIL
 10
-35.283588601450852
 20
-22.12705105128094
 30
0.0
  0
VERTEX
  5
1B75
  8
SAPA_PROFIL
 10
-35.035076580436403
 20
-21.81361561070127
 30
0.0
 42
-0.7105995015650845
  0
VERTEX
  5
1B76
  8
SAPA_PROFIL
 10
-34.500000000001762
 20
-21.999999626461989
 30
0.0
  0
VERTEX
  5
1B77
  8
SAPA_PROFIL
 10
-34.500000000001762
 20
-23.199999626461931
 30
0.0
 42
0.4142135623732061
  0
VERTEX
  5
1B78
  8
SAPA_PROFIL
 10
-34.200000000001701
 20
-23.499999626461879
 30
0.0
  0
VERTEX
  5
1B79
  8
SAPA_PROFIL
 10
-30.300000000001951
 20
-23.499999626461879
 30
0.0
 42
0.4142135623732061
  0
VERTEX
  5
1B7A
  8
SAPA_PROFIL
 10
-30.000000000001879
 20
-23.199999626461931
 30
0.0
  0
VERTEX
  5
1B7B
  8
SAPA_PROFIL
 10
-30.000000000001769
 20
-16.699999626461981
 30
0.0
 42
0.4142135623730951
  0
VERTEX
  5
1B7C
  8
SAPA_PROFIL
 10
-30.500000000001769
 20
-16.199999626461981
 30
0.0
  0
VERTEX
  5
1B7D
  8
SAPA_PROFIL
 10
-34.20000000000158
 20
-16.19999962646186
 30
0.0
 42
0.4142135623733172
  0
VERTEX
  5
1B7E
  8
SAPA_PROFIL
 10
-34.500000000001762
 20
-16.499999626462049
 30
0.0
  0
VERTEX
  5
1B7F
  8
SAPA_PROFIL
 10
-34.500000000001542
 20
-18.39999962646197
 30
0.0
 42
-0.7105995015650612
  0
VERTEX
  5
1B80
  8
SAPA_PROFIL
 10
-35.035076580436403
 20
-18.586383642222799
 30
0.0
  0
VERTEX
  5
1B81
  8
SAPA_PROFIL
 10
-35.283588601450852
 20
-18.272948201643249
 30
0.0
 42
-0.1691807452125303
  0
VERTEX
  5
1B82
  8
SAPA_PROFIL
 10
-35.500000000001769
 20
-17.651668149107241
 30
0.0
  0
VERTEX
  5
1B83
  8
SAPA_PROFIL
 10
-35.500000000001769
 20
-11.29999962646194
 30
0.0
 42
-0.4142135623728731
  0
VERTEX
  5
1B84
  8
SAPA_PROFIL
 10
-35.200000000001808
 20
-10.999999626461991
 30
0.0
  0
VERTEX
  5
1B85
  8
SAPA_PROFIL
 10
-34.500000000001542
 20
-10.99999962646222
 30
0.0
 42
-0.4142135623730951
  0
VERTEX
  5
1B86
  8
SAPA_PROFIL
 10
-34.20000000000158
 20
-11.299999626462171
 30
0.0
  0
VERTEX
  5
1B87
  8
SAPA_PROFIL
 10
-34.20000000000158
 20
-14.19999962646175
 30
0.0
 42
0.4142135623730951
  0
VERTEX
  5
1B88
  8
SAPA_PROFIL
 10
-33.70000000000158
 20
-14.69999962646175
 30
0.0
  0
VERTEX
  5
1B89
  8
SAPA_PROFIL
 10
-30.500000000001769
 20
-14.699999626461979
 30
0.0
 42
0.4142135623731617
  0
VERTEX
  5
1B8A
  8
SAPA_PROFIL
 10
-30.000000000001759
 20
-14.199999626461979
 30
0.0
  0
VERTEX
  5
1B8B
  8
SAPA_PROFIL
 10
-30.00000000000199
 20
-5.9999996264625599
 30
0.0
 42
0.4142135623730951
  0
VERTEX
  5
1B8C
  8
SAPA_PROFIL
 10
-31.00000000000199
 20
-4.9999996264625599
 30
0.0
  0
VERTEX
  5
1B8D
  8
SAPA_PROFIL
 10
-52.199999999011879
 20
-4.9999996264623263
 30
0.0
 42
-0.4142135623730951
  0
VERTEX
  5
1B8E
  8
SAPA_PROFIL
 10
-52.499999999011891
 20
-4.6999996264623141
 30
0.0
  0
VERTEX
  5
1B8F
  8
SAPA_PROFIL
 10
-52.499999999011827
 20
-3.075010156175594
 30
0.0
  0
VERTEX
  5
1B90
  8
SAPA_PROFIL
 10
-51.535790539647849
 20
-2.2144747773913158
 30
0.0
 42
-0.6264792893017398
  0
VERTEX
  5
1B91
  8
SAPA_PROFIL
 10
-51.049999999012421
 20
-2.4500206858893838
 30
0.0
  0
VERTEX
  5
1B92
  8
SAPA_PROFIL
 10
-51.049999999012179
 20
-2.6999996264623141
 30
0.0
  0
VERTEX
  5
1B93
  8
SAPA_PROFIL
 10
-49.673765403337882
 20
-2.176719322210189
 30
0.0
 42
-0.5450207774090681
  0
VERTEX
  5
1B94
  8
SAPA_PROFIL
 10
-49.249999999012353
 20
-2.4499996264623141
 30
0.0
  0
VERTEX
  5
1B95
  8
SAPA_PROFIL
 10
-49.249999999012232
 20
-2.6999996264622581
 30
0.0
  0
VERTEX
  5
1B96
  8
SAPA_PROFIL
 10
-47.87376540333792
 20
-2.1767193222103032
 30
0.0
 42
-0.545020777409516
  0
VERTEX
  5
1B97
  8
SAPA_PROFIL
 10
-47.44999999901227
 20
-2.4499996264623141
 30
0.0
  0
VERTEX
  5
1B98
  8
SAPA_PROFIL
 10
-47.44999999901227
 20
-2.6999996264622581
 30
0.0
  0
VERTEX
  5
1B99
  8
SAPA_PROFIL
 10
-46.073765403337617
 20
-2.176719322210189
 30
0.0
 42
-0.5450207774091295
  0
VERTEX
  5
1B9A
  8
SAPA_PROFIL
 10
-45.64999999901238
 20
-2.4499996264623141
 30
0.0
  0
VERTEX
  5
1B9B
  8
SAPA_PROFIL
 10
-45.649999999012323
 20
-2.6999996264622581
 30
0.0
  0
VERTEX
  5
1B9C
  8
SAPA_PROFIL
 10
-44.273765403337791
 20
-2.1767193222103032
 30
0.0
 42
-0.545020777409516
  0
VERTEX
  5
1B9D
  8
SAPA_PROFIL
 10
-43.849999999012127
 20
-2.4499996264623141
 30
0.0
  0
VERTEX
  5
1B9E
  8
SAPA_PROFIL
 10
-43.849999999012127
 20
-2.6999996264622581
 30
0.0
  0
VERTEX
  5
1B9F
  8
SAPA_PROFIL
 10
-43.182570825615642
 20
-2.4460464742920029
 30
0.0
 42
0.3492695052203141
  0
VERTEX
  5
1BA0
  8
SAPA_PROFIL
 10
-42.949999999012221
 20
-2.153722498923841
 30
0.0
  0
VERTEX
  5
1BA1
  8
SAPA_PROFIL
 10
-42.949999999012221
 20
-1.2649106905293901
 30
0.0
 42
-0.3475404855924057
  0
VERTEX
  5
1BA2
  8
SAPA_PROFIL
 10
-42.71923076824293
 20
-0.9730081372830312
 30
0.0
 42
0.7905694150422074
  0
VERTEX
  5
1BA3
  8
SAPA_PROFIL
 10
-42.719230768243101
 20
0.9730088843599666
 30
0.0
 42
-0.3475404855923888
  0
VERTEX
  5
1BA4
  8
SAPA_PROFIL
 10
-42.949999999012221
 20
1.2649114376071779
 30
0.0
  0
VERTEX
  5
1BA5
  8
SAPA_PROFIL
 10
-42.9499999990121
 20
1.876720069285692
 30
0.0
 42
0.4142135623730951
  0
VERTEX
  5
1BA6
  8
SAPA_PROFIL
 10
-43.249999999012111
 20
2.1767200692857029
 30
0.0
  0
VERTEX
  5
1BA7
  8
SAPA_PROFIL
 10
-43.3737654033377
 20
2.1767200692856461
 30
0.0
  0
VERTEX
  5
1BA8
  8
SAPA_PROFIL
 10
-44.749999999012232
 20
2.7000003735378288
 30
0.0
  0
VERTEX
  5
1BA9
  8
SAPA_PROFIL
 10
-44.749999999012452
 20
2.4500003735376579
 30
0.0
 42
-0.5450207774088696
  0
VERTEX
  5
1BAA
  8
SAPA_PROFIL
 10
-45.173765403337647
 20
2.1767200692855901
 30
0.0
  0
VERTEX
  5
1BAB
  8
SAPA_PROFIL
 10
-46.549999999012179
 20
2.7000003735378288
 30
0.0
  0
VERTEX
  5
1BAC
  8
SAPA_PROFIL
 10
-46.549999999012407
 20
2.4500003735376579
 30
0.0
 42
-0.5450207774091855
  0
VERTEX
  5
1BAD
  8
SAPA_PROFIL
 10
-46.973765403337772
 20
2.1767200692855329
 30
0.0
  0
VERTEX
  5
1BAE
  8
SAPA_PROFIL
 10
-48.349999999012141
 20
2.7000003735378288
 30
0.0
  0
VERTEX
  5
1BAF
  8
SAPA_PROFIL
 10
-48.349999999012141
 20
2.4500003735376579
 30
0.0
 42
-0.5450207774093374
  0
VERTEX
  5
1BB0
  8
SAPA_PROFIL
 10
-48.773765403337741
 20
2.1767200692857598
 30
0.0
  0
VERTEX
  5
1BB1
  8
SAPA_PROFIL
 10
-50.149999999012323
 20
2.7000003735378288
 30
0.0
  0
VERTEX
  5
1BB2
  8
SAPA_PROFIL
 10
-50.149999999011918
 20
2.149979314110634
 30
0.0
  0
VERTEX
  5
1BB3
  8
SAPA_PROFIL
 10
-51.347075010161461
 20
2.1499793141105812
 30
0.0
 42
-0.1681572645226206
  0
VERTEX
  5
1BB4
  8
SAPA_PROFIL
 10
-51.532521788160693
 20
2.2141626638721301
 30
0.0
  0
VERTEX
  5
1BB5
  8
SAPA_PROFIL
 10
-52.49999999901177
 20
3.0749898438243828
 30
0.0
  0
VERTEX
  5
1BB6
  8
SAPA_PROFIL
 10
-52.499999999011827
 20
4.7000003735403331
 30
0.0
 42
-0.4142135623730951
  0
VERTEX
  5
1BB7
  8
SAPA_PROFIL
 10
-52.199999999011823
 20
5.0000003735403453
 30
0.0
  0
VERTEX
  5
1BB8
  8
SAPA_PROFIL
 10
-31.000000000001869
 20
5.0000003735401668
 30
0.0
 42
0.4142135623730951
  0
VERTEX
  5
1BB9
  8
SAPA_PROFIL
 10
-30.000000000001869
 20
6.0000003735401668
 30
0.0
  0
VERTEX
  5
1BBA
  8
SAPA_PROFIL
 10
-30.000000000001759
 20
14.200000373538559
 30
0.0
 42
0.4142135623730951
  0
VERTEX
  5
1BBB
  8
SAPA_PROFIL
 10
-30.500000000001759
 20
14.700000373538559
 30
0.0
  0
VERTEX
  5
1BBC
  8
SAPA_PROFIL
 10
-33.700000000001808
 20
14.70000037353857
 30
0.0
 42
0.4142135623730951
  0
VERTEX
  5
1BBD
  8
SAPA_PROFIL
 10
-34.200000000001808
 20
14.20000037353857
 30
0.0
  0
VERTEX
  5
1BBE
  8
SAPA_PROFIL
 10
-34.20000000000158
 20
11.30000037353865
 30
0.0
 42
-0.4142135623730951
  0
VERTEX
  5
1BBF
  8
SAPA_PROFIL
 10
-34.500000000001542
 20
11.00000037353869
 30
0.0
  0
VERTEX
  5
1BC0
  8
SAPA_PROFIL
 10
-35.200000000001701
 20
11.00000037353858
 30
0.0
 42
-0.4142135623730951
  0
VERTEX
  5
1BC1
  8
SAPA_PROFIL
 10
-35.500000000001769
 20
11.30000037353842
 30
0.0
  0
VERTEX
  5
1BC2
  8
SAPA_PROFIL
 10
-35.500000000001648
 20
17.651668896183711
 30
0.0
 42
-0.1691807452124953
  0
VERTEX
  5
1BC3
  8
SAPA_PROFIL
 10
-35.283588601450788
 20
18.272948948719609
 30
0.0
  0
VERTEX
  5
1BC4
  8
SAPA_PROFIL
 10
-35.035076580436403
 20
18.586384389299269
 30
0.0
 42
-0.7105995015650612
  0
VERTEX
  5
1BC5
  8
SAPA_PROFIL
 10
-34.500000000001542
 20
18.40000037353844
 30
0.0
  0
VERTEX
  5
1BC6
  8
SAPA_PROFIL
 10
-34.500000000001762
 20
16.500000373538629
 30
0.0
 42
0.4142135623732061
  0
VERTEX
  5
1BC7
  8
SAPA_PROFIL
 10
-34.20000000000158
 20
16.200000373538561
 30
0.0
  0
VERTEX
  5
1BC8
  8
SAPA_PROFIL
 10
-30.500000000001759
 20
16.200000373538678
 30
0.0
 42
0.4142135623730951
  0
SEQEND
  5
1BC9
  8
SAPA_PROFIL
  0
ARC
  5
14AE
  8
SAPA_PROFIL
 10
-31.577137293194198
 20
0.0000000000026432
 30
0.0
 40
52.457142857141569
 50
171.05599162060699
 51
188.9440083793944
  0
ARC
  5
14AF
  8
SAPA_PROFIL
 10
-152.61988178597809
 20
-4.6958545104039606
 30
0.0
 40
61.941521467203017
 50
354.15856411527068
 51
14.67867683537574
  0
LINE
  5
14B0
  8
SAPA_PROFIL
 10
-83.396440251906995
 20
-8.1554691837841915
 30
0.0
 11
-82.653051271135723
 21
-10.99999999999957
 31
0.0
  0
LINE
  5
14B1
  8
SAPA_PROFIL
 10
-83.396440251907066
 20
8.1554691837893643
 30
0.0
 11
-82.262870722021489
 21
11.000000000032029
 31
0.0
  0
LINE
  5
14E4
  8
SAPA_GLAS
 10
-84.999999999999503
 20
-37.999999999999581
 30
0.0
 11
-68.999999999999503
 21
-37.999999999999588
 31
0.0
  0
LINE
  5
14E5
  8
SAPA_GLAS
 10
-84.999999999999474
 20
-25.999999999999591
 30
0.0
 11
-68.999999999999474
 21
-25.999999999999591
 31
0.0
1001
ACAD
1000
ASC_BOUNDS
1002
{
1070
    19
1005
14EB
1002
}
  0
LINE
  5
14E6
  8
SAPA_GLAS
 10
-81.999999999999488
 20
-10.999999999999581
 30
0.0
 11
-84.999999999999474
 21
-10.999999999999581
 31
0.0
1001
ACAD
1000
ASC_BOUNDS
1002
{
1070
    19
1005
14EB
1002
}
  0
LINE
  5
14E7
  8
SAPA_GLAS
 10
-68.999999999999474
 20
-10.999999999999581
 30
0.0
 11
-71.999999999999488
 21
-10.999999999999581
 31
0.0
1001
ACAD
1000
ASC_BOUNDS
1002
{
1070
    19
1005
14EB
1002
}
  0
POLYLINE
  5
14E8
  8
SAPA_GLAS
 66
     1
 10
0.0
 20
0.0
 30
0.0
1001
ACAD
1000
ASC_BOUNDS
1002
{
1070
    19
1005
14EB
1002
}
  0
VERTEX
  5
1C2C
  8
SAPA_GLAS
 10
-90.999999999999488
 20
-40.999999999999567
 30
0.0
  0
VERTEX
  5
1C2D
  8
SAPA_GLAS
 10
-90.999999999999488
 20
-10.999999999999581
 30
0.0
  0
VERTEX
  5
1C2E
  8
SAPA_GLAS
 10
-84.999999999999474
 20
-10.999999999999581
 30
0.0
  0
VERTEX
  5
1C2F
  8
SAPA_GLAS
 10
-84.999999999999503
 20
-40.999999999999567
 30
0.0
  0
SEQEND
  5
1C30
  8
SAPA_GLAS
  0
POLYLINE
  5
14E9
  8
SAPA_GLAS
 66
     1
 10
0.0
 20
0.0
 30
0.0
1001
ACAD
1000
ASC_BOUNDS
1002
{
1070
    19
1005
14EB
1002
}
  0
VERTEX
  5
1C31
  8
SAPA_GLAS
 10
-68.999999999999503
 20
-40.999999999999581
 30
0.0
  0
VERTEX
  5
1C32
  8
SAPA_GLAS
 10
-68.999999999999474
 20
-10.999999999999581
 30
0.0
  0
VERTEX
  5
1C33
  8
SAPA_GLAS
 10
-62.999999999999488
 20
-10.99999999999959
 30
0.0
  0
VERTEX
  5
1C34
  8
SAPA_GLAS
 10
-62.999999999999503
 20
-40.999999999999581
 30
0.0
  0
SEQEND
  5
1C35
  8
SAPA_GLAS
  0
POLYLINE
  5
14EA
  8
SAPA_GLAS
 66
     1
 10
0.0
 20
0.0
 30
0.0
 70
     1
1001
ACAD
1000
ASC_BOUNDS
1002
{
1070
    19
1005
14EB
1002
}
  0
VERTEX
  5
1C36
  8
SAPA_GLAS
 10
-80.199999999999477
 20
-18.999999999999581
 30
0.0
  0
VERTEX
  5
1C37
  8
SAPA_GLAS
 10
-73.7999999999995
 20
-18.999999999999581
 30
0.0
 42
0.4142135623730951
  0
VERTEX
  5
1C38
  8
SAPA_GLAS
 10
-73.499999999999488
 20
-18.699999999999569
 30
0.0
  0
VERTEX
  5
1C39
  8
SAPA_GLAS
 10
-73.499999999999488
 20
-10.999999999999581
 30
0.0
  0
VERTEX
  5
1C3A
  8
SAPA_GLAS
 10
-71.999999999999488
 20
-10.999999999999581
 30
0.0
  0
VERTEX
  5
1C3B
  8
SAPA_GLAS
 10
-71.999999999999488
 20
-20.69999999999958
 30
0.0
 42
-0.4142135623730951
  0
VERTEX
  5
1C3C
  8
SAPA_GLAS
 10
-72.2999999999995
 20
-20.999999999999581
 30
0.0
  0
VERTEX
  5
1C3D
  8
SAPA_GLAS
 10
-81.699999999999477
 20
-20.999999999999581
 30
0.0
 42
-0.4142135623730951
  0
VERTEX
  5
1C3E
  8
SAPA_GLAS
 10
-81.999999999999488
 20
-20.699999999999569
 30
0.0
  0
VERTEX
  5
1C3F
  8
SAPA_GLAS
 10
-81.999999999999488
 20
-10.999999999999581
 30
0.0
  0
VERTEX
  5
1C40
  8
SAPA_GLAS
 10
-80.499999999999488
 20
-10.999999999999581
 30
0.0
  0
VERTEX
  5
1C41
  8
SAPA_GLAS
 10
-80.499999999999488
 20
-18.699999999999569
 30
0.0
 42
0.4142135623730951
  0
SEQEND
  5
1C42
  8
SAPA_GLAS
  0
INSERT
  5
14EB
  8
SAPA_GLAS
  6
CONTINUOUS
  2
*X82
 10
0.0
 20
0.0
 30
0.0
1001
GRADIENTCOLOR1ACI
1070
     5
1001
GRADIENTCOLOR2ACI
1070
     2
1001
ACAD
1000
HATCH
1002
{
1070
    19
1000
ANSI37
1040
0.25
1040
0.0
1000
ASC_BOUNDS
1070
     1
1070
     1
1070
     6
1005
14E6
1005
14E8
1005
14E5
1005
14E9
1005
14E7
1005
14EA
1000
ASC_SEEDPOINT
1011
-79.450586921254398
1021
0.0
1031
0.0
1021
-21.8046172722661
1031
0.0
1000
R14_HATCH_DATA
1000
14EB
1011
1.0
1021
0.0
1031
0.0
1021
0.0
1031
0.0
1011
0.0
1021
0.0
1031
0.0
1021
1.0
1031
0.0
1011
0.0
1021
0.0
1031
0.0
1021
0.0
1031
1.0
1040
0.0
1010
0.0
1020
0.0
1030
1.0
1000
ANSI37
1070
     0
1070
     1
1071
        1
1071
        7
1070
     1
1070
     1
1071
       10
1040
-72.2999999999995
1040
-20.999999999999581
1040
0.4142135623730951
1040
-71.999999999999488
1040
-20.69999999999958
1040
0.0
1040
-71.999999999999488
1040
-10.999999999999581
1040
0.0
1040
-68.999999999999474
1040
-10.999999999999581
1040
0.0
1040
-68.999999999999474
1040
-25.999999999999591
1040
0.0
1040
-84.999999999999474
1040
-25.999999999999591
1040
0.0
1040
-84.999999999999474
1040
-10.999999999999581
1040
0.0
1040
-81.999999999999488
1040
-10.999999999999581
1040
0.0
1040
-81.999999999999488
1040
-20.699999999999569
1040
0.4142135623730951
1040
-81.699999999999477
1040
-20.999999999999581
1040
0.0
1071
        6
1005
14EA
1005
14E7
1005
14E9
1005
14E5
1005
14E8
1005
14E6
1070
     1
1070
     1
1040
0.0
1040
0.25
1070
     0
1070
     2
1040
0.7853981633974483
1040
0.0
1040
0.0
1040
-0.5612660075668221
1040
0.5612660075668221
1070
     0
1040
2.3561944901923439
1040
0.0
1040
0.0
1040
-0.5612660075668221
1040
-0.5612660075668221
1070
     0
1040
0.1332406017304326
1071
        1
1040
-79.450586921254398
1040
-21.8046172722661
1040
0.0
1002
}
  0
INSERT
  5
14F1
  8
SAPA_FYLLNING
  6
CONTINUOUS
  2
*X84
 10
0.0
 20
0.0
 30
0.0
1001
GRADIENTCOLOR1ACI
1070
     5
1001
GRADIENTCOLOR2ACI
1070
     2
1001
ACAD
1000
HATCH
1002
{
1070
    19
1000
ANSI37
1040
0.25
1040
-1.5707963267948959
1000
R14_HATCH_DATA
1000
14F1
1011
1.0
1021
0.0
1031
0.0
1021
0.0
1031
0.0
1011
0.0
1021
0.0
1031
0.0
1021
1.0
1031
0.0
1011
0.0
1021
0.0
1031
0.0
1021
0.0
1031
1.0
1040
0.0
1010
0.0
1020
0.0
1030
1.0
1000
ANSI37
1070
     0
1070
     0
1071
        1
1071
        7
1070
     1
1070
     1
1071
        7
1040
-90.999999999999488
1040
-10.99999999999957
1040
0.0
1040
-84.999999999999474
1040
-10.99999999999957
1040
0.0
1040
-82.653051271135723
1040
-10.99999999999957
1040
0.0
1040
-83.396440251906995
1040
-8.1554691837842181
1040
-0.0782100801382208
1040
-83.396440251907023
1040
8.1554691837893927
1040
0.0
1040
-82.262870722021518
1040
11.000000000031941
1040
0.0
1040
-92.700000003219728
1040
11.000000000014611
1040
-0.0897759121880709
1071
        0
1070
     1
1070
     1
1040
-1.5707963267948959
1040
0.25
1070
     0
1070
     2
1040
5.4977871437821371
1040
0.0
1040
0.0
1040
0.5612660075668222
1040
0.5612660075668219
1070
     0
1040
0.7853981633974481
1040
0.0
1040
0.0
1040
-0.5612660075668219
1040
0.5612660075668222
1070
     0
1040
0.0256191213762074
1071
        1
1040
-87.785864515288836
1040
1.246128712248179
1040
0.0
1002
}
  0
INSERT
  5
14FB
  8
SAPA_ISOLATOR
  6
CONTINUOUS
  2
*X87
 10
0.0
 20
0.0
 30
0.0
1001
ACAD
1000
HATCH
1002
{
1070
    19
1000
ANSI31
1040
0.35
1040
3.926990816987241
1000
R14_HATCH_DATA
1000
14FB
1011
1.0
1021
0.0
1031
0.0
1021
0.0
1031
0.0
1011
0.0
1021
0.0
1031
0.0
1021
1.0
1031
0.0
1011
0.0
1021
0.0
1031
0.0
1021
0.0
1031
1.0
1040
0.0
1010
0.0
1020
0.0
1030
1.0
1000
ANSI31
1070
     0
1070
     0
1071
        1
1071
        1
1071
       49
1070
     2
1040
-64.463742496360354
1040
22.327435054190421
1040
0.3006817060114675
1040
-1.5657379063807291
1040
-0.3498199254894492
1070
     1
1070
     1
1040
-64.181271744820549
1040
22.224382820568351
1040
-63.295794031949349
1040
24.657212842112369
1070
     2
1040
-62.919916983633222
1040
24.520404784779551
1040
0.400000000002539
1040
3.490658503993135
1040
4.7123889803853398
1070
     0
1070
     1
1040
-62.919916983632959
1040
24.92040478478209
1040
-52.499999998918831
1040
24.920404784782061
1070
     1
1040
-52.499999998918831
1040
24.920404784782061
1040
-42.080083014200738
1040
24.920404784782001
1070
     2
1040
-42.080083014202494
1040
24.52040478478235
1040
0.3999999999996488
1040
4.7123889803890684
1040
5.9341194567812998
1070
     0
1070
     1
1040
-41.70420596588837
1040
24.65721284211228
1040
-40.818728253020197
1040
22.22438282057659
1070
     2
1040
-40.53636568087277
1040
22.32728126352033
1040
0.3005273892841634
1040
3.4910552070390422
1040
4.7076879318700922
1070
     1
1070
     2
1040
-40.308189705934488
1040
27.587400270045251
1040
5.5653807064749881
1040
4.6711242502471872
1040
4.7342885622872561
1070
     1
1070
     1
1040
-40.186319937167163
1040
22.023354065396632
1040
-39.946136872384869
1040
21.884684308290112
1070
     2
1040
-39.841136872385157
1040
22.066549643085011
1040
0.2100000000000017
1040
4.188790204787975
1040
6.2831853071790738
1070
     1
1070
     1
1040
-39.631136872385163
1040
22.066549643084912
1040
-39.631136872385042
1040
22.333664171297819
1070
     1
1040
-39.631136872385042
1040
22.333664171297819
1040
-39.29999999891885
1040
22.52988623708212
1070
     1
1040
-39.29999999891885
1040
22.52988623708212
1040
-38.316679860938329
1040
23.097530400579569
1070
     2
1040
-38.211679860940073
1040
22.915665065786019
1040
0.209999999998109
1040
4.1887902047907026
1040
4.7123889803873293
1070
     0
1070
     1
1040
-38.211679860939512
1040
23.12566506578413
1040
-37.89999999891694
1040
23.12566506578424
1070
     2
1040
-37.899999998915028
1040
22.72566506578811
1040
0.3999999999961332
1040
4.7123889803799113
1040
6.2831853071900472
1070
     0
1070
     1
1040
-37.499999998918902
1040
22.725665065783922
1040
-37.499999998918838
1040
19.325665065784172
1070
     2
1040
-37.899999998915902
1040
19.325665065781259
1040
0.3999999999970676
1040
6.2831853071723121
1040
7.8539816339818991
1070
     0
1070
     1
1040
-37.899999998918872
1040
18.925665065784191
1040
-38.211679860942517
1040
18.925665065784191
1070
     2
1040
-38.211679860940869
1040
19.13566506577914
1040
0.2099999999949489
1040
1.57079632680278
1040
2.0943951023994072
1070
     0
1070
     1
1040
-38.316679860939473
1040
18.953799730989431
1040
-39.29999999891885
1040
19.521519877351469
1070
     1
1040
-39.29999999891885
1040
19.521519877351469
1040
-39.894744110589727
1040
19.864895550323588
1070
     2
1040
-40.494744110595832
1040
18.82566506577319
1040
1.2000000000109059
1040
1.047197551195963
1040
1.5707963267926159
1070
     1
1070
     1
1040
-40.494744110593103
1040
20.025665065784111
1040
-41.446608443479533
1040
20.025665065783869
1070
     2
1040
-41.446608443470517
1040
21.025665065776131
1040
0.9999999999922533
1040
1.570796326803906
1040
2.7925268031964121
1070
     0
1070
     1
1040
-42.386301064251029
1040
20.683644922458271
1040
-43.177415089160881
1040
22.857212842111959
1070
     2
1040
-43.553292137476362
1040
22.72040478478068
1040
0.4000000000013905
1040
0.3490658504002764
1040
1.5707963267925069
1070
     1
1070
     1
1040
-43.553292137475403
1040
23.120404784782071
1040
-52.499999998918831
1040
23.120404784782082
1070
     1
1040
-52.499999998918831
1040
23.120404784782071
1040
-61.446707860362331
1040
23.120404784782131
1070
     2
1040
-61.446707860363318
1040
22.720404784783561
1040
0.3999999999985775
1040
1.570796326792411
1040
2.7925268031846149
1070
     1
1070
     1
1040
-61.822584908675481
1040
22.857212842115711
1040
-62.613698933586591
1040
20.683644922458502
1070
     2
1040
-63.553391554381747
1040
21.025665065797369
1040
1.000000000013211
1040
6.632251157587703
1040
7.853981633979922
1070
     0
1070
     1
1040
-63.55339155438719
1040
20.02566506578416
1040
-64.505255887244687
1040
20.02566506578416
1070
     2
1040
-64.505255887247685
1040
18.825665065795128
1040
1.1999999999890261
1040
1.570796326792401
1040
2.094395102389051
1070
     1
1070
     1
1040
-65.105255887237888
1040
19.86489555032944
1040
-65.692820321946385
1040
19.525665065784221
1070
     1
1040
-65.692820321946385
1040
19.525665065784221
1040
-66.683320136898317
1040
18.953799730989498
1070
     2
1040
-66.788320136899983
1040
19.13566506579064
1040
0.2100000000063851
1040
7.3303828583845627
1040
7.8539816339812401
1070
     0
1070
     1
1040
-66.788320136901405
1040
18.925665065784251
1040
-67.099999998918904
1040
18.925665065784202
1070
     2
1040
-67.099999998915948
1040
19.325665065787149
1040
0.40000000000295
1040
1.5707963268023291
1040
3.141592653592308
1070
     0
1070
     1
1040
-67.499999998918895
1040
19.325665065788151
1040
-67.499999998918895
1040
22.725665065784209
1070
     2
1040
-67.099999998916914
1040
22.725665065782209
1040
0.4000000000019782
1040
3.1415926535947949
1040
4.7123889803848034
1070
     0
1070
     1
1040
-67.099999998916871
1040
23.12566506578419
1040
-66.788320136898221
1040
23.12566506578419
1070
     2
1040
-66.78832013689869
1040
22.915665065782282
1040
0.2100000000019078
1040
4.7123889803869421
1040
5.2359877559835688
1070
     0
1070
     1
1040
-66.683320136897635
1040
23.097530400578599
1040
-65.368863125452634
1040
22.333664171297819
1070
     1
1040
-65.368863125452634
1040
22.333664171297819
1040
-65.368863125452521
1040
22.066549643084912
1070
     2
1040
-65.158863125452513
1040
22.066549643085011
1040
0.2100000000000017
1040
3.1415926535902998
1040
5.235987755981399
1070
     1
1070
     1
1040
-65.053863125452807
1040
21.884684308290112
1040
-64.813680060670507
1040
22.023354065396639
1070
     2
1040
-64.691810291900111
1040
27.587400269487759
1040
5.5653807059176952
1040
4.6904893984793761
1040
4.7536537105194441
1070
     1
1071
        0
1070
     0
1070
     1
1040
3.926990816987241
1040
0.35
1070
     0
1070
     1
1040
4.7123889803846888
1040
-67.50000014973466
1040
24.920404977802271
1040
1.111249999999999
1040
-0.0000000000000005
1070
     0
1071
        1
1040
-67.50000014973466
1040
24.920404977802271
1040
0.0
1002
}
  0
INSERT
  5
14FC
  8
SAPA_ISOLATOR
  6
CONTINUOUS
  2
*X88
 10
0.0
 20
0.0
 30
0.0
1001
ACAD
1000
HATCH
1002
{
1070
    19
1000
ANSI31
1040
0.35
1040
5.4977871437821371
1000
R14_HATCH_DATA
1000
14FC
1011
1.0
1021
0.0
1031
0.0
1021
0.0
1031
0.0
1011
0.0
1021
0.0
1031
0.0
1021
1.0
1031
0.0
1011
0.0
1021
0.0
1031
0.0
1021
0.0
1031
1.0
1040
0.0
1010
0.0
1020
0.0
1030
1.0
1000
ANSI31
1070
     0
1070
     0
1071
        1
1071
        1
1071
       49
1070
     2
1040
-64.463742496360354
1040
7.6725649458037459
1040
0.3006817060114675
1040
-1.565737906380728
1040
-0.3498199254894487
1070
     0
1070
     1
1040
-64.181271744820549
1040
7.7756171794258186
1040
-63.295794031949349
1040
5.3427871578817978
1070
     2
1040
-62.919916983633222
1040
5.4795952152146157
1040
0.400000000002539
1040
3.490658503993135
1040
4.7123889803853389
1070
     1
1070
     1
1040
-62.919916983632959
1040
5.0795952152120769
1040
-52.499999998918831
1040
5.0795952152121027
1070
     1
1040
-52.499999998918831
1040
5.0795952152121027
1040
-42.080083014200738
1040
5.0795952152121577
1070
     2
1040
-42.080083014202494
1040
5.479595215211809
1040
0.3999999999996488
1040
4.7123889803890684
1040
5.9341194567812998
1070
     1
1070
     1
1040
-41.70420596588837
1040
5.3427871578818786
1040
-40.818728253020197
1040
7.7756171794175719
1070
     2
1040
-40.53636568087277
1040
7.6727187364738318
1040
0.3005273892841634
1040
3.4910552070390422
1040
4.7076879318700922
1070
     0
1070
     2
1040
-40.308189705934488
1040
2.4125997299489068
1040
5.5653807064749881
1040
4.6711242502471872
1040
4.7342885622872561
1070
     0
1070
     1
1040
-40.186319937167163
1040
7.9766459345975207
1040
-39.946136872384862
1040
8.1153156917040459
1070
     2
1040
-39.841136872385157
1040
7.9334503569091446
1040
0.2100000000000017
1040
4.188790204787975
1040
6.2831853071790738
1070
     0
1070
     1
1040
-39.631136872385163
1040
7.9334503569092529
1040
-39.631136872385042
1040
7.6663358286963401
1070
     1
1040
-39.631136872385042
1040
7.6663358286963392
1040
-39.29999999891885
1040
7.4701137629120407
1070
     1
1040
-39.29999999891885
1040
7.4701137629120407
1040
-38.316679860938329
1040
6.9024695994145926
1070
     2
1040
-38.211679860940073
1040
7.0843349342081376
1040
0.209999999998109
1040
4.1887902047907017
1040
4.7123889803873276
1070
     1
1070
     1
1040
-38.211679860939512
1040
6.8743349342100322
1040
-37.89999999891694
1040
6.8743349342099194
1070
     2
1040
-37.899999998915028
1040
7.2743349342060499
1040
0.3999999999961332
1040
4.7123889803799113
1040
6.2831853071900472
1070
     1
1070
     1
1040
-37.499999998918902
1040
7.274334934210235
1040
-37.499999998918838
1040
10.67433493420998
1070
     2
1040
-37.899999998915902
1040
10.67433493421289
1040
0.3999999999970676
1040
6.2831853071723121
1040
7.8539816339818991
1070
     1
1070
     1
1040
-37.899999998918872
1040
11.07433493420996
1040
-38.211679860942517
1040
11.07433493420996
1070
     2
1040
-38.211679860940869
1040
10.864334934215011
1040
0.2099999999949489
1040
1.5707963268027789
1040
2.0943951023994072
1070
     1
1070
     1
1040
-38.316679860939473
1040
11.04620026900472
1040
-39.29999999891885
1040
10.478480122642679
1070
     1
1040
-39.29999999891885
1040
10.478480122642679
1040
-39.894744110589727
1040
10.135104449670569
1070
     2
1040
-40.494744110595832
1040
11.17433493422096
1040
1.2000000000109059
1040
1.0471975511959639
1040
1.570796326792617
1070
     0
1070
     1
1040
-40.494744110593103
1040
9.9743349342100558
1040
-41.446608443479533
1040
9.9743349342102832
1070
     2
1040
-41.446608443470517
1040
8.9743349342180316
1040
0.9999999999922533
1040
1.570796326803906
1040
2.7925268031964121
1070
     1
1070
     1
1040
-42.386301064251029
1040
9.3163550775358956
1040
-43.177415089160881
1040
7.1427871578822044
1070
     2
1040
-43.553292137476362
1040
7.2795952152134751
1040
0.4000000000013905
1040
0.3490658504002768
1040
1.5707963267925069
1070
     0
1070
     1
1040
-43.553292137475403
1040
6.8795952152120838
1040
-52.499999998918831
1040
6.8795952152120838
1070
     1
1040
-52.499999998918831
1040
6.8795952152120856
1040
-61.446707860362331
1040
6.8795952152120314
1070
     2
1040
-61.446707860363318
1040
7.279595215210608
1040
0.3999999999985775
1040
1.5707963267924121
1040
2.7925268031846149
1070
     0
1070
     1
1040
-61.822584908675481
1040
7.1427871578784554
1040
-62.613698933586591
1040
9.3163550775356718
1070
     2
1040
-63.553391554381747
1040
8.9743349341967935
1040
1.000000000013211
1040
6.632251157587703
1040
7.853981633979922
1070
     1
1070
     1
1040
-63.55339155438719
1040
9.9743349342100025
1040
-64.505255887244687
1040
9.9743349342100025
1070
     2
1040
-64.505255887247685
1040
11.174334934199029
1040
1.1999999999890261
1040
1.570796326792401
1040
2.0943951023890519
1070
     0
1070
     1
1040
-65.105255887237888
1040
10.13510444966472
1040
-65.692820321946385
1040
10.47433493420994
1070
     1
1040
-65.692820321946385
1040
10.474334934209949
1040
-66.683320136898317
1040
11.04620026900467
1070
     2
1040
-66.788320136899983
1040
10.86433493420353
1040
0.2100000000063851
1040
7.3303828583845627
1040
7.8539816339812401
1070
     1
1070
     1
1040
-66.788320136901405
1040
11.07433493420991
1040
-67.099999998918904
1040
11.07433493420997
1070
     2
1040
-67.099999998915948
1040
10.674334934207019
1040
0.40000000000295
1040
1.5707963268023279
1040
3.141592653592308
1070
     1
1070
     1
1040
-67.499999998918895
1040
10.67433493420601
1040
-67.499999998918895
1040
7.2743349342099579
1070
     2
1040
-67.099999998916914
1040
7.2743349342119581
1040
0.4000000000019782
1040
3.1415926535947949
1040
4.7123889803848034
1070
     1
1070
     1
1040
-67.099999998916871
1040
6.8743349342099807
1040
-66.788320136898221
1040
6.8743349342099807
1070
     2
1040
-66.78832013689869
1040
7.0843349342118902
1040
0.2100000000019078
1040
4.7123889803869412
1040
5.2359877559835688
1070
     1
1070
     1
1040
-66.683320136897635
1040
6.902469599415566
1040
-65.368863125452634
1040
7.6663358286963446
1070
     1
1040
-65.368863125452634
1040
7.6663358286963446
1040
-65.368863125452521
1040
7.93345035690926
1070
     2
1040
-65.158863125452513
1040
7.9334503569091526
1040
0.2100000000000017
1040
3.1415926535902998
1040
5.235987755981399
1070
     0
1070
     1
1040
-65.053863125452807
1040
8.1153156917040512
1040
-64.813680060670507
1040
7.9766459345975287
1070
     2
1040
-64.691810291900111
1040
2.412599730506408
1040
5.5653807059176952
1040
4.6904893984793761
1040
4.7536537105194441
1070
     0
1071
        0
1070
     0
1070
     1
1040
5.4977871437821371
1040
0.35
1070
     0
1070
     1
1040
0.0
1040
0.0
1040
0.0
1040
0.0000000000000003
1040
1.111249999999999
1070
     0
1071
        1
1040
-67.50000014973466
1040
5.0795950221918931
1040
0.0
1002
}
  0
POLYLINE
  5
14FD
  8
SAPA_ISOLATOR
 66
     1
 10
0.0
 20
0.0
 30
0.0
 70
     1
  0
VERTEX
  5
1D9E
  8
SAPA_ISOLATOR
 10
-53.699999999999818
 20
3.5
 30
0.0
  0
VERTEX
  5
1D9F
  8
SAPA_ISOLATOR
 10
-53.699999999999818
 20
2.6029440986901591
 30
0.0
  0
VERTEX
  5
1DA0
  8
SAPA_ISOLATOR
 10
-52.197055901308431
 20
1.099999999998772
 30
0.0
  0
VERTEX
  5
1DA1
  8
SAPA_ISOLATOR
 10
-46.478136728428119
 20
1.0999999999989989
 30
0.0
 42
-0.0502608893789828
  0
VERTEX
  5
1DA2
  8
SAPA_ISOLATOR
 10
-45.495019712916701
 20
0.4230777223442601
 30
0.0
 42
-0.460955221230658
  0
VERTEX
  5
1DA3
  8
SAPA_ISOLATOR
 10
-45.495019712917383
 20
-0.4230769752680317
 30
0.0
 42
-0.0502609546985642
  0
VERTEX
  5
1DA4
  8
SAPA_ISOLATOR
 10
-46.478138087674779
 20
-1.1000000000012731
 30
0.0
  0
VERTEX
  5
1DA5
  8
SAPA_ISOLATOR
 10
-52.197056648386933
 20
-1.1000000000012731
 30
0.0
  0
VERTEX
  5
1DA6
  8
SAPA_ISOLATOR
 10
-53.700000000000038
 20
-2.6029433516139302
 30
0.0
  0
VERTEX
  5
1DA7
  8
SAPA_ISOLATOR
 10
-53.700000000000038
 20
-3.5
 30
0.0
 42
-0.4142135623728733
  0
VERTEX
  5
1DA8
  8
SAPA_ISOLATOR
 10
-54.0
 20
-3.7999999999999541
 30
0.0
  0
VERTEX
  5
1DA9
  8
SAPA_ISOLATOR
 10
-61.099999999999959
 20
-3.8000000000009768
 30
0.0
 42
-0.4142135623731387
  0
VERTEX
  5
1DAA
  8
SAPA_ISOLATOR
 10
-61.600000000000023
 20
-3.3000000000009768
 30
0.0
  0
VERTEX
  5
1DAB
  8
SAPA_ISOLATOR
 10
-61.60000000000008
 20
3.2999999999988172
 30
0.0
 42
-0.4142135623730469
  0
VERTEX
  5
1DAC
  8
SAPA_ISOLATOR
 10
-61.100000000000129
 20
3.7999999999988172
 30
0.0
  0
VERTEX
  5
1DAD
  8
SAPA_ISOLATOR
 10
-54.0
 20
3.7999999999999541
 30
0.0
 42
-0.4142135623733169
  0
SEQEND
  5
1DAE
  8
SAPA_ISOLATOR
  0
POLYLINE
  5
14FE
  8
SAPA_ISOLATOR
 66
     1
 10
0.0
 20
0.0
 30
0.0
 70
     1
  0
VERTEX
  5
1DAF
  8
SAPA_ISOLATOR
 10
-71.499999999998053
 20
6.7999999999974534
 30
0.0
 42
-0.4142135623731284
  0
VERTEX
  5
1DB0
  8
SAPA_ISOLATOR
 10
-70.999999999997954
 20
6.2999999999974534
 30
0.0
  0
VERTEX
  5
1DB1
  8
SAPA_ISOLATOR
 10
-70.999999999997954
 20
5.5
 30
0.0
 42
0.4142135623730951
  0
VERTEX
  5
1DB2
  8
SAPA_ISOLATOR
 10
-70.499999999997954
 20
5.0
 30
0.0
  0
VERTEX
  5
1DB3
  8
SAPA_ISOLATOR
 10
-53.0
 20
4.9999999999997717
 30
0.0
 42
-0.4142135623730951
  0
VERTEX
  5
1DB4
  8
SAPA_ISOLATOR
 10
-52.5
 20
4.4999999999997717
 30
0.0
  0
VERTEX
  5
1DB5
  8
SAPA_ISOLATOR
 10
-52.5
 20
3.1000003735380228
 30
0.0
  0
VERTEX
  5
1DB6
  8
SAPA_ISOLATOR
 10
-51.69999962646056
 20
2.2999999999985898
 30
0.0
  0
VERTEX
  5
1DB7
  8
SAPA_ISOLATOR
 10
-47.241778772773273
 20
2.3000000000004088
 30
0.0
 42
-0.0970774689087859
  0
VERTEX
  5
1DB8
  8
SAPA_ISOLATOR
 10
-44.975410008182727
 20
1.031358705728052
 30
0.0
 42
-0.4609552212306134
  0
VERTEX
  5
1DB9
  8
SAPA_ISOLATOR
 10
-44.975410008182607
 20
-1.0313579586517101
 30
0.0
 42
-0.0970775585520922
  0
VERTEX
  5
1DBA
  8
SAPA_ISOLATOR
 10
-47.241781051835908
 20
-2.3000000000013179
 30
0.0
  0
VERTEX
  5
1DBB
  8
SAPA_ISOLATOR
 10
-51.700000373539517
 20
-2.3000000000013179
 30
0.0
  0
VERTEX
  5
1DBC
  8
SAPA_ISOLATOR
 10
-52.5
 20
-3.099999626461567
 30
0.0
  0
VERTEX
  5
1DBD
  8
SAPA_ISOLATOR
 10
-52.5
 20
-4.4999999999997717
 30
0.0
 42
-0.4142135623730951
  0
VERTEX
  5
1DBE
  8
SAPA_ISOLATOR
 10
-53.0
 20
-4.9999999999997717
 30
0.0
  0
VERTEX
  5
1DBF
  8
SAPA_ISOLATOR
 10
-70.499999999997954
 20
-5.0000000000050022
 30
0.0
 42
0.4142135623730951
  0
VERTEX
  5
1DC0
  8
SAPA_ISOLATOR
 10
-70.999999999997954
 20
-5.5000000000050022
 30
0.0
  0
VERTEX
  5
1DC1
  8
SAPA_ISOLATOR
 10
-70.999999999997954
 20
-6.3000000000024547
 30
0.0
 42
-0.4142135623731617
  0
VERTEX
  5
1DC2
  8
SAPA_ISOLATOR
 10
-71.499999999998522
 20
-6.8000000000023979
 30
0.0
  0
VERTEX
  5
1DC3
  8
SAPA_ISOLATOR
 10
-80.299999999998477
 20
-6.8000000000026262
 30
0.0
 42
-0.4142135623730951
  0
VERTEX
  5
1DC4
  8
SAPA_ISOLATOR
 10
-81.299999999998477
 20
-5.800000000002683
 30
0.0
  0
VERTEX
  5
1DC5
  8
SAPA_ISOLATOR
 10
-81.299999999998477
 20
-5.0873719966523359
 30
0.0
 42
-0.221694662643068
  0
VERTEX
  5
1DC6
  8
SAPA_ISOLATOR
 10
-81.192836282904295
 20
-4.8575586637166452
 30
0.0
  0
VERTEX
  5
1DC7
  8
SAPA_ISOLATOR
 10
-80.492055319897077
 20
-4.269533616121179
 30
0.0
 42
-0.6358782360467221
  0
VERTEX
  5
1DC8
  8
SAPA_ISOLATOR
 10
-79.999999999998522
 20
-4.5000000000018181
 30
0.0
  0
VERTEX
  5
1DC9
  8
SAPA_ISOLATOR
 10
-79.999999999998295
 20
-5.300000000002683
 30
0.0
 42
0.4142135623730951
  0
VERTEX
  5
1DCA
  8
SAPA_ISOLATOR
 10
-79.699999999998113
 20
-5.6000000000024102
 30
0.0
  0
VERTEX
  5
1DCB
  8
SAPA_ISOLATOR
 10
-72.499999999998522
 20
-5.6000000000026366
 30
0.0
 42
0.9995465490080238
  0
VERTEX
  5
1DCC
  8
SAPA_ISOLATOR
 10
-72.499999999998295
 20
-4.9993422943207397
 30
0.0
  0
VERTEX
  5
1DCD
  8
SAPA_ISOLATOR
 10
-72.49999999999801
 20
-0.8660254037865797
 30
0.0
  0
VERTEX
  5
1DCE
  8
SAPA_ISOLATOR
 10
-71.999999999998124
 20
-0.0000000000022737
 30
0.0
  0
VERTEX
  5
1DCF
  8
SAPA_ISOLATOR
 10
-72.499999999998238
 20
0.8660254037823733
 30
0.0
  0
VERTEX
  5
1DD0
  8
SAPA_ISOLATOR
 10
-72.499999999998295
 20
4.9993422943157384
 30
0.0
 42
0.9995465490087907
  0
VERTEX
  5
1DD1
  8
SAPA_ISOLATOR
 10
-72.499999999998522
 20
5.5999999999971797
 30
0.0
  0
VERTEX
  5
1DD2
  8
SAPA_ISOLATOR
 10
-79.699999999998113
 20
5.5999999999974071
 30
0.0
 42
0.4142135623735446
  0
VERTEX
  5
1DD3
  8
SAPA_ISOLATOR
 10
-79.999999999998067
 20
5.2999999999976799
 30
0.0
  0
VERTEX
  5
1DD4
  8
SAPA_ISOLATOR
 10
-79.999999999998522
 20
4.4999999999977263
 30
0.0
 42
-0.6358782360470147
  0
VERTEX
  5
1DD5
  8
SAPA_ISOLATOR
 10
-80.492055319897077
 20
4.2695336161186779
 30
0.0
  0
VERTEX
  5
1DD6
  8
SAPA_ISOLATOR
 10
-81.192836282904295
 20
4.8575586637143706
 30
0.0
 42
-0.2216946626430204
  0
VERTEX
  5
1DD7
  8
SAPA_ISOLATOR
 10
-81.299999999998477
 20
5.0873719966498347
 30
0.0
  0
VERTEX
  5
1DD8
  8
SAPA_ISOLATOR
 10
-81.299999999998477
 20
5.7999999999981346
 30
0.0
 42
-0.4142135623731617
  0
VERTEX
  5
1DD9
  8
SAPA_ISOLATOR
 10
-80.299999999998249
 20
6.7999999999981346
 30
0.0
  0
SEQEND
  5
1DDA
  8
SAPA_ISOLATOR
  0
POLYLINE
  5
14FF
  8
SAPA_ISOLATOR
 66
     1
 10
0.0
 20
0.0
 30
0.0
 70
     1
  0
VERTEX
  5
1DDB
  8
SAPA_ISOLATOR
 10
-63.1000000000002
 20
3.7999999999984762
 30
0.0
 42
-0.4142135623731387
  0
VERTEX
  5
1DDC
  8
SAPA_ISOLATOR
 10
-62.600000000000129
 20
3.2999999999984762
 30
0.0
  0
VERTEX
  5
1DDD
  8
SAPA_ISOLATOR
 10
-62.60000000000008
 20
-3.300000000001432
 30
0.0
 42
-0.4142135623730514
  0
VERTEX
  5
1DDE
  8
SAPA_ISOLATOR
 10
-63.100000000000023
 20
-3.800000000001432
 30
0.0
  0
VERTEX
  5
1DDF
  8
SAPA_ISOLATOR
 10
-70.200000000000159
 20
-3.8000000000024552
 30
0.0
 42
-0.4142135623730951
  0
VERTEX
  5
1DE0
  8
SAPA_ISOLATOR
 10
-70.700000000000159
 20
-3.3000000000024552
 30
0.0
  0
VERTEX
  5
1DE1
  8
SAPA_ISOLATOR
 10
-70.700000000000159
 20
3.299999999997453
 30
0.0
 42
-0.4142135623730951
  0
VERTEX
  5
1DE2
  8
SAPA_ISOLATOR
 10
-70.200000000000159
 20
3.799999999997453
 30
0.0
  0
SEQEND
  5
1DE3
  8
SAPA_ISOLATOR
  0
POLYLINE
  5
151E
  8
SAPA_FOGBAND
 10
-40.499999966998303
 20
-21.699999999993103
 30
0.0
 66
     1
 70
     8
  0
VERTEX
  8
SAPA_FOGBAND
  5
1E8A
 10
-40.5000
 20
-21.7000
 30
0.000000
  70
    32
  0
VERTEX
  8
SAPA_FOGBAND
  5
1E8B
 10
-40.4964
 20
-21.6117
 30
0.000000
  70
    32
  0
VERTEX
  8
SAPA_FOGBAND
  5
1E8C
 10
-40.4858
 20
-21.5236
 30
0.000000
  70
    32
  0
VERTEX
  8
SAPA_FOGBAND
  5
1E8D
 10
-40.4680
 20
-21.4359
 30
0.000000
  70
    32
  0
VERTEX
  8
SAPA_FOGBAND
  5
1E8E
 10
-40.4432
 20
-21.3488
 30
0.000000
  70
    32
  0
VERTEX
  8
SAPA_FOGBAND
  5
1E8F
 10
-40.4115
 20
-21.2626
 30
0.000000
  70
    32
  0
VERTEX
  8
SAPA_FOGBAND
  5
1E90
 10
-40.3728
 20
-21.1775
 30
0.000000
  70
    32
  0
VERTEX
  8
SAPA_FOGBAND
  5
1E91
 10
-40.3273
 20
-21.0936
 30
0.000000
  70
    32
  0
VERTEX
  8
SAPA_FOGBAND
  5
1E92
 10
-40.2751
 20
-21.0112
 30
0.000000
  70
    32
  0
VERTEX
  8
SAPA_FOGBAND
  5
1E93
 10
-40.2163
 20
-20.9304
 30
0.000000
  70
    32
  0
VERTEX
  8
SAPA_FOGBAND
  5
1E94
 10
-40.1512
 20
-20.8515
 30
0.000000
  70
    32
  0
VERTEX
  8
SAPA_FOGBAND
  5
1E95
 10
-40.0797
 20
-20.7746
 30
0.000000
  70
    32
  0
VERTEX
  8
SAPA_FOGBAND
  5
1E96
 10
-40.0021
 20
-20.7000
 30
0.000000
  70
    32
  0
VERTEX
  8
SAPA_FOGBAND
  5
1E97
 10
-39.9186
 20
-20.6277
 30
0.000000
  70
    32
  0
VERTEX
  8
SAPA_FOGBAND
  5
1E98
 10
-39.8294
 20
-20.5581
 30
0.000000
  70
    32
  0
VERTEX
  8
SAPA_FOGBAND
  5
1E99
 10
-39.7347
 20
-20.4912
 30
0.000000
  70
    32
  0
VERTEX
  8
SAPA_FOGBAND
  5
1E9A
 10
-39.6347
 20
-20.4272
 30
0.000000
  70
    32
  0
VERTEX
  8
SAPA_FOGBAND
  5
1E9B
 10
-39.5297
 20
-20.3663
 30
0.000000
  70
    32
  0
VERTEX
  8
SAPA_FOGBAND
  5
1E9C
 10
-39.4199
 20
-20.3086
 30
0.000000
  70
    32
  0
VERTEX
  8
SAPA_FOGBAND
  5
1E9D
 10
-39.3055
 20
-20.2542
 30
0.000000
  70
    32
  0
VERTEX
  8
SAPA_FOGBAND
  5
1E9E
 10
-39.1870
 20
-20.2034
 30
0.000000
  70
    32
  0
VERTEX
  8
SAPA_FOGBAND
  5
1E9F
 10
-39.0645
 20
-20.1561
 30
0.000000
  70
    32
  0
VERTEX
  8
SAPA_FOGBAND
  5
1EA0
 10
-38.9383
 20
-20.1125
 30
0.000000
  70
    32
  0
VERTEX
  8
SAPA_FOGBAND
  5
1EA1
 10
-38.8088
 20
-20.0728
 30
0.000000
  70
    32
  0
VERTEX
  8
SAPA_FOGBAND
  5
1EA2
 10
-38.6762
 20
-20.0370
 30
0.000000
  70
    32
  0
VERTEX
  8
SAPA_FOGBAND
  5
1EA3
 10
-38.5409
 20
-20.0052
 30
0.000000
  70
    32
  0
VERTEX
  8
SAPA_FOGBAND
  5
1EA4
 10
-38.4032
 20
-19.9775
 30
0.000000
  70
    32
  0
VERTEX
  8
SAPA_FOGBAND
  5
1EA5
 10
-38.2635
 20
-19.9539
 30
0.000000
  70
    32
  0
VERTEX
  8
SAPA_FOGBAND
  5
1EA6
 10
-38.1220
 20
-19.9346
 30
0.000000
  70
    32
  0
VERTEX
  8
SAPA_FOGBAND
  5
1EA7
 10
-37.9791
 20
-19.9195
 30
0.000000
  70
    32
  0
VERTEX
  8
SAPA_FOGBAND
  5
1EA8
 10
-37.8352
 20
-19.9087
 30
0.000000
  70
    32
  0
VERTEX
  8
SAPA_FOGBAND
  5
1EA9
 10
-37.6906
 20
-19.9022
 30
0.000000
  70
    32
  0
VERTEX
  8
SAPA_FOGBAND
  5
1EAA
 10
-37.5456
 20
-19.9000
 30
0.000000
  70
    32
  0
VERTEX
  8
SAPA_FOGBAND
  5
1EAB
 10
-37.4007
 20
-19.9022
 30
0.000000
  70
    32
  0
VERTEX
  8
SAPA_FOGBAND
  5
1EAC
 10
-37.2561
 20
-19.9087
 30
0.000000
  70
    32
  0
VERTEX
  8
SAPA_FOGBAND
  5
1EAD
 10
-37.1121
 20
-19.9195
 30
0.000000
  70
    32
  0
VERTEX
  8
SAPA_FOGBAND
  5
1EAE
 10
-36.9693
 20
-19.9346
 30
0.000000
  70
    32
  0
VERTEX
  8
SAPA_FOGBAND
  5
1EAF
 10
-36.8278
 20
-19.9539
 30
0.000000
  70
    32
  0
VERTEX
  8
SAPA_FOGBAND
  5
1EB0
 10
-36.6880
 20
-19.9775
 30
0.000000
  70
    32
  0
VERTEX
  8
SAPA_FOGBAND
  5
1EB1
 10
-36.5503
 20
-20.0052
 30
0.000000
  70
    32
  0
VERTEX
  8
SAPA_FOGBAND
  5
1EB2
 10
-36.4151
 20
-20.0370
 30
0.000000
  70
    32
  0
VERTEX
  8
SAPA_FOGBAND
  5
1EB3
 10
-36.2825
 20
-20.0728
 30
0.000000
  70
    32
  0
VERTEX
  8
SAPA_FOGBAND
  5
1EB4
 10
-36.1530
 20
-20.1125
 30
0.000000
  70
    32
  0
VERTEX
  8
SAPA_FOGBAND
  5
1EB5
 10
-36.0268
 20
-20.1561
 30
0.000000
  70
    32
  0
VERTEX
  8
SAPA_FOGBAND
  5
1EB6
 10
-35.9043
 20
-20.2034
 30
0.000000
  70
    32
  0
VERTEX
  8
SAPA_FOGBAND
  5
1EB7
 10
-35.7857
 20
-20.2542
 30
0.000000
  70
    32
  0
VERTEX
  8
SAPA_FOGBAND
  5
1EB8
 10
-35.6714
 20
-20.3086
 30
0.000000
  70
    32
  0
VERTEX
  8
SAPA_FOGBAND
  5
1EB9
 10
-35.5616
 20
-20.3663
 30
0.000000
  70
    32
  0
VERTEX
  8
SAPA_FOGBAND
  5
1EBA
 10
-35.4566
 20
-20.4272
 30
0.000000
  70
    32
  0
VERTEX
  8
SAPA_FOGBAND
  5
1EBB
 10
-35.3566
 20
-20.4912
 30
0.000000
  70
    32
  0
VERTEX
  8
SAPA_FOGBAND
  5
1EBC
 10
-35.2619
 20
-20.5581
 30
0.000000
  70
    32
  0
VERTEX
  8
SAPA_FOGBAND
  5
1EBD
 10
-35.1727
 20
-20.6277
 30
0.000000
  70
    32
  0
VERTEX
  8
SAPA_FOGBAND
  5
1EBE
 10
-35.0892
 20
-20.7000
 30
0.000000
  70
    32
  0
VERTEX
  8
SAPA_FOGBAND
  5
1EBF
 10
-35.0116
 20
-20.7746
 30
0.000000
  70
    32
  0
VERTEX
  8
SAPA_FOGBAND
  5
1EC0
 10
-34.9401
 20
-20.8515
 30
0.000000
  70
    32
  0
VERTEX
  8
SAPA_FOGBAND
  5
1EC1
 10
-34.8749
 20
-20.9304
 30
0.000000
  70
    32
  0
VERTEX
  8
SAPA_FOGBAND
  5
1EC2
 10
-34.8162
 20
-21.0112
 30
0.000000
  70
    32
  0
VERTEX
  8
SAPA_FOGBAND
  5
1EC3
 10
-34.7640
 20
-21.0936
 30
0.000000
  70
    32
  0
VERTEX
  8
SAPA_FOGBAND
  5
1EC4
 10
-34.7185
 20
-21.1775
 30
0.000000
  70
    32
  0
VERTEX
  8
SAPA_FOGBAND
  5
1EC5
 10
-34.6798
 20
-21.2626
 30
0.000000
  70
    32
  0
VERTEX
  8
SAPA_FOGBAND
  5
1EC6
 10
-34.6480
 20
-21.3488
 30
0.000000
  70
    32
  0
VERTEX
  8
SAPA_FOGBAND
  5
1EC7
 10
-34.6233
 20
-21.4359
 30
0.000000
  70
    32
  0
VERTEX
  8
SAPA_FOGBAND
  5
1EC8
 10
-34.6055
 20
-21.5236
 30
0.000000
  70
    32
  0
VERTEX
  8
SAPA_FOGBAND
  5
1EC9
 10
-34.5948
 20
-21.6117
 30
0.000000
  70
    32
  0
VERTEX
  8
SAPA_FOGBAND
  5
1ECA
 10
-34.5913
 20
-21.7000
 30
0.000000
  70
    32
  0
VERTEX
  8
SAPA_FOGBAND
  5
1ECB
 10
-34.5948
 20
-21.7883
 30
0.000000
  70
    32
  0
VERTEX
  8
SAPA_FOGBAND
  5
1ECC
 10
-34.6055
 20
-21.8764
 30
0.000000
  70
    32
  0
VERTEX
  8
SAPA_FOGBAND
  5
1ECD
 10
-34.6233
 20
-21.9641
 30
0.000000
  70
    32
  0
VERTEX
  8
SAPA_FOGBAND
  5
1ECE
 10
-34.6480
 20
-22.0512
 30
0.000000
  70
    32
  0
VERTEX
  8
SAPA_FOGBAND
  5
1ECF
 10
-34.6798
 20
-22.1374
 30
0.000000
  70
    32
  0
VERTEX
  8
SAPA_FOGBAND
  5
1ED0
 10
-34.7185
 20
-22.2225
 30
0.000000
  70
    32
  0
VERTEX
  8
SAPA_FOGBAND
  5
1ED1
 10
-34.7640
 20
-22.3064
 30
0.000000
  70
    32
  0
VERTEX
  8
SAPA_FOGBAND
  5
1ED2
 10
-34.8162
 20
-22.3888
 30
0.000000
  70
    32
  0
VERTEX
  8
SAPA_FOGBAND
  5
1ED3
 10
-34.8749
 20
-22.4696
 30
0.000000
  70
    32
  0
VERTEX
  8
SAPA_FOGBAND
  5
1ED4
 10
-34.9401
 20
-22.5485
 30
0.000000
  70
    32
  0
VERTEX
  8
SAPA_FOGBAND
  5
1ED5
 10
-35.0116
 20
-22.6254
 30
0.000000
  70
    32
  0
VERTEX
  8
SAPA_FOGBAND
  5
1ED6
 10
-35.0892
 20
-22.7000
 30
0.000000
  70
    32
  0
VERTEX
  8
SAPA_FOGBAND
  5
1ED7
 10
-35.1727
 20
-22.7723
 30
0.000000
  70
    32
  0
VERTEX
  8
SAPA_FOGBAND
  5
1ED8
 10
-35.2619
 20
-22.8419
 30
0.000000
  70
    32
  0
VERTEX
  8
SAPA_FOGBAND
  5
1ED9
 10
-35.3566
 20
-22.9088
 30
0.000000
  70
    32
  0
VERTEX
  8
SAPA_FOGBAND
  5
1EDA
 10
-35.4566
 20
-22.9728
 30
0.000000
  70
    32
  0
VERTEX
  8
SAPA_FOGBAND
  5
1EDB
 10
-35.5616
 20
-23.0337
 30
0.000000
  70
    32
  0
VERTEX
  8
SAPA_FOGBAND
  5
1EDC
 10
-35.6714
 20
-23.0914
 30
0.000000
  70
    32
  0
VERTEX
  8
SAPA_FOGBAND
  5
1EDD
 10
-35.7857
 20
-23.1458
 30
0.000000
  70
    32
  0
VERTEX
  8
SAPA_FOGBAND
  5
1EDE
 10
-35.9043
 20
-23.1966
 30
0.000000
  70
    32
  0
VERTEX
  8
SAPA_FOGBAND
  5
1EDF
 10
-36.0268
 20
-23.2439
 30
0.000000
  70
    32
  0
VERTEX
  8
SAPA_FOGBAND
  5
1EE0
 10
-36.1530
 20
-23.2875
 30
0.000000
  70
    32
  0
VERTEX
  8
SAPA_FOGBAND
  5
1EE1
 10
-36.2825
 20
-23.3272
 30
0.000000
  70
    32
  0
VERTEX
  8
SAPA_FOGBAND
  5
1EE2
 10
-36.4151
 20
-23.3630
 30
0.000000
  70
    32
  0
VERTEX
  8
SAPA_FOGBAND
  5
1EE3
 10
-36.5503
 20
-23.3948
 30
0.000000
  70
    32
  0
VERTEX
  8
SAPA_FOGBAND
  5
1EE4
 10
-36.6880
 20
-23.4225
 30
0.000000
  70
    32
  0
VERTEX
  8
SAPA_FOGBAND
  5
1EE5
 10
-36.8278
 20
-23.4461
 30
0.000000
  70
    32
  0
VERTEX
  8
SAPA_FOGBAND
  5
1EE6
 10
-36.9693
 20
-23.4654
 30
0.000000
  70
    32
  0
VERTEX
  8
SAPA_FOGBAND
  5
1EE7
 10
-37.1121
 20
-23.4805
 30
0.000000
  70
    32
  0
VERTEX
  8
SAPA_FOGBAND
  5
1EE8
 10
-37.2561
 20
-23.4913
 30
0.000000
  70
    32
  0
VERTEX
  8
SAPA_FOGBAND
  5
1EE9
 10
-37.4007
 20
-23.4978
 30
0.000000
  70
    32
  0
VERTEX
  8
SAPA_FOGBAND
  5
1EEA
 10
-37.5456
 20
-23.5000
 30
0.000000
  70
    32
  0
VERTEX
  8
SAPA_FOGBAND
  5
1EEB
 10
-37.6906
 20
-23.4978
 30
0.000000
  70
    32
  0
VERTEX
  8
SAPA_FOGBAND
  5
1EEC
 10
-37.8352
 20
-23.4913
 30
0.000000
  70
    32
  0
VERTEX
  8
SAPA_FOGBAND
  5
1EED
 10
-37.9791
 20
-23.4805
 30
0.000000
  70
    32
  0
VERTEX
  8
SAPA_FOGBAND
  5
1EEE
 10
-38.1220
 20
-23.4654
 30
0.000000
  70
    32
  0
VERTEX
  8
SAPA_FOGBAND
  5
1EEF
 10
-38.2635
 20
-23.4461
 30
0.000000
  70
    32
  0
VERTEX
  8
SAPA_FOGBAND
  5
1EF0
 10
-38.4032
 20
-23.4225
 30
0.000000
  70
    32
  0
VERTEX
  8
SAPA_FOGBAND
  5
1EF1
 10
-38.5409
 20
-23.3948
 30
0.000000
  70
    32
  0
VERTEX
  8
SAPA_FOGBAND
  5
1EF2
 10
-38.6762
 20
-23.3630
 30
0.000000
  70
    32
  0
VERTEX
  8
SAPA_FOGBAND
  5
1EF3
 10
-38.8088
 20
-23.3272
 30
0.000000
  70
    32
  0
VERTEX
  8
SAPA_FOGBAND
  5
1EF4
 10
-38.9383
 20
-23.2875
 30
0.000000
  70
    32
  0
VERTEX
  8
SAPA_FOGBAND
  5
1EF5
 10
-39.0645
 20
-23.2439
 30
0.000000
  70
    32
  0
VERTEX
  8
SAPA_FOGBAND
  5
1EF6
 10
-39.1870
 20
-23.1966
 30
0.000000
  70
    32
  0
VERTEX
  8
SAPA_FOGBAND
  5
1EF7
 10
-39.3055
 20
-23.1458
 30
0.000000
  70
    32
  0
VERTEX
  8
SAPA_FOGBAND
  5
1EF8
 10
-39.4199
 20
-23.0914
 30
0.000000
  70
    32
  0
VERTEX
  8
SAPA_FOGBAND
  5
1EF9
 10
-39.5297
 20
-23.0337
 30
0.000000
  70
    32
  0
VERTEX
  8
SAPA_FOGBAND
  5
1EFA
 10
-39.6347
 20
-22.9728
 30
0.000000
  70
    32
  0
VERTEX
  8
SAPA_FOGBAND
  5
1EFB
 10
-39.7347
 20
-22.9088
 30
0.000000
  70
    32
  0
VERTEX
  8
SAPA_FOGBAND
  5
1EFC
 10
-39.8294
 20
-22.8419
 30
0.000000
  70
    32
  0
VERTEX
  8
SAPA_FOGBAND
  5
1EFD
 10
-39.9186
 20
-22.7723
 30
0.000000
  70
    32
  0
VERTEX
  8
SAPA_FOGBAND
  5
1EFE
 10
-40.0021
 20
-22.7000
 30
0.000000
  70
    32
  0
VERTEX
  8
SAPA_FOGBAND
  5
1EFF
 10
-40.0797
 20
-22.6254
 30
0.000000
  70
    32
  0
VERTEX
  8
SAPA_FOGBAND
  5
1F00
 10
-40.1512
 20
-22.5485
 30
0.000000
  70
    32
  0
VERTEX
  8
SAPA_FOGBAND
  5
1F01
 10
-40.2163
 20
-22.4696
 30
0.000000
  70
    32
  0
VERTEX
  8
SAPA_FOGBAND
  5
1F02
 10
-40.2751
 20
-22.3888
 30
0.000000
  70
    32
  0
VERTEX
  8
SAPA_FOGBAND
  5
1F03
 10
-40.3273
 20
-22.3064
 30
0.000000
  70
    32
  0
VERTEX
  8
SAPA_FOGBAND
  5
1F04
 10
-40.3728
 20
-22.2225
 30
0.000000
  70
    32
  0
VERTEX
  8
SAPA_FOGBAND
  5
1F05
 10
-40.4115
 20
-22.1374
 30
0.000000
  70
    32
  0
VERTEX
  8
SAPA_FOGBAND
  5
1F06
 10
-40.4432
 20
-22.0512
 30
0.000000
  70
    32
  0
VERTEX
  8
SAPA_FOGBAND
  5
1F07
 10
-40.4680
 20
-21.9641
 30
0.000000
  70
    32
  0
VERTEX
  8
SAPA_FOGBAND
  5
1F08
 10
-40.4858
 20
-21.8764
 30
0.000000
  70
    32
  0
VERTEX
  8
SAPA_FOGBAND
  5
1F09
 10
-40.4964
 20
-21.7883
 30
0.000000
  70
    32
  0
VERTEX
  8
SAPA_FOGBAND
  5
1F0A
 10
-40.5000
 20
-21.7000
 30
0.000000
  70
    32
  0
SEQEND
  8
SAPA_FOGBAND
  5
1F0B
  0
INSERT
  5
151F
  8
SAPA_FOGBAND
  6
CONTINUOUS
  2
*X90
 10
0.0
 20
0.0
 30
0.0
1001
ACAD
1000
HATCH
1002
{
1070
    19
1000
ANSI37
1040
0.25
1040
-0.0000000000000002
1000
R14_HATCH_DATA
1000
151F
1011
1.0
1021
0.0
1031
0.0
1021
0.0
1031
0.0
1011
0.0
1021
0.0
1031
0.0
1021
1.0
1031
0.0
1011
0.0
1021
0.0
1031
0.0
1021
0.0
1031
1.0
1040
0.0
1010
0.0
1020
0.0
1030
1.0
1000
ANSI37
1070
     0
1070
     0
1071
        1
1071
        1
1071
        3
1070
     3
1040
-37.545638078316301
1040
-21.699999999992169
1040
-2.9543618886820009
1040
-0.0000000000009329
1040
0.6092686230810487
1040
3.0288543565674959
1040
8.8961375621551824
1070
     1
1070
     2
1040
-36.097247745463861
1040
-21.528106314816689
1040
1.5432917594600579
1040
5.5082984255660516
1040
5.8549249879456822
1070
     1
1070
     1
1040
-34.693331288384883
1040
-22.169018193595761
1040
-34.610031169442713
1040
-21.902499339185589
1071
        0
1070
     0
1070
     1
1040
-0.0000000000000002
1040
0.25
1070
     0
1070
     2
1040
2.3561944901923439
1040
444.38140031398763
1040
-362.90915699464682
1040
0.5612660075668219
1040
0.5612660075668222
1070
     0
1040
0.785398163397449
1040
444.38140031398763
1040
-362.90915699464682
1040
0.5612660075668222
1040
-0.5612660075668219
1070
     0
1071
        1
1040
-37.788408381380343
1040
-21.851617139245921
1040
0.0
1002
}
  0
POLYLINE
  5
1520
  8
SAPA_FOGBAND
 66
     1
 10
0.0
 20
0.0
 30
0.0
 70
     1
  0
VERTEX
  5
1E46
  8
SAPA_FOGBAND
 10
-80.768193081411013
 20
-4.1787401792169874
 30
0.0
  0
VERTEX
  5
1E47
  8
SAPA_FOGBAND
 10
-80.544896306152935
 20
-4.1787401792169732
 30
0.0
 42
-0.3500011104185251
  0
VERTEX
  5
1E48
  8
SAPA_FOGBAND
 10
-79.764899471718081
 20
-4.8009624014392074
 30
0.0
 42
0.3500011104185275
  0
VERTEX
  5
1E49
  8
SAPA_FOGBAND
 10
-78.789903428674506
 20
-5.578740179216978
 30
0.0
  0
VERTEX
  5
1E4A
  8
SAPA_FOGBAND
 10
-78.46489947171807
 20
-5.5787401792169797
 30
0.0
 42
0.4142135623730992
  0
VERTEX
  5
1E4B
  8
SAPA_FOGBAND
 10
-77.46489947171807
 20
-4.5787401792169797
 30
0.0
  0
VERTEX
  5
1E4C
  8
SAPA_FOGBAND
 10
-77.46489947171807
 20
4.6212598207830391
 30
0.0
 42
0.4142135623730909
  0
VERTEX
  5
1E4D
  8
SAPA_FOGBAND
 10
-78.46489947171807
 20
5.621259820783024
 30
0.0
  0
VERTEX
  5
1E4E
  8
SAPA_FOGBAND
 10
-78.789903428674506
 20
5.6212598207830391
 30
0.0
 42
0.3500011104185275
  0
VERTEX
  5
1E4F
  8
SAPA_FOGBAND
 10
-79.764899471718053
 20
4.8434820430052667
 30
0.0
 42
-0.3500011104185328
  0
VERTEX
  5
1E50
  8
SAPA_FOGBAND
 10
-80.544896306152935
 20
4.2212598207830192
 30
0.0
  0
VERTEX
  5
1E51
  8
SAPA_FOGBAND
 10
-80.768193081411013
 20
4.2212598207830192
 30
0.0
 42
-0.380963100045198
  0
VERTEX
  5
1E52
  8
SAPA_FOGBAND
 10
-81.264899471718081
 20
4.6639644297978728
 30
0.0
 42
-0.0458039546811979
  0
VERTEX
  5
1E53
  8
SAPA_FOGBAND
 10
-81.341546602805465
 20
7.9530679894324399
 30
0.0
 42
0.9570085662280619
  0
VERTEX
  5
1E54
  8
SAPA_FOGBAND
 10
-83.327059573289304
 20
8.1767290045698076
 30
0.0
 42
0.0782100801382191
  0
VERTEX
  5
1E55
  8
SAPA_FOGBAND
 10
-83.327059573289347
 20
-8.1342093630037482
 30
0.0
 42
0.9570085662280891
  0
VERTEX
  5
1E56
  8
SAPA_FOGBAND
 10
-81.341546602805465
 20
-7.9105483478663521
 30
0.0
 42
-0.0458039546811975
  0
VERTEX
  5
1E57
  8
SAPA_FOGBAND
 10
-81.264899471718081
 20
-4.6214447882318392
 30
0.0
 42
-0.380963100045198
  0
SEQEND
  5
1E58
  8
SAPA_FOGBAND
  0
POLYLINE
  5
1521
  8
SAPA_FOGBAND
 10
-58.646125407834965
 20
-15.182155401672913
 30
0.0
 66
     1
 70
     8
  0
VERTEX
  8
SAPA_FOGBAND
  5
1F0C
 10
-58.6461
 20
-15.1822
 30
0.000000
  70
    32
  0
VERTEX
  8
SAPA_FOGBAND
  5
1F0D
 10
-58.7402
 20
-15.1866
 30
0.000000
  70
    32
  0
VERTEX
  8
SAPA_FOGBAND
  5
1F0E
 10
-58.8340
 20
-15.2001
 30
0.000000
  70
    32
  0
VERTEX
  8
SAPA_FOGBAND
  5
1F0F
 10
-58.9274
 20
-15.2225
 30
0.000000
  70
    32
  0
VERTEX
  8
SAPA_FOGBAND
  5
1F10
 10
-59.0201
 20
-15.2539
 30
0.000000
  70
    32
  0
VERTEX
  8
SAPA_FOGBAND
  5
1F11
 10
-59.1118
 20
-15.2940
 30
0.000000
  70
    32
  0
VERTEX
  8
SAPA_FOGBAND
  5
1F12
 10
-59.2025
 20
-15.3428
 30
0.000000
  70
    32
  0
VERTEX
  8
SAPA_FOGBAND
  5
1F13
 10
-59.2918
 20
-15.4003
 30
0.000000
  70
    32
  0
VERTEX
  8
SAPA_FOGBAND
  5
1F14
 10
-59.3796
 20
-15.4662
 30
0.000000
  70
    32
  0
VERTEX
  8
SAPA_FOGBAND
  5
1F15
 10
-59.4656
 20
-15.5404
 30
0.000000
  70
    32
  0
VERTEX
  8
SAPA_FOGBAND
  5
1F16
 10
-59.5496
 20
-15.6227
 30
0.000000
  70
    32
  0
VERTEX
  8
SAPA_FOGBAND
  5
1F17
 10
-59.6315
 20
-15.7130
 30
0.000000
  70
    32
  0
VERTEX
  8
SAPA_FOGBAND
  5
1F18
 10
-59.7110
 20
-15.8110
 30
0.000000
  70
    32
  0
VERTEX
  8
SAPA_FOGBAND
  5
1F19
 10
-59.7879
 20
-15.9165
 30
0.000000
  70
    32
  0
VERTEX
  8
SAPA_FOGBAND
  5
1F1A
 10
-59.8621
 20
-16.0291
 30
0.000000
  70
    32
  0
VERTEX
  8
SAPA_FOGBAND
  5
1F1B
 10
-59.9333
 20
-16.1487
 30
0.000000
  70
    32
  0
VERTEX
  8
SAPA_FOGBAND
  5
1F1C
 10
-60.0014
 20
-16.2750
 30
0.000000
  70
    32
  0
VERTEX
  8
SAPA_FOGBAND
  5
1F1D
 10
-60.0663
 20
-16.4077
 30
0.000000
  70
    32
  0
VERTEX
  8
SAPA_FOGBAND
  5
1F1E
 10
-60.1277
 20
-16.5463
 30
0.000000
  70
    32
  0
VERTEX
  8
SAPA_FOGBAND
  5
1F1F
 10
-60.1856
 20
-16.6907
 30
0.000000
  70
    32
  0
VERTEX
  8
SAPA_FOGBAND
  5
1F20
 10
-60.2398
 20
-16.8405
 30
0.000000
  70
    32
  0
VERTEX
  8
SAPA_FOGBAND
  5
1F21
 10
-60.2901
 20
-16.9952
 30
0.000000
  70
    32
  0
VERTEX
  8
SAPA_FOGBAND
  5
1F22
 10
-60.3365
 20
-17.1545
 30
0.000000
  70
    32
  0
VERTEX
  8
SAPA_FOGBAND
  5
1F23
 10
-60.3788
 20
-17.3181
 30
0.000000
  70
    32
  0
VERTEX
  8
SAPA_FOGBAND
  5
1F24
 10
-60.4169
 20
-17.4856
 30
0.000000
  70
    32
  0
VERTEX
  8
SAPA_FOGBAND
  5
1F25
 10
-60.4508
 20
-17.6564
 30
0.000000
  70
    32
  0
VERTEX
  8
SAPA_FOGBAND
  5
1F26
 10
-60.4803
 20
-17.8303
 30
0.000000
  70
    32
  0
VERTEX
  8
SAPA_FOGBAND
  5
1F27
 10
-60.5054
 20
-18.0068
 30
0.000000
  70
    32
  0
VERTEX
  8
SAPA_FOGBAND
  5
1F28
 10
-60.5260
 20
-18.1855
 30
0.000000
  70
    32
  0
VERTEX
  8
SAPA_FOGBAND
  5
1F29
 10
-60.5421
 20
-18.3660
 30
0.000000
  70
    32
  0
VERTEX
  8
SAPA_FOGBAND
  5
1F2A
 10
-60.5536
 20
-18.5477
 30
0.000000
  70
    32
  0
VERTEX
  8
SAPA_FOGBAND
  5
1F2B
 10
-60.5605
 20
-18.7304
 30
0.000000
  70
    32
  0
VERTEX
  8
SAPA_FOGBAND
  5
1F2C
 10
-60.5628
 20
-18.9135
 30
0.000000
  70
    32
  0
VERTEX
  8
SAPA_FOGBAND
  5
1F2D
 10
-60.5605
 20
-19.0966
 30
0.000000
  70
    32
  0
VERTEX
  8
SAPA_FOGBAND
  5
1F2E
 10
-60.5536
 20
-19.2792
 30
0.000000
  70
    32
  0
VERTEX
  8
SAPA_FOGBAND
  5
1F2F
 10
-60.5421
 20
-19.4610
 30
0.000000
  70
    32
  0
VERTEX
  8
SAPA_FOGBAND
  5
1F30
 10
-60.5260
 20
-19.6414
 30
0.000000
  70
    32
  0
VERTEX
  8
SAPA_FOGBAND
  5
1F31
 10
-60.5054
 20
-19.8201
 30
0.000000
  70
    32
  0
VERTEX
  8
SAPA_FOGBAND
  5
1F32
 10
-60.4803
 20
-19.9966
 30
0.000000
  70
    32
  0
VERTEX
  8
SAPA_FOGBAND
  5
1F33
 10
-60.4508
 20
-20.1705
 30
0.000000
  70
    32
  0
VERTEX
  8
SAPA_FOGBAND
  5
1F34
 10
-60.4169
 20
-20.3414
 30
0.000000
  70
    32
  0
VERTEX
  8
SAPA_FOGBAND
  5
1F35
 10
-60.3788
 20
-20.5088
 30
0.000000
  70
    32
  0
VERTEX
  8
SAPA_FOGBAND
  5
1F36
 10
-60.3365
 20
-20.6724
 30
0.000000
  70
    32
  0
VERTEX
  8
SAPA_FOGBAND
  5
1F37
 10
-60.2901
 20
-20.8318
 30
0.000000
  70
    32
  0
VERTEX
  8
SAPA_FOGBAND
  5
1F38
 10
-60.2398
 20
-20.9865
 30
0.000000
  70
    32
  0
VERTEX
  8
SAPA_FOGBAND
  5
1F39
 10
-60.1856
 20
-21.1362
 30
0.000000
  70
    32
  0
VERTEX
  8
SAPA_FOGBAND
  5
1F3A
 10
-60.1277
 20
-21.2806
 30
0.000000
  70
    32
  0
VERTEX
  8
SAPA_FOGBAND
  5
1F3B
 10
-60.0663
 20
-21.4193
 30
0.000000
  70
    32
  0
VERTEX
  8
SAPA_FOGBAND
  5
1F3C
 10
-60.0014
 20
-21.5519
 30
0.000000
  70
    32
  0
VERTEX
  8
SAPA_FOGBAND
  5
1F3D
 10
-59.9333
 20
-21.6782
 30
0.000000
  70
    32
  0
VERTEX
  8
SAPA_FOGBAND
  5
1F3E
 10
-59.8621
 20
-21.7978
 30
0.000000
  70
    32
  0
VERTEX
  8
SAPA_FOGBAND
  5
1F3F
 10
-59.7879
 20
-21.9105
 30
0.000000
  70
    32
  0
VERTEX
  8
SAPA_FOGBAND
  5
1F40
 10
-59.7110
 20
-22.0159
 30
0.000000
  70
    32
  0
VERTEX
  8
SAPA_FOGBAND
  5
1F41
 10
-59.6315
 20
-22.1139
 30
0.000000
  70
    32
  0
VERTEX
  8
SAPA_FOGBAND
  5
1F42
 10
-59.5496
 20
-22.2042
 30
0.000000
  70
    32
  0
VERTEX
  8
SAPA_FOGBAND
  5
1F43
 10
-59.4656
 20
-22.2865
 30
0.000000
  70
    32
  0
VERTEX
  8
SAPA_FOGBAND
  5
1F44
 10
-59.3796
 20
-22.3608
 30
0.000000
  70
    32
  0
VERTEX
  8
SAPA_FOGBAND
  5
1F45
 10
-59.2918
 20
-22.4267
 30
0.000000
  70
    32
  0
VERTEX
  8
SAPA_FOGBAND
  5
1F46
 10
-59.2025
 20
-22.4841
 30
0.000000
  70
    32
  0
VERTEX
  8
SAPA_FOGBAND
  5
1F47
 10
-59.1118
 20
-22.5330
 30
0.000000
  70
    32
  0
VERTEX
  8
SAPA_FOGBAND
  5
1F48
 10
-59.0201
 20
-22.5731
 30
0.000000
  70
    32
  0
VERTEX
  8
SAPA_FOGBAND
  5
1F49
 10
-58.9274
 20
-22.6044
 30
0.000000
  70
    32
  0
VERTEX
  8
SAPA_FOGBAND
  5
1F4A
 10
-58.8340
 20
-22.6268
 30
0.000000
  70
    32
  0
VERTEX
  8
SAPA_FOGBAND
  5
1F4B
 10
-58.7402
 20
-22.6403
 30
0.000000
  70
    32
  0
VERTEX
  8
SAPA_FOGBAND
  5
1F4C
 10
-58.6461
 20
-22.6448
 30
0.000000
  70
    32
  0
VERTEX
  8
SAPA_FOGBAND
  5
1F4D
 10
-58.5521
 20
-22.6403
 30
0.000000
  70
    32
  0
VERTEX
  8
SAPA_FOGBAND
  5
1F4E
 10
-58.4583
 20
-22.6268
 30
0.000000
  70
    32
  0
VERTEX
  8
SAPA_FOGBAND
  5
1F4F
 10
-58.3649
 20
-22.6044
 30
0.000000
  70
    32
  0
VERTEX
  8
SAPA_FOGBAND
  5
1F50
 10
-58.2722
 20
-22.5731
 30
0.000000
  70
    32
  0
VERTEX
  8
SAPA_FOGBAND
  5
1F51
 10
-58.1804
 20
-22.5330
 30
0.000000
  70
    32
  0
VERTEX
  8
SAPA_FOGBAND
  5
1F52
 10
-58.0897
 20
-22.4841
 30
0.000000
  70
    32
  0
VERTEX
  8
SAPA_FOGBAND
  5
1F53
 10
-58.0004
 20
-22.4267
 30
0.000000
  70
    32
  0
VERTEX
  8
SAPA_FOGBAND
  5
1F54
 10
-57.9126
 20
-22.3608
 30
0.000000
  70
    32
  0
VERTEX
  8
SAPA_FOGBAND
  5
1F55
 10
-57.8266
 20
-22.2865
 30
0.000000
  70
    32
  0
VERTEX
  8
SAPA_FOGBAND
  5
1F56
 10
-57.7426
 20
-22.2042
 30
0.000000
  70
    32
  0
VERTEX
  8
SAPA_FOGBAND
  5
1F57
 10
-57.6607
 20
-22.1139
 30
0.000000
  70
    32
  0
VERTEX
  8
SAPA_FOGBAND
  5
1F58
 10
-57.5813
 20
-22.0159
 30
0.000000
  70
    32
  0
VERTEX
  8
SAPA_FOGBAND
  5
1F59
 10
-57.5044
 20
-21.9105
 30
0.000000
  70
    32
  0
VERTEX
  8
SAPA_FOGBAND
  5
1F5A
 10
-57.4302
 20
-21.7978
 30
0.000000
  70
    32
  0
VERTEX
  8
SAPA_FOGBAND
  5
1F5B
 10
-57.3590
 20
-21.6782
 30
0.000000
  70
    32
  0
VERTEX
  8
SAPA_FOGBAND
  5
1F5C
 10
-57.2908
 20
-21.5519
 30
0.000000
  70
    32
  0
VERTEX
  8
SAPA_FOGBAND
  5
1F5D
 10
-57.2260
 20
-21.4193
 30
0.000000
  70
    32
  0
VERTEX
  8
SAPA_FOGBAND
  5
1F5E
 10
-57.1645
 20
-21.2806
 30
0.000000
  70
    32
  0
VERTEX
  8
SAPA_FOGBAND
  5
1F5F
 10
-57.1066
 20
-21.1362
 30
0.000000
  70
    32
  0
VERTEX
  8
SAPA_FOGBAND
  5
1F60
 10
-57.0525
 20
-20.9865
 30
0.000000
  70
    32
  0
VERTEX
  8
SAPA_FOGBAND
  5
1F61
 10
-57.0021
 20
-20.8318
 30
0.000000
  70
    32
  0
VERTEX
  8
SAPA_FOGBAND
  5
1F62
 10
-56.9558
 20
-20.6724
 30
0.000000
  70
    32
  0
VERTEX
  8
SAPA_FOGBAND
  5
1F63
 10
-56.9135
 20
-20.5088
 30
0.000000
  70
    32
  0
VERTEX
  8
SAPA_FOGBAND
  5
1F64
 10
-56.8753
 20
-20.3414
 30
0.000000
  70
    32
  0
VERTEX
  8
SAPA_FOGBAND
  5
1F65
 10
-56.8415
 20
-20.1705
 30
0.000000
  70
    32
  0
VERTEX
  8
SAPA_FOGBAND
  5
1F66
 10
-56.8120
 20
-19.9966
 30
0.000000
  70
    32
  0
VERTEX
  8
SAPA_FOGBAND
  5
1F67
 10
-56.7869
 20
-19.8201
 30
0.000000
  70
    32
  0
VERTEX
  8
SAPA_FOGBAND
  5
1F68
 10
-56.7663
 20
-19.6414
 30
0.000000
  70
    32
  0
VERTEX
  8
SAPA_FOGBAND
  5
1F69
 10
-56.7502
 20
-19.4610
 30
0.000000
  70
    32
  0
VERTEX
  8
SAPA_FOGBAND
  5
1F6A
 10
-56.7387
 20
-19.2792
 30
0.000000
  70
    32
  0
VERTEX
  8
SAPA_FOGBAND
  5
1F6B
 10
-56.7317
 20
-19.0966
 30
0.000000
  70
    32
  0
VERTEX
  8
SAPA_FOGBAND
  5
1F6C
 10
-56.7294
 20
-18.9135
 30
0.000000
  70
    32
  0
VERTEX
  8
SAPA_FOGBAND
  5
1F6D
 10
-56.7317
 20
-18.7304
 30
0.000000
  70
    32
  0
VERTEX
  8
SAPA_FOGBAND
  5
1F6E
 10
-56.7387
 20
-18.5477
 30
0.000000
  70
    32
  0
VERTEX
  8
SAPA_FOGBAND
  5
1F6F
 10
-56.7502
 20
-18.3660
 30
0.000000
  70
    32
  0
VERTEX
  8
SAPA_FOGBAND
  5
1F70
 10
-56.7663
 20
-18.1855
 30
0.000000
  70
    32
  0
VERTEX
  8
SAPA_FOGBAND
  5
1F71
 10
-56.7869
 20
-18.0068
 30
0.000000
  70
    32
  0
VERTEX
  8
SAPA_FOGBAND
  5
1F72
 10
-56.8120
 20
-17.8303
 30
0.000000
  70
    32
  0
VERTEX
  8
SAPA_FOGBAND
  5
1F73
 10
-56.8415
 20
-17.6564
 30
0.000000
  70
    32
  0
VERTEX
  8
SAPA_FOGBAND
  5
1F74
 10
-56.8753
 20
-17.4856
 30
0.000000
  70
    32
  0
VERTEX
  8
SAPA_FOGBAND
  5
1F75
 10
-56.9135
 20
-17.3181
 30
0.000000
  70
    32
  0
VERTEX
  8
SAPA_FOGBAND
  5
1F76
 10
-56.9558
 20
-17.1545
 30
0.000000
  70
    32
  0
VERTEX
  8
SAPA_FOGBAND
  5
1F77
 10
-57.0021
 20
-16.9952
 30
0.000000
  70
    32
  0
VERTEX
  8
SAPA_FOGBAND
  5
1F78
 10
-57.0525
 20
-16.8405
 30
0.000000
  70
    32
  0
VERTEX
  8
SAPA_FOGBAND
  5
1F79
 10
-57.1066
 20
-16.6907
 30
0.000000
  70
    32
  0
VERTEX
  8
SAPA_FOGBAND
  5
1F7A
 10
-57.1645
 20
-16.5463
 30
0.000000
  70
    32
  0
VERTEX
  8
SAPA_FOGBAND
  5
1F7B
 10
-57.2260
 20
-16.4077
 30
0.000000
  70
    32
  0
VERTEX
  8
SAPA_FOGBAND
  5
1F7C
 10
-57.2908
 20
-16.2750
 30
0.000000
  70
    32
  0
VERTEX
  8
SAPA_FOGBAND
  5
1F7D
 10
-57.3590
 20
-16.1487
 30
0.000000
  70
    32
  0
VERTEX
  8
SAPA_FOGBAND
  5
1F7E
 10
-57.4302
 20
-16.0291
 30
0.000000
  70
    32
  0
VERTEX
  8
SAPA_FOGBAND
  5
1F7F
 10
-57.5044
 20
-15.9165
 30
0.000000
  70
    32
  0
VERTEX
  8
SAPA_FOGBAND
  5
1F80
 10
-57.5813
 20
-15.8110
 30
0.000000
  70
    32
  0
VERTEX
  8
SAPA_FOGBAND
  5
1F81
 10
-57.6607
 20
-15.7130
 30
0.000000
  70
    32
  0
VERTEX
  8
SAPA_FOGBAND
  5
1F82
 10
-57.7426
 20
-15.6227
 30
0.000000
  70
    32
  0
VERTEX
  8
SAPA_FOGBAND
  5
1F83
 10
-57.8266
 20
-15.5404
 30
0.000000
  70
    32
  0
VERTEX
  8
SAPA_FOGBAND
  5
1F84
 10
-57.9126
 20
-15.4662
 30
0.000000
  70
    32
  0
VERTEX
  8
SAPA_FOGBAND
  5
1F85
 10
-58.0004
 20
-15.4003
 30
0.000000
  70
    32
  0
VERTEX
  8
SAPA_FOGBAND
  5
1F86
 10
-58.0897
 20
-15.3428
 30
0.000000
  70
    32
  0
VERTEX
  8
SAPA_FOGBAND
  5
1F87
 10
-58.1804
 20
-15.2940
 30
0.000000
  70
    32
  0
VERTEX
  8
SAPA_FOGBAND
  5
1F88
 10
-58.2722
 20
-15.2539
 30
0.000000
  70
    32
  0
VERTEX
  8
SAPA_FOGBAND
  5
1F89
 10
-58.3649
 20
-15.2225
 30
0.000000
  70
    32
  0
VERTEX
  8
SAPA_FOGBAND
  5
1F8A
 10
-58.4583
 20
-15.2001
 30
0.000000
  70
    32
  0
VERTEX
  8
SAPA_FOGBAND
  5
1F8B
 10
-58.5521
 20
-15.1866
 30
0.000000
  70
    32
  0
VERTEX
  8
SAPA_FOGBAND
  5
1F8C
 10
-58.6461
 20
-15.1822
 30
0.000000
  70
    32
  0
SEQEND
  8
SAPA_FOGBAND
  5
1F8D
  0
POLYLINE
  5
1522
  8
SAPA_FOGBAND
 66
     1
 10
0.0
 20
0.0
 30
0.0
  0
VERTEX
  5
1E59
  8
SAPA_FOGBAND
 10
-51.800000000001809
 20
-23.7878398366121
 30
0.0
  0
VERTEX
  5
1E5A
  8
SAPA_FOGBAND
 10
-51.500000000001862
 20
-23.7878398366121
 30
0.0
  0
VERTEX
  5
1E5B
  8
SAPA_FOGBAND
 10
-51.800000000001809
 20
-23.7878398366121
 30
0.0
 42
-0.4142135623730951
  0
VERTEX
  5
1E5C
  8
SAPA_FOGBAND
 10
-52.300000000001809
 20
-23.2878398366121
 30
0.0
  0
VERTEX
  5
1E5D
  8
SAPA_FOGBAND
 10
-52.300000000001859
 20
-15.987839836612141
 30
0.0
 42
-0.4142135623730951
  0
VERTEX
  5
1E5E
  8
SAPA_FOGBAND
 10
-51.800000000001873
 20
-15.487839836612141
 30
0.0
  0
VERTEX
  5
1E5F
  8
SAPA_FOGBAND
 10
-51.500000000001847
 20
-15.487839836612141
 30
0.0
  0
SEQEND
  5
1E60
  8
SAPA_FOGBAND
  0
POLYLINE
  5
1523
  8
SAPA_FOGBAND
 66
     1
 10
0.0
 20
0.0
 30
0.0
 70
     1
  0
VERTEX
  5
1E61
  8
SAPA_FOGBAND
 10
-49.585369502363093
 20
-21.087839836612108
 30
0.0
  0
VERTEX
  5
1E62
  8
SAPA_FOGBAND
 10
-50.185369502363059
 20
-21.087839836612108
 30
0.0
 42
-0.9999999999999998
  0
VERTEX
  5
1E63
  8
SAPA_FOGBAND
 10
-50.185369502363059
 20
-19.28783983661215
 30
0.0
  0
VERTEX
  5
1E64
  8
SAPA_FOGBAND
 10
-49.585369502363093
 20
-19.2878398366121
 30
0.0
 42
-0.9999999999999998
  0
SEQEND
  5
1E65
  8
SAPA_FOGBAND
  0
POLYLINE
  5
1524
  8
SAPA_FOGBAND
 66
     1
 10
0.0
 20
0.0
 30
0.0
 70
     1
  0
VERTEX
  5
1E66
  8
SAPA_FOGBAND
 10
-56.418068725706668
 20
-11.49897524277436
 30
0.0
 42
-0.646356061736289
  0
VERTEX
  5
1E67
  8
SAPA_FOGBAND
 10
-57.166938780872357
 20
-13.16169210575289
 30
0.0
  0
VERTEX
  5
1E68
  8
SAPA_FOGBAND
 10
-60.64591139233243
 20
-13.16169210575289
 30
0.0
 42
-0.4879283649264857
  0
VERTEX
  5
1E69
  8
SAPA_FOGBAND
 10
-61.61605389247778
 20
-11.91915648071655
 30
0.0
  0
VERTEX
  5
1E6A
  8
SAPA_FOGBAND
 10
-60.896604538392843
 20
-9.0413590643767847
 30
0.0
 42
-0.3441507314089108
  0
VERTEX
  5
1E6B
  8
SAPA_FOGBAND
 10
-59.926462038247507
 20
-8.2838946894131187
 30
0.0
  0
VERTEX
  5
1E6C
  8
SAPA_FOGBAND
 10
-59.713662158164219
 20
-8.2838946894131045
 30
0.0
 42
-0.214804042991016
  0
VERTEX
  5
1E6D
  8
SAPA_FOGBAND
 10
-58.964792102998508
 20
-8.6211778264345913
 30
0.0
  0
SEQEND
  5
1E6E
  8
SAPA_FOGBAND
  0
POLYLINE
  5
1525
  8
SAPA_FOGBAND
 66
     1
 10
0.0
 20
0.0
 30
0.0
 70
     1
  0
VERTEX
  5
1E6F
  8
SAPA_FOGBAND
 10
-51.500000000001862
 20
-18.187839836612131
 30
0.0
 42
0.4142135623730951
  0
VERTEX
  5
1E70
  8
SAPA_FOGBAND
 10
-51.000000000001862
 20
-18.687839836612131
 30
0.0
  0
VERTEX
  5
1E71
  8
SAPA_FOGBAND
 10
-50.05857458311997
 20
-18.687839836612131
 30
0.0
  0
VERTEX
  5
1E72
  8
SAPA_FOGBAND
 10
-49.99111467380952
 20
-18.43607602759165
 30
0.0
 42
-0.474057181023226
  0
VERTEX
  5
1E73
  8
SAPA_FOGBAND
 10
-49.708832088170922
 20
-18.308782165228038
 30
0.0
  0
VERTEX
  5
1E74
  8
SAPA_FOGBAND
 10
-48.262625951411039
 20
-18.928882667986681
 30
0.0
 42
-0.2846003776496053
  0
VERTEX
  5
1E75
  8
SAPA_FOGBAND
 10
-47.985369502363064
 20
-19.37652684644679
 30
0.0
  0
VERTEX
  5
1E76
  8
SAPA_FOGBAND
 10
-47.985369502363064
 20
-20.999152826777401
 30
0.0
 42
-0.2846003776496055
  0
VERTEX
  5
1E77
  8
SAPA_FOGBAND
 10
-48.262625951411039
 20
-21.44679700523757
 30
0.0
  0
VERTEX
  5
1E78
  8
SAPA_FOGBAND
 10
-49.708832088170858
 20
-22.06689750799617
 30
0.0
 42
-0.474057181023226
  0
VERTEX
  5
1E79
  8
SAPA_FOGBAND
 10
-49.99111467380952
 20
-21.939603645632609
 30
0.0
  0
VERTEX
  5
1E7A
  8
SAPA_FOGBAND
 10
-50.05857458311997
 20
-21.687839836612131
 30
0.0
  0
VERTEX
  5
1E7B
  8
SAPA_FOGBAND
 10
-51.000000000001862
 20
-21.687839836612131
 30
0.0
 42
0.4142135623730951
  0
VERTEX
  5
1E7C
  8
SAPA_FOGBAND
 10
-51.500000000001862
 20
-22.187839836612131
 30
0.0
  0
VERTEX
  5
1E7D
  8
SAPA_FOGBAND
 10
-51.500000000001798
 20
-24.69999999999358
 30
0.0
 42
-0.4052499559557504
  0
VERTEX
  5
1E7E
  8
SAPA_FOGBAND
 10
-51.790791339129143
 20
-24.999858634294721
 30
0.0
  0
VERTEX
  5
1E7F
  8
SAPA_FOGBAND
 10
-62.690791339129177
 20
-25.487698448964139
 30
0.0
 42
-0.4232343445545565
  0
VERTEX
  5
1E80
  8
SAPA_FOGBAND
 10
-63.000000000001869
 20
-25.187839814663011
 30
0.0
  0
VERTEX
  5
1E81
  8
SAPA_FOGBAND
 10
-63.000000000001862
 20
-11.549392649420961
 30
0.0
 42
-0.0613213552369726
  0
VERTEX
  5
1E82
  8
SAPA_FOGBAND
 10
-62.98507125007454
 20
-11.428124836902789
 30
0.0
  0
VERTEX
  5
1E83
  8
SAPA_FOGBAND
 10
-62.414366093742721
 20
-5.945304211575789
 30
0.0
 42
-0.3441507314089092
  0
VERTEX
  5
1E84
  8
SAPA_FOGBAND
 10
-61.444223593597393
 20
-5.1878398366121292
 30
0.0
  0
VERTEX
  5
1E85
  8
SAPA_FOGBAND
 10
-60.206139425069189
 20
-5.1878398366121292
 30
0.0
 42
-0.2148040429910146
  0
VERTEX
  5
1E86
  8
SAPA_FOGBAND
 10
-59.831704397486327
 20
-5.3564814051228646
 30
0.0
  0
VERTEX
  5
1E87
  8
SAPA_FOGBAND
 10
-51.751129944836102
 20
-14.487530536617509
 30
0.0
 42
-0.1831167524995932
  0
VERTEX
  5
1E88
  8
SAPA_FOGBAND
 10
-51.500000000001847
 20
-15.15024739959604
 30
0.0
  0
SEQEND
  5
1E89
  8
SAPA_FOGBAND
  0
VIEWPORT
  5
C4
 67
     1
  8
0
 10
160.5543545598442
 20
116.00969601843509
 30
0.0
 40
404.96977709277462
 41
256.8421457311839
 68
     1
 69
     1
1001
ACAD
1000
MVIEW
1002
{
1070
    16
1010
0.0
1020
0.0
1030
0.0
1010
0.0
1020
0.0
1030
1.0
1040
0.0
1040
256.8421457311839
1040
99.206250190734863
1040
130.70624923706049
1040
50.0
1040
0.0
1040
0.0
1070
     0
1070
     0
1070
     1
1070
     1
1070
     0
1070
     0
1070
     0
1070
     0
1040
0.0
1040
0.0
1040
0.0
1040
10.0
1040
10.0
1040
10.0
1040
10.0
1070
     0
1002
{
1002
}
1002
}
  0
ENDSEC
  0
EOF
