  0
SECTION
  2
HEADER
  9
$ACADVER
  1
AC1021
  9
$ACADMAINTVER
 70
    50
  9
$DWGCODEPAGE
  3
ANSI_1252
  9
$INSBASE
 10
0.0
 20
0.0
 30
0.0
  9
$EXTMIN
 10
-236.1256812777974
 20
-3080.375372525633
 30
0.0
  9
$EXTMAX
 10
7525.991444766271
 20
3389.661296219721
 30
0.0
  9
$LIMMIN
 10
0.0
 20
0.0
  9
$LIMMAX
 10
790.0
 20
790.0
  9
$ORTHOMODE
 70
     0
  9
$REGENMODE
 70
     1
  9
$FILLMODE
 70
     1
  9
$QTEXTMODE
 70
     0
  9
$MIRRTEXT
 70
     1
  9
$LTSCALE
 40
4.0
  9
$ATTMODE
 70
     1
  9
$TEXTSIZE
 40
3.5
  9
$TRACEWID
 40
0.05
  9
$TEXTSTYLE
  7
ISO
  9
$CLAYER
  8
sapa_elevation
  9
$CELTYPE
  6
BYLAYER
  9
$CECOLOR
 62
   256
  9
$CELTSCALE
 40
1.0
  9
$DISPSILH
 70
     1
  9
$DIMSCALE
 40
0.0
  9
$DIMASZ
 40
3.0
  9
$DIMEXO
 40
1.5
  9
$DIMDLI
 40
10.0
  9
$DIMRND
 40
0.0
  9
$DIMDLE
 40
0.0
  9
$DIMEXE
 40
1.5
  9
$DIMTP
 40
0.0
  9
$DIMTM
 40
0.0
  9
$DIMTXT
 40
3.0
  9
$DIMCEN
 40
-5.0
  9
$DIMTSZ
 40
0.0
  9
$DIMTOL
 70
     0
  9
$DIMLIM
 70
     0
  9
$DIMTIH
 70
     0
  9
$DIMTOH
 70
     1
  9
$DIMSE1
 70
     0
  9
$DIMSE2
 70
     0
  9
$DIMTAD
 70
     1
  9
$DIMZIN
 70
     8
  9
$DIMBLK
  1

  9
$DIMASO
 70
     1
  9
$DIMSHO
 70
     1
  9
$DIMPOST
  1

  9
$DIMAPOST
  1

  9
$DIMALT
 70
     0
  9
$DIMALTD
 70
     0
  9
$DIMALTF
 40
25.4
  9
$DIMLFAC
 40
-1.0
  9
$DIMTOFL
 70
     1
  9
$DIMTVP
 40
0.0
  9
$DIMTIX
 70
     0
  9
$DIMSOXD
 70
     0
  9
$DIMSAH
 70
     0
  9
$DIMBLK1
  1

  9
$DIMBLK2
  1

  9
$DIMSTYLE
  2
MASKIN
  9
$DIMCLRD
 70
   256
  9
$DIMCLRE
 70
   256
  9
$DIMCLRT
 70
     2
  9
$DIMTFAC
 40
1.0
  9
$DIMGAP
 40
1.0
  9
$DIMJUST
 70
     0
  9
$DIMSD1
 70
     0
  9
$DIMSD2
 70
     0
  9
$DIMTOLJ
 70
     1
  9
$DIMTZIN
 70
     8
  9
$DIMALTZ
 70
     8
  9
$DIMALTTZ
 70
     8
  9
$DIMUPT
 70
     0
  9
$DIMDEC
 70
     8
  9
$DIMTDEC
 70
     8
  9
$DIMALTU
 70
     2
  9
$DIMALTTD
 70
     0
  9
$DIMTXSTY
  7
ISO
  9
$DIMAUNIT
 70
     0
  9
$DIMADEC
 70
     2
  9
$DIMALTRND
 40
0.0
  9
$DIMAZIN
 70
     0
  9
$DIMDSEP
 70
    46
  9
$DIMATFIT
 70
     3
  9
$DIMFRAC
 70
     0
  9
$DIMLDRBLK
  1

  9
$DIMLUNIT
 70
     2
  9
$DIMLWD
 70
    -2
  9
$DIMLWE
 70
    -2
  9
$DIMTMOVE
 70
     2
  9
$DIMFXL
 40
1.0
  9
$DIMFXLON
 70
     0
  9
$DIMJOGANG
 40
0.7853981633974483
  9
$DIMTFILL
 70
     0
  9
$DIMTFILLCLR
 70
     0
  9
$DIMARCSYM
 70
     0
  9
$DIMLTYPE
  6

  9
$DIMLTEX1
  6

  9
$DIMLTEX2
  6

  9
$LUNITS
 70
     2
  9
$LUPREC
 70
     8
  9
$SKETCHINC
 40
0.1
  9
$FILLETRAD
 40
0.0
  9
$AUNITS
 70
     0
  9
$AUPREC
 70
     8
  9
$MENU
  1
ACAD
  9
$ELEVATION
 40
0.0
  9
$PELEVATION
 40
0.0
  9
$THICKNESS
 40
0.0
  9
$LIMCHECK
 70
     0
  9
$CHAMFERA
 40
0.0
  9
$CHAMFERB
 40
0.0
  9
$CHAMFERC
 40
0.0
  9
$CHAMFERD
 40
0.0
  9
$SKPOLY
 70
     0
  9
$TDCREATE
 40
2451935.427219387
  9
$TDUCREATE
 40
2451935.343886054
  9
$TDUPDATE
 40
2457606.401069155
  9
$TDUUPDATE
 40
2457606.317735822
  9
$TDINDWG
 40
0.3243708449
  9
$TDUSRTIMER
 40
0.3243708449
  9
$USRTIMER
 70
     1
  9
$ANGBASE
 50
0.0
  9
$ANGDIR
 70
     0
  9
$PDMODE
 70
     0
  9
$PDSIZE
 40
0.0
  9
$PLINEWID
 40
0.0
  9
$SPLFRAME
 70
     0
  9
$SPLINETYPE
 70
     6
  9
$SPLINESEGS
 70
     8
  9
$HANDSEED
  5
124
  9
$SURFTAB1
 70
     6
  9
$SURFTAB2
 70
     6
  9
$SURFTYPE
 70
     6
  9
$SURFU
 70
     6
  9
$SURFV
 70
     6
  9
$UCSBASE
  2

  9
$UCSNAME
  2

  9
$UCSORG
 10
0.0
 20
0.0
 30
0.0
  9
$UCSXDIR
 10
1.0
 20
0.0
 30
0.0
  9
$UCSYDIR
 10
0.0
 20
1.0
 30
0.0
  9
$UCSORTHOREF
  2

  9
$UCSORTHOVIEW
 70
     0
  9
$UCSORGTOP
 10
0.0
 20
0.0
 30
0.0
  9
$UCSORGBOTTOM
 10
0.0
 20
0.0
 30
0.0
  9
$UCSORGLEFT
 10
0.0
 20
0.0
 30
0.0
  9
$UCSORGRIGHT
 10
0.0
 20
0.0
 30
0.0
  9
$UCSORGFRONT
 10
0.0
 20
0.0
 30
0.0
  9
$UCSORGBACK
 10
0.0
 20
0.0
 30
0.0
  9
$PUCSBASE
  2

  9
$PUCSNAME
  2

  9
$PUCSORG
 10
0.0
 20
0.0
 30
0.0
  9
$PUCSXDIR
 10
1.0
 20
0.0
 30
0.0
  9
$PUCSYDIR
 10
0.0
 20
1.0
 30
0.0
  9
$PUCSORTHOREF
  2

  9
$PUCSORTHOVIEW
 70
     0
  9
$PUCSORGTOP
 10
0.0
 20
0.0
 30
0.0
  9
$PUCSORGBOTTOM
 10
0.0
 20
0.0
 30
0.0
  9
$PUCSORGLEFT
 10
0.0
 20
0.0
 30
0.0
  9
$PUCSORGRIGHT
 10
0.0
 20
0.0
 30
0.0
  9
$PUCSORGFRONT
 10
0.0
 20
0.0
 30
0.0
  9
$PUCSORGBACK
 10
0.0
 20
0.0
 30
0.0
  9
$USERI1
 70
     0
  9
$USERI2
 70
     0
  9
$USERI3
 70
     0
  9
$USERI4
 70
     0
  9
$USERI5
 70
     0
  9
$USERR1
 40
0.0
  9
$USERR2
 40
0.0
  9
$USERR3
 40
0.0
  9
$USERR4
 40
0.0
  9
$USERR5
 40
0.0
  9
$WORLDVIEW
 70
     1
  9
$SHADEDGE
 70
     3
  9
$SHADEDIF
 70
    70
  9
$TILEMODE
 70
     1
  9
$MAXACTVP
 70
    16
  9
$PINSBASE
 10
0.0
 20
0.0
 30
0.0
  9
$PLIMCHECK
 70
     0
  9
$PEXTMIN
 10
5.869999703752308
 20
-0.0000001723469722
 30
0.0
  9
$PEXTMAX
 10
185.8683605469043
 20
282.999999827653
 30
0.0
  9
$PLIMMIN
 10
-14.40651499994891
 20
-4.253669647431024
  9
$PLIMMAX
 10
195.5668126367698
 20
292.6723252256159
  9
$UNITMODE
 70
     0
  9
$VISRETAIN
 70
     1
  9
$PLINEGEN
 70
     0
  9
$PSLTSCALE
 70
     1
  9
$TREEDEPTH
 70
  3020
  9
$CMLSTYLE
  2
STANDARD
  9
$CMLJUST
 70
     0
  9
$CMLSCALE
 40
1.0
  9
$PROXYGRAPHICS
 70
     1
  9
$MEASUREMENT
 70
     1
  9
$CELWEIGHT
370
    -1
  9
$ENDCAPS
280
     0
  9
$JOINSTYLE
280
     0
  9
$LWDISPLAY
290
     0
  9
$INSUNITS
 70
     0
  9
$HYPERLINKBASE
  1

  9
$STYLESHEET
  1

  9
$XEDIT
290
     1
  9
$CEPSNTYPE
380
     0
  9
$PSTYLEMODE
290
     1
  9
$FINGERPRINTGUID
  2
{1A3014CC-B498-4E5A-8167-BBFA9D9605EB}
  9
$VERSIONGUID
  2
{01A6A5ED-8B26-442A-8BBD-93B6BBB9382C}
  9
$EXTNAMES
290
     1
  9
$PSVPSCALE
 40
0.0
  9
$OLESTARTUP
290
     0
  9
$SORTENTS
280
   127
  9
$INDEXCTL
280
     0
  9
$HIDETEXT
280
     1
  9
$XCLIPFRAME
290
     0
  9
$HALOGAP
280
     0
  9
$OBSCOLOR
 70
   257
  9
$OBSLTYPE
280
     0
  9
$INTERSECTIONDISPLAY
280
     0
  9
$INTERSECTIONCOLOR
 70
   257
  9
$DIMASSOC
280
     1
  9
$PROJECTNAME
  1

  9
$CAMERADISPLAY
290
     0
  9
$LENSLENGTH
 40
50.0
  9
$CAMERAHEIGHT
 40
0.0
  9
$STEPSPERSEC
 40
2.0
  9
$STEPSIZE
 40
6.0
  9
$3DDWFPREC
 40
2.0
  9
$PSOLWIDTH
 40
0.25
  9
$PSOLHEIGHT
 40
4.0
  9
$LOFTANG1
 40
1.570796326794896
  9
$LOFTANG2
 40
1.570796326794896
  9
$LOFTMAG1
 40
0.0
  9
$LOFTMAG2
 40
0.0
  9
$LOFTPARAM
 70
     7
  9
$LOFTNORMALS
280
     1
  9
$LATITUDE
 40
37.795
  9
$LONGITUDE
 40
-122.394
  9
$NORTHDIRECTION
 40
0.0
  9
$TIMEZONE
 70
 -8000
  9
$LIGHTGLYPHDISPLAY
280
     1
  9
$TILEMODELIGHTSYNCH
280
     1
  9
$CMATERIAL
347
34
  9
$SOLIDHIST
280
     1
  9
$SHOWHIST
280
     1
  9
$DWFFRAME
280
     2
  9
$DGNFRAME
280
     0
  9
$REALWORLDSCALE
290
     1
  9
$INTERFERECOLOR
 62
     1
  9
$INTERFEREOBJVS
345
41
  9
$INTERFEREVPVS
346
42
  9
$CSHADOW
280
     0
  9
$SHADOWPLANELOCATION
 40
0.0
  0
ENDSEC
  0
SECTION
  2
CLASSES
  0
CLASS
  1
DICTIONARYVAR
  2
AcDbDictionaryVar
  3
ObjectDBX Classes
 90
        0
 91
        9
280
     0
281
     0
  0
CLASS
  1
ACDBDICTIONARYWDFLT
  2
AcDbDictionaryWithDefault
  3
ObjectDBX Classes
 90
        0
 91
        1
280
     0
281
     0
  0
CLASS
  1
PLOTSETTINGS
  2
AcDbPlotSettings
  3
ObjectDBX Classes
 90
        0
 91
        0
280
     0
281
     0
  0
CLASS
  1
IMAGEDEF
  2
AcDbRasterImageDef
  3
ISM
 90
        0
 91
        0
280
     0
281
     0
  0
CLASS
  1
IMAGE
  2
AcDbRasterImage
  3
ISM
 90
     2175
 91
        0
280
     0
281
     1
  0
CLASS
  1
IMAGEDEF_REACTOR
  2
AcDbRasterImageDefReactor
  3
ISM
 90
        1
 91
        0
280
     0
281
     0
  0
CLASS
  1
RASTERVARIABLES
  2
AcDbRasterVariables
  3
ISM
 90
        0
 91
        0
280
     0
281
     0
  0
CLASS
  1
TABLESTYLE
  2
AcDbTableStyle
  3
ObjectDBX Classes
 90
     4095
 91
        1
280
     0
281
     0
  0
CLASS
  1
MATERIAL
  2
AcDbMaterial
  3
ObjectDBX Classes
 90
     1153
 91
        3
280
     0
281
     0
  0
CLASS
  1
VISUALSTYLE
  2
AcDbVisualStyle
  3
ObjectDBX Classes
 90
     4095
 91
        3
280
     0
281
     0
  0
CLASS
  1
SCALE
  2
AcDbScale
  3
ObjectDBX Classes
 90
     1153
 91
       33
280
     0
281
     0
  0
CLASS
  1
MLEADERSTYLE
  2
AcDbMLeaderStyle
  3
ACDB_MLEADERSTYLE_CLASS
 90
     4095
 91
        0
280
     0
281
     0
  0
CLASS
  1
EXACTERMXREFMAP
  2
ExAcTermXrefMap
  3
EXAC_SERVICE
 90
     1025
 91
        0
280
     0
281
     0
  0
CLASS
  1
NPOCOLLECTION
  2
AcDbImpNonPersistentObjectsCollection
  3
ObjectDBX Classes
 90
     1153
 91
        0
280
     0
281
     0
  0
CLASS
  1
EXACXREFPANELOBJECT
  2
ExAcXREFPanelObject
  3
EXAC_ESW
 90
     1025
 91
        0
280
     0
281
     0
  0
CLASS
  1
SORTENTSTABLE
  2
AcDbSortentsTable
  3
ObjectDBX Classes
 90
        0
 91
        2
280
     0
281
     0
  0
CLASS
  1
AEC_REFEDIT_STATUS_TRACKER
  2
AecDbRefEditStatusTracker
  3
AecArchBase70|Product Desc: Autodesk Architectural Desktop 2007 |Company: Autodesk,Inc. |WEB Address: www.autodesk.com
 90
      129
 91
        0
280
     1
281
     0
  0
CLASS
  1
CELLSTYLEMAP
  2
AcDbCellStyleMap
  3
ObjectDBX Classes
 90
     1152
 91
        1
280
     0
281
     0
  0
CLASS
  1
DIMASSOC
  2
AcDbDimAssoc
  3
"AcDbDimAssoc|Product Desc:     AcDim ARX App For Dimension|Company:          Autodesk, Inc.|WEB Address:      www.autodesk.com"
 90
        0
 91
        0
280
     0
281
     0
  0
CLASS
  1
AEC_NOTIFICATION_TRACKER
  2
AecDbNotificationTracker
  3
AecBase70|Product Desc: Autodesk Architectural Desktop 2007 |Company: Autodesk,Inc. |WEB Address: www.autodesk.com
 90
      129
 91
        0
280
     1
281
     0
  0
CLASS
  1
ACDBSECTIONVIEWSTYLE
  2
AcDbSectionViewStyle
  3
ObjectDBX Classes
 90
     1025
 91
        0
280
     0
281
     0
  0
CLASS
  1
ACDBDETAILVIEWSTYLE
  2
AcDbDetailViewStyle
  3
ObjectDBX Classes
 90
     1025
 91
        0
280
     0
281
     0
  0
ENDSEC
  0
SECTION
  2
TABLES
  0
TABLE
  2
VPORT
  5
23
102
{ACAD_XDICTIONARY
360
28
102
}
330
0
100
AcDbSymbolTable
 70
     1
  0
VPORT
  5
24
330
23
100
AcDbSymbolTableRecord
100
AcDbViewportTableRecord
  2
*Active
 70
     0
 10
0.0
 20
0.0
 11
1.0
 21
1.0
 12
6646.74300358803
 22
4614.572890027453
 13
0.0
 23
0.0
 14
1.0
 24
1.0
 15
0.0
 25
0.0
 16
0.0
 26
0.0
 36
1.0
 17
0.0
 27
0.0
 37
0.0
 40
11377.96425289981
 41
1.607076350093109
 42
50.0
 43
0.0
 44
0.0
 50
0.0
 51
0.0
 71
     0
 72
   100
 73
     1
 74
     1
 75
     0
 76
     0
 77
     0
 78
     0
281
     0
 65
     1
110
0.0
120
0.0
130
0.0
111
1.0
121
0.0
131
0.0
112
0.0
122
1.0
132
0.0
 79
     0
146
0.0
348
25
 60
     3
 61
     5
292
     1
282
     1
141
0.0
142
0.0
 63
   250
421
  3355443
1001
ACAD_NAV_VCDISPLAY
1070
     3
  0
ENDTAB
  0
TABLE
  2
LTYPE
  5
1E
330
0
100
AcDbSymbolTable
 70
     1
  0
LTYPE
  5
1F
330
1E
100
AcDbSymbolTableRecord
100
AcDbLinetypeTableRecord
  2
BYBLOCK
 70
     0
  3

 72
    65
 73
     0
 40
0.0
  0
LTYPE
  5
20
330
1E
100
AcDbSymbolTableRecord
100
AcDbLinetypeTableRecord
  2
BYLAYER
 70
     0
  3

 72
    65
 73
     0
 40
0.0
  0
LTYPE
  5
E
330
1E
100
AcDbSymbolTableRecord
100
AcDbLinetypeTableRecord
  2
CONTINUOUS
 70
     0
  3
Solid line
 72
    65
 73
     0
 40
0.0
  0
ENDTAB
  0
TABLE
  2
LAYER
  5
18
102
{ACAD_XDICTIONARY
360
19
102
}
330
0
100
AcDbSymbolTable
 70
     2
  0
LAYER
  5
6
102
{ACAD_XDICTIONARY
360
7
102
}
330
18
100
AcDbSymbolTableRecord
100
AcDbLayerTableRecord
  2
0
 70
     1
 62
    -7
  6
CONTINUOUS
370
    -3
390
9
347
C
  0
LAYER
  5
3A
102
{ACAD_XDICTIONARY
360
3B
102
}
330
18
100
AcDbSymbolTableRecord
100
AcDbLayerTableRecord
  2
sapa_elevation
 70
     0
 62
     7
  6
CONTINUOUS
370
    -3
390
9
347
C
1001
AcAecLayerStandard
1000

1000

  0
ENDTAB
  0
TABLE
  2
STYLE
  5
1B
330
0
100
AcDbSymbolTable
 70
     2
  0
STYLE
  5
1C
330
1B
100
AcDbSymbolTableRecord
100
AcDbTextStyleTableRecord
  2
STANDARD
 70
     0
 40
0.0
 41
1.0
 50
0.0
 71
     0
 42
0.2
  3
txt
  4

  0
STYLE
  5
2D
330
1B
100
AcDbSymbolTableRecord
100
AcDbTextStyleTableRecord
  2
ISO
 70
     0
 40
0.0
 41
1.0
 50
0.0
 71
     0
 42
3.5
  3
isocp3.shx
  4

  0
ENDTAB
  0
TABLE
  2
VIEW
  5
21
330
0
100
AcDbSymbolTable
 70
     0
  0
ENDTAB
  0
TABLE
  2
UCS
  5
22
330
0
100
AcDbSymbolTable
 70
     0
  0
ENDTAB
  0
TABLE
  2
APPID
  5
29
330
0
100
AcDbSymbolTable
 70
     6
  0
APPID
  5
2A
330
29
100
AcDbSymbolTableRecord
100
AcDbRegAppTableRecord
  2
ACAD
 70
     0
  0
APPID
  5
12
330
29
100
AcDbSymbolTableRecord
100
AcDbRegAppTableRecord
  2
ACAD_PSEXT
 70
     0
  0
APPID
  5
3D
330
29
100
AcDbSymbolTableRecord
100
AcDbRegAppTableRecord
  2
AcAecLayerStandard
 70
     0
  0
APPID
  5
2E
330
29
100
AcDbSymbolTableRecord
100
AcDbRegAppTableRecord
  2
ACAD_DSTYLE_DIMJAG
 70
     0
  0
APPID
  5
2F
330
29
100
AcDbSymbolTableRecord
100
AcDbRegAppTableRecord
  2
ACAD_DSTYLE_DIMTALN
 70
     0
  0
APPID
  5
27
330
29
100
AcDbSymbolTableRecord
100
AcDbRegAppTableRecord
  2
ACAD_NAV_VCDISPLAY
 70
     0
  0
ENDTAB
  0
TABLE
  2
DIMSTYLE
  5
2B
330
0
100
AcDbSymbolTable
 70
     1
100
AcDbDimStyleTable
 71
     1
340
2C
  0
DIMSTYLE
105
2C
330
2B
100
AcDbSymbolTableRecord
100
AcDbDimStyleTableRecord
  2
MASKIN
 70
     0
 40
0.0
 41
3.0
 42
1.5
 43
10.0
 44
1.5
 73
     0
 77
     1
 78
     8
140
3.0
141
-5.0
144
-1.0
147
1.0
171
     0
172
     1
176
   256
177
   256
178
     2
179
     2
271
     8
272
     8
274
     0
279
     2
284
     8
285
     8
286
     8
340
2D
1001
ACAD_DSTYLE_DIMJAG
1070
   388
1040
1.5
1001
ACAD_DSTYLE_DIMTALN
1070
   392
1070
     0
  0
ENDTAB
  0
TABLE
  2
BLOCK_RECORD
  5
1
330
0
100
AcDbSymbolTable
 70
    10
  0
BLOCK_RECORD
  5
2
102
{ACAD_XDICTIONARY
360
3
102
}
330
1
100
AcDbSymbolTableRecord
100
AcDbBlockTableRecord
  2
*MODEL_SPACE
340
10
 70
     0
280
     1
281
     0
  0
BLOCK_RECORD
  5
13
330
1
100
AcDbSymbolTableRecord
100
AcDbBlockTableRecord
  2
*Paper_Space
340
16
 70
     0
280
     1
281
     0
  0
BLOCK_RECORD
  5
AD
330
1
100
AcDbSymbolTableRecord
100
AcDbBlockTableRecord
  2
*X0
340
0
102
{BLKREFS
331
AC
102
}
 70
     0
280
     1
281
     0
  0
BLOCK_RECORD
  5
CA
330
1
100
AcDbSymbolTableRecord
100
AcDbBlockTableRecord
  2
*X1
340
0
102
{BLKREFS
331
C9
102
}
 70
     0
280
     1
281
     0
  0
BLOCK_RECORD
  5
8D
330
1
100
AcDbSymbolTableRecord
100
AcDbBlockTableRecord
  2
*X2
340
0
102
{BLKREFS
331
8C
102
}
 70
     0
280
     1
281
     0
  0
BLOCK_RECORD
  5
9E
330
1
100
AcDbSymbolTableRecord
100
AcDbBlockTableRecord
  2
*X3
340
0
102
{BLKREFS
331
9D
102
}
 70
     0
280
     1
281
     0
  0
BLOCK_RECORD
  5
79
330
1
100
AcDbSymbolTableRecord
100
AcDbBlockTableRecord
  2
BYGG-023998
340
0
102
{BLKREFS
331
78
102
}
 70
     0
280
     1
281
     0
  0
BLOCK_RECORD
  5
75
330
1
100
AcDbSymbolTableRecord
100
AcDbBlockTableRecord
  2
BYGG-024001
340
0
102
{BLKREFS
331
74
102
}
 70
     0
280
     1
281
     0
  0
BLOCK_RECORD
  5
71
330
1
100
AcDbSymbolTableRecord
100
AcDbBlockTableRecord
  2
BYGG-024004
340
0
102
{BLKREFS
331
70
102
}
 70
     0
280
     1
281
     0
  0
BLOCK_RECORD
  5
6D
330
1
100
AcDbSymbolTableRecord
100
AcDbBlockTableRecord
  2
BYGG-024008
340
0
102
{BLKREFS
331
6C
102
}
 70
     0
280
     1
281
     0
  0
BLOCK_RECORD
  5
69
330
1
100
AcDbSymbolTableRecord
100
AcDbBlockTableRecord
  2
BYGG-023983
340
0
102
{BLKREFS
331
68
102
}
 70
     0
280
     1
281
     0
  0
BLOCK_RECORD
  5
65
330
1
100
AcDbSymbolTableRecord
100
AcDbBlockTableRecord
  2
BYGG-023971
340
0
102
{BLKREFS
331
64
102
}
 70
     0
280
     1
281
     0
  0
ENDTAB
  0
ENDSEC
  0
SECTION
  2
BLOCKS
  0
BLOCK
  5
5
330
2
100
AcDbEntity
  8
0
100
AcDbBlockBegin
  2
*MODEL_SPACE
 70
     0
 10
0.0
 20
0.0
 30
0.0
  3
*MODEL_SPACE
  1

  0
ENDBLK
  5
F
330
2
100
AcDbEntity
  8
0
100
AcDbBlockEnd
  0
BLOCK
  5
14
330
13
100
AcDbEntity
 67
     1
  8
0
100
AcDbBlockBegin
  2
*Paper_Space
 70
     0
 10
0.0
 20
0.0
 30
0.0
  3
*Paper_Space
  1

  0
ENDBLK
  5
15
330
13
100
AcDbEntity
 67
     1
  8
0
100
AcDbBlockEnd
  0
BLOCK
  5
AE
330
AD
100
AcDbEntity
  8
0
100
AcDbBlockBegin
  2
*X0
 70
     1
 10
0.0
 20
0.0
 30
0.0
  3
*X0
  1

  0
LINE
  5
AF
330
AD
100
AcDbEntity
  8
0
 62
     0
100
AcDbLine
 10
167.4864067320394
 20
165.718639779073
 30
0.0
 11
174.1471237649603
 21
172.379356811994
 31
0.0
  0
LINE
  5
B0
330
AD
100
AcDbEntity
  8
0
 62
     0
100
AcDbLine
 10
165.7186397790731
 20
165.718639779073
 30
0.0
 11
172.379356811994
 21
172.379356811994
 31
0.0
  0
LINE
  5
B1
330
AD
100
AcDbEntity
  8
0
 62
     0
100
AcDbLine
 10
163.9508728261067
 20
165.718639779073
 30
0.0
 11
170.6115898590276
 21
172.379356811994
 31
0.0
  0
LINE
  5
B2
330
AD
100
AcDbEntity
  8
0
 62
     0
100
AcDbLine
 10
162.1831058731403
 20
165.718639779073
 30
0.0
 11
168.8438229060613
 21
172.379356811994
 31
0.0
  0
LINE
  5
B3
330
AD
100
AcDbEntity
  8
0
 62
     0
100
AcDbLine
 10
161.7814159329464
 20
167.0847167918455
 30
0.0
 11
167.0760559530949
 21
172.379356811994
 31
0.0
  0
LINE
  5
B4
330
AD
100
AcDbEntity
  8
0
 62
     0
100
AcDbLine
 10
161.7814159329464
 20
168.8524837448119
 30
0.0
 11
165.3082890001285
 21
172.379356811994
 31
0.0
  0
LINE
  5
B5
330
AD
100
AcDbEntity
  8
0
 62
     0
100
AcDbLine
 10
161.7814159329464
 20
170.6202506977782
 30
0.0
 11
163.5405220471622
 21
172.379356811994
 31
0.0
  0
LINE
  5
B6
330
AD
100
AcDbEntity
  8
0
 62
     0
100
AcDbLine
 10
169.2541736850058
 20
165.718639779073
 30
0.0
 11
175.9148907179267
 21
172.379356811994
 31
0.0
  0
LINE
  5
B7
330
AD
100
AcDbEntity
  8
0
 62
     0
100
AcDbLine
 10
171.0219406379722
 20
165.718639779073
 30
0.0
 11
177.6826576708931
 21
172.3793568119939
 31
0.0
  0
LINE
  5
B8
330
AD
100
AcDbEntity
  8
0
 62
     0
100
AcDbLine
 10
172.7897075909385
 20
165.718639779073
 30
0.0
 11
179.4504246238594
 21
172.3793568119939
 31
0.0
  0
LINE
  5
B9
330
AD
100
AcDbEntity
  8
0
 62
     0
100
AcDbLine
 10
174.5574745439049
 20
165.718639779073
 30
0.0
 11
180.7960429475318
 21
171.9572081827
 31
0.0
  0
LINE
  5
BA
330
AD
100
AcDbEntity
  8
0
 62
     0
100
AcDbLine
 10
176.3252414968713
 20
165.718639779073
 30
0.0
 11
180.8344726639007
 21
170.2278709461024
 31
0.0
  0
LINE
  5
BB
330
AD
100
AcDbEntity
  8
0
 62
     0
100
AcDbLine
 10
178.0930084498376
 20
165.718639779073
 30
0.0
 11
180.8729023802695
 21
168.4985337095049
 31
0.0
  0
LINE
  5
BC
330
AD
100
AcDbEntity
  8
0
 62
     0
100
AcDbLine
 10
179.860775402804
 20
165.718639779073
 30
0.0
 11
180.9113320966384
 21
166.7691964729074
 31
0.0
  0
ENDBLK
  5
BD
330
AD
100
AcDbEntity
  8
0
100
AcDbBlockEnd
  0
BLOCK
  5
CB
330
CA
100
AcDbEntity
  8
0
100
AcDbBlockBegin
  2
*X1
 70
     1
 10
0.0
 20
0.0
 30
0.0
  3
*X1
  1

  0
LINE
  5
CC
330
CA
100
AcDbEntity
  8
0
 62
     0
100
AcDbLine
 10
169.130230247127
 20
101.9550860344049
 30
0.0
 11
172.5920924537508
 21
105.4169482410288
 31
0.0
  0
LINE
  5
CD
330
CA
100
AcDbEntity
  8
0
 62
     0
100
AcDbLine
 10
166.391066602184
 20
100.9836893424284
 30
0.0
 11
170.8243255007844
 21
105.4169482410288
 31
0.0
  0
LINE
  5
CE
330
CA
100
AcDbEntity
  8
0
 62
     0
100
AcDbLine
 10
163.6519029572411
 20
100.0122926504518
 30
0.0
 11
169.056558547818
 21
105.4169482410288
 31
0.0
  0
LINE
  5
CF
330
CA
100
AcDbEntity
  8
0
 62
     0
100
AcDbLine
 10
160.9127393122982
 20
99.04089595847525
 30
0.0
 11
167.2887915948517
 21
105.4169482410288
 31
0.0
  0
LINE
  5
D0
330
CA
100
AcDbEntity
  8
0
 62
     0
100
AcDbLine
 10
160.3604629659233
 20
100.2563865650667
 30
0.0
 11
165.5210246418853
 21
105.4169482410288
 31
0.0
  0
LINE
  5
D1
330
CA
100
AcDbEntity
  8
0
 62
     0
100
AcDbLine
 10
160.3604629659233
 20
102.0241535180331
 30
0.0
 11
163.7532576889189
 21
105.4169482410288
 31
0.0
  0
LINE
  5
D2
330
CA
100
AcDbEntity
  8
0
 62
     0
100
AcDbLine
 10
160.3604629659233
 20
103.7919204709995
 30
0.0
 11
161.9854907359526
 21
105.4169482410288
 31
0.0
  0
LINE
  5
D3
330
CA
100
AcDbEntity
  8
0
 62
     0
100
AcDbLine
 10
171.8693938920699
 20
102.9264827263815
 30
0.0
 11
174.3598594067172
 21
105.4169482410288
 31
0.0
  0
LINE
  5
D4
330
CA
100
AcDbEntity
  8
0
 62
     0
100
AcDbLine
 10
174.6085575370129
 20
103.8978794183581
 30
0.0
 11
176.1276263596835
 21
105.4169482410288
 31
0.0
  0
LINE
  5
D5
330
CA
100
AcDbEntity
  8
0
 62
     0
100
AcDbLine
 10
177.3477211819558
 20
104.8692761103346
 30
0.0
 11
177.8953933126499
 21
105.4169482410288
 31
0.0
  0
ENDBLK
  5
D6
330
CA
100
AcDbEntity
  8
0
100
AcDbBlockEnd
  0
BLOCK
  5
8E
330
8D
100
AcDbEntity
  8
0
100
AcDbBlockBegin
  2
*X2
 70
     1
 10
0.0
 20
0.0
 30
0.0
  3
*X2
  1

  0
LINE
  5
8F
330
8D
100
AcDbEntity
  8
0
 62
     0
100
AcDbLine
 10
400.9011574148082
 20
395.5978565559091
 30
0.0
 11
408.4011574148082
 21
403.097856555909
 31
0.0
  0
LINE
  5
90
330
8D
100
AcDbEntity
  8
0
 62
     0
100
AcDbLine
 10
400.9011574148082
 20
398.2495069853587
 30
0.0
 11
408.4011574148082
 21
405.7495069853586
 31
0.0
  0
LINE
  5
91
330
8D
100
AcDbEntity
  8
0
 62
     0
100
AcDbLine
 10
400.9011574148082
 20
400.9011574148082
 30
0.0
 11
408.4011574148082
 21
408.4011574148081
 31
0.0
  0
LINE
  5
92
330
8D
100
AcDbEntity
  8
0
 62
     0
100
AcDbLine
 10
400.9011574148082
 20
403.5528078442577
 30
0.0
 11
406.2555435741955
 21
408.907194003645
 31
0.0
  0
LINE
  5
93
330
8D
100
AcDbEntity
  8
0
 62
     0
100
AcDbLine
 10
400.9011574148082
 20
406.2044582737073
 30
0.0
 11
403.6038931447459
 21
408.907194003645
 31
0.0
  0
LINE
  5
94
330
8D
100
AcDbEntity
  8
0
 62
     0
100
AcDbLine
 10
400.9011574148082
 20
408.8561087031568
 30
0.0
 11
400.9522427152963
 21
408.907194003645
 31
0.0
  0
LINE
  5
95
330
8D
100
AcDbEntity
  8
0
 62
     0
100
AcDbLine
 10
400.9011574148082
 20
392.9462061264596
 30
0.0
 11
408.4011574148082
 21
400.4462061264595
 31
0.0
  0
LINE
  5
96
330
8D
100
AcDbEntity
  8
0
 62
     0
100
AcDbLine
 10
400.9011574148082
 20
390.29455569701
 30
0.0
 11
408.4011574148082
 21
397.79455569701
 31
0.0
  0
LINE
  5
97
330
8D
100
AcDbEntity
  8
0
 62
     0
100
AcDbLine
 10
400.9331174553053
 20
387.6748653080575
 30
0.0
 11
408.4011574148082
 21
395.1429052675604
 31
0.0
  0
LINE
  5
98
330
8D
100
AcDbEntity
  8
0
 62
     0
100
AcDbLine
 10
403.5847678847549
 20
387.6748653080575
 30
0.0
 11
408.4011574148082
 21
392.4912548381109
 31
0.0
  0
LINE
  5
99
330
8D
100
AcDbEntity
  8
0
 62
     0
100
AcDbLine
 10
406.2364183142044
 20
387.6748653080575
 30
0.0
 11
408.4011574148082
 21
389.8396044086613
 31
0.0
  0
ENDBLK
  5
9A
330
8D
100
AcDbEntity
  8
0
100
AcDbBlockEnd
  0
BLOCK
  5
9F
330
9E
100
AcDbEntity
  8
0
100
AcDbBlockBegin
  2
*X3
 70
     1
 10
0.0
 20
0.0
 30
0.0
  3
*X3
  1

  0
LINE
  5
A0
330
9E
100
AcDbEntity
  8
0
 62
     0
100
AcDbLine
 10
400.9011574148082
 20
416.8110599915054
 30
0.0
 11
403.8011574148082
 21
419.7110599915054
 31
0.0
  0
LINE
  5
A1
330
9E
100
AcDbEntity
  8
0
 62
     0
100
AcDbLine
 10
400.9011574148082
 20
419.4627104209549
 30
0.0
 11
403.8011574148082
 21
422.362710420955
 31
0.0
  0
LINE
  5
A2
330
9E
100
AcDbEntity
  8
0
 62
     0
100
AcDbLine
 10
400.9011574148082
 20
422.1143608504045
 30
0.0
 11
403.8011574148082
 21
425.0143608504045
 31
0.0
  0
LINE
  5
A3
330
9E
100
AcDbEntity
  8
0
 62
     0
100
AcDbLine
 10
400.9011574148082
 20
424.7660112798541
 30
0.0
 11
403.8011574148082
 21
427.6660112798542
 31
0.0
  0
LINE
  5
A4
330
9E
100
AcDbEntity
  8
0
 62
     0
100
AcDbLine
 10
400.9011574148082
 20
427.4176617093037
 30
0.0
 11
402.3906897091491
 21
428.9071940036445
 31
0.0
  0
LINE
  5
A5
330
9E
100
AcDbEntity
  8
0
 62
     0
100
AcDbLine
 10
400.9011574148082
 20
414.1594095620559
 30
0.0
 11
403.8011574148082
 21
417.0594095620559
 31
0.0
  0
LINE
  5
A6
330
9E
100
AcDbEntity
  8
0
 62
     0
100
AcDbLine
 10
400.9011574148082
 20
411.5077591326063
 30
0.0
 11
403.8011574148082
 21
414.4077591326064
 31
0.0
  0
LINE
  5
A7
330
9E
100
AcDbEntity
  8
0
 62
     0
100
AcDbLine
 10
403.4522427152962
 20
411.4071940036448
 30
0.0
 11
403.8011574148082
 21
411.7561087031568
 31
0.0
  0
ENDBLK
  5
A8
330
9E
100
AcDbEntity
  8
0
100
AcDbBlockEnd
  0
BLOCK
  5
7A
330
79
100
AcDbEntity
  8
0
100
AcDbBlockBegin
  2
BYGG-023998
 70
     4
 10
339.7723319792718
 20
232.3505797206594
 30
0.0
  3
BYGG-023998
  1
\\vtl00-ms029\pspdata$\2009\06\0\BYGG-023998.dwg
  0
ENDBLK
  5
7B
330
79
100
AcDbEntity
  8
0
100
AcDbBlockEnd
  0
BLOCK
  5
76
330
75
100
AcDbEntity
  8
0
100
AcDbBlockBegin
  2
BYGG-024001
 70
     4
 10
339.7723319792718
 20
232.3505797206594
 30
0.0
  3
BYGG-024001
  1
\\vtl00-ms029\pspdata$\2009\06\0\BYGG-024001.dwg
  0
ENDBLK
  5
77
330
75
100
AcDbEntity
  8
0
100
AcDbBlockEnd
  0
BLOCK
  5
72
330
71
100
AcDbEntity
  8
0
100
AcDbBlockBegin
  2
BYGG-024004
 70
     4
 10
339.7723319792718
 20
232.3505797206594
 30
0.0
  3
BYGG-024004
  1
\\vtl00-ms029\pspdata$\2009\06\0\BYGG-024004.dwg
  0
ENDBLK
  5
73
330
71
100
AcDbEntity
  8
0
100
AcDbBlockEnd
  0
BLOCK
  5
6E
330
6D
100
AcDbEntity
  8
0
100
AcDbBlockBegin
  2
BYGG-024008
 70
     4
 10
339.7723319792718
 20
232.3505797206594
 30
0.0
  3
BYGG-024008
  1
\\vtl00-ms029\pspdata$\2009\06\0\BYGG-024008.dwg
  0
ENDBLK
  5
6F
330
6D
100
AcDbEntity
  8
0
100
AcDbBlockEnd
  0
BLOCK
  5
6A
330
69
100
AcDbEntity
  8
0
100
AcDbBlockBegin
  2
BYGG-023983
 70
     4
 10
339.7723319792718
 20
232.3505797206594
 30
0.0
  3
BYGG-023983
  1
\\vtl00-ms029\pspdata$\2009\05\0\BYGG-023983.dwg
  0
ENDBLK
  5
6B
330
69
100
AcDbEntity
  8
0
100
AcDbBlockEnd
  0
BLOCK
  5
66
330
65
100
AcDbEntity
  8
0
100
AcDbBlockBegin
  2
BYGG-023971
 70
     4
 10
339.7723319792718
 20
232.3505797206594
 30
0.0
  3
BYGG-023971
  1
\\vtl00-ms029\pspdata$\2009\05\0\BYGG-023971.dwg
  0
ENDBLK
  5
67
330
65
100
AcDbEntity
  8
0
100
AcDbBlockEnd
  0
ENDSEC
  0
SECTION
  2
ENTITIES
  0
INSERT
  5
64
330
2
100
AcDbEntity
  8
sapa_elevation
100
AcDbBlockReference
  2
BYGG-023971
 10
2162.281133942757
 20
-2846.217505111857
 30
0.0
  0
INSERT
  5
68
330
2
100
AcDbEntity
  8
sapa_elevation
100
AcDbBlockReference
  2
BYGG-023983
 10
2167.045499970995
 20
-1971.896365369588
 30
0.0
  0
INSERT
  5
6C
330
2
100
AcDbEntity
  8
sapa_elevation
100
AcDbBlockReference
  2
BYGG-024008
 10
1390.677305158267
 20
-2840.782577226912
 30
0.0
  0
INSERT
  5
70
330
2
100
AcDbEntity
  8
sapa_elevation
100
AcDbBlockReference
  2
BYGG-024004
 10
1392.145235440872
 20
-1984.361608500167
 30
0.0
  0
INSERT
  5
74
330
2
100
AcDbEntity
  8
sapa_elevation
100
AcDbBlockReference
  2
BYGG-024001
 10
528.4671220648415
 20
-2584.958095126662
 30
0.0
  0
INSERT
  5
78
330
2
100
AcDbEntity
  8
sapa_elevation
100
AcDbBlockReference
  2
BYGG-023998
 10
528.1845986865301
 20
-2203.948207360263
 30
0.0
  0
HATCH
  5
7C
330
2
100
AcDbEntity
  8
sapa_elevation
100
AcDbHatch
 10
0.0
 20
0.0
 30
0.0
210
0.0
220
0.0
230
1.0
  2
JIS_LC_8
 70
     0
 71
     1
 91
        1
 92
        7
 72
     0
 73
     1
 93
        4
 10
2894.000000000004
 20
817.9999999999964
 10
2894.000000000004
 20
50.0
 10
4266.000000000004
 20
50.0
 10
4266.000000000004
 20
817.9999999999964
 97
        4
330
F6
330
FA
330
FC
330
F7
 75
     0
 76
     1
 52
0.0
 41
10.0
 77
     0
 78
     2
 53
45.0
 43
0.0
 44
0.0
 45
-55.1543289325507
 46
55.15432893255071
 79
     0
 53
45.0
 43
4.0
 44
0.0
 45
-55.1543289325507
 46
55.15432893255071
 79
     0
 47
11.3733488199487
 98
        1
 10
3492.84764164333
 20
521.1412958091023
1001
ACAD
1010
0.0
1020
0.0
1030
0.0
  0
HATCH
  5
7D
330
2
100
AcDbEntity
  8
sapa_elevation
100
AcDbHatch
 10
0.0
 20
0.0
 30
0.0
210
0.0
220
0.0
230
1.0
  2
JIS_LC_8
 70
     0
 71
     1
 91
        2
 92
        7
 72
     0
 73
     1
 93
        4
 10
1472.000000000003
 20
817.9999999999964
 10
1472.000000000003
 20
50.0
 10
2844.000000000004
 20
50.0
 10
2844.000000000003
 20
817.9999999999964
 97
        4
330
EA
330
F1
330
ED
330
F9
 92
       24
 93
        4
 72
     1
 10
1778.128964207237
 20
71.80057107740868
 11
2123.128964207237
 21
71.80057107740868
 72
     1
 10
2123.128964207237
 20
71.80057107740868
 11
2123.128964207237
 21
476.8005710774087
 72
     1
 10
2123.128964207237
 20
476.8005710774087
 11
1778.128964207237
 21
476.8005710774087
 72
     1
 10
1778.128964207237
 20
476.8005710774087
 11
1778.128964207237
 21
71.80057107740868
 97
        1
330
0
 75
     0
 76
     1
 52
0.0
 41
10.0
 77
     0
 78
     2
 53
45.0
 43
0.0
 44
0.0
 45
-55.1543289325507
 46
55.15432893255071
 79
     0
 53
45.0
 43
4.0
 44
0.0
 45
-55.1543289325507
 46
55.15432893255071
 79
     0
 47
11.3733488199487
 98
        1
 10
2195.689342910962
 20
543.8879848750221
1001
ACAD
1010
0.0
1020
0.0
1030
0.0
  0
HATCH
  5
7E
330
2
100
AcDbEntity
  8
sapa_elevation
100
AcDbHatch
 10
0.0
 20
0.0
 30
0.0
210
0.0
220
0.0
230
1.0
  2
JIS_LC_8
 70
     0
 71
     1
 91
        1
 92
        7
 72
     0
 73
     1
 93
        4
 10
4266.000000000004
 20
2632.733334725315
 10
4266.000000000004
 20
2939.999999999998
 10
2894.000000000004
 20
2940.0
 10
2894.000000000004
 20
2632.733334725316
 97
        4
330
FE
330
FA
330
E3
330
F7
 75
     0
 76
     1
 52
0.0
 41
10.0
 77
     0
 78
     2
 53
45.0
 43
0.0
 44
0.0
 45
-55.1543289325507
 46
55.15432893255071
 79
     0
 53
45.0
 43
4.0
 44
0.0
 45
-55.1543289325507
 46
55.15432893255071
 79
     0
 47
11.3733488199487
 98
        1
 10
3413.197562281905
 20
2761.691015563891
1001
ACAD
1010
0.0
1020
0.0
1030
0.0
  0
HATCH
  5
7F
330
2
100
AcDbEntity
  8
sapa_elevation
100
AcDbHatch
 10
0.0
 20
0.0
 30
0.0
210
0.0
220
0.0
230
1.0
  2
JIS_LC_8
 70
     0
 71
     1
 91
        1
 92
        7
 72
     0
 73
     1
 93
        4
 10
2844.000000000004
 20
2632.733334725315
 10
2844.000000000004
 20
2939.999999999994
 10
1472.000000000003
 20
2939.999999999997
 10
1472.000000000003
 20
2632.733334725315
 97
        4
330
EB
330
F1
330
DF
330
F9
 75
     0
 76
     1
 52
0.0
 41
10.0
 77
     0
 78
     2
 53
45.0
 43
0.0
 44
0.0
 45
-55.1543289325507
 46
55.15432893255071
 79
     0
 53
45.0
 43
4.0
 44
0.0
 45
-55.1543289325507
 46
55.15432893255071
 79
     0
 47
11.3733488199487
 98
        1
 10
1911.224823843178
 20
2784.437725033706
1001
ACAD
1010
0.0
1020
0.0
1030
0.0
  0
HATCH
  5
80
330
2
100
AcDbEntity
  8
sapa_elevation
100
AcDbHatch
 10
0.0
 20
0.0
 30
0.0
210
0.0
220
0.0
230
1.0
  2
JIS_LC_8
 70
     0
 71
     1
 91
        1
 92
        7
 72
     0
 73
     1
 93
        4
 10
1422.000000000003
 20
2632.733334725315
 10
1422.000000000003
 20
2939.999999999998
 10
50.00000000000364
 20
2940.0
 10
50.00000000000365
 20
2632.733334725316
 97
        4
330
EB
330
EF
330
E2
330
F2
 75
     0
 76
     1
 52
0.0
 41
10.0
 77
     0
 78
     2
 53
45.0
 43
0.0
 44
0.0
 45
-55.1543289325507
 46
55.15432893255071
 79
     0
 53
45.0
 43
4.0
 44
0.0
 45
-55.1543289325507
 46
55.15432893255071
 79
     0
 47
11.3733488199487
 98
        1
 10
648.2022597503346
 20
2761.691015563891
1001
ACAD
1010
0.0
1020
0.0
1030
0.0
  0
HATCH
  5
81
330
2
100
AcDbEntity
  8
sapa_elevation
100
AcDbHatch
 10
0.0
 20
0.0
 30
0.0
210
0.0
220
0.0
230
1.0
  2
JIS_LC_8
 70
     0
 71
     1
 91
        1
 92
        7
 72
     0
 73
     1
 93
        4
 10
50.00000000000365
 20
817.9999999999964
 10
50.00000000000364
 20
50.0
 10
1422.000000000004
 20
50.0
 10
1422.000000000004
 20
817.9999999999964
 97
        4
330
F3
330
EF
330
ED
330
F2
 75
     0
 76
     1
 52
0.0
 41
10.0
 77
     0
 78
     2
 53
45.0
 43
0.0
 44
0.0
 45
-55.1543289325507
 46
55.15432893255071
 79
     0
 53
45.0
 43
4.0
 44
0.0
 45
-55.1543289325507
 46
55.15432893255071
 79
     0
 47
18.63776858435862
 98
        1
 10
724.2927409856601
 20
466.1563324334129
1001
ACAD
1010
0.0
1020
0.0
1030
0.0
  0
LINE
  5
82
330
2
100
AcDbEntity
  8
sapa_elevation
100
AcDbLine
 10
6610.817515736282
 20
2628.615069566194
 30
0.0
 11
6610.817515736282
 21
2584.503287245343
 31
0.0
  0
LINE
  5
83
330
2
100
AcDbEntity
  8
sapa_elevation
100
AcDbLine
 10
6498.317515736282
 20
2628.615069566194
 30
0.0
 11
6498.317515736282
 21
2584.503287245343
 31
0.0
  0
LINE
  5
84
330
2
100
AcDbEntity
  8
sapa_elevation
100
AcDbLine
 10
6498.317515736282
 20
3252.5
 30
0.0
 11
6541.817515736285
 21
3252.5
 31
0.0
  0
LINE
  5
85
330
2
100
AcDbEntity
  8
sapa_elevation
100
AcDbLine
 10
6610.817515736282
 20
2990.0
 30
0.0
 11
6610.817515736282
 21
2947.100000000001
 31
0.0
  0
LINE
  5
86
330
2
100
AcDbEntity
  8
sapa_elevation
100
AcDbLine
 10
6498.317515736282
 20
2990.0
 30
0.0
 11
6541.817515736285
 21
2990.0
 31
0.0
  0
LINE
  5
87
330
2
100
AcDbEntity
  8
sapa_elevation
100
AcDbLine
 10
6498.317515736282
 20
2990.0
 30
0.0
 11
6498.317515736282
 21
2947.100000000001
 31
0.0
  0
LINE
  5
88
330
2
100
AcDbEntity
  8
sapa_elevation
100
AcDbLine
 10
6498.317515736282
 20
2947.100000000001
 30
0.0
 11
6610.817515736282
 21
2947.100000000001
 31
0.0
  0
LINE
  5
89
330
2
100
AcDbEntity
  8
sapa_elevation
100
AcDbLine
 10
6541.817515736285
 20
2990.0
 30
0.0
 11
6610.817515736282
 21
2990.0
 31
0.0
  0
LINE
  5
8A
330
2
100
AcDbEntity
  8
sapa_elevation
100
AcDbLine
 10
6498.317515736282
 20
2628.615069566194
 30
0.0
 11
6610.817515736282
 21
2628.615069566194
 31
0.0
  0
LINE
  5
8B
330
2
100
AcDbEntity
  8
sapa_elevation
100
AcDbLine
 10
6498.317515736282
 20
2584.503287245343
 30
0.0
 11
6610.817515736282
 21
2584.503287245343
 31
0.0
  0
INSERT
  5
8C
330
2
100
AcDbEntity
  8
sapa_elevation
100
AcDbBlockReference
  2
*X2
 10
484.8001545141596
 20
-3186.50791005467
 30
0.0
 41
15.0
 42
15.0
 43
15.0
  0
LINE
  5
9B
330
2
100
AcDbEntity
  8
sapa_elevation
100
AcDbLine
 10
6498.317515736282
 20
2947.100000000001
 30
0.0
 11
6498.317515736282
 21
2628.615069566194
 31
0.0
  0
LINE
  5
9C
330
2
100
AcDbEntity
  8
sapa_elevation
100
AcDbLine
 10
6610.817515736282
 20
2947.100000000001
 30
0.0
 11
6610.817515736282
 21
2628.615069566194
 31
0.0
  0
INSERT
  5
9D
330
2
100
AcDbEntity
  8
sapa_elevation
100
AcDbBlockReference
  2
*X3
 10
484.8001545141596
 20
-3186.50791005467
 30
0.0
 41
15.0
 42
15.0
 43
15.0
  0
LINE
  5
A9
330
2
100
AcDbEntity
  8
sapa_elevation
100
AcDbLine
 10
6551.60325199964
 20
3245.617970395106
 30
0.0
 11
6551.60325199964
 21
2995.841081660565
 31
0.0
  0
LINE
  5
AA
330
2
100
AcDbEntity
  8
sapa_elevation
100
AcDbLine
 10
6498.317515736282
 20
3252.5
 30
0.0
 11
6498.317515736282
 21
2990.0
 31
0.0
  0
LINE
  5
AB
330
2
100
AcDbEntity
  8
sapa_elevation
100
AcDbLine
 10
6541.817515736285
 20
3252.5
 30
0.0
 11
6541.817515736285
 21
2990.0
 31
0.0
  0
INSERT
  5
AC
330
2
100
AcDbEntity
  8
sapa_elevation
100
AcDbBlockReference
  2
*X0
 10
483.4655845946326
 20
-3223.875867801153
 30
0.0
 41
37.5
 42
37.5
 43
37.5
  0
LINE
  5
BE
330
2
100
AcDbEntity
  8
sapa_elevation
100
AcDbLine
 10
6551.60325199964
 20
2995.841081660565
 30
0.0
 11
7269.850572049619
 21
2995.841081660565
 31
0.0
  0
LINE
  5
BF
330
2
100
AcDbEntity
  8
sapa_elevation
100
AcDbLine
 10
6551.60325199964
 20
3245.617970395106
 30
0.0
 11
7264.299974522193
 21
3245.617970395106
 31
0.0
  0
LINE
  5
C0
330
2
100
AcDbEntity
  8
sapa_elevation
100
AcDbLine
 10
6610.817515736282
 20
826.3817348408737
 30
0.0
 11
6610.817515736282
 21
863.8817348408737
 31
0.0
  0
LINE
  5
C1
330
2
100
AcDbEntity
  8
sapa_elevation
100
AcDbLine
 10
6498.317515736282
 20
863.8817348408737
 30
0.0
 11
6498.317515736282
 21
826.3817348408737
 31
0.0
  0
LINE
  5
C2
330
2
100
AcDbEntity
  8
sapa_elevation
100
AcDbLine
 10
6498.317515736282
 20
863.8817348408737
 30
0.0
 11
6610.817515736282
 21
863.8817348408737
 31
0.0
  0
LINE
  5
C3
102
{ACAD_REACTORS
330
DA
102
}
330
2
100
AcDbEntity
  8
sapa_elevation
100
AcDbLine
 10
6498.317515736282
 20
826.3817348408737
 30
0.0
 11
6610.817515736282
 21
826.3817348408737
 31
0.0
  0
LINE
  5
C4
330
2
100
AcDbEntity
  8
sapa_elevation
100
AcDbLine
 10
6610.817515736282
 20
-4.118265159124348
 30
0.0
 11
6610.817515736282
 21
33.38173484087565
 31
0.0
  0
LINE
  5
C5
330
2
100
AcDbEntity
  8
sapa_elevation
100
AcDbLine
 10
6498.317515736282
 20
33.38173484087565
 30
0.0
 11
6498.317515736282
 21
-4.118265159124348
 31
0.0
  0
LINE
  5
C6
330
2
100
AcDbEntity
  8
sapa_elevation
100
AcDbLine
 10
6498.317515736282
 20
-4.118265159124348
 30
0.0
 11
6610.817515736282
 21
-4.118265159124348
 31
0.0
  0
LINE
  5
C7
102
{ACAD_REACTORS
330
DA
102
}
330
2
100
AcDbEntity
  8
sapa_elevation
100
AcDbLine
 10
6498.317515736282
 20
33.38173484087565
 30
0.0
 11
6610.817515736282
 21
33.38173484087565
 31
0.0
  0
LINE
  5
C8
330
2
100
AcDbEntity
  8
sapa_elevation
100
AcDbLine
 10
6498.317515736282
 20
-4.158918339435331
 30
0.0
 11
6498.317515736282
 21
-250.6054485575078
 31
0.0
  0
INSERT
  5
C9
330
2
100
AcDbEntity
  8
sapa_elevation
100
AcDbBlockReference
  2
*X1
 10
486.1347244336684
 20
-3957.426519631535
 30
0.0
 41
37.5
 42
37.5
 43
37.5
  0
LINE
  5
D7
330
2
100
AcDbEntity
  8
sapa_elevation
100
AcDbLine
 10
6498.317515736282
 20
-4.158918339435331
 30
0.0
 11
7193.252326171034
 21
-4.158918339435331
 31
0.0
  0
LINE
  5
D8
102
{ACAD_REACTORS
330
DA
102
}
330
2
100
AcDbEntity
  8
sapa_elevation
100
AcDbLine
 10
6498.317515736282
 20
826.3817348408737
 30
0.0
 11
6498.317515736282
 21
33.38173484087565
 31
0.0
  0
LINE
  5
D9
102
{ACAD_REACTORS
330
DA
102
}
330
2
100
AcDbEntity
  8
sapa_elevation
100
AcDbLine
 10
6610.817515736282
 20
33.38173484087565
 30
0.0
 11
6610.817515736282
 21
826.3817348408737
 31
0.0
  0
HATCH
  5
DA
330
2
100
AcDbEntity
  8
sapa_elevation
100
AcDbHatch
 10
0.0
 20
0.0
 30
0.0
210
0.0
220
0.0
230
1.0
  2
ANSI31
 70
     0
 71
     1
 91
        1
 92
        7
 72
     0
 73
     1
 93
        4
 10
6498.317515736282
 20
33.38173484087565
 10
6610.817515736282
 20
33.38173484087565
 10
6610.817515736282
 20
826.3817348408737
 10
6498.317515736282
 20
826.3817348408737
 97
        4
330
C3
330
D8
330
C7
330
D9
 75
     0
 76
     1
 52
0.0
 41
10.0
 77
     0
 78
     1
 53
45.0
 43
-15308.58398347228
 44
-27922.23069037885
 45
-22.45064030267288
 46
22.45064030267288
 79
     0
 47
0.2391890484664354
 98
        1
 10
6542.927475362114
 20
558.7137480613546
1001
ACAD
1010
0.0
1020
0.0
1030
0.0
  0
LINE
  5
DB
330
2
100
AcDbEntity
  8
sapa_elevation
100
AcDbLine
 10
6610.817515736282
 20
863.8817348408737
 30
0.0
 11
6610.817515736282
 21
2584.503287245343
 31
0.0
  0
LINE
  5
DC
330
2
100
AcDbEntity
  8
sapa_elevation
100
AcDbLine
 10
6498.317515736282
 20
2584.503287245343
 30
0.0
 11
6498.317515736282
 21
863.8817348408737
 31
0.0
  0
LINE
  5
DD
330
2
100
AcDbEntity
  8
sapa_elevation
100
AcDbLine
 10
6524.362176450267
 20
2587.833645761801
 30
0.0
 11
6524.362176450267
 21
867.2120933573333
 31
0.0
  0
LINE
  5
DE
330
2
100
AcDbEntity
  8
sapa_elevation
100
AcDbLine
 10
6541.612176450264
 20
2587.833645761801
 30
0.0
 11
6541.612176450264
 21
867.2120933573333
 31
0.0
  0
LINE
  5
DF
102
{ACAD_REACTORS
330
7F
102
}
330
2
100
AcDbEntity
  8
sapa_elevation
100
AcDbLine
 10
2844.000000000004
 20
2632.733334725315
 30
0.0
 11
1472.000000000003
 21
2632.733334725315
 31
0.0
  0
LINE
  5
E0
330
2
100
AcDbEntity
  8
sapa_elevation
100
AcDbLine
 10
2844.000000000004
 20
2582.733334725315
 30
0.0
 11
1472.000000000003
 21
2582.733334725315
 31
0.0
  0
LINE
  5
E1
330
2
100
AcDbEntity
  8
sapa_elevation
100
AcDbLine
 10
1422.000000000003
 20
2582.733334725315
 30
0.0
 11
50.00000000000364
 21
2582.733334725315
 31
0.0
  0
LINE
  5
E2
102
{ACAD_REACTORS
330
80
102
}
330
2
100
AcDbEntity
  8
sapa_elevation
100
AcDbLine
 10
1422.000000000003
 20
2632.733334725315
 30
0.0
 11
50.00000000000364
 21
2632.733334725315
 31
0.0
  0
LINE
  5
E3
102
{ACAD_REACTORS
330
7E
102
}
330
2
100
AcDbEntity
  8
sapa_elevation
100
AcDbLine
 10
4266.000000000004
 20
2632.733334725315
 30
0.0
 11
2894.000000000004
 21
2632.733334725315
 31
0.0
  0
LINE
  5
E4
330
2
100
AcDbEntity
  8
sapa_elevation
100
AcDbLine
 10
4266.000000000004
 20
2582.733334725315
 30
0.0
 11
2894.000000000004
 21
2582.733334725315
 31
0.0
  0
LINE
  5
E5
330
2
100
AcDbEntity
  8
sapa_elevation
100
AcDbLine
 10
5688.000000000004
 20
2582.733334725315
 30
0.0
 11
4316.000000000004
 21
2582.733334725315
 31
0.0
  0
LINE
  5
E6
330
2
100
AcDbEntity
  8
sapa_elevation
100
AcDbLine
 10
5688.000000000004
 20
2632.733334725315
 30
0.0
 11
4316.000000000004
 21
2632.733334725315
 31
0.0
  0
LINE
  5
E7
330
2
100
AcDbEntity
  8
sapa_elevation
100
AcDbLine
 10
6122.221235576837
 20
2582.733334725315
 30
0.0
 11
5738.000000000003
 21
2582.733334725315
 31
0.0
  0
LINE
  5
E8
330
2
100
AcDbEntity
  8
sapa_elevation
100
AcDbLine
 10
6122.221235576837
 20
2632.733334725321
 30
0.0
 11
5738.000000000003
 21
2632.733334725315
 31
0.0
  0
LINE
  5
E9
330
2
100
AcDbEntity
  8
sapa_elevation
100
AcDbLine
 10
2844.000000000004
 20
867.9999999999964
 30
0.0
 11
1472.000000000003
 21
867.9999999999964
 31
0.0
  0
LINE
  5
EA
102
{ACAD_REACTORS
330
7D
102
}
330
2
100
AcDbEntity
  8
sapa_elevation
100
AcDbLine
 10
2844.000000000004
 20
817.9999999999964
 30
0.0
 11
1472.000000000003
 21
817.9999999999964
 31
0.0
  0
LINE
  5
EB
102
{ACAD_REACTORS
330
80
330
7F
102
}
330
2
100
AcDbEntity
  8
sapa_elevation
100
AcDbLine
 10
50.00000000000364
 20
2940.0
 30
0.0
 11
2844.000000000004
 21
2939.999999999995
 31
0.0
  0
LINE
  5
EC
330
2
100
AcDbEntity
  8
sapa_elevation
100
AcDbLine
 10
0.0
 20
2990.0
 30
0.0
 11
2894.000000000004
 21
2990.0
 31
0.0
  0
LINE
  5
ED
102
{ACAD_REACTORS
330
81
330
7D
102
}
330
2
100
AcDbEntity
  8
sapa_elevation
100
AcDbLine
 10
2844.000000000004
 20
50.0
 30
0.0
 11
50.00000000000364
 21
50.0
 31
0.0
  0
LINE
  5
EE
330
2
100
AcDbEntity
  8
sapa_elevation
100
AcDbLine
 10
2894.000000000004
 20
0.0
 30
0.0
 11
0.0
 21
0.0
 31
0.0
  0
LINE
  5
EF
102
{ACAD_REACTORS
330
81
330
80
102
}
330
2
100
AcDbEntity
  8
sapa_elevation
100
AcDbLine
 10
50.00000000000364
 20
0.0
 30
0.0
 11
50.00000000000364
 21
2990.0
 31
0.0
  0
LINE
  5
F0
330
2
100
AcDbEntity
  8
sapa_elevation
100
AcDbLine
 10
0.0
 20
0.0
 30
0.0
 11
0.0
 21
2990.0
 31
0.0
  0
LINE
  5
F1
102
{ACAD_REACTORS
330
7F
330
7D
102
}
330
2
100
AcDbEntity
  8
sapa_elevation
100
AcDbLine
 10
1472.000000000003
 20
50.0
 30
0.0
 11
1472.000000000003
 21
2940.0
 31
0.0
  0
LINE
  5
F2
102
{ACAD_REACTORS
330
81
330
80
102
}
330
2
100
AcDbEntity
  8
sapa_elevation
100
AcDbLine
 10
1422.000000000003
 20
50.0
 30
0.0
 11
1422.000000000003
 21
2940.0
 31
0.0
  0
LINE
  5
F3
102
{ACAD_REACTORS
330
81
102
}
330
2
100
AcDbEntity
  8
sapa_elevation
100
AcDbLine
 10
1422.000000000003
 20
817.9999999999964
 30
0.0
 11
50.00000000000364
 21
817.9999999999964
 31
0.0
  0
LINE
  5
F4
330
2
100
AcDbEntity
  8
sapa_elevation
100
AcDbLine
 10
1422.000000000003
 20
867.9999999999964
 30
0.0
 11
50.00000000000364
 21
867.9999999999964
 31
0.0
  0
LINE
  5
F5
330
2
100
AcDbEntity
  8
sapa_elevation
100
AcDbLine
 10
4266.000000000004
 20
867.9999999999964
 30
0.0
 11
2894.000000000004
 21
867.9999999999964
 31
0.0
  0
LINE
  5
F6
102
{ACAD_REACTORS
330
7C
102
}
330
2
100
AcDbEntity
  8
sapa_elevation
100
AcDbLine
 10
4266.000000000004
 20
817.9999999999964
 30
0.0
 11
2894.000000000004
 21
817.9999999999964
 31
0.0
  0
LINE
  5
F7
102
{ACAD_REACTORS
330
7E
330
7C
102
}
330
2
100
AcDbEntity
  8
sapa_elevation
100
AcDbLine
 10
4266.000000000004
 20
50.0
 30
0.0
 11
4266.000000000004
 21
2940.0
 31
0.0
  0
LINE
  5
F8
330
2
100
AcDbEntity
  8
sapa_elevation
100
AcDbLine
 10
4316.000000000004
 20
50.0
 30
0.0
 11
4316.000000000004
 21
2940.0
 31
0.0
  0
LINE
  5
F9
102
{ACAD_REACTORS
330
7F
330
7D
102
}
330
2
100
AcDbEntity
  8
sapa_elevation
100
AcDbLine
 10
2844.000000000004
 20
0.0
 30
0.0
 11
2844.000000000004
 21
2990.0
 31
0.0
  0
LINE
  5
FA
102
{ACAD_REACTORS
330
7E
330
7C
102
}
330
2
100
AcDbEntity
  8
sapa_elevation
100
AcDbLine
 10
2894.000000000004
 20
0.0
 30
0.0
 11
2894.000000000004
 21
2990.0
 31
0.0
  0
LINE
  5
FB
330
2
100
AcDbEntity
  8
sapa_elevation
100
AcDbLine
 10
5738.000000000003
 20
0.0
 30
0.0
 11
2844.000000000004
 21
0.0
 31
0.0
  0
LINE
  5
FC
102
{ACAD_REACTORS
330
7C
102
}
330
2
100
AcDbEntity
  8
sapa_elevation
100
AcDbLine
 10
5688.000000000004
 20
50.0
 30
0.0
 11
2894.000000000004
 21
50.0
 31
0.0
  0
LINE
  5
FD
330
2
100
AcDbEntity
  8
sapa_elevation
100
AcDbLine
 10
2844.000000000004
 20
2990.0
 30
0.0
 11
5738.000000000003
 21
2990.0
 31
0.0
  0
LINE
  5
FE
102
{ACAD_REACTORS
330
7E
102
}
330
2
100
AcDbEntity
  8
sapa_elevation
100
AcDbLine
 10
2894.000000000004
 20
2940.0
 30
0.0
 11
5688.000000000004
 21
2939.999999999995
 31
0.0
  0
LINE
  5
FF
330
2
100
AcDbEntity
  8
sapa_elevation
100
AcDbLine
 10
5688.000000000004
 20
817.9999999999964
 30
0.0
 11
4316.000000000004
 21
817.9999999999964
 31
0.0
  0
LINE
  5
100
330
2
100
AcDbEntity
  8
sapa_elevation
100
AcDbLine
 10
5688.000000000004
 20
867.9999999999964
 30
0.0
 11
4316.000000000004
 21
867.9999999999964
 31
0.0
  0
LINE
  5
101
330
2
100
AcDbEntity
  8
sapa_elevation
100
AcDbLine
 10
6122.221235576837
 20
817.9999999999964
 30
0.0
 11
5738.000000000003
 21
817.9999999999964
 31
0.0
  0
LINE
  5
102
330
2
100
AcDbEntity
  8
sapa_elevation
100
AcDbLine
 10
6122.221235576837
 20
868.0
 30
0.0
 11
5738.000000000003
 21
867.9999999999964
 31
0.0
  0
LINE
  5
103
330
2
100
AcDbEntity
  8
sapa_elevation
100
AcDbLine
 10
5738.000000000003
 20
0.0
 30
0.0
 11
5738.000000000003
 21
2990.0
 31
0.0
  0
LINE
  5
104
330
2
100
AcDbEntity
  8
sapa_elevation
100
AcDbLine
 10
5688.000000000004
 20
0.0
 30
0.0
 11
5688.000000000004
 21
2990.0
 31
0.0
  0
LINE
  5
105
330
2
100
AcDbEntity
  8
sapa_elevation
100
AcDbLine
 10
5738.000000000003
 20
2940.0
 30
0.0
 11
6122.221235576837
 21
2940.0
 31
0.0
  0
LINE
  5
106
330
2
100
AcDbEntity
  8
sapa_elevation
100
AcDbLine
 10
5688.000000000004
 20
2990.0
 30
0.0
 11
6122.221235576837
 21
2990.0
 31
0.0
  0
LINE
  5
107
330
2
100
AcDbEntity
  8
sapa_elevation
100
AcDbLine
 10
6122.221235576837
 20
50.00000000000364
 30
0.0
 11
5738.000000000003
 21
50.0
 31
0.0
  0
LINE
  5
108
330
2
100
AcDbEntity
  8
sapa_elevation
100
AcDbLine
 10
6122.221235576837
 20
0.0
 30
0.0
 11
5688.000000000004
 21
0.0
 31
0.0
  0
ENDSEC
  0
SECTION
  2
OBJECTS
  0
DICTIONARY
  5
B
330
0
100
AcDbDictionary
281
     1
  3
ACAD_COLOR
350
36
  3
ACAD_GROUP
350
31
  3
ACAD_LAYOUT
350
11
  3
ACAD_MATERIAL
350
D
  3
ACAD_MLEADERSTYLE
350
39
  3
ACAD_MLINESTYLE
350
32
  3
ACAD_PLOTSETTINGS
350
33
  3
ACAD_PLOTSTYLENAME
350
A
  3
ACAD_SCALELIST
350
37
  3
ACAD_TABLESTYLE
350
38
  3
ACAD_VISUALSTYLE
350
26
  3
ACDB_RECOMPOSE_DATA
350
115
  3
AcDbVariableDictionary
350
10A
  3
AcDsDecomposeData
350
11B
  0
DICTIONARY
  5
28
330
23
100
AcDbDictionary
280
     1
281
     1
  0
DICTIONARY
  5
19
330
18
100
AcDbDictionary
280
     1
281
     1
  3
ACAD_LAYERSTATES
360
1A
  0
DICTIONARY
  5
7
330
6
100
AcDbDictionary
280
     1
281
     1
  3
ADSK_XREC_LAYER_RECONCILED
360
8
  0
DICTIONARY
  5
3B
330
3A
100
AcDbDictionary
280
     1
281
     1
  3
ADSK_XREC_LAYER_RECONCILED
360
3C
  0
DICTIONARY
  5
3
330
2
100
AcDbDictionary
280
     1
281
     1
  3
ACAD_SORTENTS
360
109
  0
DICTIONARY
  5
36
102
{ACAD_REACTORS
330
B
102
}
330
B
100
AcDbDictionary
281
     1
  0
DICTIONARY
  5
31
102
{ACAD_REACTORS
330
B
102
}
330
B
100
AcDbDictionary
281
     1
  0
DICTIONARY
  5
11
102
{ACAD_REACTORS
330
B
102
}
330
B
100
AcDbDictionary
281
     1
  3
Model
350
10
  3
Web
350
16
  0
DICTIONARY
  5
D
102
{ACAD_REACTORS
330
B
102
}
330
B
100
AcDbDictionary
281
     1
  3
ByBlock
350
35
  3
ByLayer
350
34
  3
Global
350
C
  0
DICTIONARY
  5
39
102
{ACAD_REACTORS
330
B
102
}
330
B
100
AcDbDictionary
281
     1
  0
DICTIONARY
  5
32
102
{ACAD_REACTORS
330
B
102
}
330
B
100
AcDbDictionary
281
     1
  3
STANDARD
350
3E
  0
DICTIONARY
  5
33
102
{ACAD_REACTORS
330
B
102
}
330
B
100
AcDbDictionary
281
     1
  0
ACDBDICTIONARYWDFLT
  5
A
102
{ACAD_REACTORS
330
B
102
}
330
B
100
AcDbDictionary
281
     1
  3
Normal
350
9
100
AcDbDictionaryWithDefault
340
9
  0
DICTIONARY
  5
37
102
{ACAD_REACTORS
330
B
102
}
330
B
100
AcDbDictionary
281
     1
  3
*A1
350
43
  3
*A10
350
44
  3
*A11
350
45
  3
*A12
350
46
  3
*A13
350
47
  3
*A14
350
48
  3
*A15
350
49
  3
*A16
350
4A
  3
*A2
350
4B
  3
*A3
350
4C
  3
*A4
350
4D
  3
*A5
350
4E
  3
*A6
350
4F
  3
*A7
350
50
  3
*A8
350
51
  3
*A9
350
52
  3
A0
350
53
  3
A1
350
54
  3
A2
350
55
  3
A3
350
56
  3
A4
350
57
  3
A5
350
58
  3
A6
350
59
  3
A7
350
5A
  3
A8
350
5B
  3
A9
350
5C
  3
B0
350
5D
  3
B1
350
5E
  3
B2
350
5F
  3
B3
350
60
  3
B4
350
61
  3
B5
350
62
  3
B6
350
63
  0
DICTIONARY
  5
38
102
{ACAD_REACTORS
330
B
102
}
330
B
100
AcDbDictionary
281
     1
  3
Standard
350
3F
  0
DICTIONARY
  5
26
102
{ACAD_REACTORS
330
B
102
}
330
B
100
AcDbDictionary
281
     1
  3
2dWireframe
350
25
  3
3dWireframe
350
42
  3
Realistic
350
41
  0
XRECORD
  5
115
102
{ACAD_REACTORS
330
B
102
}
330
B
100
AcDbXrecord
280
     1
 90
        1
330
3F
  0
DICTIONARY
  5
10A
102
{ACAD_REACTORS
330
B
102
}
330
B
100
AcDbDictionary
281
     1
  3
CANNOSCALE
350
110
  3
CMLEADERSTYLE
350
10C
  3
CTABLESTYLE
350
10B
  3
CVIEWDETAILSTYLE
350
10D
  3
CVIEWSECTIONSTYLE
350
10E
  3
LAYEREVAL
350
112
  3
LAYERNOTIFY
350
113
  3
LIGHTINGUNITS
350
111
  3
MSLTSCALE
350
10F
  0
DICTIONARY
  5
11B
102
{ACAD_REACTORS
330
B
102
}
330
B
100
AcDbDictionary
281
     1
  3
AcDsRecords
350
11D
  3
AcDsSchemas
350
11C
1001
ACAD
1070
     2
  0
DICTIONARY
  5
1A
102
{ACAD_REACTORS
330
19
102
}
330
19
100
AcDbDictionary
281
     1
  0
XRECORD
  5
8
102
{ACAD_REACTORS
330
7
102
}
330
7
100
AcDbXrecord
280
     1
290
     1
  0
XRECORD
  5
3C
102
{ACAD_REACTORS
330
3B
102
}
330
3B
100
AcDbXrecord
280
     1
290
     1
  0
SORTENTSTABLE
  5
109
102
{ACAD_REACTORS
330
3
102
}
330
3
100
AcDbSortentsTable
330
2
331
C1
  5
ED
331
83
  5
101
331
E0
  5
DB
331
F7
  5
8B
331
E3
  5
D8
331
FA
  5
87
331
C4
  5
EA
331
86
  5
FE
331
FD
  5
83
331
C7
  5
E7
331
89
  5
FB
331
E6
  5
C8
331
E9
  5
C5
331
8C
  5
F8
331
AB
  5
F2
331
100
  5
7F
331
70
  5
105
331
103
  5
7C
331
78
  5
103
331
EC
  5
C2
331
D8
  5
E3
331
EF
  5
BF
331
106
  5
70
331
F2
  5
AB
331
9D
  5
F5
331
7E
  5
81
331
DB
  5
E0
331
BF
  5
EF
331
81
  5
9D
331
DE
  5
DD
331
F5
  5
9B
331
E1
  5
DA
331
F8
  5
8A
331
68
  5
107
331
C2
  5
EC
331
84
  5
100
331
FB
  5
86
331
C5
  5
E9
331
87
  5
FD
331
E4
  5
D7
331
E7
  5
C7
331
FE
  5
82
331
8A
  5
FA
331
A9
  5
F4
331
C8
  5
E6
331
101
  5
7E
331
AC
  5
F1
331
EA
  5
C4
331
ED
  5
C1
331
104
  5
78
331
74
  5
104
331
F0
  5
BE
331
9B
  5
F7
331
107
  5
6C
331
7C
  5
84
331
D9
  5
E2
331
7F
  5
88
331
DC
  5
DF
331
F3
  5
A9
331
DF
  5
DC
331
F6
  5
8C
331
C0
  5
EE
331
D7
  5
E4
331
82
  5
102
331
F9
  5
89
331
C3
  5
EB
331
85
  5
FF
331
E2
  5
D9
331
E5
  5
C9
331
FC
  5
85
331
6C
  5
106
331
C6
  5
E8
331
88
  5
FC
331
FF
  5
80
331
C9
  5
E5
331
E8
  5
C6
331
8B
  5
F9
331
AA
  5
F3
331
EB
  5
C3
331
102
  5
7D
331
105
  5
74
331
EE
  5
C0
331
DA
  5
E1
331
7D
  5
64
331
9C
  5
F6
331
F1
  5
AC
331
108
  5
68
331
F4
  5
9C
331
64
  5
108
331
BE
  5
F0
331
80
  5
AA
331
DD
  5
DE
  0
LAYOUT
  5
10
102
{ACAD_REACTORS
330
11
102
}
330
11
100
AcDbPlotSettings
  1

  2
none_device
  4
ISO_A4_(210.00_x_297.00_MM)
  6

 40
7.5
 41
20.0
 42
7.5
 43
20.0
 44
210.0
 45
297.0
 46
0.0
 47
0.0
 48
0.0
 49
0.0
140
0.0
141
0.0
142
1.0
143
5.995857960516191
 70
 11952
 72
     1
 73
     1
 74
     0
  7
sapa1.ctb
 75
     0
147
0.1667818028020645
 76
     0
 77
     2
 78
   300
148
2064.945653318973
149
-698.4913369313278
100
AcDbLayout
  1
Model
 70
     1
 71
     0
 10
0.0
 20
0.0
 11
12.0
 21
9.0
 12
0.0
 22
0.0
 32
0.0
 14
0.0
 24
0.0
 34
0.0
 15
0.0
 25
0.0
 35
0.0
146
0.0
 13
0.0
 23
0.0
 33
0.0
 16
1.0
 26
0.0
 36
0.0
 17
0.0
 27
1.0
 37
0.0
 76
     0
330
2
331
24
1001
ACAD_PSEXT
1000
None
1000
None
1000
Not applicable
1000
The layout will not be plotted unless a new plotter configuration name is selected.
1070
     0
  0
LAYOUT
  5
16
102
{ACAD_XDICTIONARY
360
17
102
}
102
{ACAD_REACTORS
330
11
102
}
330
11
100
AcDbPlotSettings
  1

  2
frontp04.pc3
  4
A4
  6

 40
4.233333110809326
 41
4.233341693878173
 42
4.233322143554687
 43
4.23333740234375
 44
209.9733276367187
 45
296.9259948730469
 46
12.0
 47
0.0
 48
0.0
 49
0.0
140
0.0
141
0.0
142
1.0
143
1.0
 70
   688
 72
     1
 73
     0
 74
     1
  7
sapa2.ctb
 75
    16
147
1.0
 76
     1
 77
     2
 78
   300
148
-1.826818110860415
149
0.0203279535528509
100
AcDbLayout
  1
Web
 70
     1
 71
     1
 10
-14.40651499994891
 20
-4.253669647431024
 11
195.5668126367698
 21
292.6723252256159
 12
0.0
 22
0.0
 32
0.0
 14
5.869999703752308
 24
-0.0000001723469722
 34
0.0
 15
185.8683605469043
 25
282.999999827653
 35
0.0
146
0.0
 13
0.0
 23
0.0
 33
0.0
 16
1.0
 26
0.0
 36
0.0
 17
0.0
 27
1.0
 37
0.0
 76
     0
330
13
1001
ACAD_PSEXT
1000
frontp04.pc3
1000
HP LaserJet 4200 PCL6
1000
Sapa Building System
1000
HP Laserjet 4200n, pcl 6
1070
     0
  0
MATERIAL
  5
35
102
{ACAD_REACTORS
330
D
102
}
330
D
100
AcDbMaterial
  1
ByBlock
 73
     1
 78
     1
172
     1
176
     1
270
     1
274
     1
 94
       63
  0
MATERIAL
  5
34
102
{ACAD_REACTORS
330
D
102
}
330
D
100
AcDbMaterial
  1
ByLayer
 73
     1
 78
     1
172
     1
176
     1
270
     1
274
     1
 94
       63
  0
MATERIAL
  5
C
102
{ACAD_REACTORS
330
D
102
}
330
D
100
AcDbMaterial
  1
Global
 73
     1
 78
     1
172
     1
176
     1
270
     1
274
     1
 94
       63
  0
MLINESTYLE
  5
3E
102
{ACAD_REACTORS
330
32
102
}
330
32
100
AcDbMlineStyle
  2
STANDARD
 70
     0
  3

 62
   256
 51
90.0
 52
90.0
 71
     2
 49
0.5
 62
   256
  6
BYLAYER
 49
-0.5
 62
   256
  6
BYLAYER
  0
ACDBPLACEHOLDER
  5
9
102
{ACAD_REACTORS
330
A
102
}
330
A
  0
SCALE
  5
43
102
{ACAD_REACTORS
330
37
102
}
330
37
100
AcDbScale
 70
     0
300
1/128" = 1'-0"_XREF
140
0.0078125
141
12.0
290
     0
  0
SCALE
  5
44
102
{ACAD_REACTORS
330
37
102
}
330
37
100
AcDbScale
 70
     0
300
3/4" = 1'-0"_XREF
140
0.75
141
12.0
290
     0
  0
SCALE
  5
45
102
{ACAD_REACTORS
330
37
102
}
330
37
100
AcDbScale
 70
     0
300
1" = 1'-0"_XREF
140
1.0
141
12.0
290
     0
  0
SCALE
  5
46
102
{ACAD_REACTORS
330
37
102
}
330
37
100
AcDbScale
 70
     0
300
1-1/2" = 1'-0"_XREF
140
1.5
141
12.0
290
     0
  0
SCALE
  5
47
102
{ACAD_REACTORS
330
37
102
}
330
37
100
AcDbScale
 70
     0
300
3" = 1'-0"_XREF
140
3.0
141
12.0
290
     0
  0
SCALE
  5
48
102
{ACAD_REACTORS
330
37
102
}
330
37
100
AcDbScale
 70
     0
300
6" = 1'-0"_XREF
140
6.0
141
12.0
290
     0
  0
SCALE
  5
49
102
{ACAD_REACTORS
330
37
102
}
330
37
100
AcDbScale
 70
     0
300
1'-0" = 1'-0"_XREF
140
12.0
141
12.0
290
     0
  0
SCALE
  5
4A
102
{ACAD_REACTORS
330
37
102
}
330
37
100
AcDbScale
 70
     0
300
1/64" = 1'-0"_XREF
140
0.015625
141
12.0
290
     0
  0
SCALE
  5
4B
102
{ACAD_REACTORS
330
37
102
}
330
37
100
AcDbScale
 70
     0
300
1/32" = 1'-0"_XREF
140
0.03125
141
12.0
290
     0
  0
SCALE
  5
4C
102
{ACAD_REACTORS
330
37
102
}
330
37
100
AcDbScale
 70
     0
300
1/16" = 1'-0"_XREF
140
0.0625
141
12.0
290
     0
  0
SCALE
  5
4D
102
{ACAD_REACTORS
330
37
102
}
330
37
100
AcDbScale
 70
     0
300
3/32" = 1'-0"_XREF
140
0.09375
141
12.0
290
     0
  0
SCALE
  5
4E
102
{ACAD_REACTORS
330
37
102
}
330
37
100
AcDbScale
 70
     0
300
1/8" = 1'-0"_XREF
140
0.125
141
12.0
290
     0
  0
SCALE
  5
4F
102
{ACAD_REACTORS
330
37
102
}
330
37
100
AcDbScale
 70
     0
300
3/16" = 1'-0"_XREF
140
0.1875
141
12.0
290
     0
  0
SCALE
  5
50
102
{ACAD_REACTORS
330
37
102
}
330
37
100
AcDbScale
 70
     0
300
1/4" = 1'-0"_XREF
140
0.25
141
12.0
290
     0
  0
SCALE
  5
51
102
{ACAD_REACTORS
330
37
102
}
330
37
100
AcDbScale
 70
     0
300
3/8" = 1'-0"_XREF
140
0.375
141
12.0
290
     0
  0
SCALE
  5
52
102
{ACAD_REACTORS
330
37
102
}
330
37
100
AcDbScale
 70
     0
300
1/2" = 1'-0"_XREF
140
0.5
141
12.0
290
     0
  0
SCALE
  5
53
102
{ACAD_REACTORS
330
37
102
}
330
37
100
AcDbScale
 70
     0
300
1:1
140
1.0
141
1.0
290
     1
  0
SCALE
  5
54
102
{ACAD_REACTORS
330
37
102
}
330
37
100
AcDbScale
 70
     0
300
1:2
140
1.0
141
2.0
290
     0
  0
SCALE
  5
55
102
{ACAD_REACTORS
330
37
102
}
330
37
100
AcDbScale
 70
     0
300
1:4
140
1.0
141
4.0
290
     0
  0
SCALE
  5
56
102
{ACAD_REACTORS
330
37
102
}
330
37
100
AcDbScale
 70
     0
300
1:5
140
1.0
141
5.0
290
     0
  0
SCALE
  5
57
102
{ACAD_REACTORS
330
37
102
}
330
37
100
AcDbScale
 70
     0
300
1:8
140
1.0
141
8.0
290
     0
  0
SCALE
  5
58
102
{ACAD_REACTORS
330
37
102
}
330
37
100
AcDbScale
 70
     0
300
1:10
140
1.0
141
10.0
290
     0
  0
SCALE
  5
59
102
{ACAD_REACTORS
330
37
102
}
330
37
100
AcDbScale
 70
     0
300
1:16
140
1.0
141
16.0
290
     0
  0
SCALE
  5
5A
102
{ACAD_REACTORS
330
37
102
}
330
37
100
AcDbScale
 70
     0
300
1:20
140
1.0
141
20.0
290
     0
  0
SCALE
  5
5B
102
{ACAD_REACTORS
330
37
102
}
330
37
100
AcDbScale
 70
     0
300
1:30
140
1.0
141
30.0
290
     0
  0
SCALE
  5
5C
102
{ACAD_REACTORS
330
37
102
}
330
37
100
AcDbScale
 70
     0
300
1:40
140
1.0
141
40.0
290
     0
  0
SCALE
  5
5D
102
{ACAD_REACTORS
330
37
102
}
330
37
100
AcDbScale
 70
     0
300
1:50
140
1.0
141
50.0
290
     0
  0
SCALE
  5
5E
102
{ACAD_REACTORS
330
37
102
}
330
37
100
AcDbScale
 70
     0
300
1:100
140
1.0
141
100.0
290
     0
  0
SCALE
  5
5F
102
{ACAD_REACTORS
330
37
102
}
330
37
100
AcDbScale
 70
     0
300
2:1
140
2.0
141
1.0
290
     0
  0
SCALE
  5
60
102
{ACAD_REACTORS
330
37
102
}
330
37
100
AcDbScale
 70
     0
300
4:1
140
4.0
141
1.0
290
     0
  0
SCALE
  5
61
102
{ACAD_REACTORS
330
37
102
}
330
37
100
AcDbScale
 70
     0
300
8:1
140
8.0
141
1.0
290
     0
  0
SCALE
  5
62
102
{ACAD_REACTORS
330
37
102
}
330
37
100
AcDbScale
 70
     0
300
10:1
140
10.0
141
1.0
290
     0
  0
SCALE
  5
63
102
{ACAD_REACTORS
330
37
102
}
330
37
100
AcDbScale
 70
     0
300
100:1
140
100.0
141
1.0
290
     0
  0
TABLESTYLE
  5
3F
102
{ACAD_XDICTIONARY
360
40
102
}
102
{ACAD_REACTORS
330
38
102
}
330
38
100
AcDbTableStyle
  3
Standard
 70
     0
 71
     0
 40
1.5
 41
1.5
280
     0
281
     0
  7
STANDARD
140
4.5
170
     2
 62
     0
 63
     7
283
     0
 90
        4
 91
        0
  1

274
    -2
284
     1
 64
     0
275
    -2
285
     1
 65
     0
276
    -2
286
     1
 66
     0
277
    -2
287
     1
 67
     0
278
    -2
288
     1
 68
     0
279
    -2
289
     1
 69
     0
  7
STANDARD
140
6.0
170
     5
 62
     0
 63
     7
283
     0
 90
        4
 91
        0
  1

274
    -2
284
     1
 64
     0
275
    -2
285
     1
 65
     0
276
    -2
286
     1
 66
     0
277
    -2
287
     1
 67
     0
278
    -2
288
     1
 68
     0
279
    -2
289
     1
 69
     0
  7
STANDARD
140
4.5
170
     5
 62
     0
 63
     7
283
     0
 90
        4
 91
        0
  1

274
    -2
284
     1
 64
     0
275
    -2
285
     1
 65
     0
276
    -2
286
     1
 66
     0
277
    -2
287
     1
 67
     0
278
    -2
288
     1
 68
     0
279
    -2
289
     1
 69
     0
  0
VISUALSTYLE
  5
25
102
{ACAD_XDICTIONARY
360
11E
102
}
102
{ACAD_REACTORS
330
26
102
}
330
26
100
AcDbVisualStyle
  2
2dWireframe
 70
     4
 71
     0
 72
     2
 73
     0
 90
        0
 40
-0.6
 41
-30.0
 62
     5
 63
     7
421
 16777215
 74
     1
 91
        4
 64
     7
 65
   257
 75
     1
175
     1
 42
1.0
 92
        0
 66
   257
 43
1.0
 76
     1
 77
     6
 78
     2
 67
     7
 79
     5
170
     0
171
     0
290
     0
174
     0
 93
        1
 44
0.0
173
     0
291
     0
 45
0.0
1001
ACAD
1000
AcDbSavedByObjectVersion
1070
     0
  0
VISUALSTYLE
  5
42
102
{ACAD_XDICTIONARY
360
122
102
}
102
{ACAD_REACTORS
330
26
102
}
330
26
100
AcDbVisualStyle
  2
3dWireframe
 70
     5
 71
     0
 72
     2
 73
     0
 90
        0
 40
-0.6
 41
-30.0
 62
     5
 63
     7
421
 16777215
 74
     1
 91
        4
 64
     7
 65
   257
 75
     1
175
     1
 42
1.0
 92
        0
 66
   257
 43
1.0
 76
     1
 77
     6
 78
     2
 67
     7
 79
     5
170
     0
171
     0
290
     0
174
     0
 93
        1
 44
0.0
173
     0
291
     0
 45
0.0
1001
ACAD
1000
AcDbSavedByObjectVersion
1070
     0
  0
VISUALSTYLE
  5
41
102
{ACAD_XDICTIONARY
360
120
102
}
102
{ACAD_REACTORS
330
26
102
}
330
26
100
AcDbVisualStyle
  2
Realistic
 70
     8
 71
     2
 72
     2
 73
     0
 90
        0
 40
-0.6
 41
-30.0
 62
     5
 63
     7
421
 16777215
 74
     1
 91
        0
 64
     7
 65
   257
 75
     1
175
     1
 42
1.0
 92
        8
 66
     8
424
  7895160
 43
1.0
 76
     1
 77
     6
 78
     2
 67
     7
 79
     5
170
     0
171
     0
290
     0
174
     0
 93
       13
 44
0.0
173
     0
291
     0
 45
0.0
1001
ACAD
1000
AcDbSavedByObjectVersion
1070
     0
  0
DICTIONARYVAR
  5
110
102
{ACAD_REACTORS
330
10A
102
}
330
10A
100
DictionaryVariables
280
     0
  1
1:1
  0
DICTIONARYVAR
  5
10C
102
{ACAD_REACTORS
330
10A
102
}
330
10A
100
DictionaryVariables
280
     0
  1
STANDARD
  0
DICTIONARYVAR
  5
10B
102
{ACAD_REACTORS
330
10A
102
}
330
10A
100
DictionaryVariables
280
     0
  1
STANDARD
  0
DICTIONARYVAR
  5
10D
102
{ACAD_REACTORS
330
10A
102
}
330
10A
100
DictionaryVariables
280
     0
  1

  0
DICTIONARYVAR
  5
10E
102
{ACAD_REACTORS
330
10A
102
}
330
10A
100
DictionaryVariables
280
     0
  1

  0
DICTIONARYVAR
  5
112
102
{ACAD_REACTORS
330
10A
102
}
330
10A
100
DictionaryVariables
280
     0
  1
1
  0
DICTIONARYVAR
  5
113
102
{ACAD_REACTORS
330
10A
102
}
330
10A
100
DictionaryVariables
280
     0
  1
15
  0
DICTIONARYVAR
  5
111
102
{ACAD_REACTORS
330
10A
102
}
330
10A
100
DictionaryVariables
280
     0
  1
0
  0
DICTIONARYVAR
  5
10F
102
{ACAD_REACTORS
330
10A
102
}
330
10A
100
DictionaryVariables
280
     0
  1
0
  0
DICTIONARY
  5
11D
102
{ACAD_REACTORS
330
11B
102
}
330
11B
100
AcDbDictionary
281
     1
  0
DICTIONARY
  5
11C
102
{ACAD_REACTORS
330
11B
102
}
330
11B
100
AcDbDictionary
281
     1
  3
2130150704
350
116
  3
2130150712
350
117
  3
2130150720
350
118
  3
2130150728
350
119
  3
2130150736
350
11A
  0
DICTIONARY
  5
17
330
16
100
AcDbDictionary
280
     1
281
     1
  0
DICTIONARY
  5
40
330
3F
100
AcDbDictionary
280
     1
281
     1
  3
ACAD_ROUNDTRIP_2008_TABLESTYLE_CELLSTYLEMAP
360
114
  0
DICTIONARY
  5
11E
330
25
100
AcDbDictionary
280
     1
281
     1
  3
ACAD_XREC_ROUNDTRIP
360
11F
  0
DICTIONARY
  5
122
330
42
100
AcDbDictionary
280
     1
281
     1
  3
ACAD_XREC_ROUNDTRIP
360
123
  0
DICTIONARY
  5
120
330
41
100
AcDbDictionary
280
     1
281
     1
  3
ACAD_XREC_ROUNDTRIP
360
121
  0
XRECORD
  5
116
102
{ACAD_REACTORS
330
11C
102
}
330
11C
100
AcDbXrecord
280
     1
  1
AcDb_Thumbnail_Schema
102
{ATTRRECORD
341
117
  2
AcDbDs::TreatedAsObjectData
280
     1
291
     1
102
ATTRRECORD}
102
{ATTRRECORD
341
118
  2
AcDbDs::Legacy
280
     1
291
     1
102
ATTRRECORD}
  2
AcDbDs::ID
280
    10
 91
        8
102
{ATTRRECORD
341
119
  2
AcDs:Indexable
280
     1
291
     1
102
ATTRRECORD}
102
{ATTRRECORD
341
11A
  2
AcDbDs::HandleAttribute
280
     7
282
     1
102
ATTRRECORD}
  2
Thumbnail_Data
280
    15
 91
        0
  0
XRECORD
  5
117
102
{ACAD_REACTORS
330
11C
102
}
330
11C
100
AcDbXrecord
280
     1
  1
AcDbDs::TreatedAsObjectDataSchema
  2
AcDbDs::TreatedAsObjectData
280
     1
 91
        0
  0
XRECORD
  5
118
102
{ACAD_REACTORS
330
11C
102
}
330
11C
100
AcDbXrecord
280
     1
  1
AcDbDs::LegacySchema
  2
AcDbDs::Legacy
280
     1
 91
        0
  0
XRECORD
  5
119
102
{ACAD_REACTORS
330
11C
102
}
330
11C
100
AcDbXrecord
280
     1
  1
AcDbDs::IndexedPropertySchema
  2
AcDs:Indexable
280
     1
 91
        0
  0
XRECORD
  5
11A
102
{ACAD_REACTORS
330
11C
102
}
330
11C
100
AcDbXrecord
280
     1
  1
AcDbDs::HandleAttributeSchema
  2
AcDbDs::HandleAttribute
280
     7
 91
        1
284
     1
  0
CELLSTYLEMAP
  5
114
102
{ACAD_REACTORS
330
40
102
}
330
40
100
AcDbCellStyleMap
 90
        3
300
CELLSTYLE
  1
TABLEFORMAT_BEGIN
 90
        5
170
     1
 91
        0
 92
    32768
 62
   257
 93
        1
300
CONTENTFORMAT
  1
CONTENTFORMAT_BEGIN
 90
        0
 91
        0
 92
        4
 93
        0
300

 40
0.0
140
1.0
 94
        5
 62
     0
340
1C
144
6.0
309
CONTENTFORMAT_END
171
     1
301
MARGIN
  1
CELLMARGIN_BEGIN
 40
1.5
 40
1.5
 40
1.5
 40
1.5
 40
0.18
 40
0.18
309
CELLMARGIN_END
 94
        6
 95
        1
302
GRIDFORMAT
  1
GRIDFORMAT_BEGIN
 90
        0
 91
        1
 62
     0
 92
       -2
340
0
 93
        0
 40
0.045
309
GRIDFORMAT_END
 95
        2
302
GRIDFORMAT
  1
GRIDFORMAT_BEGIN
 90
        0
 91
        1
 62
     0
 92
       -2
340
0
 93
        0
 40
0.045
309
GRIDFORMAT_END
 95
        4
302
GRIDFORMAT
  1
GRIDFORMAT_BEGIN
 90
        0
 91
        1
 62
     0
 92
       -2
340
0
 93
        0
 40
0.045
309
GRIDFORMAT_END
 95
        8
302
GRIDFORMAT
  1
GRIDFORMAT_BEGIN
 90
        0
 91
        1
 62
     0
 92
       -2
340
0
 93
        0
 40
0.045
309
GRIDFORMAT_END
 95
       16
302
GRIDFORMAT
  1
GRIDFORMAT_BEGIN
 90
        0
 91
        1
 62
     0
 92
       -2
340
0
 93
        0
 40
0.045
309
GRIDFORMAT_END
 95
       32
302
GRIDFORMAT
  1
GRIDFORMAT_BEGIN
 90
        0
 91
        1
 62
     0
 92
       -2
340
0
 93
        0
 40
0.045
309
GRIDFORMAT_END
309
TABLEFORMAT_END
  1
CELLSTYLE_BEGIN
 90
        1
 91
        1
300
_TITLE
309
CELLSTYLE_END
300
CELLSTYLE
  1
TABLEFORMAT_BEGIN
 90
        5
170
     1
 91
        0
 92
        0
 62
   257
 93
        1
300
CONTENTFORMAT
  1
CONTENTFORMAT_BEGIN
 90
        0
 91
        0
 92
        4
 93
        0
300

 40
0.0
140
1.0
 94
        5
 62
     0
340
1C
144
4.5
309
CONTENTFORMAT_END
171
     1
301
MARGIN
  1
CELLMARGIN_BEGIN
 40
1.5
 40
1.5
 40
1.5
 40
1.5
 40
0.18
 40
0.18
309
CELLMARGIN_END
 94
        6
 95
        1
302
GRIDFORMAT
  1
GRIDFORMAT_BEGIN
 90
        0
 91
        1
 62
     0
 92
       -2
340
0
 93
        0
 40
0.045
309
GRIDFORMAT_END
 95
        2
302
GRIDFORMAT
  1
GRIDFORMAT_BEGIN
 90
        0
 91
        1
 62
     0
 92
       -2
340
0
 93
        0
 40
0.045
309
GRIDFORMAT_END
 95
        4
302
GRIDFORMAT
  1
GRIDFORMAT_BEGIN
 90
        0
 91
        1
 62
     0
 92
       -2
340
0
 93
        0
 40
0.045
309
GRIDFORMAT_END
 95
        8
302
GRIDFORMAT
  1
GRIDFORMAT_BEGIN
 90
        0
 91
        1
 62
     0
 92
       -2
340
0
 93
        0
 40
0.045
309
GRIDFORMAT_END
 95
       16
302
GRIDFORMAT
  1
GRIDFORMAT_BEGIN
 90
        0
 91
        1
 62
     0
 92
       -2
340
0
 93
        0
 40
0.045
309
GRIDFORMAT_END
 95
       32
302
GRIDFORMAT
  1
GRIDFORMAT_BEGIN
 90
        0
 91
        1
 62
     0
 92
       -2
340
0
 93
        0
 40
0.045
309
GRIDFORMAT_END
309
TABLEFORMAT_END
  1
CELLSTYLE_BEGIN
 90
        2
 91
        1
300
_HEADER
309
CELLSTYLE_END
300
CELLSTYLE
  1
TABLEFORMAT_BEGIN
 90
        5
170
     1
 91
        0
 92
        0
 62
   257
 93
        1
300
CONTENTFORMAT
  1
CONTENTFORMAT_BEGIN
 90
        0
 91
        0
 92
        4
 93
        0
300

 40
0.0
140
1.0
 94
        2
 62
     0
340
1C
144
4.5
309
CONTENTFORMAT_END
171
     1
301
MARGIN
  1
CELLMARGIN_BEGIN
 40
1.5
 40
1.5
 40
1.5
 40
1.5
 40
0.18
 40
0.18
309
CELLMARGIN_END
 94
        6
 95
        1
302
GRIDFORMAT
  1
GRIDFORMAT_BEGIN
 90
        0
 91
        1
 62
     0
 92
       -2
340
0
 93
        0
 40
0.045
309
GRIDFORMAT_END
 95
        2
302
GRIDFORMAT
  1
GRIDFORMAT_BEGIN
 90
        0
 91
        1
 62
     0
 92
       -2
340
0
 93
        0
 40
0.045
309
GRIDFORMAT_END
 95
        4
302
GRIDFORMAT
  1
GRIDFORMAT_BEGIN
 90
        0
 91
        1
 62
     0
 92
       -2
340
0
 93
        0
 40
0.045
309
GRIDFORMAT_END
 95
        8
302
GRIDFORMAT
  1
GRIDFORMAT_BEGIN
 90
        0
 91
        1
 62
     0
 92
       -2
340
0
 93
        0
 40
0.045
309
GRIDFORMAT_END
 95
       16
302
GRIDFORMAT
  1
GRIDFORMAT_BEGIN
 90
        0
 91
        1
 62
     0
 92
       -2
340
0
 93
        0
 40
0.045
309
GRIDFORMAT_END
 95
       32
302
GRIDFORMAT
  1
GRIDFORMAT_BEGIN
 90
        0
 91
        1
 62
     0
 92
       -2
340
0
 93
        0
 40
0.045
309
GRIDFORMAT_END
309
TABLEFORMAT_END
  1
CELLSTYLE_BEGIN
 90
        3
 91
        2
300
_DATA
309
CELLSTYLE_END
  0
XRECORD
  5
11F
102
{ACAD_REACTORS
330
11E
102
}
330
11E
100
AcDbXrecord
280
     1
102
RTVSPost2010Prop28
280
     1
102
RTVSPost2010PropOp28
 70
     1
102
RTVSPost2010Prop29
280
     1
102
RTVSPost2010PropOp29
 70
     1
102
RTVSPost2010Prop30
280
     0
102
RTVSPost2010PropOp30
 70
     1
102
RTVSPost2010Prop31
280
     0
102
RTVSPost2010PropOp31
 70
     1
102
RTVSPost2010Prop32
280
     0
102
RTVSPost2010PropOp32
 70
     1
102
RTVSPost2010Prop33
280
     0
102
RTVSPost2010PropOp33
 70
     1
102
RTVSPost2010Prop34
280
     0
102
RTVSPost2010PropOp34
 70
     1
102
RTVSPost2010Prop35
280
     0
102
RTVSPost2010PropOp35
 70
     1
102
RTVSPost2010Prop36
280
     0
102
RTVSPost2010PropOp36
 70
     1
102
RTVSPost2010Prop37
 90
       50
102
RTVSPost2010PropOp37
 70
     1
102
RTVSPost2010Prop38
140
0.0
102
RTVSPost2010PropOp38
 70
     1
102
RTVSPost2010Prop39
140
1.0
102
RTVSPost2010PropOp39
 70
     1
102
RTVSPost2010Prop40
 90
        0
102
RTVSPost2010PropOp40
 70
     1
102
RTVSPost2010Prop41ColorIndex
 90
       18
102
RTVSPost2010Prop41ColorRGB
 90
        0
102
RTVSPost2010PropOp41
 70
     1
102
RTVSPost2010Prop42
 90
       50
102
RTVSPost2010PropOp42
 70
     1
102
RTVSPost2010Prop43
 90
        3
102
RTVSPost2010PropOp43
 70
     1
102
RTVSPost2010Prop44ColorIndex
 90
        5
102
RTVSPost2010Prop44ColorRGB
 90
      255
102
RTVSPost2010PropOp44
 70
     1
102
RTVSPost2010Prop45
280
     0
102
RTVSPost2010PropOp45
 70
     1
102
RTVSPost2010Prop46
 90
       50
102
RTVSPost2010PropOp46
 70
     1
102
RTVSPost2010Prop47
 90
       50
102
RTVSPost2010PropOp47
 70
     1
102
RTVSPost2010Prop48
 90
       50
102
RTVSPost2010PropOp48
 70
     1
102
RTVSPost2010Prop49
280
     0
102
RTVSPost2010PropOp49
 70
     1
102
RTVSPost2010Prop50
 90
       50
102
RTVSPost2010PropOp50
 70
     1
102
RTVSPost2010Prop51ColorIndex
 90
      256
102
RTVSPost2010Prop51ColorRGB
 90
-16777216
102
RTVSPost2010PropOp51
 70
     0
102
RTVSPost2010Prop52
140
1.0
102
RTVSPost2010PropOp52
 70
     0
102
RTVSPost2010Prop53
 90
        2
102
RTVSPost2010PropOp53
 70
     1
102
RTVSPost2010Prop54
  1
strokes_ogs.tif
102
RTVSPost2010PropOp54
 70
     1
102
RTVSPost2010Prop55
280
     0
102
RTVSPost2010PropOp55
 70
     1
102
RTVSPost2010Prop56
140
1.0
102
RTVSPost2010PropOp56
 70
     1
102
RTVSPost2010Prop57
140
1.0
102
RTVSPost2010PropOp57
 70
     1
102
RTVSPropertyOp0
 70
     1
102
RTVSPropertyOp1
 70
     1
102
RTVSPropertyOp2
 70
     1
102
RTVSPropertyOp3
 70
     1
102
RTVSPropertyOp4
 70
     1
102
RTVSPropertyOp5
 70
     1
102
RTVSPropertyOp6
 70
     1
102
RTVSPropertyOp7
 70
     1
102
RTVSPropertyOp8
 70
     1
102
RTVSPropertyOp9
 70
     1
102
RTVSPropertyOp10
 70
     1
102
RTVSPropertyOp11
 70
     1
102
RTVSPropertyOp12
 70
     1
102
RTVSPropertyOp13
 70
     1
102
RTVSPropertyOp14
 70
     1
102
RTVSPropertyOp15
 70
     1
102
RTVSPropertyOp16
 70
     1
102
RTVSPropertyOp17
 70
     1
102
RTVSPropertyOp18
 70
     1
102
RTVSPropertyOp19
 70
     1
102
RTVSPropertyOp20
 70
     1
102
RTVSPropertyOp21
 70
     1
102
RTVSPropertyOp22
 70
     1
102
RTVSPropertyOp23
 70
     1
102
RTVSPropertyOp24
 70
     1
102
RTVSPropertyOp25
 70
     1
102
RTVSPropertyOp26
 70
     1
102
RTVSPropertyOp27
 70
     1
102
RTVSPropertyOp28
 70
     1
102
RTVSPropertyOp29
 70
     1
102
RTVSPropertyOp30
 70
     1
102
RTVSPropertyOp31
 70
     1
102
RTVSPropertyOp32
 70
     1
102
RTVSPropertyOp33
 70
     1
102
RTVSPropertyOp34
 70
     1
102
RTVSPropertyOp35
 70
     1
102
RTVSPropertyOp36
 70
     1
102
RTVSPropertyOp37
 70
     1
102
RTVSPropertyOp38
 70
     1
102
RTVSPropertyOp39
 70
     1
102
RTVSPropertyOp40
 70
     1
102
RTVSPropertyOp41
 70
     1
102
RTVSPropertyOp42
 70
     1
102
RTVSPropertyOp43
 70
     1
102
RTVSPropertyOp44
 70
     1
102
RTVSPropertyOp45
 70
     1
102
RTVSPropertyOp46
 70
     1
102
RTVSPropertyOp47
 70
     1
102
RTVSPropertyOp48
 70
     1
102
RTVSPropertyOp49
 70
     1
102
RTVSPropertyOp50
 70
     1
102
RTVSPropertyOp51
 70
     0
102
RTVSPropertyOp52
 70
     0
102
RTVSPropertyOp53
 70
     1
102
RTVSPropertyOp54
 70
     1
102
RTVSPropertyOp55
 70
     1
102
RTVSPropertyOp56
 70
     1
102
RTVSPropertyOp57
 70
     1
102
RTVSPropertyOp58
 70
     1
102
RTVSPropertyOp59
 70
     1
102
RTVSPropertyOp60
 70
     1
102
RTVSPropertyOp61
 70
     1
102
RTVSPropertyOp62
 70
     1
  0
XRECORD
  5
123
102
{ACAD_REACTORS
330
122
102
}
330
122
100
AcDbXrecord
280
     1
102
RTVSPost2010Prop28
280
     0
102
RTVSPost2010PropOp28
 70
     1
102
RTVSPost2010Prop29
280
     1
102
RTVSPost2010PropOp29
 70
     1
102
RTVSPost2010Prop30
280
     1
102
RTVSPost2010PropOp30
 70
     1
102
RTVSPost2010Prop31
280
     0
102
RTVSPost2010PropOp31
 70
     1
102
RTVSPost2010Prop32
280
     0
102
RTVSPost2010PropOp32
 70
     1
102
RTVSPost2010Prop33
280
     0
102
RTVSPost2010PropOp33
 70
     1
102
RTVSPost2010Prop34
280
     0
102
RTVSPost2010PropOp34
 70
     1
102
RTVSPost2010Prop35
280
     0
102
RTVSPost2010PropOp35
 70
     1
102
RTVSPost2010Prop36
280
     0
102
RTVSPost2010PropOp36
 70
     1
102
RTVSPost2010Prop37
 90
       50
102
RTVSPost2010PropOp37
 70
     1
102
RTVSPost2010Prop38
140
0.0
102
RTVSPost2010PropOp38
 70
     1
102
RTVSPost2010Prop39
140
1.0
102
RTVSPost2010PropOp39
 70
     1
102
RTVSPost2010Prop40
 90
        0
102
RTVSPost2010PropOp40
 70
     1
102
RTVSPost2010Prop41ColorIndex
 90
       18
102
RTVSPost2010Prop41ColorRGB
 90
        0
102
RTVSPost2010PropOp41
 70
     1
102
RTVSPost2010Prop42
 90
       50
102
RTVSPost2010PropOp42
 70
     1
102
RTVSPost2010Prop43
 90
        3
102
RTVSPost2010PropOp43
 70
     1
102
RTVSPost2010Prop44ColorIndex
 90
        5
102
RTVSPost2010Prop44ColorRGB
 90
      255
102
RTVSPost2010PropOp44
 70
     1
102
RTVSPost2010Prop45
280
     0
102
RTVSPost2010PropOp45
 70
     1
102
RTVSPost2010Prop46
 90
       50
102
RTVSPost2010PropOp46
 70
     1
102
RTVSPost2010Prop47
 90
       50
102
RTVSPost2010PropOp47
 70
     1
102
RTVSPost2010Prop48
 90
       50
102
RTVSPost2010PropOp48
 70
     1
102
RTVSPost2010Prop49
280
     0
102
RTVSPost2010PropOp49
 70
     1
102
RTVSPost2010Prop50
 90
       50
102
RTVSPost2010PropOp50
 70
     1
102
RTVSPost2010Prop51ColorIndex
 90
      256
102
RTVSPost2010Prop51ColorRGB
 90
-16777216
102
RTVSPost2010PropOp51
 70
     0
102
RTVSPost2010Prop52
140
1.0
102
RTVSPost2010PropOp52
 70
     0
102
RTVSPost2010Prop53
 90
        2
102
RTVSPost2010PropOp53
 70
     1
102
RTVSPost2010Prop54
  1
strokes_ogs.tif
102
RTVSPost2010PropOp54
 70
     1
102
RTVSPost2010Prop55
280
     0
102
RTVSPost2010PropOp55
 70
     1
102
RTVSPost2010Prop56
140
1.0
102
RTVSPost2010PropOp56
 70
     1
102
RTVSPost2010Prop57
140
1.0
102
RTVSPost2010PropOp57
 70
     1
102
RTVSPropertyOp0
 70
     1
102
RTVSPropertyOp1
 70
     1
102
RTVSPropertyOp2
 70
     1
102
RTVSPropertyOp3
 70
     1
102
RTVSPropertyOp4
 70
     1
102
RTVSPropertyOp5
 70
     1
102
RTVSPropertyOp6
 70
     1
102
RTVSPropertyOp7
 70
     1
102
RTVSPropertyOp8
 70
     1
102
RTVSPropertyOp9
 70
     1
102
RTVSPropertyOp10
 70
     1
102
RTVSPropertyOp11
 70
     1
102
RTVSPropertyOp12
 70
     1
102
RTVSPropertyOp13
 70
     1
102
RTVSPropertyOp14
 70
     1
102
RTVSPropertyOp15
 70
     1
102
RTVSPropertyOp16
 70
     1
102
RTVSPropertyOp17
 70
     1
102
RTVSPropertyOp18
 70
     1
102
RTVSPropertyOp19
 70
     1
102
RTVSPropertyOp20
 70
     1
102
RTVSPropertyOp21
 70
     1
102
RTVSPropertyOp22
 70
     1
102
RTVSPropertyOp23
 70
     1
102
RTVSPropertyOp24
 70
     1
102
RTVSPropertyOp25
 70
     1
102
RTVSPropertyOp26
 70
     1
102
RTVSPropertyOp27
 70
     1
102
RTVSPropertyOp28
 70
     1
102
RTVSPropertyOp29
 70
     1
102
RTVSPropertyOp30
 70
     1
102
RTVSPropertyOp31
 70
     1
102
RTVSPropertyOp32
 70
     1
102
RTVSPropertyOp33
 70
     1
102
RTVSPropertyOp34
 70
     1
102
RTVSPropertyOp35
 70
     1
102
RTVSPropertyOp36
 70
     1
102
RTVSPropertyOp37
 70
     1
102
RTVSPropertyOp38
 70
     1
102
RTVSPropertyOp39
 70
     1
102
RTVSPropertyOp40
 70
     1
102
RTVSPropertyOp41
 70
     1
102
RTVSPropertyOp42
 70
     1
102
RTVSPropertyOp43
 70
     1
102
RTVSPropertyOp44
 70
     1
102
RTVSPropertyOp45
 70
     1
102
RTVSPropertyOp46
 70
     1
102
RTVSPropertyOp47
 70
     1
102
RTVSPropertyOp48
 70
     1
102
RTVSPropertyOp49
 70
     1
102
RTVSPropertyOp50
 70
     1
102
RTVSPropertyOp51
 70
     0
102
RTVSPropertyOp52
 70
     0
102
RTVSPropertyOp53
 70
     1
102
RTVSPropertyOp54
 70
     1
102
RTVSPropertyOp55
 70
     1
102
RTVSPropertyOp56
 70
     1
102
RTVSPropertyOp57
 70
     1
102
RTVSPropertyOp58
 70
     1
102
RTVSPropertyOp59
 70
     1
102
RTVSPropertyOp60
 70
     1
102
RTVSPropertyOp61
 70
     1
102
RTVSPropertyOp62
 70
     1
  0
XRECORD
  5
121
102
{ACAD_REACTORS
330
120
102
}
330
120
100
AcDbXrecord
280
     1
102
RTVSPost2010Prop28
280
     0
102
RTVSPost2010PropOp28
 70
     1
102
RTVSPost2010Prop29
280
     1
102
RTVSPost2010PropOp29
 70
     1
102
RTVSPost2010Prop30
280
     1
102
RTVSPost2010PropOp30
 70
     1
102
RTVSPost2010Prop31
280
     0
102
RTVSPost2010PropOp31
 70
     1
102
RTVSPost2010Prop32
280
     0
102
RTVSPost2010PropOp32
 70
     1
102
RTVSPost2010Prop33
280
     0
102
RTVSPost2010PropOp33
 70
     1
102
RTVSPost2010Prop34
280
     0
102
RTVSPost2010PropOp34
 70
     1
102
RTVSPost2010Prop35
280
     0
102
RTVSPost2010PropOp35
 70
     1
102
RTVSPost2010Prop36
280
     0
102
RTVSPost2010PropOp36
 70
     1
102
RTVSPost2010Prop37
 90
       50
102
RTVSPost2010PropOp37
 70
     1
102
RTVSPost2010Prop38
140
0.0
102
RTVSPost2010PropOp38
 70
     1
102
RTVSPost2010Prop39
140
1.0
102
RTVSPost2010PropOp39
 70
     1
102
RTVSPost2010Prop40
 90
        0
102
RTVSPost2010PropOp40
 70
     1
102
RTVSPost2010Prop41ColorIndex
 90
       18
102
RTVSPost2010Prop41ColorRGB
 90
        0
102
RTVSPost2010PropOp41
 70
     1
102
RTVSPost2010Prop42
 90
       50
102
RTVSPost2010PropOp42
 70
     1
102
RTVSPost2010Prop43
 90
        3
102
RTVSPost2010PropOp43
 70
     1
102
RTVSPost2010Prop44ColorIndex
 90
        5
102
RTVSPost2010Prop44ColorRGB
 90
      255
102
RTVSPost2010PropOp44
 70
     1
102
RTVSPost2010Prop45
280
     0
102
RTVSPost2010PropOp45
 70
     1
102
RTVSPost2010Prop46
 90
       50
102
RTVSPost2010PropOp46
 70
     1
102
RTVSPost2010Prop47
 90
       50
102
RTVSPost2010PropOp47
 70
     1
102
RTVSPost2010Prop48
 90
       50
102
RTVSPost2010PropOp48
 70
     1
102
RTVSPost2010Prop49
280
     0
102
RTVSPost2010PropOp49
 70
     1
102
RTVSPost2010Prop50
 90
       50
102
RTVSPost2010PropOp50
 70
     1
102
RTVSPost2010Prop51ColorIndex
 90
      256
102
RTVSPost2010Prop51ColorRGB
 90
-16777216
102
RTVSPost2010PropOp51
 70
     0
102
RTVSPost2010Prop52
140
1.0
102
RTVSPost2010PropOp52
 70
     0
102
RTVSPost2010Prop53
 90
        2
102
RTVSPost2010PropOp53
 70
     1
102
RTVSPost2010Prop54
  1
strokes_ogs.tif
102
RTVSPost2010PropOp54
 70
     1
102
RTVSPost2010Prop55
280
     0
102
RTVSPost2010PropOp55
 70
     1
102
RTVSPost2010Prop56
140
1.0
102
RTVSPost2010PropOp56
 70
     1
102
RTVSPost2010Prop57
140
1.0
102
RTVSPost2010PropOp57
 70
     1
102
RTVSPropertyOp0
 70
     1
102
RTVSPropertyOp1
 70
     1
102
RTVSPropertyOp2
 70
     1
102
RTVSPropertyOp3
 70
     1
102
RTVSPropertyOp4
 70
     1
102
RTVSPropertyOp5
 70
     1
102
RTVSPropertyOp6
 70
     1
102
RTVSPropertyOp7
 70
     1
102
RTVSPropertyOp8
 70
     1
102
RTVSPropertyOp9
 70
     1
102
RTVSPropertyOp10
 70
     1
102
RTVSPropertyOp11
 70
     1
102
RTVSPropertyOp12
 70
     1
102
RTVSPropertyOp13
 70
     1
102
RTVSPropertyOp14
 70
     1
102
RTVSPropertyOp15
 70
     1
102
RTVSPropertyOp16
 70
     1
102
RTVSPropertyOp17
 70
     1
102
RTVSPropertyOp18
 70
     1
102
RTVSPropertyOp19
 70
     1
102
RTVSPropertyOp20
 70
     1
102
RTVSPropertyOp21
 70
     1
102
RTVSPropertyOp22
 70
     1
102
RTVSPropertyOp23
 70
     1
102
RTVSPropertyOp24
 70
     1
102
RTVSPropertyOp25
 70
     1
102
RTVSPropertyOp26
 70
     1
102
RTVSPropertyOp27
 70
     1
102
RTVSPropertyOp28
 70
     1
102
RTVSPropertyOp29
 70
     1
102
RTVSPropertyOp30
 70
     1
102
RTVSPropertyOp31
 70
     1
102
RTVSPropertyOp32
 70
     1
102
RTVSPropertyOp33
 70
     1
102
RTVSPropertyOp34
 70
     1
102
RTVSPropertyOp35
 70
     1
102
RTVSPropertyOp36
 70
     1
102
RTVSPropertyOp37
 70
     1
102
RTVSPropertyOp38
 70
     1
102
RTVSPropertyOp39
 70
     1
102
RTVSPropertyOp40
 70
     1
102
RTVSPropertyOp41
 70
     1
102
RTVSPropertyOp42
 70
     1
102
RTVSPropertyOp43
 70
     1
102
RTVSPropertyOp44
 70
     1
102
RTVSPropertyOp45
 70
     1
102
RTVSPropertyOp46
 70
     1
102
RTVSPropertyOp47
 70
     1
102
RTVSPropertyOp48
 70
     1
102
RTVSPropertyOp49
 70
     1
102
RTVSPropertyOp50
 70
     1
102
RTVSPropertyOp51
 70
     0
102
RTVSPropertyOp52
 70
     0
102
RTVSPropertyOp53
 70
     1
102
RTVSPropertyOp54
 70
     1
102
RTVSPropertyOp55
 70
     1
102
RTVSPropertyOp56
 70
     1
102
RTVSPropertyOp57
 70
     1
102
RTVSPropertyOp58
 70
     1
102
RTVSPropertyOp59
 70
     1
102
RTVSPropertyOp60
 70
     1
102
RTVSPropertyOp61
 70
     1
102
RTVSPropertyOp62
 70
     1
  0
ENDSEC
  0
EOF
