  0
SECTION
  2
HEADER
  9
$ACADVER
  1
AC1009
  9
$INSBASE
 10
38.163526022609261
 20
444.14249232610922
 30
0.0
  9
$EXTMIN
 10
-58.075850488855743
 20
-8.7618752023164603
 30
0.0
  9
$EXTMAX
 10
69.5
 20
78.938124797683457
 30
0.0
  9
$LIMMIN
 10
0.0
 20
0.0
  9
$LIMMAX
 10
998.0
 20
710.0
  9
$ORTHOMODE
 70
     1
  9
$REGENMODE
 70
     1
  9
$FILLMODE
 70
     1
  9
$QTEXTMODE
 70
     0
  9
$MIRRTEXT
 70
     1
  9
$DRAGMODE
 70
     2
  9
$LTSCALE
 40
7.0
  9
$OSMODE
 70
   167
  9
$ATTMODE
 70
     1
  9
$TEXTSIZE
 40
6.0
  9
$TRACEWID
 40
0.05
  9
$TEXTSTYLE
  7
ISO
  9
$CLAYER
  8
0
  9
$CELTYPE
  6
BYLAYER
  9
$CECOLOR
 62
   256
  9
$DIMSCALE
 40
0.0
  9
$DIMASZ
 40
3.0
  9
$DIMEXO
 40
1.5
  9
$DIMDLI
 40
10.0
  9
$DIMRND
 40
0.0
  9
$DIMDLE
 40
0.0
  9
$DIMEXE
 40
1.5
  9
$DIMTP
 40
0.0
  9
$DIMTM
 40
0.0
  9
$DIMTXT
 40
3.0
  9
$DIMCEN
 40
-5.0
  9
$DIMTSZ
 40
0.0
  9
$DIMTOL
 70
     0
  9
$DIMLIM
 70
     0
  9
$DIMTIH
 70
     0
  9
$DIMTOH
 70
     1
  9
$DIMSE1
 70
     0
  9
$DIMSE2
 70
     0
  9
$DIMTAD
 70
     1
  9
$DIMZIN
 70
     8
  9
$DIMBLK
  1

  9
$DIMASO
 70
     1
  9
$DIMSHO
 70
     1
  9
$DIMPOST
  1

  9
$DIMAPOST
  1

  9
$DIMALT
 70
     0
  9
$DIMALTD
 70
     0
  9
$DIMALTF
 40
25.399999999999999
  9
$DIMLFAC
 40
-1.0
  9
$DIMTOFL
 70
     1
  9
$DIMTVP
 40
0.0
  9
$DIMTIX
 70
     0
  9
$DIMSOXD
 70
     0
  9
$DIMSAH
 70
     0
  9
$DIMBLK1
  1

  9
$DIMBLK2
  1

  9
$DIMSTYLE
  2
MASKIN
  9
$DIMCLRD
 70
   256
  9
$DIMCLRE
 70
   256
  9
$DIMCLRT
 70
     2
  9
$DIMTFAC
 40
1.0
  9
$DIMGAP
 40
1.0
  9
$LUNITS
 70
     2
  9
$LUPREC
 70
     2
  9
$SKETCHINC
 40
0.1
  9
$FILLETRAD
 40
0.0
  9
$AUNITS
 70
     0
  9
$AUPREC
 70
     2
  9
$MENU
  1
ACAD
  9
$ELEVATION
 40
0.0
  9
$PELEVATION
 40
0.0
  9
$THICKNESS
 40
0.0
  9
$LIMCHECK
 70
     0
  9
$BLIPMODE
 70
     0
  9
$CHAMFERA
 40
0.0
  9
$CHAMFERB
 40
0.0
  9
$SKPOLY
 70
     0
  9
$TDCREATE
 40
2450345.6217337959
  9
$TDUPDATE
 40
2454966.6490071989
  9
$TDINDWG
 40
0.373596956
  9
$TDUSRTIMER
 40
0.373596956
  9
$USRTIMER
 70
     1
  9
$ANGBASE
 50
0.0
  9
$ANGDIR
 70
     0
  9
$PDMODE
 70
     3
  9
$PDSIZE
 40
0.0
  9
$PLINEWID
 40
0.0
  9
$COORDS
 70
     1
  9
$SPLFRAME
 70
     0
  9
$SPLINETYPE
 70
     6
  9
$SPLINESEGS
 70
     8
  9
$ATTDIA
 70
     0
  9
$ATTREQ
 70
     1
  9
$HANDLING
 70
     1
  9
$HANDSEED
  5
B09
  9
$SURFTAB1
 70
     6
  9
$SURFTAB2
 70
     6
  9
$SURFTYPE
 70
     6
  9
$SURFU
 70
     6
  9
$SURFV
 70
     6
  9
$UCSNAME
  2

  9
$UCSORG
 10
0.0
 20
0.0
 30
0.0
  9
$UCSXDIR
 10
1.0
 20
0.0
 30
0.0
  9
$UCSYDIR
 10
0.0
 20
1.0
 30
0.0
  9
$PUCSNAME
  2

  9
$PUCSORG
 10
0.0
 20
0.0
 30
0.0
  9
$PUCSXDIR
 10
1.0
 20
0.0
 30
0.0
  9
$PUCSYDIR
 10
0.0
 20
1.0
 30
0.0
  9
$USERI1
 70
     0
  9
$USERI2
 70
     0
  9
$USERI3
 70
     0
  9
$USERI4
 70
     0
  9
$USERI5
 70
     0
  9
$USERR1
 40
0.0
  9
$USERR2
 40
0.0
  9
$USERR3
 40
0.0
  9
$USERR4
 40
0.0
  9
$USERR5
 40
0.0
  9
$WORLDVIEW
 70
     1
  9
$SHADEDGE
 70
     1
  9
$SHADEDIF
 70
    70
  9
$TILEMODE
 70
     1
  9
$MAXACTVP
 70
    16
  9
$PLIMCHECK
 70
     0
  9
$PEXTMIN
 10
1.0000000000000000E+020
 20
1.0000000000000000E+020
 30
1.0000000000000000E+020
  9
$PEXTMAX
 10
-1.0000000000000000E+020
 20
-1.0000000000000000E+020
 30
-1.0000000000000000E+020
  9
$PLIMMIN
 10
-0.1666668268639272
 20
-0.166666657905879
  9
$PLIMMAX
 10
10.833332932840181
 20
8.3333331017982317
  9
$UNITMODE
 70
     0
  9
$VISRETAIN
 70
     1
  9
$PLINEGEN
 70
     0
  9
$PSLTSCALE
 70
     1
  0
ENDSEC
  0
SECTION
  2
TABLES
  0
TABLE
  2
VPORT
 70
     1
  0
VPORT
  2
*ACTIVE
 70
     0
 10
0.0
 20
0.0
 11
1.0
 21
1.0
 12
70.821760415516906
 22
26.617509789583519
 13
0.0
 23
0.0
 14
5.0
 24
5.0
 15
10.0
 25
10.0
 16
0.0
 26
0.0
 36
1.0
 17
0.0
 27
0.0
 37
0.0
 40
166.16344144796159
 41
2.362776025236593
 42
50.0
 43
0.0
 44
0.0
 50
0.0
 51
0.0
 71
     0
 72
   100
 73
     1
 74
     0
 75
     0
 76
     0
 77
     0
 78
     2
  0
ENDTAB
  0
TABLE
  2
LTYPE
 70
     2
  0
LTYPE
  2
CONTINUOUS
 70
     0
  3
Solid line
 72
    65
 73
     0
 40
0.0
  0
LTYPE
  2
BYGG-014554$0$NEWDOT
 70
     0
  3
____ . ____ . ____ . ____ . ____ . ____ . ____
 72
    65
 73
     4
 40
2.0
 49
1.0
 49
-0.5
 49
0.0
 49
-0.5
  0
ENDTAB
  0
TABLE
  2
LAYER
 70
    27
  0
LAYER
  2
0
 70
     0
 62
     7
  6
CONTINUOUS
  0
LAYER
  2
SAPA_ANSLUTNING
 70
     0
 62
     6
  6
CONTINUOUS
  0
LAYER
  2
SAPA_PROFIL
 70
     0
 62
     7
  6
CONTINUOUS
  0
ENDTAB
  0
TABLE
  2
STYLE
 70
     6
  0
STYLE
  2
STANDARD
 70
     0
 40
0.0
 41
1.0
 50
0.0
 71
     0
 42
0.2
  3
txt
  4

  0
STYLE
  2
ISO
 70
     0
 40
0.0
 41
1.0
 50
0.0
 71
     0
 42
6.0
  3
isocp3.shx
  4

  0
STYLE
  2
BYGG-023642$0$STANDARD
 70
     0
 40
0.0
 41
1.0
 50
0.0
 71
     0
 42
0.2
  3
txt
  4

  0
STYLE
  2
BYGG-023642$0$ISO
 70
     0
 40
0.0
 41
1.0
 50
0.0
 71
     0
 42
3.5
  3
txt
  4

  0
STYLE
  2
BYGG-014554$0$STANDARD
 70
     0
 40
0.0
 41
1.0
 50
0.0
 71
     0
 42
0.2
  3
txt
  4

  0
STYLE
  2
BYGG-014554$0$ISO
 70
     0
 40
0.0
 41
1.0
 50
0.0
 71
     0
 42
2.5
  3
isocp3.shx
  4

  0
ENDTAB
  0
TABLE
  2
VIEW
 70
     0
  0
ENDTAB
  0
TABLE
  2
UCS
 70
     0
  0
ENDTAB
  0
TABLE
  2
APPID
 70
    18
  0
APPID
  2
ACAD
 70
     0
  0
APPID
  2
ACAD_PSEXT
 70
     0
  0
APPID
  2
ACAECLAYERSTANDARD
 70
     0
  0
APPID
  2
ACAD_MLEADERVER
 70
     0
  0
APPID
  2
ACAD_DSTYLE_DIMTEXT_FILL
 70
     0
  0
APPID
  2
ACAD_DSTYLE_DIMEXT_LENGTH
 70
     0
  0
APPID
  2
ACAD_DSTYLE_DIMEXT_ENABLED
 70
     0
  0
APPID
  2
ACAD_DSTYLE_DIM_LINETYPE
 70
     0
  0
APPID
  2
ACAD_DSTYLE_DIM_EXT1_LINETYPE
 70
     0
  0
APPID
  2
ACAD_DSTYLE_DIM_EXT2_LINETYPE
 70
     0
  0
APPID
  2
ACAD_DSTYLE_DIMJOGGED_JOGA
 70
     0
  0
APPID
  2
ACAD_DSTYLE_DIMARC_LENGTH_
 70
     0
  0
APPID
  2
AMG_ARCHIVE11
 70
     0
  0
APPID
  2
ACAD_EXEMPT_FROM_CAD_STANDARDS
 70
     0
  0
APPID
  2
ACDBBLOCKREPETAG
 70
     0
  0
APPID
  2
ACAD_DSTYLE_DIMJAG
 70
     0
  0
APPID
  2
ACAD_DSTYLE_DIMTALN
 70
     0
  0
APPID
  2
ACADANNOTATIVE
 70
     0
  0
ENDTAB
  0
TABLE
  2
DIMSTYLE
 70
     4
  0
DIMSTYLE
  2
MASKIN
 70
     0
  3

  4

  5

  6

  7

 40
0.0
 41
3.0
 42
1.5
 43
10.0
 44
1.5
 45
0.0
 46
0.0
 47
0.0
 48
0.0
140
3.0
141
-5.0
142
0.0
143
25.399999999999999
144
-1.0
145
0.0
146
1.0
147
1.0
 71
     0
 72
     0
 73
     0
 74
     1
 75
     0
 76
     0
 77
     1
 78
     8
170
     0
171
     0
172
     1
173
     0
174
     0
175
     0
176
   256
177
   256
178
     2
  0
DIMSTYLE
  2
BYGG-023642$0$MASKIN
 70
     0
  3

  4

  5

  6

  7

 40
0.0
 41
3.0
 42
1.5
 43
10.0
 44
1.5
 45
0.0
 46
0.0
 47
0.0
 48
0.0
140
3.0
141
-5.0
142
0.0
143
25.399999999999999
144
-1.0
145
0.0
146
1.0
147
1.0
 71
     0
 72
     0
 73
     0
 74
     0
 75
     0
 76
     0
 77
     1
 78
     8
170
     0
171
     0
172
     1
173
     0
174
     0
175
     0
176
   256
177
   256
178
     2
  0
DIMSTYLE
  2
BYGG-014554$0$STANDARD
 70
     0
  3

  4

  5

  6

  7

 40
1.0
 41
0.18
 42
0.0625
 43
0.38
 44
0.18
 45
0.0
 46
0.0
 47
0.0
 48
0.0
140
0.18
141
0.09
142
0.0
143
25.399999999999999
144
1.0
145
0.0
146
1.0
147
0.09
 71
     0
 72
     0
 73
     1
 74
     1
 75
     0
 76
     0
 77
     0
 78
     0
170
     0
171
     2
172
     0
173
     0
174
     0
175
     0
176
     0
177
     0
178
     0
  0
DIMSTYLE
  2
BYGG-014554$0$MASKIN
 70
     0
  3

  4

  5

  6

  7

 40
0.0
 41
3.0
 42
1.5
 43
10.0
 44
1.5
 45
0.0
 46
0.0
 47
0.0
 48
0.0
140
3.0
141
-5.0
142
0.0
143
25.399999999999999
144
-1.0
145
0.0
146
1.0
147
1.0
 71
     0
 72
     0
 73
     0
 74
     1
 75
     0
 76
     0
 77
     1
 78
     8
170
     0
171
     0
172
     1
173
     0
174
     0
175
     0
176
   256
177
   256
178
     2
  0
ENDTAB
  0
ENDSEC
  0
SECTION
  2
BLOCKS
  0
BLOCK
  8
0
  2
$MODEL_SPACE
 70
     0
 10
0.0
 20
0.0
 30
0.0
  3
$MODEL_SPACE
  1

  0
ENDBLK
  5
D
  8
0
  0
BLOCK
 67
     1
  8
0
  2
$PAPER_SPACE
 70
     0
 10
0.0
 20
0.0
 30
0.0
  3
$PAPER_SPACE
  1

  0
ENDBLK
  5
12
 67
     1
  8
0
  0
BLOCK
  8
0
  2
*X7
 70
     1
 10
0.0
 20
0.0
 30
0.0
  3
*X7
  1

  0
LINE
  5
95F
  8
0
 62
     0
 10
-21.906337941085461
 20
-8.4359537594817233
 30
0.0
 11
-19.999999999999929
 21
-6.5296158183961959
 31
0.0
  0
LINE
  5
960
  8
0
 62
     0
 10
-26.396466001620031
 20
-8.4359537594817233
 30
0.0
 11
-19.999999999999929
 21
-2.0394877578616191
 31
0.0
  0
LINE
  5
961
  8
0
 62
     0
 10
-30.886594062154611
 20
-8.4359537594817215
 30
0.0
 11
-19.999999999999929
 21
2.4506403026729551
 31
0.0
  0
LINE
  5
962
  8
0
 62
     0
 10
-35.376722122689188
 20
-8.4359537594817233
 30
0.0
 11
-19.999999999999929
 21
6.940768363207531
 31
0.0
  0
LINE
  5
963
  8
0
 62
     0
 10
-39.866850183223761
 20
-8.4359537594817162
 30
0.0
 11
-19.999999999999929
 21
11.4308964237421
 31
0.0
  0
LINE
  5
964
  8
0
 62
     0
 10
-44.356978243758327
 20
-8.4359537594817162
 30
0.0
 11
-19.999999999999929
 21
15.92102448427668
 31
0.0
  0
LINE
  5
965
  8
0
 62
     0
 10
-48.847106304292907
 20
-8.4359537594817198
 30
0.0
 11
-19.999999999999918
 21
20.411152544811259
 31
0.0
  0
LINE
  5
966
  8
0
 62
     0
 10
-53.337234364827488
 20
-8.4359537594817198
 30
0.0
 11
-19.999999999999929
 21
24.901280605345828
 31
0.0
  0
LINE
  5
967
  8
0
 62
     0
 10
-57.827362425362061
 20
-8.4359537594817198
 30
0.0
 11
-19.999999999999929
 21
29.391408665880409
 31
0.0
  0
LINE
  5
968
  8
0
 62
     0
 10
-58.075850488855721
 20
-4.1943137624408058
 30
0.0
 11
-19.999999999999929
 21
33.881536726414993
 31
0.0
  0
LINE
  5
969
  8
0
 62
     0
 10
-58.075850488855728
 20
0.2958142980937666
 30
0.0
 11
-19.999999999999929
 21
38.371664786949573
 31
0.0
  0
LINE
  5
96A
  8
0
 62
     0
 10
-58.075850488855728
 20
4.7859423586283434
 30
0.0
 11
-19.999999999999929
 21
42.861792847484132
 31
0.0
  0
LINE
  5
96B
  8
0
 62
     0
 10
-58.075850488855743
 20
9.2760704191629202
 30
0.0
 11
-19.999999999999929
 21
47.35192090801872
 31
0.0
  0
LINE
  5
96C
  8
0
 62
     0
 10
-58.075850488855721
 20
13.766198479697501
 30
0.0
 11
-19.999999999999929
 21
51.842048968553279
 31
0.0
  0
LINE
  5
96D
  8
0
 62
     0
 10
-58.075850488855721
 20
18.25632654023207
 30
0.0
 11
-19.999999999999918
 21
56.332177029087873
 31
0.0
  0
LINE
  5
96E
  8
0
 62
     0
 10
-58.075850488855721
 20
22.746454600766651
 30
0.0
 11
-19.999999999999918
 21
60.822305089622432
 31
0.0
  0
LINE
  5
96F
  8
0
 62
     0
 10
-58.075850488855728
 20
27.236582661301231
 30
0.0
 11
-19.999999999999929
 21
65.31243315015702
 31
0.0
  0
LINE
  5
970
  8
0
 62
     0
 10
-58.075850488855728
 20
31.726710721835811
 30
0.0
 11
-19.999999999999929
 21
69.802561210691593
 31
0.0
  0
LINE
  5
971
  8
0
 62
     0
 10
-58.075850488855728
 20
36.216838782370381
 30
0.0
 11
-19.999999999999929
 21
74.292689271226166
 31
0.0
  0
LINE
  5
972
  8
0
 62
     0
 10
-58.075850488855728
 20
40.706966842904947
 30
0.0
 11
-19.999999999999918
 21
78.782817331760754
 31
0.0
  0
LINE
  5
973
  8
0
 62
     0
 10
-58.075850488855728
 20
45.19709490343952
 30
0.0
 11
-24.334820594611799
 21
78.938124797683457
 31
0.0
  0
LINE
  5
974
  8
0
 62
     0
 10
-58.075850488855721
 20
49.687222963974108
 30
0.0
 11
-28.824948655146368
 21
78.938124797683457
 31
0.0
  0
LINE
  5
975
  8
0
 62
     0
 10
-58.075850488855743
 20
54.177351024508681
 30
0.0
 11
-33.315076715680952
 21
78.938124797683457
 31
0.0
  0
LINE
  5
976
  8
0
 62
     0
 10
-58.075850488855743
 20
58.667479085043247
 30
0.0
 11
-37.805204776215533
 21
78.938124797683457
 31
0.0
  0
LINE
  5
977
  8
0
 62
     0
 10
-58.075850488855743
 20
63.157607145577821
 30
0.0
 11
-42.295332836750099
 21
78.938124797683457
 31
0.0
  0
LINE
  5
978
  8
0
 62
     0
 10
-58.075850488855743
 20
67.647735206112401
 30
0.0
 11
-46.785460897284679
 21
78.938124797683457
 31
0.0
  0
LINE
  5
979
  8
0
 62
     0
 10
-58.075850488855743
 20
72.137863266646974
 30
0.0
 11
-51.275588957819259
 21
78.938124797683457
 31
0.0
  0
LINE
  5
97A
  8
0
 62
     0
 10
-58.075850488855743
 20
76.627991327181547
 30
0.0
 11
-55.765717018353833
 21
78.938124797683457
 31
0.0
  0
ENDBLK
  5
97C
  8
0
  0
BLOCK
  8
0
  2
*U8
 70
     1
 10
0.0
 20
0.0
 30
0.0
  3
*U8
  1

  0
TEXT
  5
A0E
  8
0
 62
     2
 10
223.25694460060811
 20
742.68797400912399
 30
0.0
 40
3.0
  1
50
 50
90.0
  7
BYGG-014554$0$ISO
  0
ENDBLK
  5
A10
  8
0
  0
BLOCK
  8
0
  2
*U9
 70
     1
 10
0.0
 20
0.0
 30
0.0
  3
*U9
  1

  0
TEXT
  5
A12
  8
0
 62
     2
 10
176.95869673732579
 20
712.16043879070753
 30
0.0
 40
3.0
  1
67
  7
BYGG-014554$0$ISO
  0
ENDBLK
  5
A14
  8
0
  0
BLOCK
  8
0
  2
*U10
 70
     1
 10
0.0
 20
0.0
 30
0.0
  3
*U10
  1

  0
TEXT
  5
A3E
  8
0
 62
     2
 10
-10.78801164280986
 20
37.229897423140933
 30
0.0
 40
3.0
  1
50
 50
270.0
  7
BYGG-014554$0$ISO
  0
ENDBLK
  5
A40
  8
0
  0
BLOCK
  8
0
  2
*U11
 70
     1
 10
0.0
 20
0.0
 30
0.0
  3
*U11
  1

  0
TEXT
  5
A42
  8
0
 62
     2
 10
35.510236220472478
 20
0.500000000000004
 30
0.0
 40
3.0
  1
67
 50
180.0
  7
BYGG-014554$0$ISO
  0
ENDBLK
  5
A44
  8
0
  0
ENDSEC
  0
SECTION
  2
ENTITIES
  0
LINE
  5
609
  8
SAPA_ANSLUTNING
 62
     7
 10
-19.999999999999929
 20
78.938124797683457
 30
0.0
 11
-19.999999999999929
 21
-8.7618752023164603
 31
0.0
  0
INSERT
  5
7D1
  8
SAPA_ANSLUTNING
  6
CONTINUOUS
 62
     7
  2
*X7
 10
0.0
 20
0.0
 30
0.0
1001
ACAD
1000
HATCH
1002
{
1070
    19
1000
ANSI31
1040
1.0
1040
0.0
1000
R14_HATCH_DATA
1000
7D1
1011
1.0
1021
0.0
1031
0.0
1021
0.0
1031
0.0
1011
0.0
1021
0.0
1031
0.0
1021
1.0
1031
0.0
1011
0.0
1021
0.0
1031
0.0
1021
0.0
1031
1.0
1040
0.0
1010
0.0
1020
0.0
1030
1.0
1000
ANSI31
1070
     0
1070
     0
1071
        1
1071
        7
1070
     0
1070
     1
1071
        4
1040
-58.075850488855728
1040
-8.4359537594817162
1040
-19.999999999999929
1040
-8.4359537594817198
1040
-19.999999999999929
1040
78.938124797683457
1040
-58.075850488855743
1040
78.938124797683457
1071
        0
1070
     0
1070
     1
1040
0.0
1040
1.0
1070
     0
1070
     1
1040
0.7853981633974483
1040
0.0
1040
0.0
1040
-2.2450640302672871
1040
2.245064030267288
1070
     0
1040
0.2755176818000343
1071
        1
1040
-41.812828215658207
1040
43.636888189765607
1040
0.0
1002
}
  0
POLYLINE
  5
885
  8
SAPA_ANSLUTNING
 66
     1
 10
0.0
 20
0.0
 30
0.0
  0
VERTEX
  5
97D
  8
SAPA_ANSLUTNING
 10
0.0
 20
12.681873261631569
 30
0.0
  0
VERTEX
  5
97E
  8
SAPA_ANSLUTNING
 10
-18.050052736249452
 20
12.681873261631321
 30
0.0
 42
-0.9999989466455055
  0
VERTEX
  5
97F
  8
SAPA_ANSLUTNING
 10
-18.050056949669649
 20
16.681873261627
 30
0.0
  0
VERTEX
  5
980
  8
SAPA_ANSLUTNING
 10
2.89872662524678
 20
16.681873261627
 30
0.0
 42
0.9999999999999998
  0
VERTEX
  5
981
  8
SAPA_ANSLUTNING
 10
2.89872662524678
 20
20.681873261627
 30
0.0
  0
VERTEX
  5
982
  8
SAPA_ANSLUTNING
 10
-18.050059581447869
 20
20.68187326162689
 30
0.0
 42
-0.9999974985601646
  0
VERTEX
  5
983
  8
SAPA_ANSLUTNING
 10
-18.050059581447869
 20
24.681873261614388
 30
0.0
  0
VERTEX
  5
984
  8
SAPA_ANSLUTNING
 10
2.9999999999999778
 20
24.68187326161431
 30
0.0
 42
0.9999999999999998
  0
VERTEX
  5
985
  8
SAPA_ANSLUTNING
 10
2.9999999999999778
 20
28.681873261614349
 30
0.0
  0
VERTEX
  5
986
  8
SAPA_ANSLUTNING
 10
2.0000000000000151
 20
28.681873261614339
 30
0.0
  0
SEQEND
  5
987
  8
SAPA_ANSLUTNING
  0
POLYLINE
  5
88B
  8
SAPA_ANSLUTNING
 66
     1
 10
0.0
 20
0.0
 30
0.0
  0
VERTEX
  5
988
  8
SAPA_ANSLUTNING
 10
1.9999999999999889
 20
40.681873261605183
 30
0.0
  0
VERTEX
  5
989
  8
SAPA_ANSLUTNING
 10
2.9562477900080628
 20
40.681873261605183
 30
0.0
 42
0.9999999999999998
  0
VERTEX
  5
98A
  8
SAPA_ANSLUTNING
 10
2.9562477900080628
 20
44.681873261605169
 30
0.0
  0
VERTEX
  5
98B
  8
SAPA_ANSLUTNING
 10
-18.050059581447869
 20
44.681873261605062
 30
0.0
 42
-0.9999974985601646
  0
VERTEX
  5
98C
  8
SAPA_ANSLUTNING
 10
-18.050059581447869
 20
48.68187326159255
 30
0.0
  0
VERTEX
  5
98D
  8
SAPA_ANSLUTNING
 10
3.0000000000000031
 20
48.681873261592472
 30
0.0
 42
0.9999999999999998
  0
VERTEX
  5
98E
  8
SAPA_ANSLUTNING
 10
3.0000000000000031
 20
52.681873261592521
 30
0.0
  0
VERTEX
  5
98F
  8
SAPA_ANSLUTNING
 10
-18.050056949669649
 20
52.681873261592443
 30
0.0
 42
-0.9999989466455052
  0
VERTEX
  5
990
  8
SAPA_ANSLUTNING
 10
-18.050052736249452
 20
56.681873261588123
 30
0.0
  0
VERTEX
  5
991
  8
SAPA_ANSLUTNING
 10
-1.7152819839364211
 20
56.681873261587903
 30
0.0
 42
0.2635240997481427
  0
VERTEX
  5
992
  8
SAPA_ANSLUTNING
 10
0.0000000000000577
 20
57.653375465973859
 30
0.0
  0
SEQEND
  5
993
  8
SAPA_ANSLUTNING
  0
POLYLINE
  5
88C
  8
SAPA_ANSLUTNING
 66
     1
 10
0.0
 20
0.0
 30
0.0
  0
VERTEX
  5
994
  8
SAPA_ANSLUTNING
 10
0.4468430591643826
 20
28.681873261614339
 30
0.0
  0
VERTEX
  5
995
  8
SAPA_ANSLUTNING
 10
-18.050056949669649
 20
28.681873261614271
 30
0.0
 42
-0.9999989466455052
  0
VERTEX
  5
996
  8
SAPA_ANSLUTNING
 10
-18.050052736249452
 20
32.681873261609951
 30
0.0
  0
VERTEX
  5
997
  8
SAPA_ANSLUTNING
 10
-1.7152819839364211
 20
32.681873261609731
 30
0.0
 42
0.9999999999999998
  0
VERTEX
  5
998
  8
SAPA_ANSLUTNING
 10
-1.7152819839364211
 20
36.681873261609717
 30
0.0
  0
VERTEX
  5
999
  8
SAPA_ANSLUTNING
 10
-18.050052736249452
 20
36.681873261609503
 30
0.0
 42
-0.9999989466455055
  0
VERTEX
  5
99A
  8
SAPA_ANSLUTNING
 10
-18.050056949669649
 20
40.681873261605183
 30
0.0
  0
VERTEX
  5
99B
  8
SAPA_ANSLUTNING
 10
0.2000000000000455
 20
40.681873261605183
 30
0.0
  0
SEQEND
  5
99C
  8
SAPA_ANSLUTNING
  0
POLYLINE
  5
898
  8
SAPA_ANSLUTNING
 62
     7
 66
     1
 10
0.0
 20
0.0
 30
0.0
 70
     1
  0
VERTEX
  5
99D
  8
SAPA_ANSLUTNING
 62
     7
 10
-17.984024859920339
 20
60.3696500612092
 30
0.0
  0
VERTEX
  5
99E
  8
SAPA_ANSLUTNING
 62
     7
 10
22.864941591547559
 20
60.3696500612092
 30
0.0
  0
VERTEX
  5
99F
  8
SAPA_ANSLUTNING
 62
     7
 10
22.864941591547559
 20
61.8696500612092
 30
0.0
  0
VERTEX
  5
9A0
  8
SAPA_ANSLUTNING
 62
     7
 10
-16.727592292173249
 20
61.8696500612092
 30
0.0
  0
VERTEX
  5
9A1
  8
SAPA_ANSLUTNING
 62
     7
 10
-18.42049414025422
 20
71.374070262072905
 30
0.0
  0
VERTEX
  5
9A2
  8
SAPA_ANSLUTNING
 62
     7
 10
-19.897251411525701
 20
71.111034215594714
 30
0.0
  0
SEQEND
  5
9A3
  8
SAPA_ANSLUTNING
 62
     7
  0
POLYLINE
  5
899
  8
SAPA_ANSLUTNING
 62
     7
 66
     1
 10
0.0
 20
0.0
 30
0.0
 70
     1
  0
VERTEX
  5
9A4
  8
SAPA_ANSLUTNING
 62
     7
 10
-17.984024859920339
 20
9.8877825803482438
 30
0.0
  0
VERTEX
  5
9A5
  8
SAPA_ANSLUTNING
 62
     7
 10
22.864941591547559
 20
9.8877825803482438
 30
0.0
  0
VERTEX
  5
9A6
  8
SAPA_ANSLUTNING
 62
     7
 10
22.864941591547559
 20
8.3877825803482438
 30
0.0
  0
VERTEX
  5
9A7
  8
SAPA_ANSLUTNING
 62
     7
 10
-16.727592292173249
 20
8.3877825803482438
 30
0.0
  0
VERTEX
  5
9A8
  8
SAPA_ANSLUTNING
 62
     7
 10
-18.42049414025422
 20
-1.116637620515462
 30
0.0
  0
VERTEX
  5
9A9
  8
SAPA_ANSLUTNING
 62
     7
 10
-19.897251411525701
 20
-0.8536015740372704
 30
0.0
  0
SEQEND
  5
9AA
  8
SAPA_ANSLUTNING
 62
     7
  0
POLYLINE
  5
94A
  8
SAPA_PROFIL
 66
     1
 10
0.0
 20
0.0
 30
0.0
 70
     1
  0
VERTEX
  5
AA7
  8
SAPA_PROFIL
 10
67.0
 20
14.32871632077854
 30
0.0
 42
0.4142135623730951
  0
VERTEX
  5
AA8
  8
SAPA_PROFIL
 10
66.700000000000045
 20
14.62871632077861
 30
0.0
  0
VERTEX
  5
AA9
  8
SAPA_PROFIL
 10
65.490000000000009
 20
14.62871632077872
 30
0.0
 42
0.4142135623730951
  0
VERTEX
  5
AAA
  8
SAPA_PROFIL
 10
64.5
 20
13.638716320778711
 30
0.0
  0
VERTEX
  5
AAB
  8
SAPA_PROFIL
 10
64.5
 20
13.62871632077872
 30
0.0
  0
VERTEX
  5
AAC
  8
SAPA_PROFIL
 10
65.75
 20
13.62871632077872
 30
0.0
  0
VERTEX
  5
AAD
  8
SAPA_PROFIL
 10
65.75
 20
12.12871632077872
 30
0.0
 42
-0.4142135623730951
  0
VERTEX
  5
AAE
  8
SAPA_PROFIL
 10
65.25
 20
11.62871632077872
 30
0.0
  0
VERTEX
  5
AAF
  8
SAPA_PROFIL
 10
57.25
 20
11.62871632077872
 30
0.0
 42
-0.4142135623730951
  0
VERTEX
  5
AB0
  8
SAPA_PROFIL
 10
56.75
 20
12.12871632077872
 30
0.0
  0
VERTEX
  5
AB1
  8
SAPA_PROFIL
 10
56.75
 20
13.62871632077872
 30
0.0
  0
VERTEX
  5
AB2
  8
SAPA_PROFIL
 10
58.0
 20
13.62871632077872
 30
0.0
  0
VERTEX
  5
AB3
  8
SAPA_PROFIL
 10
58.0
 20
13.638716320778711
 30
0.0
 42
0.4142135623730951
  0
VERTEX
  5
AB4
  8
SAPA_PROFIL
 10
57.009999999999991
 20
14.62871632077872
 30
0.0
  0
VERTEX
  5
AB5
  8
SAPA_PROFIL
 10
56.490000000000002
 20
14.62871632077872
 30
0.0
 42
0.4142135623730951
  0
VERTEX
  5
AB6
  8
SAPA_PROFIL
 10
55.5
 20
13.638716320778711
 30
0.0
  0
VERTEX
  5
AB7
  8
SAPA_PROFIL
 10
55.500000000000057
 20
12.428716320778671
 30
0.0
 42
-0.4142135623730951
  0
VERTEX
  5
AB8
  8
SAPA_PROFIL
 10
55.000000000000057
 20
11.928716320778671
 30
0.0
  0
VERTEX
  5
AB9
  8
SAPA_PROFIL
 10
53.0
 20
11.928716320778671
 30
0.0
 42
-0.4142135623730951
  0
VERTEX
  5
ABA
  8
SAPA_PROFIL
 10
52.5
 20
12.428716320778671
 30
0.0
  0
VERTEX
  5
ABB
  8
SAPA_PROFIL
 10
52.500000000000057
 20
50.928716320778669
 30
0.0
 42
-0.4142135623730951
  0
VERTEX
  5
ABC
  8
SAPA_PROFIL
 10
53.000000000000057
 20
51.428716320778669
 30
0.0
  0
VERTEX
  5
ABD
  8
SAPA_PROFIL
 10
54.500000000000057
 20
51.428716320778669
 30
0.0
 42
0.4142135623730951
  0
VERTEX
  5
ABE
  8
SAPA_PROFIL
 10
55.000000000000057
 20
51.928716320778669
 30
0.0
  0
VERTEX
  5
ABF
  8
SAPA_PROFIL
 10
55.000000000000057
 20
52.128716320778601
 30
0.0
 42
0.4142135623730951
  0
VERTEX
  5
AC0
  8
SAPA_PROFIL
 10
54.00000000000005
 20
53.128716320778608
 30
0.0
  0
VERTEX
  5
AC1
  8
SAPA_PROFIL
 10
46.00000000000005
 20
53.128716320778608
 30
0.0
 42
-0.4142135623730951
  0
VERTEX
  5
AC2
  8
SAPA_PROFIL
 10
45.000000000000057
 20
54.128716320778608
 30
0.0
  0
VERTEX
  5
AC3
  8
SAPA_PROFIL
 10
45.000000000000057
 20
59.628716320778601
 30
0.0
 42
0.4142135623730951
  0
VERTEX
  5
AC4
  8
SAPA_PROFIL
 10
44.50000000000005
 20
60.128716320778601
 30
0.0
  0
VERTEX
  5
AC5
  8
SAPA_PROFIL
 10
0.0000000000000568
 20
60.128716320778722
 30
0.0
  0
VERTEX
  5
AC6
  8
SAPA_PROFIL
 10
0.0000000000000568
 20
57.128716320778722
 30
0.0
  0
VERTEX
  5
AC7
  8
SAPA_PROFIL
 10
1.000000000000056
 20
56.128716320778722
 30
0.0
  0
VERTEX
  5
AC8
  8
SAPA_PROFIL
 10
2.000000000000056
 20
56.128716320778722
 30
0.0
  0
VERTEX
  5
AC9
  8
SAPA_PROFIL
 10
2.000000000000056
 20
58.328716320778653
 30
0.0
  0
VERTEX
  5
ACA
  8
SAPA_PROFIL
 10
5.000000000000056
 20
58.328716320778653
 30
0.0
  0
VERTEX
  5
ACB
  8
SAPA_PROFIL
 10
5.0
 20
39.628716320778722
 30
0.0
  0
VERTEX
  5
ACC
  8
SAPA_PROFIL
 10
2.0
 20
39.628716320778722
 30
0.0
  0
VERTEX
  5
ACD
  8
SAPA_PROFIL
 10
2.0
 20
42.128716320778722
 30
0.0
  0
VERTEX
  5
ACE
  8
SAPA_PROFIL
 10
1.0
 20
42.128716320778722
 30
0.0
  0
VERTEX
  5
ACF
  8
SAPA_PROFIL
 10
0.2000000000000455
 20
41.328716320778653
 30
0.0
  0
VERTEX
  5
AD0
  8
SAPA_PROFIL
 10
0.2000000000000455
 20
35.648331563049403
 30
0.0
  0
VERTEX
  5
AD1
  8
SAPA_PROFIL
 10
0.5
 20
35.128716320778722
 30
0.0
  0
VERTEX
  5
AD2
  8
SAPA_PROFIL
 10
0.2000000000000455
 20
34.609101078508047
 30
0.0
  0
VERTEX
  5
AD3
  8
SAPA_PROFIL
 10
0.2000000000000455
 20
28.92871632077868
 30
0.0
  0
VERTEX
  5
AD4
  8
SAPA_PROFIL
 10
1.0
 20
28.128716320778722
 30
0.0
  0
VERTEX
  5
AD5
  8
SAPA_PROFIL
 10
2.0
 20
28.128716320778722
 30
0.0
  0
VERTEX
  5
AD6
  8
SAPA_PROFIL
 10
2.0
 20
30.628716320778722
 30
0.0
  0
VERTEX
  5
AD7
  8
SAPA_PROFIL
 10
5.0
 20
30.628716320778722
 30
0.0
  0
VERTEX
  5
AD8
  8
SAPA_PROFIL
 10
5.0
 20
11.928716320778671
 30
0.0
  0
VERTEX
  5
AD9
  8
SAPA_PROFIL
 10
2.0
 20
11.928716320778671
 30
0.0
  0
VERTEX
  5
ADA
  8
SAPA_PROFIL
 10
2.0
 20
14.12871632077872
 30
0.0
  0
VERTEX
  5
ADB
  8
SAPA_PROFIL
 10
1.0
 20
14.12871632077872
 30
0.0
  0
VERTEX
  5
ADC
  8
SAPA_PROFIL
 10
0.0
 20
13.12871632077872
 30
0.0
  0
VERTEX
  5
ADD
  8
SAPA_PROFIL
 10
0.0
 20
10.12871632077872
 30
0.0
  0
VERTEX
  5
ADE
  8
SAPA_PROFIL
 10
66.700000000000045
 20
10.12871632077861
 30
0.0
 42
0.4142135623730951
  0
VERTEX
  5
ADF
  8
SAPA_PROFIL
 10
67.000000000000057
 20
10.428716320778671
 30
0.0
  0
SEQEND
  5
AE0
  8
SAPA_PROFIL
  0
POLYLINE
  5
94B
  8
SAPA_PROFIL
 66
     1
 10
0.0
 20
0.0
 30
0.0
 70
     1
  0
VERTEX
  5
AE1
  8
SAPA_PROFIL
 10
7.5000000000000284
 20
26.915435596418099
 30
0.0
  0
VERTEX
  5
AE2
  8
SAPA_PROFIL
 10
7.5
 20
32.928716320778683
 30
0.0
 42
0.4142135623730941
  0
VERTEX
  5
AE3
  8
SAPA_PROFIL
 10
6.9000000000000048
 20
33.528716320778699
 30
0.0
  0
VERTEX
  5
AE4
  8
SAPA_PROFIL
 10
6.4000000000000341
 20
33.528716320778699
 30
0.0
 42
0.4142135623730951
  0
VERTEX
  5
AE5
  8
SAPA_PROFIL
 10
5.8000000000000389
 20
32.928716320778683
 30
0.0
  0
VERTEX
  5
AE6
  8
SAPA_PROFIL
 10
5.8000000000000682
 20
32.873716320778612
 30
0.0
 42
-0.4142135623730866
  0
VERTEX
  5
AE7
  8
SAPA_PROFIL
 10
5.3050000000000628
 20
32.378716320778722
 30
0.0
  0
VERTEX
  5
AE8
  8
SAPA_PROFIL
 10
4.5
 20
32.378716320778722
 30
0.0
 42
-0.3747564601179694
  0
VERTEX
  5
AE9
  8
SAPA_PROFIL
 10
1.7756049567639129
 20
34.754321277542211
 30
0.0
  0
VERTEX
  5
AEA
  8
SAPA_PROFIL
 10
2.150000000000432
 20
35.128716320778722
 30
0.0
  0
VERTEX
  5
AEB
  8
SAPA_PROFIL
 10
1.7756049567656189
 20
35.503111364014899
 30
0.0
 42
-0.374756460117968
  0
VERTEX
  5
AEC
  8
SAPA_PROFIL
 10
4.5
 20
37.878716320778722
 30
0.0
  0
VERTEX
  5
AED
  8
SAPA_PROFIL
 10
5.3050000000000628
 20
37.878716320778722
 30
0.0
 42
-0.4142135623730866
  0
VERTEX
  5
AEE
  8
SAPA_PROFIL
 10
5.8000000000000682
 20
37.383716320778717
 30
0.0
  0
VERTEX
  5
AEF
  8
SAPA_PROFIL
 10
5.8000000000000957
 20
37.328716320778767
 30
0.0
 42
0.4142135623730951
  0
VERTEX
  5
AF0
  8
SAPA_PROFIL
 10
6.4000000000000901
 20
36.728716320778751
 30
0.0
  0
VERTEX
  5
AF1
  8
SAPA_PROFIL
 10
6.9000000000000048
 20
36.728716320778751
 30
0.0
 42
0.414213562373096
  0
VERTEX
  5
AF2
  8
SAPA_PROFIL
 10
7.5
 20
37.328716320778767
 30
0.0
  0
VERTEX
  5
AF3
  8
SAPA_PROFIL
 10
7.4999999999999707
 20
43.341997045139351
 30
0.0
  0
VERTEX
  5
AF4
  8
SAPA_PROFIL
 10
6.8000000000000957
 20
43.603716320778737
 30
0.0
  0
VERTEX
  5
AF5
  8
SAPA_PROFIL
 10
6.8000000000001251
 20
48.609101078508047
 30
0.0
  0
VERTEX
  5
AF6
  8
SAPA_PROFIL
 10
6.5000000000001128
 20
49.128716320778722
 30
0.0
  0
VERTEX
  5
AF7
  8
SAPA_PROFIL
 10
6.8000000000001251
 20
49.648331563049403
 30
0.0
  0
VERTEX
  5
AF8
  8
SAPA_PROFIL
 10
6.8000000000001251
 20
57.328716320778653
 30
0.0
 42
-0.4142135623730951
  0
VERTEX
  5
AF9
  8
SAPA_PROFIL
 10
7.8000000000001251
 20
58.328716320778653
 30
0.0
  0
VERTEX
  5
AFA
  8
SAPA_PROFIL
 10
42.700000000000102
 20
58.328716320778653
 30
0.0
 42
-0.4142135623730951
  0
VERTEX
  5
AFB
  8
SAPA_PROFIL
 10
43.200000000000102
 20
57.828716320778653
 30
0.0
  0
VERTEX
  5
AFC
  8
SAPA_PROFIL
 10
43.200000000000102
 20
52.428716320778683
 30
0.0
 42
0.4142135623730951
  0
VERTEX
  5
AFD
  8
SAPA_PROFIL
 10
44.200000000000102
 20
51.428716320778669
 30
0.0
  0
VERTEX
  5
AFE
  8
SAPA_PROFIL
 10
49.000000000000171
 20
51.428716320778562
 30
0.0
 42
-0.4142135623730951
  0
VERTEX
  5
AFF
  8
SAPA_PROFIL
 10
50.000000000000171
 20
50.428716320778562
 30
0.0
  0
VERTEX
  5
B00
  8
SAPA_PROFIL
 10
50.000000000000107
 20
12.928716320778671
 30
0.0
 42
-0.4142135623730951
  0
VERTEX
  5
B01
  8
SAPA_PROFIL
 10
49.000000000000107
 20
11.928716320778671
 30
0.0
  0
VERTEX
  5
B02
  8
SAPA_PROFIL
 10
7.8000000000000682
 20
11.928716320778671
 30
0.0
 42
-0.4142135623730951
  0
VERTEX
  5
B03
  8
SAPA_PROFIL
 10
6.8000000000000682
 20
12.928716320778671
 30
0.0
  0
VERTEX
  5
B04
  8
SAPA_PROFIL
 10
6.8000000000000682
 20
20.60910107850793
 30
0.0
  0
VERTEX
  5
B05
  8
SAPA_PROFIL
 10
6.5
 20
21.128716320778722
 30
0.0
  0
VERTEX
  5
B06
  8
SAPA_PROFIL
 10
6.8000000000000682
 20
21.6483315630494
 30
0.0
  0
VERTEX
  5
B07
  8
SAPA_PROFIL
 10
6.8000000000000682
 20
26.653716320778699
 30
0.0
  0
SEQEND
  5
B08
  8
SAPA_PROFIL
  0
ENDSEC
  0
EOF
